  0
SECTION
  2
HEADER
  9
$ACADVER
  1
AC1015
  9
$ACADMAINTVER
 70
    20
  9
$DWGCODEPAGE
  3
ANSI_932
  9
$INSBASE
 10
0.0
 20
0.0
 30
0.0
  9
$EXTMIN
 10
-281.25
 20
-195.0
 30
0.0
  9
$EXTMAX
 10
283.9503980228688
 20
195.5
 30
0.0
  9
$LIMMIN
 10
-281.25
 20
-195.0
  9
$LIMMAX
 10
285.5999879837036
 20
195.5
  9
$ORTHOMODE
 70
     0
  9
$REGENMODE
 70
     1
  9
$FILLMODE
 70
     1
  9
$QTEXTMODE
 70
     0
  9
$MIRRTEXT
 70
     1
  9
$LTSCALE
 40
1.0
  9
$ATTMODE
 70
     1
  9
$TEXTSIZE
 40
3.200000047683715
  9
$TRACEWID
 40
0.05
  9
$TEXTSTYLE
  7
MX_NOTE_STANDARD
  9
$CLAYER
  8
0
  9
$CELTYPE
  6
CONTINUOUS
  9
$CECOLOR
 62
   256
  9
$CELTSCALE
 40
1.0
  9
$DISPSILH
 70
     0
  9
$DIMSCALE
 40
1.0
  9
$DIMASZ
 40
2.5
  9
$DIMEXO
 40
1.5
  9
$DIMDLI
 40
3.75
  9
$DIMRND
 40
0.0
  9
$DIMDLE
 40
0.0
  9
$DIMEXE
 40
1.5
  9
$DIMTP
 40
0.0
  9
$DIMTM
 40
0.0
  9
$DIMTXT
 40
3.200000047683715
  9
$DIMCEN
 40
2.5
  9
$DIMTSZ
 40
0.0
  9
$DIMTOL
 70
     0
  9
$DIMLIM
 70
     0
  9
$DIMTIH
 70
     0
  9
$DIMTOH
 70
     0
  9
$DIMSE1
 70
     0
  9
$DIMSE2
 70
     0
  9
$DIMTAD
 70
     1
  9
$DIMZIN
 70
     8
  9
$DIMBLK
  1

  9
$DIMASO
 70
     1
  9
$DIMSHO
 70
     1
  9
$DIMPOST
  1

  9
$DIMAPOST
  1

  9
$DIMALT
 70
     0
  9
$DIMALTD
 70
     4
  9
$DIMALTF
 40
0.03937007874016
  9
$DIMLFAC
 40
1.0
  9
$DIMTOFL
 70
     1
  9
$DIMTVP
 40
0.0
  9
$DIMTIX
 70
     0
  9
$DIMSOXD
 70
     0
  9
$DIMSAH
 70
     0
  9
$DIMBLK1
  1

  9
$DIMBLK2
  1

  9
$DIMSTYLE
  2
MXDIMSTYLE
  9
$DIMCLRD
 70
     0
  9
$DIMCLRE
 70
     0
  9
$DIMCLRT
 70
     0
  9
$DIMTFAC
 40
1.0
  9
$DIMGAP
 40
1.0
  9
$DIMJUST
 70
     0
  9
$DIMSD1
 70
     0
  9
$DIMSD2
 70
     0
  9
$DIMTOLJ
 70
     1
  9
$DIMTZIN
 70
     0
  9
$DIMALTZ
 70
     0
  9
$DIMALTTZ
 70
     0
  9
$DIMUPT
 70
     1
  9
$DIMDEC
 70
     4
  9
$DIMTDEC
 70
     4
  9
$DIMALTU
 70
     2
  9
$DIMALTTD
 70
     4
  9
$DIMTXSTY
  7
MX_NOTE_STANDARD
  9
$DIMAUNIT
 70
     0
  9
$DIMADEC
 70
     0
  9
$DIMALTRND
 40
0.0
  9
$DIMAZIN
 70
     0
  9
$DIMDSEP
 70
    46
  9
$DIMATFIT
 70
     3
  9
$DIMFRAC
 70
     0
  9
$DIMLDRBLK
  1

  9
$DIMLUNIT
 70
     2
  9
$DIMLWD
 70
    -2
  9
$DIMLWE
 70
    -2
  9
$DIMTMOVE
 70
     0
  9
$LUNITS
 70
     2
  9
$LUPREC
 70
     4
  9
$SKETCHINC
 40
0.1
  9
$FILLETRAD
 40
0.0
  9
$AUNITS
 70
     0
  9
$AUPREC
 70
     0
  9
$MENU
  1
acad
  9
$ELEVATION
 40
0.0
  9
$PELEVATION
 40
0.0
  9
$THICKNESS
 40
0.0
  9
$LIMCHECK
 70
     0
  9
$CHAMFERA
 40
0.0
  9
$CHAMFERB
 40
0.0
  9
$CHAMFERC
 40
0.0
  9
$CHAMFERD
 40
0.0
  9
$SKPOLY
 70
     0
  9
$TDCREATE
 40
2453510.799872685
  9
$TDUCREATE
 40
2453510.424872686
  9
$TDUPDATE
 40
2454034.804148507
  9
$TDUUPDATE
 40
2454034.429148507
  9
$TDINDWG
 40
0.0004600231
  9
$TDUSRTIMER
 40
0.0004600231
  9
$USRTIMER
 70
     1
  9
$ANGBASE
 50
0.0
  9
$ANGDIR
 70
     0
  9
$PDMODE
 70
     0
  9
$PDSIZE
 40
0.0
  9
$PLINEWID
 40
0.0
  9
$SPLFRAME
 70
     0
  9
$SPLINETYPE
 70
     6
  9
$SPLINESEGS
 70
     8
  9
$HANDSEED
  5
33E
  9
$SURFTAB1
 70
     6
  9
$SURFTAB2
 70
     6
  9
$SURFTYPE
 70
     6
  9
$SURFU
 70
     6
  9
$SURFV
 70
     6
  9
$UCSBASE
  2

  9
$UCSNAME
  2

  9
$UCSORG
 10
0.0
 20
0.0
 30
0.0
  9
$UCSXDIR
 10
1.0
 20
0.0
 30
0.0
  9
$UCSYDIR
 10
0.0
 20
1.0
 30
0.0
  9
$UCSORTHOREF
  2

  9
$UCSORTHOVIEW
 70
     0
  9
$UCSORGTOP
 10
0.0
 20
0.0
 30
0.0
  9
$UCSORGBOTTOM
 10
0.0
 20
0.0
 30
0.0
  9
$UCSORGLEFT
 10
0.0
 20
0.0
 30
0.0
  9
$UCSORGRIGHT
 10
0.0
 20
0.0
 30
0.0
  9
$UCSORGFRONT
 10
0.0
 20
0.0
 30
0.0
  9
$UCSORGBACK
 10
0.0
 20
0.0
 30
0.0
  9
$PUCSBASE
  2

  9
$PUCSNAME
  2

  9
$PUCSORG
 10
0.0
 20
0.0
 30
0.0
  9
$PUCSXDIR
 10
1.0
 20
0.0
 30
0.0
  9
$PUCSYDIR
 10
0.0
 20
1.0
 30
0.0
  9
$PUCSORTHOREF
  2

  9
$PUCSORTHOVIEW
 70
     0
  9
$PUCSORGTOP
 10
0.0
 20
0.0
 30
0.0
  9
$PUCSORGBOTTOM
 10
0.0
 20
0.0
 30
0.0
  9
$PUCSORGLEFT
 10
0.0
 20
0.0
 30
0.0
  9
$PUCSORGRIGHT
 10
0.0
 20
0.0
 30
0.0
  9
$PUCSORGFRONT
 10
0.0
 20
0.0
 30
0.0
  9
$PUCSORGBACK
 10
0.0
 20
0.0
 30
0.0
  9
$USERI1
 70
     0
  9
$USERI2
 70
     0
  9
$USERI3
 70
     0
  9
$USERI4
 70
     0
  9
$USERI5
 70
     0
  9
$USERR1
 40
0.0
  9
$USERR2
 40
0.0
  9
$USERR3
 40
0.0
  9
$USERR4
 40
0.0
  9
$USERR5
 40
0.0
  9
$WORLDVIEW
 70
     1
  9
$SHADEDGE
 70
     3
  9
$SHADEDIF
 70
    70
  9
$TILEMODE
 70
     1
  9
$MAXACTVP
 70
    16
  9
$PINSBASE
 10
0.0
 20
0.0
 30
0.0
  9
$PLIMCHECK
 70
     0
  9
$PEXTMIN
 10
1.000000000000000E+20
 20
1.000000000000000E+20
 30
1.000000000000000E+20
  9
$PEXTMAX
 10
-1.000000000000000E+20
 20
-1.000000000000000E+20
 30
-1.000000000000000E+20
  9
$PLIMMIN
 10
0.0
 20
0.0
  9
$PLIMMAX
 10
12.0
 20
9.0
  9
$UNITMODE
 70
     0
  9
$VISRETAIN
 70
     0
  9
$PLINEGEN
 70
     1
  9
$PSLTSCALE
 70
     0
  9
$TREEDEPTH
 70
  3020
  9
$CMLSTYLE
  2
STANDARD
  9
$CMLJUST
 70
     0
  9
$CMLSCALE
 40
1.0
  9
$PROXYGRAPHICS
 70
     1
  9
$MEASUREMENT
 70
     0
  9
$CELWEIGHT
370
    -1
  9
$ENDCAPS
280
     0
  9
$JOINSTYLE
280
     0
  9
$LWDISPLAY
290
     0
  9
$INSUNITS
 70
     0
  9
$HYPERLINKBASE
  1

  9
$STYLESHEET
  1

  9
$XEDIT
290
     1
  9
$CEPSNTYPE
380
     0
  9
$PSTYLEMODE
290
     1
  9
$FINGERPRINTGUID
  2
{F4128338-9090-40E9-A545-3EA1D1996D61}
  9
$VERSIONGUID
  2
{80BDCAE0-4F7D-40DF-9382-56A8A953CF95}
  9
$EXTNAMES
290
     1
  9
$PSVPSCALE
 40
0.0
  9
$OLESTARTUP
290
     0
  0
ENDSEC
  0
SECTION
  2
CLASSES
  0
CLASS
  1
IMAGE
  2
AcDbRasterImage
  3
ISM
 90
    32895
280
     0
281
     1
  0
CLASS
  1
DICTIONARYVAR
  2
AcDbDictionaryVar
  3
ObjectDBX Classes
 90
        0
280
     0
281
     0
  0
CLASS
  1
RASTERVARIABLES
  2
AcDbRasterVariables
  3
ISM
 90
    32768
280
     0
281
     0
  0
CLASS
  1
IMAGEDEF
  2
AcDbRasterImageDef
  3
ISM
 90
    32768
280
     0
281
     0
  0
CLASS
  1
IMAGEDEF_REACTOR
  2
AcDbRasterImageDefReactor
  3
ISM
 90
    32769
280
     0
281
     0
  0
CLASS
  1
IDBUFFER
  2
AcDbIdBuffer
  3
ObjectDBX Classes
 90
    32768
280
     0
281
     0
  0
CLASS
  1
SPATIAL_FILTER
  2
AcDbSpatialFilter
  3
ObjectDBX Classes
 90
    32768
280
     0
281
     0
  0
CLASS
  1
SORTENTSTABLE
  2
AcDbSortentsTable
  3
ObjectDBX Classes
 90
    32768
280
     0
281
     0
  0
CLASS
  1
LAYER_INDEX
  2
AcDbLayerIndex
  3
ObjectDBX Classes
 90
    32768
280
     0
281
     0
  0
CLASS
  1
SPATIAL_INDEX
  2
AcDbSpatialIndex
  3
ObjectDBX Classes
 90
    32768
280
     0
281
     0
  0
CLASS
  1
OBJECT_PTR
  2
CAseDLPNTableRecord
  3
"ASE-LPNTableRecord"
 90
    32768
280
     0
281
     0
  0
CLASS
  1
LAYOUT
  2
AcDbLayout
  3
ObjectDBX Classes
 90
        0
280
     0
281
     0
  0
CLASS
  1
PLOTSETTINGS
  2
AcDbPlotSettings
  3
ObjectDBX Classes
 90
    32768
280
     0
281
     0
  0
CLASS
  1
ACDBDICTIONARYWDFLT
  2
AcDbDictionaryWithDefault
  3
ObjectDBX Classes
 90
        0
280
     0
281
     0
  0
CLASS
  1
ACDBPLACEHOLDER
  2
AcDbPlaceHolder
  3
ObjectDBX Classes
 90
        0
280
     0
281
     0
  0
CLASS
  1
TABLESTYLE
  2
AcDbTableStyle
  3
ObjectDBX Classes
 90
     2047
280
     0
281
     0
  0
ENDSEC
  0
SECTION
  2
TABLES
  0
TABLE
  2
VPORT
  5
7
330
0
100
AcDbSymbolTable
 70
     2
  0
VPORT
  5
338
330
7
100
AcDbSymbolTableRecord
100
AcDbViewportTableRecord
  2
*Active
 70
     0
 10
0.0
 20
0.0
 11
1.0
 21
1.0
 12
2.174993991851863
 22
64.08617879894894
 13
0.0
 23
0.0
 14
1.0
 24
1.0
 15
0.0
 25
0.0
 16
0.0
 26
0.0
 36
1.0
 17
0.0
 27
0.0
 37
0.0
 40
522.0773575978978
 41
1.308483290488431
 42
50.0
 43
0.0
 44
0.0
 50
0.0
 51
0.0
 71
     0
 72
   100
 73
     1
 74
     1
 75
     0
 76
     0
 77
     0
 78
     0
281
     0
 65
     1
110
0.0
120
0.0
130
0.0
111
1.0
121
0.0
131
0.0
112
0.0
122
1.0
132
0.0
 79
     0
146
0.0
  0
ENDTAB
  0
TABLE
  2
LTYPE
  5
4
330
0
100
AcDbSymbolTable
 70
     3
  0
LTYPE
  5
11
330
4
100
AcDbSymbolTableRecord
100
AcDbLinetypeTableRecord
  2
BYBLOCK
 70
     0
  3

 72
    65
 73
     0
 40
0.0
  0
LTYPE
  5
12
330
4
100
AcDbSymbolTableRecord
100
AcDbLinetypeTableRecord
  2
BYLAYER
 70
     0
  3

 72
    65
 73
     0
 40
0.0
  0
LTYPE
  5
13
330
4
100
AcDbSymbolTableRecord
100
AcDbLinetypeTableRecord
  2
CONTINUOUS
 70
     0
  3
Solid line
 72
    65
 73
     0
 40
0.0
  0
LTYPE
  5
C3
330
4
100
AcDbSymbolTableRecord
100
AcDbLinetypeTableRecord
  2
PHANTOM
 70
     0
  3
Phantom ______  __  __  ______  __  __  ______
 72
    65
 73
     6
 40
30.0
 49
20.0
 74
     0
 49
-2.0
 74
     0
 49
2.0
 74
     0
 49
-2.0
 74
     0
 49
2.0
 74
     0
 49
-2.0
 74
     0
  0
LTYPE
  5
179
330
4
100
AcDbSymbolTableRecord
100
AcDbLinetypeTableRecord
  2
CENTER
 70
     0
  3
Center ____ _ ____ _ ____ _ ____ _ ____ _ ____
 72
    65
 73
     4
 40
26.0
 49
20.0
 74
     0
 49
-2.0
 74
     0
 49
2.0
 74
     0
 49
-2.0
 74
     0
  0
ENDTAB
  0
TABLE
  2
LAYER
  5
2
330
0
100
AcDbSymbolTable
 70
     2
  0
LAYER
  5
14
330
2
100
AcDbSymbolTableRecord
100
AcDbLayerTableRecord
  2
0
 70
     0
 62
     7
  6
CONTINUOUS
370
    -3
390
328
  0
LAYER
  5
1D
330
2
100
AcDbSymbolTableRecord
100
AcDbLayerTableRecord
  2
DEFPOINTS
 70
     0
 62
     7
  6
CONTINUOUS
290
     0
370
    -3
390
328
  0
ENDTAB
  0
TABLE
  2
STYLE
  5
3
330
0
100
AcDbSymbolTable
 70
     2
  0
STYLE
  5
17
330
3
100
AcDbSymbolTableRecord
100
AcDbTextStyleTableRecord
  2
MX_NOTE_STANDARD
 70
     0
 40
0.0
 41
1.0
 50
0.0
 71
     0
 42
3.200000047683715
  3
txt.shx
  4
extfont.shx
  0
STYLE
  5
326
330
3
100
AcDbSymbolTableRecord
100
AcDbTextStyleTableRecord
  2
Standard
 70
     0
 40
0.0
 41
1.0
 50
0.0
 71
     0
 42
0.2
  3

  4

  0
ENDTAB
  0
TABLE
  2
VIEW
  5
5
330
0
100
AcDbSymbolTable
 70
     0
  0
ENDTAB
  0
TABLE
  2
UCS
  5
6
330
0
100
AcDbSymbolTable
 70
     0
  0
ENDTAB
  0
TABLE
  2
APPID
  5
8
330
0
100
AcDbSymbolTable
 70
     1
  0
APPID
  5
16
330
8
100
AcDbSymbolTableRecord
100
AcDbRegAppTableRecord
  2
ACAD
 70
     0
  0
ENDTAB
  0
TABLE
  2
DIMSTYLE
  5
9
330
0
100
AcDbSymbolTable
 70
     1
100
AcDbDimStyleTable
 71
     0
  0
DIMSTYLE
105
18
330
9
100
AcDbSymbolTableRecord
100
AcDbDimStyleTableRecord
  2
MXDIMSTYLE
 70
     0
 41
2.5
 42
1.5
 43
3.75
 44
1.5
 73
     0
 74
     0
 77
     1
 78
     8
140
3.200000047683715
141
2.5
143
0.03937007874016
147
1.0
171
     4
172
     1
274
     4
288
     1
340
17
  0
ENDTAB
  0
TABLE
  2
BLOCK_RECORD
  5
1
330
0
100
AcDbSymbolTable
 70
     6
  0
BLOCK_RECORD
  5
A
330
1
100
AcDbSymbolTableRecord
100
AcDbBlockTableRecord
  2
*MODEL_SPACE
340
32F
  0
BLOCK_RECORD
  5
B
330
1
100
AcDbSymbolTableRecord
100
AcDbBlockTableRecord
  2
*PAPER_SPACE
340
330
  0
BLOCK_RECORD
  5
1E
330
1
100
AcDbSymbolTableRecord
100
AcDbBlockTableRecord
  2
MRVS14-1
340
0
102
{BLKREFS
331
2E8
102
}
  0
BLOCK_RECORD
  5
1F
330
1
100
AcDbSymbolTableRecord
100
AcDbBlockTableRecord
  2
MRVS14-2
340
0
102
{BLKREFS
331
2E7
102
}
  0
BLOCK_RECORD
  5
20
330
1
100
AcDbSymbolTableRecord
100
AcDbBlockTableRecord
  2
MRVS14-3
340
0
102
{BLKREFS
331
2E6
102
}
  0
BLOCK_RECORD
  5
21
330
1
100
AcDbSymbolTableRecord
100
AcDbBlockTableRecord
  2
MRVS14-4
340
0
102
{BLKREFS
331
2E5
102
}
  0
BLOCK_RECORD
  5
22
330
1
100
AcDbSymbolTableRecord
100
AcDbBlockTableRecord
  2
MRVS14-5
340
0
102
{BLKREFS
331
2E4
102
}
  0
BLOCK_RECORD
  5
23
330
1
100
AcDbSymbolTableRecord
100
AcDbBlockTableRecord
  2
MRVS14-6
340
0
102
{BLKREFS
331
2E3
102
}
  0
ENDTAB
  0
ENDSEC
  0
SECTION
  2
BLOCKS
  0
BLOCK
  5
D
330
A
100
AcDbEntity
  8
0
100
AcDbBlockBegin
  2
*MODEL_SPACE
 70
     0
 10
0.0
 20
0.0
 30
0.0
  3
*MODEL_SPACE
  1

  0
ENDBLK
  5
E
330
A
100
AcDbEntity
  8
0
100
AcDbBlockEnd
  0
BLOCK
  5
F
330
B
100
AcDbEntity
 67
     1
  8
0
100
AcDbBlockBegin
  2
*PAPER_SPACE
 70
     0
 10
0.0
 20
0.0
 30
0.0
  3
*PAPER_SPACE
  1

  0
ENDBLK
  5
10
330
B
100
AcDbEntity
 67
     1
  8
0
100
AcDbBlockEnd
  0
BLOCK
  5
24
330
1E
100
AcDbEntity
  8
0
100
AcDbBlockBegin
  2
MRVS14-1
 70
     0
 10
0.0
 20
0.0
 30
0.0
  3
MRVS14-1
  1

  0
LINE
  5
25
330
1E
100
AcDbEntity
  8
0
  6
Continuous
 62
     2
100
AcDbLine
 10
167.5
 20
-42.0
 30
0.0
 11
167.5
 21
-35.0
 31
0.0
  0
LINE
  5
26
330
1E
100
AcDbEntity
  8
0
  6
Continuous
 62
     2
100
AcDbLine
 10
4.5
 20
-42.0
 30
0.0
 11
4.5
 21
-35.0
 31
0.0
  0
LINE
  5
27
330
1E
100
AcDbEntity
  8
0
  6
Continuous
 62
     7
100
AcDbLine
 10
177.0
 20
-38.5
 30
0.0
 11
177.0
 21
8.5
 31
0.0
  0
LINE
  5
28
330
1E
100
AcDbEntity
  8
0
  6
Continuous
 62
     7
100
AcDbLine
 10
177.0
 20
-38.5
 30
0.0
 11
162.0
 21
-38.5
 31
0.0
  0
LINE
  5
29
330
1E
100
AcDbEntity
  8
0
  6
Continuous
 62
     2
100
AcDbLine
 10
172.0
 20
-23.46002197265625
 30
0.0
 11
172.0
 21
-36.53997802734375
 31
0.0
  0
LINE
  5
2A
330
1E
100
AcDbEntity
  8
0
  6
Continuous
 62
     2
100
AcDbLine
 10
178.5400085449218
 20
-30.0
 30
0.0
 11
165.4600067138671
 21
-30.0
 31
0.0
  0
LINE
  5
2B
330
1E
100
AcDbEntity
  8
0
  6
Continuous
 62
     7
100
AcDbLine
 10
177.0
 20
8.5
 30
0.0
 11
162.0
 21
8.5
 31
0.0
  0
LINE
  5
2C
330
1E
100
AcDbEntity
  8
0
  6
Continuous
 62
     7
100
AcDbLine
 10
167.0
 20
-38.5
 30
0.0
 11
167.0
 21
8.5
 31
0.0
  0
LINE
  5
2D
330
1E
100
AcDbEntity
  8
0
  6
Continuous
 62
     2
100
AcDbLine
 10
172.0
 20
-6.53997802734375
 30
0.0
 11
172.0
 21
6.53997802734375
 31
0.0
  0
LINE
  5
2E
330
1E
100
AcDbEntity
  8
0
  6
Continuous
 62
     2
100
AcDbLine
 10
178.5400085449218
 20
0.0
 30
0.0
 11
165.4600067138671
 21
0.0
 31
0.0
  0
LINE
  5
2F
330
1E
100
AcDbEntity
  8
0
  6
Continuous
 62
     7
100
AcDbLine
 10
177.0
 20
-23.0
 30
0.0
 11
162.0
 21
-23.0
 31
0.0
  0
LINE
  5
30
330
1E
100
AcDbEntity
  8
0
  6
Continuous
 62
     7
100
AcDbLine
 10
162.0
 20
-38.5
 30
0.0
 11
162.0
 21
8.5
 31
0.0
  0
LINE
  5
31
330
1E
100
AcDbEntity
  8
0
  6
Continuous
 62
     7
100
AcDbLine
 10
177.0
 20
-7.0
 30
0.0
 11
162.0
 21
-7.0
 31
0.0
  0
LINE
  5
32
330
1E
100
AcDbEntity
  8
0
  6
Continuous
 62
     7
100
AcDbLine
 10
160.7479179603206
 20
4.706289366881264
 30
0.0
 11
162.0
 21
4.485513514846251
 31
0.0
  0
LINE
  5
33
330
1E
100
AcDbEntity
  8
0
  6
Continuous
 62
     7
100
AcDbLine
 10
160.7479084134256
 20
-27.70625936408941
 30
0.0
 11
162.0
 21
-27.4854818286792
 31
0.0
  0
LINE
  5
34
330
1E
100
AcDbEntity
  8
0
  6
Continuous
 62
     7
100
AcDbLine
 10
160.7479179529427
 20
-29.29370569348111
 30
0.0
 11
162.0
 21
-29.51448154681704
 31
0.0
  0
LINE
  5
35
330
1E
100
AcDbEntity
  8
0
  6
Continuous
 62
     7
100
AcDbLine
 10
160.7479062416832
 20
-31.20627108715871
 30
0.0
 11
162.0
 21
-30.9854931688117
 31
0.0
  0
LINE
  5
36
330
1E
100
AcDbEntity
  8
0
  6
Continuous
 62
     7
100
AcDbLine
 10
160.7479115834276
 20
-34.70628148539754
 30
0.0
 11
162.0
 21
-34.4855045089442
 31
0.0
  0
LINE
  5
37
330
1E
100
AcDbEntity
  8
0
  6
Continuous
 62
     7
100
AcDbLine
 10
160.7479201246851
 20
-32.79371741655042
 30
0.0
 11
162.0
 21
-33.01449288694954
 31
0.0
  0
LINE
  5
38
330
1E
100
AcDbEntity
  8
0
  6
Continuous
 62
     7
100
AcDbLine
 10
160.5
 20
-36.99826049804688
 30
0.0
 11
160.5
 21
-35.001708984375
 31
0.0
  0
LINE
  5
39
330
1E
100
AcDbEntity
  8
0
  6
Continuous
 62
     7
100
AcDbLine
 10
160.7479072768319
 20
-2.293731429596391
 30
0.0
 11
162.0
 21
-2.514509165418754
 31
0.0
  0
LINE
  5
3A
330
1E
100
AcDbEntity
  8
0
  6
Continuous
 62
     7
100
AcDbLine
 10
160.7479089263888
 20
-0.7062713980617446
 30
0.0
 11
162.0
 21
-0.4854939531007778
 31
0.0
  0
LINE
  5
3B
330
1E
100
AcDbEntity
  8
0
  6
Continuous
 62
     7
100
AcDbLine
 10
160.7479051050895
 20
1.2062802934729
 30
0.0
 11
162.0
 21
0.9855021747137515
 31
0.0
  0
LINE
  5
3C
330
1E
100
AcDbEntity
  8
0
  6
Continuous
 62
     7
100
AcDbLine
 10
160.7479083710032
 20
-24.20627901979742
 30
0.0
 11
162.0
 21
-23.98550147690697
 31
0.0
  0
LINE
  5
3D
330
1E
100
AcDbEntity
  8
0
  6
Continuous
 62
     7
100
AcDbLine
 10
160.5
 20
-25.49826049804688
 30
0.0
 11
160.5
 21
-24.501708984375
 31
0.0
  0
LINE
  5
3E
330
1E
100
AcDbEntity
  8
0
  6
Continuous
 62
     7
100
AcDbLine
 10
160.5
 20
-32.49822998046875
 30
0.0
 11
160.5
 21
-31.501708984375
 31
0.0
  0
LINE
  5
3F
330
1E
100
AcDbEntity
  8
0
  6
Continuous
 62
     7
100
AcDbLine
 10
160.5
 20
-4.501708984375
 30
0.0
 11
160.5
 21
-5.498260498046875
 31
0.0
  0
LINE
  5
40
330
1E
100
AcDbEntity
  8
0
  6
Continuous
 62
     7
100
AcDbLine
 10
160.7479147478961
 20
-5.793713098718853
 30
0.0
 11
162.0
 21
-6.01448951719098
 31
0.0
  0
LINE
  5
41
330
1E
100
AcDbEntity
  8
0
  6
Continuous
 62
     7
100
AcDbLine
 10
160.7479201375963
 20
-37.29372314518014
 30
0.0
 11
162.0
 21
-37.51449861330268
 31
0.0
  0
LINE
  5
42
330
1E
100
AcDbEntity
  8
0
  6
Continuous
 62
     7
100
AcDbLine
 10
160.5
 20
-28.99826049804687
 30
0.0
 11
160.5
 21
-28.001708984375
 31
0.0
  0
LINE
  5
43
330
1E
100
AcDbEntity
  8
0
  6
Continuous
 62
     7
100
AcDbLine
 10
160.7479104818785
 20
-25.79372402435865
 30
0.0
 11
162.0
 21
-26.01450119504481
 31
0.0
  0
LINE
  5
44
330
1E
100
AcDbEntity
  8
0
  6
Continuous
 62
     7
100
AcDbLine
 10
160.5
 20
6.998291015625
 30
0.0
 11
160.5
 21
5.001739501953125
 31
0.0
  0
LINE
  5
45
330
1E
100
AcDbEntity
  8
0
  6
Continuous
 62
     7
100
AcDbLine
 10
160.7479110981312
 20
2.793740325007548
 30
0.0
 11
162.0
 21
3.014517387031726
 31
0.0
  0
LINE
  5
46
330
1E
100
AcDbEntity
  8
0
  6
Continuous
 62
     7
100
AcDbLine
 10
160.5
 20
2.498291015625
 30
0.0
 11
160.5
 21
1.50177001953125
 31
0.0
  0
LINE
  5
47
330
1E
100
AcDbEntity
  8
0
  6
Continuous
 62
     7
100
AcDbLine
 10
160.7479111110424
 20
7.293746053637278
 30
0.0
 11
162.0
 21
7.514523113384867
 31
0.0
  0
LINE
  5
48
330
1E
100
AcDbEntity
  8
0
  6
Continuous
 62
     7
100
AcDbLine
 10
160.5
 20
-1.001708984375
 30
0.0
 11
160.5
 21
-1.998260498046875
 31
0.0
  0
LINE
  5
49
330
1E
100
AcDbEntity
  8
0
  6
Continuous
 62
     7
100
AcDbLine
 10
160.7479116184722
 20
-4.206266769327157
 30
0.0
 11
162.0
 21
-3.985489799053145
 31
0.0
  0
LINE
  5
4A
330
1E
100
AcDbEntity
  8
0
  6
Continuous
 62
     7
100
AcDbLine
 10
15.5999755859375
 20
-25.0
 30
0.0
 11
56.4000244140625
 21
-25.0
 31
0.0
  0
LINE
  5
4B
330
1E
100
AcDbEntity
  8
0
  6
Continuous
 62
     7
100
AcDbLine
 10
15.5999755859375
 20
-5.0
 30
0.0
 11
56.4000244140625
 21
-5.0
 31
0.0
  0
LINE
  5
4C
330
1E
100
AcDbEntity
  8
0
  6
Continuous
 62
     2
100
AcDbLine
 10
51.0
 20
-36.53999328613281
 30
0.0
 11
51.0
 21
-27.46000671386719
 31
0.0
  0
LINE
  5
4D
330
1E
100
AcDbEntity
  8
0
  6
Continuous
 62
     7
100
AcDbLine
 10
14.0
 20
-37.0
 30
0.0
 11
58.0
 21
-37.0
 31
0.0
  0
LINE
  5
4E
330
1E
100
AcDbEntity
  8
0
  6
Continuous
 62
     7
100
AcDbLine
 10
-5.0
 20
-38.5
 30
0.0
 11
-5.0
 21
8.5
 31
0.0
  0
LINE
  5
4F
330
1E
100
AcDbEntity
  8
0
  6
Continuous
 62
     7
100
AcDbLine
 10
14.0
 20
7.0
 30
0.0
 11
58.0
 21
7.0
 31
0.0
  0
LINE
  5
50
330
1E
100
AcDbEntity
  8
0
  6
Continuous
 62
     7
100
AcDbLine
 10
58.0
 20
-37.0
 30
0.0
 11
58.0
 21
7.0
 31
0.0
  0
LINE
  5
51
330
1E
100
AcDbEntity
  8
0
  6
Continuous
 62
     7
100
AcDbLine
 10
-5.0
 20
-38.5
 30
0.0
 11
10.0
 21
-38.5
 31
0.0
  0
LINE
  5
52
330
1E
100
AcDbEntity
  8
0
  6
Continuous
 62
     2
100
AcDbLine
 10
51.0
 20
6.539993286132812
 30
0.0
 11
51.0
 21
-2.539993286132812
 31
0.0
  0
LINE
  5
53
330
1E
100
AcDbEntity
  8
0
  6
Continuous
 62
     7
100
AcDbLine
 10
58.0
 20
-36.25
 30
0.0
 11
60.5
 21
-36.25
 31
0.0
  0
LINE
  5
54
330
1E
100
AcDbEntity
  8
0
  6
Continuous
 62
     7
100
AcDbLine
 10
14.0
 20
-36.25
 30
0.0
 11
11.5
 21
-36.25
 31
0.0
  0
LINE
  5
55
330
1E
100
AcDbEntity
  8
0
  6
Continuous
 62
     2
100
AcDbLine
 10
6.53997802734375
 20
-30.0
 30
0.0
 11
-6.53997802734375
 21
-30.0
 31
0.0
  0
LINE
  5
56
330
1E
100
AcDbEntity
  8
0
  6
Continuous
 62
     2
100
AcDbLine
 10
0.0
 20
-23.46000671386719
 30
0.0
 11
0.0
 21
-36.53999328613281
 31
0.0
  0
LINE
  5
57
330
1E
100
AcDbEntity
  8
0
  6
Continuous
 62
     7
100
AcDbLine
 10
58.0
 20
-31.75
 30
0.0
 11
60.5
 21
-31.75
 31
0.0
  0
LINE
  5
58
330
1E
100
AcDbEntity
  8
0
  6
Continuous
 62
     7
100
AcDbLine
 10
60.5
 20
-36.25
 30
0.0
 11
60.5
 21
-31.75
 31
0.0
  0
LINE
  5
59
330
1E
100
AcDbEntity
  8
0
  6
Continuous
 62
     7
100
AcDbLine
 10
14.0
 20
-37.0
 30
0.0
 11
14.0
 21
7.0
 31
0.0
  0
LINE
  5
5A
330
1E
100
AcDbEntity
  8
0
  6
Continuous
 62
     2
100
AcDbLine
 10
21.0
 20
6.539993286132812
 30
0.0
 11
21.0
 21
-2.539993286132812
 31
0.0
  0
LINE
  5
5B
330
1E
100
AcDbEntity
  8
0
  6
Continuous
 62
     7
100
AcDbLine
 10
60.5
 20
6.25
 30
0.0
 11
60.5
 21
1.75
 31
0.0
  0
LINE
  5
5C
330
1E
100
AcDbEntity
  8
0
  6
Continuous
 62
     7
100
AcDbLine
 10
14.0
 20
6.25
 30
0.0
 11
11.5
 21
6.25
 31
0.0
  0
LINE
  5
5D
330
1E
100
AcDbEntity
  8
0
  6
Continuous
 62
     7
100
AcDbLine
 10
15.5999755859375
 20
-37.0
 30
0.0
 11
15.5999755859375
 21
7.0
 31
0.0
  0
LINE
  5
5E
330
1E
100
AcDbEntity
  8
0
  6
Continuous
 62
     7
100
AcDbLine
 10
58.0
 20
1.75
 30
0.0
 11
60.5
 21
1.75
 31
0.0
  0
LINE
  5
5F
330
1E
100
AcDbEntity
  8
0
  6
Continuous
 62
     7
100
AcDbLine
 10
58.0
 20
6.25
 30
0.0
 11
60.5
 21
6.25
 31
0.0
  0
LINE
  5
60
330
1E
100
AcDbEntity
  8
0
  6
Continuous
 62
     2
100
AcDbLine
 10
0.0
 20
-6.539993286132812
 30
0.0
 11
0.0
 21
6.539993286132812
 31
0.0
  0
LINE
  5
61
330
1E
100
AcDbEntity
  8
0
  6
Continuous
 62
     2
100
AcDbLine
 10
46.46002197265625
 20
2.0
 30
0.0
 11
55.53997802734375
 21
2.0
 31
0.0
  0
LINE
  5
62
330
1E
100
AcDbEntity
  8
0
  6
Continuous
 62
     2
100
AcDbLine
 10
6.53997802734375
 20
0.0
 30
0.0
 11
-6.53997802734375
 21
0.0
 31
0.0
  0
LINE
  5
63
330
1E
100
AcDbEntity
  8
0
  6
Continuous
 62
     7
100
AcDbLine
 10
58.0
 20
-27.30001831054688
 30
0.0
 11
162.0
 21
-27.30001831054688
 31
0.0
  0
LINE
  5
64
330
1E
100
AcDbEntity
  8
0
  6
Continuous
 62
     7
100
AcDbLine
 10
58.0
 20
-2.699981689453125
 30
0.0
 11
162.0
 21
-2.699981689453125
 31
0.0
  0
LINE
  5
65
330
1E
100
AcDbEntity
  8
0
  6
Continuous
 62
     2
100
AcDbLine
 10
-8.0
 20
-15.0
 30
0.0
 11
180.0
 21
-15.0
 31
0.0
  0
LINE
  5
66
330
1E
100
AcDbEntity
  8
0
  6
Continuous
 62
     7
100
AcDbLine
 10
56.4000244140625
 20
-37.0
 30
0.0
 11
56.4000244140625
 21
7.0
 31
0.0
  0
LINE
  5
67
330
1E
100
AcDbEntity
  8
0
  6
Continuous
 62
     7
100
AcDbLine
 10
14.0
 20
-31.75
 30
0.0
 11
11.5
 21
-31.75
 31
0.0
  0
LINE
  5
68
330
1E
100
AcDbEntity
  8
0
  6
Continuous
 62
     2
100
AcDbLine
 10
21.0
 20
-36.53999328613281
 30
0.0
 11
21.0
 21
-27.46000671386719
 31
0.0
  0
LINE
  5
69
330
1E
100
AcDbEntity
  8
0
  6
Continuous
 62
     2
100
AcDbLine
 10
25.53997802734375
 20
-32.0
 30
0.0
 11
16.46002197265625
 21
-32.0
 31
0.0
  0
LINE
  5
6A
330
1E
100
AcDbEntity
  8
0
  6
Continuous
 62
     2
100
AcDbLine
 10
25.53997802734375
 20
2.0
 30
0.0
 11
16.46002197265625
 21
2.0
 31
0.0
  0
LINE
  5
6B
330
1E
100
AcDbEntity
  8
0
  6
Continuous
 62
     7
100
AcDbLine
 10
14.0
 20
1.75
 30
0.0
 11
11.5
 21
1.75
 31
0.0
  0
LINE
  5
6C
330
1E
100
AcDbEntity
  8
0
  6
Continuous
 62
     2
100
AcDbLine
 10
36.0
 20
9.550537109375
 30
0.0
 11
36.0
 21
-48.24406558635413
 31
0.0
  0
LINE
  5
6D
330
1E
100
AcDbEntity
  8
0
  6
Continuous
 62
     2
100
AcDbLine
 10
46.46002197265625
 20
-32.0
 30
0.0
 11
55.53997802734375
 21
-32.0
 31
0.0
  0
LINE
  5
6E
330
1E
100
AcDbEntity
  8
0
  6
Continuous
 62
     7
100
AcDbLine
 10
14.0
 20
-27.30001831054688
 30
0.0
 11
10.0
 21
-27.30001831054688
 31
0.0
  0
LINE
  5
6F
330
1E
100
AcDbEntity
  8
0
  6
Continuous
 62
     7
100
AcDbLine
 10
-5.0
 20
8.5
 30
0.0
 11
10.0
 21
8.5
 31
0.0
  0
LINE
  5
70
330
1E
100
AcDbEntity
  8
0
  6
Continuous
 62
     7
100
AcDbLine
 10
5.0
 20
-38.5
 30
0.0
 11
5.0
 21
8.5
 31
0.0
  0
LINE
  5
71
330
1E
100
AcDbEntity
  8
0
  6
Continuous
 62
     7
100
AcDbLine
 10
11.5
 20
2.498291015625
 30
0.0
 11
11.5
 21
5.001739501953125
 31
0.0
  0
LINE
  5
72
330
1E
100
AcDbEntity
  8
0
  6
Continuous
 62
     7
100
AcDbLine
 10
11.5
 20
-32.49822998046875
 30
0.0
 11
11.5
 21
-35.001708984375
 31
0.0
  0
LINE
  5
73
330
1E
100
AcDbEntity
  8
0
  6
Continuous
 62
     7
100
AcDbLine
 10
-5.0
 20
-23.0
 30
0.0
 11
10.0
 21
-23.0
 31
0.0
  0
LINE
  5
74
330
1E
100
AcDbEntity
  8
0
  6
Continuous
 62
     7
100
AcDbLine
 10
10.0
 20
-38.5
 30
0.0
 11
10.0
 21
8.5
 31
0.0
  0
LINE
  5
75
330
1E
100
AcDbEntity
  8
0
  6
Continuous
 62
     7
100
AcDbLine
 10
-5.0
 20
-7.0
 30
0.0
 11
10.0
 21
-7.0
 31
0.0
  0
LINE
  5
76
330
1E
100
AcDbEntity
  8
0
  6
Continuous
 62
     7
100
AcDbLine
 10
11.25209455530239
 20
4.706316996293026
 30
0.0
 11
10.0
 21
4.485538937415938
 31
0.0
  0
LINE
  5
77
330
1E
100
AcDbEntity
  8
0
  6
Continuous
 62
     7
100
AcDbLine
 10
11.25209923837156
 20
-27.7062706416973
 30
0.0
 11
10.0
 21
-27.48549175706875
 31
0.0
  0
LINE
  5
78
330
1E
100
AcDbEntity
  8
0
  6
Continuous
 62
     7
100
AcDbLine
 10
11.25209721234114
 20
-29.29369309104277
 30
0.0
 11
10.0
 21
-29.51447161842749
 31
0.0
  0
LINE
  5
79
330
1E
100
AcDbEntity
  8
0
  6
Continuous
 62
     7
100
AcDbLine
 10
11.25210141011393
 20
-31.20628236476659
 30
0.0
 11
10.0
 21
-30.98550309720125
 31
0.0
  0
LINE
  5
7A
330
1E
100
AcDbEntity
  8
0
  6
Continuous
 62
     7
100
AcDbLine
 10
11.2520885548829
 20
-34.70629143817497
 30
0.0
 11
10.0
 21
-34.48551443733375
 31
0.0
  0
LINE
  5
7B
330
1E
100
AcDbEntity
  8
0
  6
Continuous
 62
     7
100
AcDbLine
 10
11.25209504059876
 20
-32.79370481411206
 30
0.0
 11
10.0
 21
-33.01448295856
 31
0.0
  0
LINE
  5
7C
330
1E
100
AcDbEntity
  8
0
  6
Continuous
 62
     7
100
AcDbLine
 10
11.5
 20
-36.99826049804688
 30
0.0
 11
11.5
 21
-35.001708984375
 31
0.0
  0
LINE
  5
7D
330
1E
100
AcDbEntity
  8
0
  6
Continuous
 62
     7
100
AcDbLine
 10
11.25210523879104
 20
-2.29370380018463
 30
0.0
 11
10.0
 21
-2.51448374284907
 31
0.0
  0
LINE
  5
7E
330
1E
100
AcDbEntity
  8
0
  6
Continuous
 62
     7
100
AcDbLine
 10
11.25208856226072
 20
-0.7062963778125777
 30
0.0
 11
10.0
 21
-0.4855193756704636
 31
0.0
  0
LINE
  5
7F
330
1E
100
AcDbEntity
  8
0
  6
Continuous
 62
     7
100
AcDbLine
 10
11.25210741053342
 20
1.206307922884661
 30
0.0
 11
10.0
 21
0.9855275972834343
 31
0.0
  0
LINE
  5
80
330
1E
100
AcDbEntity
  8
0
  6
Continuous
 62
     7
100
AcDbLine
 10
11.25209176730732
 20
-24.20628897257484
 30
0.0
 11
10.0
 21
-23.98551140529652
 31
0.0
  0
LINE
  5
81
330
1E
100
AcDbEntity
  8
0
  6
Continuous
 62
     7
100
AcDbLine
 10
11.5
 20
-25.49826049804688
 30
0.0
 11
11.5
 21
-24.501708984375
 31
0.0
  0
LINE
  5
82
330
1E
100
AcDbEntity
  8
0
  6
Continuous
 62
     7
100
AcDbLine
 10
11.5
 20
-32.49822998046875
 30
0.0
 11
11.5
 21
-31.501708984375
 31
0.0
  0
LINE
  5
83
330
1E
100
AcDbEntity
  8
0
  6
Continuous
 62
     7
100
AcDbLine
 10
11.5
 20
-4.501708984375
 30
0.0
 11
11.5
 21
-5.498260498046875
 31
0.0
  0
LINE
  5
84
330
1E
100
AcDbEntity
  8
0
  6
Continuous
 62
     7
100
AcDbLine
 10
11.2520977677268
 20
-5.793685469307092
 30
0.0
 11
10.0
 21
-6.014464094621294
 31
0.0
  0
LINE
  5
85
330
1E
100
AcDbEntity
  8
0
  6
Continuous
 62
     7
100
AcDbLine
 10
11.25209502768757
 20
-37.29371054274179
 30
0.0
 11
10.0
 21
-37.51448868491313
 31
0.0
  0
LINE
  5
86
330
1E
100
AcDbEntity
  8
0
  6
Continuous
 62
     7
100
AcDbLine
 10
11.5
 20
-28.99826049804687
 30
0.0
 11
11.5
 21
-28.001708984375
 31
0.0
  0
LINE
  5
87
330
1E
100
AcDbEntity
  8
0
  6
Continuous
 62
     7
100
AcDbLine
 10
11.25210468340537
 20
-25.79371142192031
 30
0.0
 11
10.0
 21
-26.01449126665527
 31
0.0
  0
LINE
  5
88
330
1E
100
AcDbEntity
  8
0
  6
Continuous
 62
     7
100
AcDbLine
 10
11.25208639051834
 20
2.793715345256714
 30
0.0
 11
10.0
 21
3.01449196446204
 31
0.0
  0
LINE
  5
89
330
1E
100
AcDbEntity
  8
0
  6
Continuous
 62
     7
100
AcDbLine
 10
11.5
 20
2.498291015625
 30
0.0
 11
11.5
 21
1.50177001953125
 31
0.0
  0
LINE
  5
8A
330
1E
100
AcDbEntity
  8
0
  6
Continuous
 62
     7
100
AcDbLine
 10
11.25208637760716
 20
7.293721073886445
 30
0.0
 11
10.0
 21
7.51449769081518
 31
0.0
  0
LINE
  5
8B
330
1E
100
AcDbEntity
  8
0
  6
Continuous
 62
     7
100
AcDbLine
 10
11.5
 20
-1.001708984375
 30
0.0
 11
11.5
 21
-1.998260498046875
 31
0.0
  0
LINE
  5
8C
330
1E
100
AcDbEntity
  8
0
  6
Continuous
 62
     7
100
AcDbLine
 10
11.25209603332496
 20
-4.20627804693504
 30
0.0
 11
10.0
 21
-3.985499727442688
 31
0.0
  0
LINE
  5
8D
330
1E
100
AcDbEntity
  8
0
  6
Continuous
 62
     7
100
AcDbLine
 10
11.5
 20
6.998291015625
 30
0.0
 11
11.5
 21
5.001739501953125
 31
0.0
  0
LINE
  5
8E
330
1E
100
AcDbEntity
  8
0
  6
Continuous
 62
     7
100
AcDbLine
 10
14.0
 20
-2.699981689453125
 30
0.0
 11
10.0
 21
-2.699981689453125
 31
0.0
  0
LINE
  5
8F
330
1E
100
AcDbEntity
  8
0
  6
Continuous
 62
     7
100
AcDbLine
 10
174.5
 20
-44.69999694824219
 30
0.0
 11
174.5
 21
-38.5
 31
0.0
  0
LINE
  5
90
330
1E
100
AcDbEntity
  8
0
  6
Continuous
 62
     7
100
AcDbLine
 10
161.9177742803426
 20
-37.5
 30
0.0
 11
10.08216941296382
 21
-37.5
 31
0.0
  0
LINE
  5
91
330
1E
100
AcDbEntity
  8
0
  6
Continuous
 62
     7
100
AcDbLine
 10
-2.5
 20
-44.69999694824219
 30
0.0
 11
-2.5
 21
-38.5
 31
0.0
  0
LINE
  5
92
330
1E
100
AcDbEntity
  8
0
  6
Continuous
 62
     7
100
AcDbLine
 10
174.5
 20
-44.69999694824219
 30
0.0
 11
-2.5
 21
-44.69999694824219
 31
0.0
  0
CIRCLE
  5
93
330
1E
100
AcDbEntity
  8
0
  6
Continuous
 62
     7
100
AcDbCircle
 10
172.0
 20
-30.0
 30
0.0
 40
4.0
  0
CIRCLE
  5
94
330
1E
100
AcDbEntity
  8
0
  6
Continuous
 62
     7
100
AcDbCircle
 10
172.0
 20
0.0
 30
0.0
 40
4.0
  0
ARC
  5
95
330
1E
100
AcDbEntity
  8
0
  6
Continuous
 62
     7
100
AcDbCircle
 10
160.8000030517578
 20
-31.501708984375
 30
0.0
 40
0.3000000119209289
100
AcDbArc
 50
100.0000005060238
 51
180.0000050089563
  0
ARC
  5
96
330
1E
100
AcDbEntity
  8
0
  6
Continuous
 62
     7
100
AcDbCircle
 10
160.8000030517578
 20
-32.49822998046875
 30
0.0
 40
0.3000000119209289
100
AcDbArc
 50
179.999991348578
 51
260.0000026816997
  0
ARC
  5
97
330
1E
100
AcDbEntity
  8
0
  6
Continuous
 62
     7
100
AcDbCircle
 10
160.8000030517578
 20
-28.99826049804687
 30
0.0
 40
0.3000000119209289
100
AcDbArc
 50
179.999991348578
 51
260.0000026816997
  0
ARC
  5
98
330
1E
100
AcDbEntity
  8
0
  6
Continuous
 62
     7
100
AcDbCircle
 10
160.8000030517578
 20
-28.001708984375
 30
0.0
 40
0.3000000119209289
100
AcDbArc
 50
100.0000005060238
 51
180.0000050089563
  0
ARC
  5
99
330
1E
100
AcDbEntity
  8
0
  6
Continuous
 62
     7
100
AcDbCircle
 10
160.8000030517578
 20
-25.49826049804688
 30
0.0
 40
0.3000000119209289
100
AcDbArc
 50
179.999991348578
 51
260.0000026816997
  0
ARC
  5
9A
330
1E
100
AcDbEntity
  8
0
  6
Continuous
 62
     7
100
AcDbCircle
 10
160.8000030517578
 20
-24.501708984375
 30
0.0
 40
0.3000000119209289
100
AcDbArc
 50
100.0000005060238
 51
180.0000050089563
  0
ARC
  5
9B
330
1E
100
AcDbEntity
  8
0
  6
Continuous
 62
     7
100
AcDbCircle
 10
160.8000030517578
 20
2.498291015625
 30
0.0
 40
0.3000000119209289
100
AcDbArc
 50
100.0000005060238
 51
180.0000050089563
  0
ARC
  5
9C
330
1E
100
AcDbEntity
  8
0
  6
Continuous
 62
     7
100
AcDbCircle
 10
160.8000030517578
 20
-35.001708984375
 30
0.0
 40
0.3000000119209289
100
AcDbArc
 50
100.0000005060238
 51
180.0000050089563
  0
ARC
  5
9D
330
1E
100
AcDbEntity
  8
0
  6
Continuous
 62
     7
100
AcDbCircle
 10
160.8000030517578
 20
-36.99826049804688
 30
0.0
 40
0.3000000119209289
100
AcDbArc
 50
179.999991348578
 51
260.0000026816997
  0
ARC
  5
9E
330
1E
100
AcDbEntity
  8
0
  6
Continuous
 62
     7
100
AcDbCircle
 10
160.8000030517578
 20
1.50177001953125
 30
0.0
 40
0.3000000119209289
100
AcDbArc
 50
179.999991348578
 51
260.0000026816997
  0
ARC
  5
9F
330
1E
100
AcDbEntity
  8
0
  6
Continuous
 62
     7
100
AcDbCircle
 10
160.8000030517578
 20
-1.001708984375
 30
0.0
 40
0.3000000119209289
100
AcDbArc
 50
100.0000005060238
 51
180.0000050089563
  0
ARC
  5
A0
330
1E
100
AcDbEntity
  8
0
  6
Continuous
 62
     7
100
AcDbCircle
 10
160.8000030517578
 20
-1.998260498046875
 30
0.0
 40
0.3000000119209289
100
AcDbArc
 50
179.999991348578
 51
260.0000026816997
  0
ARC
  5
A1
330
1E
100
AcDbEntity
  8
0
  6
Continuous
 62
     7
100
AcDbCircle
 10
160.8000030517578
 20
-4.501708984375
 30
0.0
 40
0.3000000119209289
100
AcDbArc
 50
100.0000005060238
 51
180.0000050089563
  0
ARC
  5
A2
330
1E
100
AcDbEntity
  8
0
  6
Continuous
 62
     7
100
AcDbCircle
 10
160.8000030517578
 20
-5.498260498046875
 30
0.0
 40
0.3000000119209289
100
AcDbArc
 50
179.999991348578
 51
260.0000026816997
  0
ARC
  5
A3
330
1E
100
AcDbEntity
  8
0
  6
Continuous
 62
     7
100
AcDbCircle
 10
160.8000030517578
 20
5.001739501953125
 30
0.0
 40
0.3000000119209289
100
AcDbArc
 50
179.999991348578
 51
260.0000026816997
  0
ARC
  5
A4
330
1E
100
AcDbEntity
  8
0
  6
Continuous
 62
     7
100
AcDbCircle
 10
160.8000030517578
 20
6.998291015625
 30
0.0
 40
0.3000000119209289
100
AcDbArc
 50
100.0000005060238
 51
180.0000050089563
  0
CIRCLE
  5
A5
330
1E
100
AcDbEntity
  8
0
  6
Continuous
 62
     7
100
AcDbCircle
 10
0.0
 20
-30.0
 30
0.0
 40
4.0
  0
CIRCLE
  5
A6
330
1E
100
AcDbEntity
  8
0
  6
Continuous
 62
     2
100
AcDbCircle
 10
51.0
 20
2.0
 30
0.0
 40
2.0
  0
CIRCLE
  5
A7
330
1E
100
AcDbEntity
  8
0
  6
Continuous
 62
     7
100
AcDbCircle
 10
51.0
 20
2.0
 30
0.0
 40
1.5
  0
CIRCLE
  5
A8
330
1E
100
AcDbEntity
  8
0
  6
Continuous
 62
     7
100
AcDbCircle
 10
0.0
 20
0.0
 30
0.0
 40
4.0
  0
CIRCLE
  5
A9
330
1E
100
AcDbEntity
  8
0
  6
Continuous
 62
     7
100
AcDbCircle
 10
21.0
 20
-32.0
 30
0.0
 40
1.5
  0
CIRCLE
  5
AA
330
1E
100
AcDbEntity
  8
0
  6
Continuous
 62
     7
100
AcDbCircle
 10
21.0
 20
2.0
 30
0.0
 40
1.5
  0
CIRCLE
  5
AB
330
1E
100
AcDbEntity
  8
0
  6
Continuous
 62
     2
100
AcDbCircle
 10
21.0
 20
2.0
 30
0.0
 40
2.0
  0
CIRCLE
  5
AC
330
1E
100
AcDbEntity
  8
0
  6
Continuous
 62
     7
100
AcDbCircle
 10
51.0
 20
-32.0
 30
0.0
 40
1.5
  0
CIRCLE
  5
AD
330
1E
100
AcDbEntity
  8
0
  6
Continuous
 62
     2
100
AcDbCircle
 10
21.0
 20
-32.0
 30
0.0
 40
2.0
  0
CIRCLE
  5
AE
330
1E
100
AcDbEntity
  8
0
  6
Continuous
 62
     2
100
AcDbCircle
 10
51.0
 20
-32.0
 30
0.0
 40
2.0
  0
ARC
  5
AF
330
1E
100
AcDbEntity
  8
0
  6
Continuous
 62
     7
100
AcDbCircle
 10
11.19999694824219
 20
-31.501708984375
 30
0.0
 40
0.3000000119209289
100
AcDbArc
 50
359.9999949910435
 51
79.99999767274336
  0
ARC
  5
B0
330
1E
100
AcDbEntity
  8
0
  6
Continuous
 62
     7
100
AcDbCircle
 10
11.19999694824219
 20
-32.49822998046875
 30
0.0
 40
0.3000000119209289
100
AcDbArc
 50
280.0000023272566
 51
0.000005008956131
  0
ARC
  5
B1
330
1E
100
AcDbEntity
  8
0
  6
Continuous
 62
     7
100
AcDbCircle
 10
11.19999694824219
 20
-28.99826049804687
 30
0.0
 40
0.3000000119209289
100
AcDbArc
 50
280.0000023272566
 51
0.000005008956131
  0
ARC
  5
B2
330
1E
100
AcDbEntity
  8
0
  6
Continuous
 62
     7
100
AcDbCircle
 10
11.19999694824219
 20
-28.001708984375
 30
0.0
 40
0.3000000119209289
100
AcDbArc
 50
359.9999949910435
 51
79.99999767274336
  0
ARC
  5
B3
330
1E
100
AcDbEntity
  8
0
  6
Continuous
 62
     7
100
AcDbCircle
 10
11.19999694824219
 20
-25.49826049804688
 30
0.0
 40
0.3000000119209289
100
AcDbArc
 50
280.0000023272566
 51
0.000005008956131
  0
ARC
  5
B4
330
1E
100
AcDbEntity
  8
0
  6
Continuous
 62
     7
100
AcDbCircle
 10
11.19999694824219
 20
-24.501708984375
 30
0.0
 40
0.3000000119209289
100
AcDbArc
 50
359.9999949910435
 51
79.99999767274336
  0
ARC
  5
B5
330
1E
100
AcDbEntity
  8
0
  6
Continuous
 62
     7
100
AcDbCircle
 10
11.19999694824219
 20
2.498291015625
 30
0.0
 40
0.3000000119209289
100
AcDbArc
 50
359.9999949910435
 51
79.99999767274336
  0
ARC
  5
B6
330
1E
100
AcDbEntity
  8
0
  6
Continuous
 62
     7
100
AcDbCircle
 10
11.19999694824219
 20
-35.001708984375
 30
0.0
 40
0.3000000119209289
100
AcDbArc
 50
359.9999949910435
 51
79.99999767274336
  0
ARC
  5
B7
330
1E
100
AcDbEntity
  8
0
  6
Continuous
 62
     7
100
AcDbCircle
 10
11.19999694824219
 20
-36.99826049804688
 30
0.0
 40
0.3000000119209289
100
AcDbArc
 50
280.0000023272566
 51
0.000005008956131
  0
ARC
  5
B8
330
1E
100
AcDbEntity
  8
0
  6
Continuous
 62
     7
100
AcDbCircle
 10
11.19999694824219
 20
1.50177001953125
 30
0.0
 40
0.3000000119209289
100
AcDbArc
 50
280.0000023272566
 51
0.000005008956131
  0
ARC
  5
B9
330
1E
100
AcDbEntity
  8
0
  6
Continuous
 62
     7
100
AcDbCircle
 10
11.19999694824219
 20
-1.001708984375
 30
0.0
 40
0.3000000119209289
100
AcDbArc
 50
359.9999949910435
 51
79.99999767274336
  0
ARC
  5
BA
330
1E
100
AcDbEntity
  8
0
  6
Continuous
 62
     7
100
AcDbCircle
 10
11.19999694824219
 20
-1.998260498046875
 30
0.0
 40
0.3000000119209289
100
AcDbArc
 50
280.0000023272566
 51
0.000005008956131
  0
ARC
  5
BB
330
1E
100
AcDbEntity
  8
0
  6
Continuous
 62
     7
100
AcDbCircle
 10
11.19999694824219
 20
-4.501708984375
 30
0.0
 40
0.3000000119209289
100
AcDbArc
 50
359.9999949910435
 51
79.99999767274336
  0
ARC
  5
BC
330
1E
100
AcDbEntity
  8
0
  6
Continuous
 62
     7
100
AcDbCircle
 10
11.19999694824219
 20
-5.498260498046875
 30
0.0
 40
0.3000000119209289
100
AcDbArc
 50
280.0000023272566
 51
0.000005008956131
  0
ARC
  5
BD
330
1E
100
AcDbEntity
  8
0
  6
Continuous
 62
     7
100
AcDbCircle
 10
11.19999694824219
 20
5.001739501953125
 30
0.0
 40
0.3000000119209289
100
AcDbArc
 50
280.0000023272566
 51
0.000005008956131
  0
ARC
  5
BE
330
1E
100
AcDbEntity
  8
0
  6
Continuous
 62
     7
100
AcDbCircle
 10
11.19999694824219
 20
6.998291015625
 30
0.0
 40
0.3000000119209289
100
AcDbArc
 50
359.9999949910435
 51
79.99999767274336
  0
CIRCLE
  5
BF
330
1E
100
AcDbEntity
  8
0
  6
Continuous
 62
     7
100
AcDbCircle
 10
172.0
 20
0.0
 30
0.0
 40
2.400000095367432
  0
CIRCLE
  5
C0
330
1E
100
AcDbEntity
  8
0
  6
Continuous
 62
     7
100
AcDbCircle
 10
172.0
 20
-30.0
 30
0.0
 40
2.400000095367432
  0
CIRCLE
  5
C1
330
1E
100
AcDbEntity
  8
0
  6
Continuous
 62
     7
100
AcDbCircle
 10
0.0
 20
0.0
 30
0.0
 40
2.400000095367432
  0
CIRCLE
  5
C2
330
1E
100
AcDbEntity
  8
0
  6
Continuous
 62
     7
100
AcDbCircle
 10
0.0
 20
-30.0
 30
0.0
 40
2.400000095367432
  0
LINE
  5
C4
330
1E
100
AcDbEntity
  8
0
  6
PHANTOM
 62
     3
100
AcDbLine
 10
95.0
 20
45.58309052631579
 30
0.0
 11
95.0
 21
-58.60241417497232
 31
0.0
  0
ENDBLK
  5
C5
330
1E
100
AcDbEntity
  8
0
100
AcDbBlockEnd
  0
BLOCK
  5
C6
330
1F
100
AcDbEntity
  8
0
100
AcDbBlockBegin
  2
MRVS14-2
 70
     0
 10
0.0
 20
0.0
 30
0.0
  3
MRVS14-2
  1

  0
CIRCLE
  5
C7
330
1F
100
AcDbEntity
  8
0
  6
Continuous
 62
     7
100
AcDbCircle
 10
20.5
 20
-36.20001220703125
 30
0.0
 40
1.399999976158142
  0
CIRCLE
  5
C8
330
1F
100
AcDbEntity
  8
0
  6
Continuous
 62
     7
100
AcDbCircle
 10
13.5
 20
-23.5
 30
0.0
 40
5.5
  0
ARC
  5
C9
330
1F
100
AcDbEntity
  8
0
  6
Continuous
 62
     7
100
AcDbCircle
 10
1.5
 20
-44.20001220703125
 30
0.0
 40
0.5
100
AcDbArc
 50
179.9999974955218
 51
270.0000086514222
  0
ARC
  5
CA
330
1F
100
AcDbEntity
  8
0
  6
Continuous
 62
     7
100
AcDbCircle
 10
4.5
 20
-42.0999755859375
 30
0.0
 40
2.099999904632568
100
AcDbArc
 50
359.9999956742889
 51
180.0000006832453
  0
ARC
  5
CB
330
1F
100
AcDbEntity
  8
0
  6
Continuous
 62
     7
100
AcDbCircle
 10
7.5
 20
-44.20001220703125
 30
0.0
 40
0.5
100
AcDbArc
 50
269.9999949910439
 51
0.0000025044781673
  0
CIRCLE
  5
CC
330
1F
100
AcDbEntity
  8
0
  6
Continuous
 62
     7
100
AcDbCircle
 10
20.5
 20
6.20001220703125
 30
0.0
 40
1.399999976158142
  0
ARC
  5
CD
330
1F
100
AcDbEntity
  8
0
  6
Continuous
 62
     7
100
AcDbCircle
 10
23.5
 20
6.0
 30
0.0
 40
1.0
100
AcDbArc
 50
0.0000025044781673
 51
90.00000500895634
  0
ARC
  5
CE
330
1F
100
AcDbEntity
  8
0
  6
Continuous
 62
     7
100
AcDbCircle
 10
22.0
 20
-37.5
 30
0.0
 40
1.0
100
AcDbArc
 50
269.9999974955219
 51
0.0000025044781673
  0
ARC
  5
CF
330
1F
100
AcDbEntity
  8
0
  6
Continuous
 62
     7
100
AcDbCircle
 10
22.0
 20
7.5
 30
0.0
 40
1.0
100
AcDbArc
 50
0.0000025044781673
 51
90.00000500895634
  0
ARC
  5
D0
330
1F
100
AcDbEntity
  8
0
  6
Continuous
 62
     7
100
AcDbCircle
 10
23.5
 20
-36.0
 30
0.0
 40
1.0
100
AcDbArc
 50
269.9999974955219
 51
0.0000025044781673
  0
ARC
  5
D1
330
1F
100
AcDbEntity
  8
0
  6
Continuous
 62
     7
100
AcDbCircle
 10
24.0
 20
-36.0
 30
0.0
 40
1.0
100
AcDbArc
 50
269.9999974955219
 51
0.0000025044781673
  0
ARC
  5
D2
330
1F
100
AcDbEntity
  8
0
  6
Continuous
 62
     7
100
AcDbCircle
 10
24.0
 20
6.0
 30
0.0
 40
1.0
100
AcDbArc
 50
0.0000025044781673
 51
90.00000500895634
  0
CIRCLE
  5
D3
330
1F
100
AcDbEntity
  8
0
  6
Continuous
 62
     7
100
AcDbCircle
 10
13.5
 20
-23.5
 30
0.0
 40
4.0
  0
CIRCLE
  5
D4
330
1F
100
AcDbEntity
  8
0
  6
Continuous
 62
     7
100
AcDbCircle
 10
16.9000244140625
 20
-15.0
 30
0.0
 40
2.75
  0
CIRCLE
  5
D5
330
1F
100
AcDbEntity
  8
0
  6
Continuous
 62
     7
100
AcDbCircle
 10
10.0999755859375
 20
-15.0
 30
0.0
 40
2.75
  0
LINE
  5
D6
330
1F
100
AcDbEntity
  8
0
  6
Continuous
 62
     7
100
AcDbLine
 10
0.0
 20
-23.0000239915571
 30
0.0
 11
0.0
 21
-38.5
 31
0.0
  0
LINE
  5
D7
330
1F
100
AcDbEntity
  8
0
  6
Continuous
 62
     7
100
AcDbLine
 10
0.3000030517578125
 20
-7.299949141681281
 30
0.0
 11
0.3000030517578125
 21
-22.70002093979929
 31
0.0
  0
LINE
  5
D8
330
1F
100
AcDbEntity
  8
0
  6
Continuous
 62
     7
100
AcDbLine
 10
0.0000000000000002
 20
-6.999946089923469
 30
0.0
 11
0.3000030517578123
 21
-7.299949141681281
 31
0.0
  0
LINE
  5
D9
330
1F
100
AcDbEntity
  8
0
  6
Continuous
 62
     7
100
AcDbLine
 10
-0.0000000000000009
 20
-23.0000239915571
 30
0.0
 11
0.3000030517578121
 21
-22.70002093979929
 31
0.0
  0
LINE
  5
DA
330
1F
100
AcDbEntity
  8
0
  6
Continuous
 62
     2
100
AcDbLine
 10
4.5
 20
-36.6820068359375
 30
0.0
 11
4.5
 21
-45.391845703125
 31
0.0
  0
LINE
  5
DB
330
1F
100
AcDbEntity
  8
0
  6
Continuous
 62
     2
100
AcDbLine
 10
20.96810913085937
 20
-23.5
 30
0.0
 11
6.114486694335937
 21
-23.5
 31
0.0
  0
LINE
  5
DC
330
1F
100
AcDbEntity
  8
0
  6
Continuous
 62
     7
100
AcDbLine
 10
1.0
 20
-44.20001220703125
 30
0.0
 11
1.0
 21
-37.5
 31
0.0
  0
LINE
  5
DD
330
1F
100
AcDbEntity
  8
0
  6
Continuous
 62
     7
100
AcDbLine
 10
16.32270186567621
 20
-15.99998502429662
 30
0.0
 11
15.74533980512933
 21
-14.99996461901537
 31
0.0
  0
LINE
  5
DE
330
1F
100
AcDbEntity
  8
0
  6
Continuous
 62
     7
100
AcDbLine
 10
6.100006103515625
 20
-44.70001220703125
 30
0.0
 11
6.100006103515625
 21
-44.20001220703125
 31
0.0
  0
LINE
  5
DF
330
1F
100
AcDbEntity
  8
0
  6
Continuous
 62
     7
100
AcDbLine
 10
2.399997400258598
 20
-43.70001658731825
 30
0.0
 11
2.900008720646383
 21
-44.20002790770605
 31
0.0
  0
LINE
  5
E0
330
1F
100
AcDbEntity
  8
0
  6
Continuous
 62
     7
100
AcDbLine
 10
1.0
 20
7.5
 30
0.0
 11
1.0
 21
8.5
 31
0.0
  0
LINE
  5
E1
330
1F
100
AcDbEntity
  8
0
  6
Continuous
 62
     7
100
AcDbLine
 10
6.599997543097288
 20
-43.70001658731825
 30
0.0
 11
6.100007801895571
 21
-44.20000632851997
 31
0.0
  0
LINE
  5
E2
330
1F
100
AcDbEntity
  8
0
  6
Continuous
 62
     7
100
AcDbLine
 10
2.899993896484375
 20
-44.70001220703125
 30
0.0
 11
2.899993896484375
 21
-44.19995117187499
 31
0.0
  0
LINE
  5
E3
330
1F
100
AcDbEntity
  8
0
  6
Continuous
 62
     7
100
AcDbLine
 10
23.0
 20
-6.999966685125398
 30
0.0
 11
22.5
 21
-7.499966685125399
 31
0.0
  0
LINE
  5
E4
330
1F
100
AcDbEntity
  8
0
  6
Continuous
 62
     7
100
AcDbLine
 10
6.600006103515625
 20
-42.0999755859375
 30
0.0
 11
6.600006103515625
 21
-43.70001220703125
 31
0.0
  0
LINE
  5
E5
330
1F
100
AcDbEntity
  8
0
  6
Continuous
 62
     7
100
AcDbLine
 10
1.5
 20
-44.70001220703125
 30
0.0
 11
2.899993896484375
 21
-44.70001220703125
 31
0.0
  0
LINE
  5
E6
330
1F
100
AcDbEntity
  8
0
  6
Continuous
 62
     7
100
AcDbLine
 10
7.5
 20
-44.70001220703125
 30
0.0
 11
6.100006103515625
 21
-44.70001220703125
 31
0.0
  0
LINE
  5
E7
330
1F
100
AcDbEntity
  8
0
  6
Continuous
 62
     7
100
AcDbLine
 10
2.399993896484375
 20
-42.0999755859375
 30
0.0
 11
2.399993896484375
 21
-43.699951171875
 31
0.0
  0
LINE
  5
E8
330
1F
100
AcDbEntity
  8
0
  6
Continuous
 62
     7
100
AcDbLine
 10
23.0
 20
-23.00000339635517
 30
0.0
 11
23.0
 21
-37.5
 31
0.0
  0
LINE
  5
E9
330
1F
100
AcDbEntity
  8
0
  6
Continuous
 62
     7
100
AcDbLine
 10
22.5
 20
-7.499966685125399
 30
0.0
 11
22.5
 21
-22.50000339635517
 31
0.0
  0
LINE
  5
EA
330
1F
100
AcDbEntity
  8
0
  6
Continuous
 62
     7
100
AcDbLine
 10
23.0
 20
-23.00000339635517
 30
0.0
 11
22.5
 21
-22.50000339635517
 31
0.0
  0
LINE
  5
EB
330
1F
100
AcDbEntity
  8
0
  6
Continuous
 62
     7
100
AcDbLine
 10
0.0
 20
-38.5
 30
0.0
 11
1.0
 21
-38.5
 31
0.0
  0
LINE
  5
EC
330
1F
100
AcDbEntity
  8
0
  6
Continuous
 62
     7
100
AcDbLine
 10
8.0
 20
-44.20001220703125
 30
0.0
 11
8.0
 21
-37.5
 31
0.0
  0
LINE
  5
ED
330
1F
100
AcDbEntity
  8
0
  6
Continuous
 62
     7
100
AcDbLine
 10
8.0
 20
7.5
 30
0.0
 11
8.0
 21
8.5
 31
0.0
  0
LINE
  5
EE
330
1F
100
AcDbEntity
  8
0
  6
Continuous
 62
     7
100
AcDbLine
 10
8.0
 20
7.5
 30
0.0
 11
1.0
 21
7.5
 31
0.0
  0
LINE
  5
EF
330
1F
100
AcDbEntity
  8
0
  6
Continuous
 62
     7
100
AcDbLine
 10
1.0
 20
8.5
 30
0.0
 11
0.0
 21
8.5
 31
0.0
  0
LINE
  5
F0
330
1F
100
AcDbEntity
  8
0
  6
Continuous
 62
     7
100
AcDbLine
 10
9.813059143756618
 20
-21.94870899236412
 30
0.0
 11
16.68692423093853
 21
-25.91733692205161
 31
0.0
  0
LINE
  5
F1
330
1F
100
AcDbEntity
  8
0
  6
Continuous
 62
     7
100
AcDbLine
 10
10.31305914375661
 20
-21.0826836041233
 30
0.0
 11
17.18692423093853
 21
-25.05131153381081
 31
0.0
  0
LINE
  5
F2
330
1F
100
AcDbEntity
  8
0
  6
Continuous
 62
     7
100
AcDbLine
 10
23.0
 20
7.5
 30
0.0
 11
23.0
 21
-6.999966685125397
 31
0.0
  0
LINE
  5
F3
330
1F
100
AcDbEntity
  8
0
  6
Continuous
 62
     7
100
AcDbLine
 10
24.5
 20
6.0
 30
0.0
 11
24.5
 21
-36.0
 31
0.0
  0
LINE
  5
F4
330
1F
100
AcDbEntity
  8
0
  6
Continuous
 62
     7
100
AcDbLine
 10
16.32266154879653
 20
-14.00004094788892
 30
0.0
 11
15.74533000582778
 21
-15.00000849517528
 31
0.0
  0
LINE
  5
F5
330
1F
100
AcDbEntity
  8
0
  6
Continuous
 62
     2
100
AcDbLine
 10
27.2406005859375
 20
-15.0
 30
0.0
 11
-4.699191911503078
 21
-15.0
 31
0.0
  0
LINE
  5
F6
330
1F
100
AcDbEntity
  8
0
  6
Continuous
 62
     7
100
AcDbLine
 10
0.0
 20
8.5
 30
0.0
 11
0.0
 21
-6.999946089923469
 31
0.0
  0
LINE
  5
F7
330
1F
100
AcDbEntity
  8
0
  6
Continuous
 62
     7
100
AcDbLine
 10
25.0
 20
-4.9999666851254
 30
0.0
 11
24.50000251907841
 21
-5.499964166046992
 31
0.0
  0
LINE
  5
F8
330
1F
100
AcDbEntity
  8
0
  6
Continuous
 62
     7
100
AcDbLine
 10
25.0
 20
-25.00000339635517
 30
0.0
 11
24.50000251907841
 21
-24.50000591543358
 31
0.0
  0
LINE
  5
F9
330
1F
100
AcDbEntity
  8
0
  6
Continuous
 62
     7
100
AcDbLine
 10
22.0
 20
8.5
 30
0.0
 11
8.0
 21
8.5
 31
0.0
  0
LINE
  5
FA
330
1F
100
AcDbEntity
  8
0
  6
Continuous
 62
     7
100
AcDbLine
 10
9.522633163905991
 20
-15.99999660404865
 30
0.0
 11
8.945271103359118
 21
-14.9999761987674
 31
0.0
  0
LINE
  5
FB
330
1F
100
AcDbEntity
  8
0
  6
Continuous
 62
     7
100
AcDbLine
 10
17.47739058161096
 20
-13.99996461901537
 30
0.0
 11
18.05475264215784
 21
-14.99998502429662
 31
0.0
  0
LINE
  5
FC
330
1F
100
AcDbEntity
  8
0
  6
Continuous
 62
     7
100
AcDbLine
 10
24.0
 20
7.0
 30
0.0
 11
23.0
 21
7.0
 31
0.0
  0
LINE
  5
FD
330
1F
100
AcDbEntity
  8
0
  6
Continuous
 62
     7
100
AcDbLine
 10
16.32269287109375
 20
-16.0
 30
0.0
 11
17.4774169921875
 21
-16.0
 31
0.0
  0
LINE
  5
FE
330
1F
100
AcDbEntity
  8
0
  6
Continuous
 62
     7
100
AcDbLine
 10
17.47738078230941
 20
-16.00000849517528
 30
0.0
 11
18.05471232527816
 21
-15.00004094788892
 31
0.0
  0
LINE
  5
FF
330
1F
100
AcDbEntity
  8
0
  6
Continuous
 62
     7
100
AcDbLine
 10
24.0
 20
-37.0
 30
0.0
 11
23.0
 21
-37.0
 31
0.0
  0
LINE
  5
100
330
1F
100
AcDbEntity
  8
0
  6
Continuous
 62
     7
100
AcDbLine
 10
10.67730712890625
 20
-14.0
 30
0.0
 11
9.5225830078125
 21
-14.0
 31
0.0
  0
LINE
  5
101
330
1F
100
AcDbEntity
  8
0
  6
Continuous
 62
     7
100
AcDbLine
 10
16.32269287109375
 20
-14.0
 30
0.0
 11
17.4774169921875
 21
-14.0
 31
0.0
  0
LINE
  5
102
330
1F
100
AcDbEntity
  8
0
  6
Continuous
 62
     7
100
AcDbLine
 10
10.67730712890625
 20
-16.0
 30
0.0
 11
9.5225830078125
 21
-16.0
 31
0.0
  0
LINE
  5
103
330
1F
100
AcDbEntity
  8
0
  6
Continuous
 62
     2
100
AcDbLine
 10
13.5
 20
10.4000244140625
 30
0.0
 11
13.5
 21
-41.5999755859375
 31
0.0
  0
LINE
  5
104
330
1F
100
AcDbEntity
  8
0
  6
Continuous
 62
     7
100
AcDbLine
 10
10.67732187984075
 20
-13.9999761987674
 30
0.0
 11
11.25468394038762
 21
-14.99999660404865
 31
0.0
  0
LINE
  5
105
330
1F
100
AcDbEntity
  8
0
  6
Continuous
 62
     7
100
AcDbLine
 10
9.522592847026315
 20
-14.00002936813689
 30
0.0
 11
8.945261304057568
 21
-14.99999691542325
 31
0.0
  0
LINE
  5
106
330
1F
100
AcDbEntity
  8
0
  6
Continuous
 62
     7
100
AcDbLine
 10
10.67731208053919
 20
-15.99999691542325
 30
0.0
 11
11.25464362350794
 21
-15.00002936813689
 31
0.0
  0
LINE
  5
107
330
1F
100
AcDbEntity
  8
0
  6
Continuous
 62
     7
100
AcDbLine
 10
25.0
 20
-4.9999666851254
 30
0.0
 11
25.0
 21
5.999999999999999
 31
0.0
  0
LINE
  5
108
330
1F
100
AcDbEntity
  8
0
  6
Continuous
 62
     7
100
AcDbLine
 10
25.0
 20
-25.00000339635517
 30
0.0
 11
25.0
 21
-36.0
 31
0.0
  0
LINE
  5
109
330
1F
100
AcDbEntity
  8
0
  6
Continuous
 62
     7
100
AcDbLine
 10
8.0
 20
-37.5
 30
0.0
 11
1.0
 21
-37.5
 31
0.0
  0
LINE
  5
10A
330
1F
100
AcDbEntity
  8
0
  6
Continuous
 62
     7
100
AcDbLine
 10
8.0
 20
-38.5
 30
0.0
 11
22.0
 21
-38.5
 31
0.0
  0
CIRCLE
  5
10B
330
1F
100
AcDbEntity
  8
0
  6
Continuous
 62
     7
100
AcDbCircle
 10
3.849999997275176
 20
-42.20001268468478
 30
0.0
 40
0.5
  0
CIRCLE
  5
10C
330
1F
100
AcDbEntity
  8
0
  6
Continuous
 62
     7
100
AcDbCircle
 10
3.849999997275176
 20
-42.20001268468478
 30
0.0
 40
0.29
  0
CIRCLE
  5
10D
330
1F
100
AcDbEntity
  8
0
  6
Continuous
 62
     7
100
AcDbCircle
 10
4.5
 20
-42.20001268468478
 30
0.0
 40
1.300000000000011
  0
LINE
  5
10E
330
1F
100
AcDbEntity
  8
0
  6
Continuous
 62
     7
100
AcDbLine
 10
3.000000006130733
 20
-44.15001221316201
 30
0.0
 11
2.5
 21
-43.65001220703125
 31
0.0
  0
LINE
  5
10F
330
1F
100
AcDbEntity
  8
0
  6
Continuous
 62
     7
100
AcDbLine
 10
6.0
 20
-44.70001220703125
 30
0.0
 11
3.0
 21
-44.70001220703125
 31
0.0
  0
LINE
  5
110
330
1F
100
AcDbEntity
  8
0
  6
Continuous
 62
     7
100
AcDbLine
 10
5.75
 20
-44.93741160885373
 30
0.0
 11
3.25
 21
-44.93741160885373
 31
0.0
  0
LINE
  5
111
330
1F
100
AcDbEntity
  8
0
  6
Continuous
 62
     7
100
AcDbLine
 10
5.550000000000011
 20
-45.13741160885375
 30
0.0
 11
3.449999999999988
 21
-45.13741160885375
 31
0.0
  0
ARC
  5
112
330
1F
100
AcDbEntity
  8
0
  6
Continuous
 62
     7
100
AcDbCircle
 10
4.5
 20
-42.15001220703125
 30
0.0
 40
2.049999999999996
100
AcDbArc
 50
12.68038349181954
 51
167.3196165081805
  0
LINE
  5
113
330
1F
100
AcDbEntity
  8
0
  6
Continuous
 62
     7
100
AcDbLine
 10
3.0
 20
-44.15001220703125
 30
0.0
 11
3.0
 21
-44.70001220975602
 31
0.0
  0
LINE
  5
114
330
1F
100
AcDbEntity
  8
0
  6
Continuous
 62
     7
100
AcDbLine
 10
3.25
 20
-44.93741160885373
 30
0.0
 11
3.25
 21
-44.70001220703125
 31
0.0
  0
LINE
  5
115
330
1F
100
AcDbEntity
  8
0
  6
Continuous
 62
     7
100
AcDbLine
 10
3.449999999999988
 20
-45.13741160885375
 30
0.0
 11
3.25
 21
-44.93741160885373
 31
0.0
  0
LINE
  5
116
330
1F
100
AcDbEntity
  8
0
  6
Continuous
 62
     2
100
AcDbLine
 10
3.449999999999988
 20
-44.70001220703125
 30
0.0
 11
3.449999999999988
 21
-45.13741160885375
 31
0.0
  0
CIRCLE
  5
117
330
1F
100
AcDbEntity
  8
0
  6
Continuous
 62
     7
100
AcDbCircle
 10
5.150000002724767
 20
-42.20001268468481
 30
0.0
 40
0.5
  0
CIRCLE
  5
118
330
1F
100
AcDbEntity
  8
0
  6
Continuous
 62
     7
100
AcDbCircle
 10
5.150000002724767
 20
-42.20001268468481
 30
0.0
 40
0.29
  0
LINE
  5
119
330
1F
100
AcDbEntity
  8
0
  6
Continuous
 62
     7
100
AcDbLine
 10
6.5
 20
-43.65027262369792
 30
0.0
 11
6.0
 21
-44.15287679036457
 31
0.0
  0
LINE
  5
11A
330
1F
100
AcDbEntity
  8
0
  6
Continuous
 62
     7
100
AcDbLine
 10
6.0
 20
-44.15287679036457
 30
0.0
 11
6.0
 21
-44.70001220975602
 31
0.0
  0
LINE
  5
11B
330
1F
100
AcDbEntity
  8
0
  6
Continuous
 62
     7
100
AcDbLine
 10
5.75
 20
-44.70001220703125
 30
0.0
 11
5.75
 21
-44.93741160885373
 31
0.0
  0
LINE
  5
11C
330
1F
100
AcDbEntity
  8
0
  6
Continuous
 62
     7
100
AcDbLine
 10
5.75
 20
-44.93741160885373
 30
0.0
 11
5.550000000000011
 21
-45.13741160885375
 31
0.0
  0
LINE
  5
11D
330
1F
100
AcDbEntity
  8
0
  6
Continuous
 62
     2
100
AcDbLine
 10
5.550000000000011
 20
-44.70001220703125
 30
0.0
 11
5.550000000000011
 21
-45.13741160885375
 31
0.0
  0
LINE
  5
11E
330
1F
100
AcDbEntity
  8
0
  6
Continuous
 62
     7
100
AcDbLine
 10
2.5
 20
-41.70001220703126
 30
0.0
 11
2.5
 21
-43.65001220703125
 31
0.0
  0
LINE
  5
11F
330
1F
100
AcDbEntity
  8
0
  6
Continuous
 62
     7
100
AcDbLine
 10
6.5
 20
-41.70001220703126
 30
0.0
 11
6.5
 21
-43.65027262369792
 31
0.0
  0
LINE
  5
120
330
1F
100
AcDbEntity
  8
0
  6
Continuous
 62
     2
100
AcDbLine
 10
-3.0
 20
0.0
 30
0.0
 11
3.0
 21
0.0
 31
0.0
  0
LINE
  5
121
330
1F
100
AcDbEntity
  8
0
  6
Continuous
 62
     2
100
AcDbLine
 10
-3.0
 20
-30.0
 30
0.0
 11
3.0
 21
-30.0
 31
0.0
  0
LINE
  5
122
330
1F
100
AcDbEntity
  8
0
  6
Continuous
 62
     2
100
AcDbLine
 10
22.0
 20
2.0
 30
0.0
 11
28.0
 21
2.0
 31
0.0
  0
LINE
  5
123
330
1F
100
AcDbEntity
  8
0
  6
Continuous
 62
     2
100
AcDbLine
 10
22.0
 20
-32.0
 30
0.0
 11
28.0
 21
-32.0
 31
0.0
  0
ENDBLK
  5
124
330
1F
100
AcDbEntity
  8
0
100
AcDbBlockEnd
  0
BLOCK
  5
125
330
20
100
AcDbEntity
  8
0
100
AcDbBlockBegin
  2
MRVS14-3
 70
     0
 10
0.0
 20
0.0
 30
0.0
  3
MRVS14-3
  1

  0
LINE
  5
126
330
20
100
AcDbEntity
  8
0
  6
Continuous
 62
     2
100
AcDbLine
 10
36.0
 20
29.21450805664063
 30
0.0
 11
36.0
 21
-3.134552001953125
 31
0.0
  0
LINE
  5
127
330
20
100
AcDbEntity
  8
0
  6
Continuous
 62
     7
100
AcDbLine
 10
167.0
 20
18.0
 30
0.0
 11
162.0
 21
18.0
 31
0.0
  0
LINE
  5
128
330
20
100
AcDbEntity
  8
0
  6
Continuous
 62
     7
100
AcDbLine
 10
-5.0
 20
1.0
 30
0.0
 11
177.0
 21
1.0
 31
0.0
  0
LINE
  5
129
330
20
100
AcDbEntity
  8
0
  6
Continuous
 62
     7
100
AcDbLine
 10
177.0
 20
23.0
 30
0.0
 11
177.0
 21
0.0
 31
0.0
  0
LINE
  5
12A
330
20
100
AcDbEntity
  8
0
  6
Continuous
 62
     7
100
AcDbLine
 10
162.0
 20
23.0
 30
0.0
 11
162.0
 21
8.0
 31
0.0
  0
LINE
  5
12B
330
20
100
AcDbEntity
  8
0
  6
Continuous
 62
     7
100
AcDbLine
 10
162.0
 20
0.0
 30
0.0
 11
177.0
 21
0.0
 31
0.0
  0
LINE
  5
12C
330
20
100
AcDbEntity
  8
0
  6
Continuous
 62
     7
100
AcDbLine
 10
162.0
 20
23.0
 30
0.0
 11
177.0
 21
23.0
 31
0.0
  0
LINE
  5
12D
330
20
100
AcDbEntity
  8
0
  6
Continuous
 62
     2
100
AcDbLine
 10
167.5
 20
17.5
 30
0.0
 11
167.5
 21
9.5
 31
0.0
  0
LINE
  5
12E
330
20
100
AcDbEntity
  8
0
  6
Continuous
 62
     7
100
AcDbLine
 10
58.0
 20
19.29998779296875
 30
0.0
 11
160.5
 21
19.29998779296875
 31
0.0
  0
LINE
  5
12F
330
20
100
AcDbEntity
  8
0
  6
Continuous
 62
     7
100
AcDbLine
 10
167.0
 20
23.0
 30
0.0
 11
167.0
 21
18.0
 31
0.0
  0
LINE
  5
130
330
20
100
AcDbEntity
  8
0
  6
Continuous
 62
     7
100
AcDbLine
 10
160.7479073940394
 20
22.7792222930732
 30
0.0
 11
161.9999998998919
 21
22.99999999057695
 31
0.0
  0
LINE
  5
131
330
20
100
AcDbEntity
  8
0
  6
Continuous
 62
     7
100
AcDbLine
 10
162.0
 20
22.0
 30
0.0
 11
167.0
 21
22.0
 31
0.0
  0
LINE
  5
132
330
20
100
AcDbEntity
  8
0
  6
Continuous
 62
     7
100
AcDbLine
 10
160.7479060286309
 20
18.22077695129429
 30
0.0
 11
162.0
 21
17.9999989953804
 31
0.0
  0
LINE
  5
133
330
20
100
AcDbEntity
  8
0
  6
Continuous
 62
     7
100
AcDbLine
 10
160.5
 20
18.51622009277344
 30
0.0
 11
160.5
 21
22.48377990722656
 31
0.0
  0
LINE
  5
134
330
20
100
AcDbEntity
  8
0
  6
Continuous
 62
     7
100
AcDbLine
 10
5.0
 20
23.0
 30
0.0
 11
5.0
 21
18.0
 31
0.0
  0
LINE
  5
135
330
20
100
AcDbEntity
  8
0
  6
Continuous
 62
     7
100
AcDbLine
 10
14.0
 20
10.0
 30
0.0
 11
16.5
 21
10.0
 31
0.0
  0
LINE
  5
136
330
20
100
AcDbEntity
  8
0
  6
Continuous
 62
     7
100
AcDbLine
 10
10.0
 20
23.0
 30
0.0
 11
-5.0
 21
23.0
 31
0.0
  0
LINE
  5
137
330
20
100
AcDbEntity
  8
0
  6
Continuous
 62
     7
100
AcDbLine
 10
14.0
 20
10.93782043457031
 30
0.0
 11
16.5
 21
10.93782043457031
 31
0.0
  0
LINE
  5
138
330
20
100
AcDbEntity
  8
0
  6
Continuous
 62
     7
100
AcDbLine
 10
11.5
 20
15.75
 30
0.0
 11
11.5
 21
11.25
 31
0.0
  0
LINE
  5
139
330
20
100
AcDbEntity
  8
0
  6
Continuous
 62
     7
100
AcDbLine
 10
-5.0
 20
8.0
 30
0.0
 11
177.0
 21
8.0
 31
0.0
  0
LINE
  5
13A
330
20
100
AcDbEntity
  8
0
  6
Continuous
 62
     7
100
AcDbLine
 10
15.5999755859375
 20
25.0
 30
0.0
 11
56.29998779296875
 21
25.0
 31
0.0
  0
LINE
  5
13B
330
20
100
AcDbEntity
  8
0
  6
Continuous
 62
     7
100
AcDbLine
 10
-5.0
 20
23.0
 30
0.0
 11
-5.0
 21
0.0
 31
0.0
  0
LINE
  5
13C
330
20
100
AcDbEntity
  8
0
  6
Continuous
 62
     7
100
AcDbLine
 10
10.0
 20
23.0
 30
0.0
 11
10.0
 21
8.0
 31
0.0
  0
LINE
  5
13D
330
20
100
AcDbEntity
  8
0
  6
Continuous
 62
     7
100
AcDbLine
 10
5.0
 20
18.0
 30
0.0
 11
10.0
 21
18.0
 31
0.0
  0
LINE
  5
13E
330
20
100
AcDbEntity
  8
0
  6
Continuous
 62
     7
100
AcDbLine
 10
-5.0
 20
0.0
 30
0.0
 11
10.0
 21
0.0
 31
0.0
  0
LINE
  5
13F
330
20
100
AcDbEntity
  8
0
  6
Continuous
 62
     7
100
AcDbLine
 10
11.5
 20
19.29998779296875
 30
0.0
 11
14.0
 21
19.29998779296875
 31
0.0
  0
LINE
  5
140
330
20
100
AcDbEntity
  8
0
  6
Continuous
 62
     7
100
AcDbLine
 10
15.5999755859375
 20
24.5
 30
0.0
 11
14.0
 21
24.5
 31
0.0
  0
LINE
  5
141
330
20
100
AcDbEntity
  8
0
  6
Continuous
 62
     2
100
AcDbLine
 10
4.5
 20
17.5
 30
0.0
 11
4.5
 21
9.5
 31
0.0
  0
LINE
  5
142
330
20
100
AcDbEntity
  8
0
  6
Continuous
 62
     7
100
AcDbLine
 10
56.4000244140625
 20
25.0
 30
0.0
 11
56.4000244140625
 21
8.0
 31
0.0
  0
LINE
  5
143
330
20
100
AcDbEntity
  8
0
  6
Continuous
 62
     7
100
AcDbLine
 10
56.4000244140625
 20
24.5
 30
0.0
 11
58.0
 21
24.5
 31
0.0
  0
LINE
  5
144
330
20
100
AcDbEntity
  8
0
  6
Continuous
 62
     7
100
AcDbLine
 10
14.0
 20
24.5
 30
0.0
 11
14.0
 21
8.0
 31
0.0
  0
LINE
  5
145
330
20
100
AcDbEntity
  8
0
  6
Continuous
 62
     7
100
AcDbLine
 10
15.5999755859375
 20
25.0
 30
0.0
 11
15.5999755859375
 21
8.0
 31
0.0
  0
LINE
  5
146
330
20
100
AcDbEntity
  8
0
  6
Continuous
 62
     7
100
AcDbLine
 10
58.0
 20
24.5
 30
0.0
 11
58.0
 21
8.0
 31
0.0
  0
LINE
  5
147
330
20
100
AcDbEntity
  8
0
  6
Continuous
 62
     7
100
AcDbLine
 10
58.0
 20
11.25
 30
0.0
 11
60.5
 21
11.25
 31
0.0
  0
LINE
  5
148
330
20
100
AcDbEntity
  8
0
  6
Continuous
 62
     7
100
AcDbLine
 10
60.5
 20
11.25
 30
0.0
 11
60.5
 21
15.75
 31
0.0
  0
LINE
  5
149
330
20
100
AcDbEntity
  8
0
  6
Continuous
 62
     7
100
AcDbLine
 10
14.0
 20
15.75
 30
0.0
 11
11.5
 21
15.75
 31
0.0
  0
LINE
  5
14A
330
20
100
AcDbEntity
  8
0
  6
Continuous
 62
     7
100
AcDbLine
 10
14.0
 20
11.25
 30
0.0
 11
11.5
 21
11.25
 31
0.0
  0
LINE
  5
14B
330
20
100
AcDbEntity
  8
0
  6
Continuous
 62
     7
100
AcDbLine
 10
58.0
 20
15.75
 30
0.0
 11
60.5
 21
15.75
 31
0.0
  0
LINE
  5
14C
330
20
100
AcDbEntity
  8
0
  6
Continuous
 62
     7
100
AcDbLine
 10
11.5
 20
18.51622009277344
 30
0.0
 11
11.5
 21
22.48377990722656
 31
0.0
  0
LINE
  5
14D
330
20
100
AcDbEntity
  8
0
  6
Continuous
 62
     7
100
AcDbLine
 10
11.25210294799671
 20
18.22078071541545
 30
0.0
 11
10.0
 21
18.00000117667988
 31
0.0
  0
LINE
  5
14E
330
20
100
AcDbEntity
  8
0
  6
Continuous
 62
     7
100
AcDbLine
 10
10.0
 20
22.0
 30
0.0
 11
5.0
 21
22.0
 31
0.0
  0
LINE
  5
14F
330
20
100
AcDbEntity
  8
0
  6
Continuous
 62
     7
100
AcDbLine
 10
11.25209031235818
 20
22.77922051619771
 30
0.0
 11
10.0
 21
22.99999782692923
 31
0.0
  0
LINE
  5
150
330
20
100
AcDbEntity
  8
0
  6
Continuous
 62
     7
100
AcDbLine
 10
166.0
 20
6.75
 30
0.0
 11
165.0
 21
6.75
 31
0.0
  0
LINE
  5
151
330
20
100
AcDbEntity
  8
0
  6
Continuous
 62
     7
100
AcDbLine
 10
174.5
 20
6.100006103515625
 30
0.0
 11
167.5819244384765
 21
6.100006103515625
 31
0.0
  0
LINE
  5
152
330
20
100
AcDbEntity
  8
0
  6
Continuous
 62
     7
100
AcDbLine
 10
174.5
 20
2.899993896484375
 30
0.0
 11
167.5819244384765
 21
2.899993896484375
 31
0.0
  0
LINE
  5
153
330
20
100
AcDbEntity
  8
0
  6
Continuous
 62
     7
100
AcDbLine
 10
166.3838686231263
 20
3.61613289210959
 30
0.0
 11
164.616112490007
 21
5.383889025228882
 31
0.0
  0
LINE
  5
154
330
20
100
AcDbEntity
  8
0
  6
Continuous
 62
     7
100
AcDbLine
 10
164.616112490007
 20
3.616122102516556
 30
0.0
 11
166.3838794127194
 21
5.383889025228882
 31
0.0
  0
LINE
  5
155
330
20
100
AcDbEntity
  8
0
  6
Continuous
 62
     7
100
AcDbLine
 10
166.0
 20
2.25
 30
0.0
 11
165.0
 21
2.25
 31
0.0
  0
LINE
  5
156
330
20
100
AcDbEntity
  8
0
  6
Continuous
 62
     7
100
AcDbLine
 10
174.5
 20
8.0
 30
0.0
 11
174.5
 21
1.0
 31
0.0
  0
LINE
  5
157
330
20
100
AcDbEntity
  8
0
  6
Continuous
 62
     7
100
AcDbLine
 10
8.08192443847656
 20
6.100006103515625
 30
0.0
 11
163.4180755615234
 21
6.100006103515625
 31
0.0
  0
LINE
  5
158
330
20
100
AcDbEntity
  8
0
  6
Continuous
 62
     7
100
AcDbLine
 10
17.02276611328125
 20
9.6163330078125
 30
0.0
 11
54.94464111328125
 21
9.6163330078125
 31
0.0
  0
LINE
  5
159
330
20
100
AcDbEntity
  8
0
  6
Continuous
 62
     7
100
AcDbLine
 10
16.5
 20
11.03526306152343
 30
0.0
 11
16.5
 21
8.0
 31
0.0
  0
LINE
  5
15A
330
20
100
AcDbEntity
  8
0
  6
Continuous
 62
     7
100
AcDbLine
 10
16.5
 20
10.55230712890625
 30
0.0
 11
55.5
 21
10.55230712890625
 31
0.0
  0
LINE
  5
15B
330
20
100
AcDbEntity
  8
0
  6
Continuous
 62
     7
100
AcDbLine
 10
16.5
 20
11.03526306152343
 30
0.0
 11
55.5
 21
11.03526306152343
 31
0.0
  0
LINE
  5
15C
330
20
100
AcDbEntity
  8
0
  6
Continuous
 62
     7
100
AcDbLine
 10
55.5
 20
11.03526306152343
 30
0.0
 11
55.5
 21
8.0
 31
0.0
  0
LINE
  5
15D
330
20
100
AcDbEntity
  8
0
  6
Continuous
 62
     7
100
AcDbLine
 10
55.5
 20
10.93782043457031
 30
0.0
 11
58.0
 21
10.93782043457031
 31
0.0
  0
LINE
  5
15E
330
20
100
AcDbEntity
  8
0
  6
Continuous
 62
     7
100
AcDbLine
 10
55.5
 20
10.0
 30
0.0
 11
58.0
 21
10.0
 31
0.0
  0
LINE
  5
15F
330
20
100
AcDbEntity
  8
0
  6
Continuous
 62
     7
100
AcDbLine
 10
21.5
 20
8.75
 30
0.0
 11
21.5
 21
8.0
 31
0.0
  0
LINE
  5
160
330
20
100
AcDbEntity
  8
0
  6
Continuous
 62
     7
100
AcDbLine
 10
50.5
 20
8.75
 30
0.0
 11
50.5
 21
8.0
 31
0.0
  0
LINE
  5
161
330
20
100
AcDbEntity
  8
0
  6
Continuous
 62
     7
100
AcDbLine
 10
21.5
 20
8.75
 30
0.0
 11
50.5
 21
8.75
 31
0.0
  0
LINE
  5
162
330
20
100
AcDbEntity
  8
0
  6
Continuous
 62
     7
100
AcDbLine
 10
-2.5
 20
8.0
 30
0.0
 11
-2.5
 21
1.0
 31
0.0
  0
LINE
  5
163
330
20
100
AcDbEntity
  8
0
  6
Continuous
 62
     7
100
AcDbLine
 10
5.616121778686647
 20
3.616119405118297
 30
0.0
 11
7.383894096195489
 21
5.38389172262714
 31
0.0
  0
LINE
  5
164
330
20
100
AcDbEntity
  8
0
  6
Continuous
 62
     7
100
AcDbLine
 10
-2.5
 20
6.100006103515625
 30
0.0
 11
4.918075561523437
 21
6.100006103515625
 31
0.0
  0
LINE
  5
165
330
20
100
AcDbEntity
  8
0
  6
Continuous
 62
     7
100
AcDbLine
 10
7.383894096195489
 20
3.616124799914815
 30
0.0
 11
5.616127173483164
 21
5.38389172262714
 31
0.0
  0
LINE
  5
166
330
20
100
AcDbEntity
  8
0
  6
Continuous
 62
     7
100
AcDbLine
 10
-2.5
 20
2.899993896484375
 30
0.0
 11
4.918075561523437
 21
2.899993896484375
 31
0.0
  0
LINE
  5
167
330
20
100
AcDbEntity
  8
0
  6
Continuous
 62
     7
100
AcDbLine
 10
8.08192443847656
 20
2.899993896484375
 30
0.0
 11
163.4180755615234
 21
2.899993896484375
 31
0.0
  0
LINE
  5
168
330
20
100
AcDbEntity
  8
0
  6
Continuous
 62
     7
100
AcDbLine
 10
10.0
 20
1.0
 30
0.0
 11
10.0
 21
0.0
 31
0.0
  0
LINE
  5
169
330
20
100
AcDbEntity
  8
0
  6
Continuous
 62
     7
100
AcDbLine
 10
162.0
 20
1.0
 30
0.0
 11
162.0
 21
0.0
 31
0.0
  0
CIRCLE
  5
16A
330
20
100
AcDbEntity
  8
0
  6
Continuous
 62
     7
100
AcDbCircle
 10
167.5
 20
13.5
 30
0.0
 40
2.0
  0
CIRCLE
  5
16B
330
20
100
AcDbEntity
  8
0
  6
Continuous
 62
     2
100
AcDbCircle
 10
167.5
 20
13.5
 30
0.0
 40
2.5
  0
CIRCLE
  5
16C
330
20
100
AcDbEntity
  8
0
  6
Continuous
 62
     7
100
AcDbCircle
 10
167.5
 20
13.5
 30
0.0
 40
1.0
  0
ARC
  5
16D
330
20
100
AcDbEntity
  8
0
  6
Continuous
 62
     7
100
AcDbCircle
 10
160.8000030517578
 20
22.48377990722656
 30
0.0
 40
0.3000000119209289
100
AcDbArc
 50
100.0000005060238
 51
180.0000050089563
  0
ARC
  5
16E
330
20
100
AcDbEntity
  8
0
  6
Continuous
 62
     7
100
AcDbCircle
 10
160.8000030517578
 20
18.51622009277344
 30
0.0
 40
0.3000000119209289
100
AcDbArc
 50
180.000008651422
 51
259.9999926637871
  0
CIRCLE
  5
16F
330
20
100
AcDbEntity
  8
0
  6
Continuous
 62
     7
100
AcDbCircle
 10
4.5
 20
13.5
 30
0.0
 40
2.0
  0
CIRCLE
  5
170
330
20
100
AcDbEntity
  8
0
  6
Continuous
 62
     2
100
AcDbCircle
 10
4.5
 20
13.5
 30
0.0
 40
2.5
  0
CIRCLE
  5
171
330
20
100
AcDbEntity
  8
0
  6
Continuous
 62
     7
100
AcDbCircle
 10
4.5
 20
13.5
 30
0.0
 40
1.0
  0
ARC
  5
172
330
20
100
AcDbEntity
  8
0
  6
Continuous
 62
     7
100
AcDbCircle
 10
11.20001220703125
 20
22.48377990722656
 30
0.0
 40
0.3000000119209289
100
AcDbArc
 50
359.999997495522
 51
79.99999767274336
  0
ARC
  5
173
330
20
100
AcDbEntity
  8
0
  6
Continuous
 62
     7
100
AcDbCircle
 10
11.20001220703125
 20
18.51622009277344
 30
0.0
 40
0.3000000119209289
100
AcDbArc
 50
280.0000091574457
 51
359.999997495522
  0
ARC
  5
174
330
20
100
AcDbEntity
  8
0
  6
Continuous
 62
     7
100
AcDbCircle
 10
166.0
 20
4.5
 30
0.0
 40
2.25
100
AcDbArc
 50
269.9999974955218
 51
90.00000250447817
  0
CIRCLE
  5
175
330
20
100
AcDbEntity
  8
0
  6
Continuous
 62
     7
100
AcDbCircle
 10
165.5
 20
4.5
 30
0.0
 40
1.75
  0
ARC
  5
176
330
20
100
AcDbEntity
  8
0
  6
Continuous
 62
     7
100
AcDbCircle
 10
165.0
 20
4.5
 30
0.0
 40
2.25
100
AcDbArc
 50
90.00000250447817
 51
270.0000006832453
  0
CIRCLE
  5
177
330
20
100
AcDbEntity
  8
0
  6
Continuous
 62
     7
100
AcDbCircle
 10
6.5
 20
4.5
 30
0.0
 40
2.25
  0
CIRCLE
  5
178
330
20
100
AcDbEntity
  8
0
  6
Continuous
 62
     7
100
AcDbCircle
 10
6.5
 20
4.5
 30
0.0
 40
1.75
  0
LINE
  5
17A
330
20
100
AcDbEntity
  8
0
  6
CENTER
 62
     2
100
AcDbLine
 10
43.41040175778528
 20
4.5
 30
0.0
 11
20.4971131639723
 21
4.5
 31
0.0
  0
LINE
  5
17B
330
20
100
AcDbEntity
  8
0
  6
Continuous
 62
     7
100
AcDbLine
 10
40.68924868583678
 20
5.542802072252555
 30
0.0
 11
38.95719789232528
 21
3.810751278741008
 31
0.0
  0
LINE
  5
17C
330
20
100
AcDbEntity
  8
0
  6
Continuous
 62
     7
100
AcDbLine
 10
41.04280210609306
 20
5.189248697879008
 30
0.0
 11
39.31075130212099
 21
3.457197893906964
 31
0.0
  0
CIRCLE
  5
17D
330
20
100
AcDbEntity
  8
0
  6
Continuous
 62
     2
100
AcDbCircle
 10
40.0
 20
4.5
 30
0.0
 40
1.05
  0
CIRCLE
  5
17E
330
20
100
AcDbEntity
  8
0
  6
Continuous
 62
     7
100
AcDbCircle
 10
40.0
 20
4.5
 30
0.0
 40
1.25
  0
CIRCLE
  5
17F
330
20
100
AcDbEntity
  8
0
  6
Continuous
 62
     7
100
AcDbCircle
 10
40.0
 20
4.5
 30
0.0
 40
1.399999999999999
  0
LINE
  5
180
330
20
100
AcDbEntity
  8
0
  6
Continuous
 62
     7
100
AcDbLine
 10
42.00000000476836
 20
6.0
 30
0.0
 11
26.5
 21
6.0
 31
0.0
  0
LINE
  5
181
330
20
100
AcDbEntity
  8
0
  6
Continuous
 62
     7
100
AcDbLine
 10
42.00000000476836
 20
3.0
 30
0.0
 11
26.5
 21
3.0
 31
0.0
  0
LINE
  5
182
330
20
100
AcDbEntity
  8
0
  6
Continuous
 62
     7
100
AcDbLine
 10
26.5
 20
6.100006103515625
 30
0.0
 11
26.5
 21
2.899993896484375
 31
0.0
  0
LINE
  5
183
330
20
100
AcDbEntity
  8
0
  6
Continuous
 62
     7
100
AcDbLine
 10
42.00000000476836
 20
6.100006103515625
 30
0.0
 11
42.00000000476836
 21
2.899993896484375
 31
0.0
  0
LINE
  5
184
330
20
100
AcDbEntity
  8
0
  6
Continuous
 62
     7
100
AcDbLine
 10
31.60000000000002
 20
6.0
 30
0.0
 11
31.60000000000002
 21
3.0
 31
0.0
  0
LINE
  5
185
330
20
100
AcDbEntity
  8
0
  6
Continuous
 62
     7
100
AcDbLine
 10
38.10000000000002
 20
6.0
 30
0.0
 11
38.10000000000002
 21
3.0
 31
0.0
  0
LINE
  5
186
330
20
100
AcDbEntity
  8
0
  6
Continuous
 62
     2
100
AcDbLine
 10
40.0
 20
1.557142857142849
 30
0.0
 11
40.0
 21
7.799984673423465
 31
0.0
  0
LINE
  5
187
330
20
100
AcDbEntity
  8
0
  6
Continuous
 62
     7
100
AcDbLine
 10
26.5
 20
3.199999999999988
 30
0.0
 11
24.24769053117785
 21
3.199999999999988
 31
0.0
  0
LINE
  5
188
330
20
100
AcDbEntity
  8
0
  6
Continuous
 62
     7
100
AcDbLine
 10
26.5
 20
5.799999999999997
 30
0.0
 11
22.74653579676675
 21
5.799999999999997
 31
0.0
  0
LINE
  5
189
330
20
100
AcDbEntity
  8
0
  6
Continuous
 62
     2
100
AcDbLine
 10
24.24769053117785
 20
3.199999999999988
 30
0.0
 11
22.74653579676675
 21
5.799999999999997
 31
0.0
  0
LINE
  5
18A
330
20
100
AcDbEntity
  8
0
  6
Continuous
 62
     2
100
AcDbLine
 10
139.9999999952316
 20
1.557142857142849
 30
0.0
 11
139.9999999952316
 21
7.799984673423465
 31
0.0
  0
LINE
  5
18B
330
20
100
AcDbEntity
  8
0
  6
Continuous
 62
     2
100
AcDbLine
 10
124.2476905264095
 20
3.199999999999988
 30
0.0
 11
122.7465357919983
 21
5.799999999999997
 31
0.0
  0
LINE
  5
18C
330
20
100
AcDbEntity
  8
0
  6
Continuous
 62
     7
100
AcDbLine
 10
126.4999999952316
 20
5.799999999999997
 30
0.0
 11
122.7465357919983
 21
5.799999999999997
 31
0.0
  0
LINE
  5
18D
330
20
100
AcDbEntity
  8
0
  6
Continuous
 62
     7
100
AcDbLine
 10
126.4999999952316
 20
3.199999999999988
 30
0.0
 11
124.2476905264095
 21
3.199999999999988
 31
0.0
  0
LINE
  5
18E
330
20
100
AcDbEntity
  8
0
  6
Continuous
 62
     7
100
AcDbLine
 10
138.0999999952316
 20
6.0
 30
0.0
 11
138.0999999952316
 21
3.0
 31
0.0
  0
LINE
  5
18F
330
20
100
AcDbEntity
  8
0
  6
Continuous
 62
     7
100
AcDbLine
 10
131.5999999952316
 20
6.0
 30
0.0
 11
131.5999999952316
 21
3.0
 31
0.0
  0
LINE
  5
190
330
20
100
AcDbEntity
  8
0
  6
Continuous
 62
     7
100
AcDbLine
 10
142.0
 20
6.100006103515625
 30
0.0
 11
142.0
 21
2.899993896484375
 31
0.0
  0
LINE
  5
191
330
20
100
AcDbEntity
  8
0
  6
Continuous
 62
     7
100
AcDbLine
 10
126.4999999952316
 20
6.100006103515625
 30
0.0
 11
126.4999999952316
 21
2.899993896484375
 31
0.0
  0
LINE
  5
192
330
20
100
AcDbEntity
  8
0
  6
Continuous
 62
     7
100
AcDbLine
 10
142.0
 20
3.0
 30
0.0
 11
126.4999999952316
 21
3.0
 31
0.0
  0
LINE
  5
193
330
20
100
AcDbEntity
  8
0
  6
Continuous
 62
     7
100
AcDbLine
 10
142.0
 20
6.0
 30
0.0
 11
126.4999999952316
 21
6.0
 31
0.0
  0
CIRCLE
  5
194
330
20
100
AcDbEntity
  8
0
  6
Continuous
 62
     7
100
AcDbCircle
 10
139.9999999952316
 20
4.5
 30
0.0
 40
1.399999999999999
  0
CIRCLE
  5
195
330
20
100
AcDbEntity
  8
0
  6
Continuous
 62
     7
100
AcDbCircle
 10
139.9999999952316
 20
4.5
 30
0.0
 40
1.25
  0
CIRCLE
  5
196
330
20
100
AcDbEntity
  8
0
  6
Continuous
 62
     2
100
AcDbCircle
 10
139.9999999952316
 20
4.5
 30
0.0
 40
1.05
  0
LINE
  5
197
330
20
100
AcDbEntity
  8
0
  6
Continuous
 62
     7
100
AcDbLine
 10
141.0428021013247
 20
5.189248697879008
 30
0.0
 11
139.3107512973526
 21
3.457197893906964
 31
0.0
  0
LINE
  5
198
330
20
100
AcDbEntity
  8
0
  6
Continuous
 62
     7
100
AcDbLine
 10
140.6892486810684
 20
5.542802072252555
 30
0.0
 11
138.9571978875569
 21
3.810751278741008
 31
0.0
  0
LINE
  5
199
330
20
100
AcDbEntity
  8
0
  6
CENTER
 62
     2
100
AcDbLine
 10
143.4104017530169
 20
4.5
 30
0.0
 11
120.4971131592039
 21
4.5
 31
0.0
  0
LINE
  5
19A
330
20
100
AcDbEntity
  8
0
  6
Continuous
 62
     2
100
AcDbLine
 10
51.0
 20
22.0
 30
0.0
 11
51.0
 21
28.0
 31
0.0
  0
LINE
  5
19B
330
20
100
AcDbEntity
  8
0
  6
Continuous
 62
     2
100
AcDbLine
 10
21.0
 20
22.0
 30
0.0
 11
21.0
 21
28.0
 31
0.0
  0
LINE
  5
19C
330
20
100
AcDbEntity
  8
0
  6
Continuous
 62
     2
100
AcDbLine
 10
0.0
 20
-3.0
 30
0.0
 11
0.0
 21
3.0
 31
0.0
  0
LINE
  5
19D
330
20
100
AcDbEntity
  8
0
  6
Continuous
 62
     2
100
AcDbLine
 10
172.0
 20
-3.0
 30
0.0
 11
172.0
 21
3.0
 31
0.0
  0
LINE
  5
19E
330
20
100
AcDbEntity
  8
0
  6
PHANTOM
 62
     3
100
AcDbLine
 10
95.0
 20
59.89758582502767
 30
0.0
 11
95.0
 21
-46.37585684210526
 31
0.0
  0
LINE
  5
19F
330
20
100
AcDbEntity
  8
0
  6
Continuous
 62
     2
100
AcDbLine
 10
-8.0
 20
13.5
 30
0.0
 11
180.0
 21
13.5
 31
0.0
  0
ENDBLK
  5
1A0
330
20
100
AcDbEntity
  8
0
100
AcDbBlockEnd
  0
BLOCK
  5
1A1
330
21
100
AcDbEntity
  8
0
100
AcDbBlockBegin
  2
MRVS14-4
 70
     0
 10
0.0
 20
0.0
 30
0.0
  3
MRVS14-4
  1

  0
LINE
  5
1A2
330
21
100
AcDbEntity
  8
0
  6
Continuous
 62
     2
100
AcDbLine
 10
167.5
 20
-42.0
 30
0.0
 11
167.5
 21
-35.0
 31
0.0
  0
LINE
  5
1A3
330
21
100
AcDbEntity
  8
0
  6
Continuous
 62
     2
100
AcDbLine
 10
4.5
 20
-42.0
 30
0.0
 11
4.5
 21
-35.0
 31
0.0
  0
ARC
  5
1A4
330
21
100
AcDbEntity
  8
0
  6
Continuous
 62
     7
100
AcDbCircle
 10
57.50001525878906
 20
-38.5
 30
0.0
 40
1.0
100
AcDbArc
 50
270.0000111559001
 51
0.0000043257111045
  0
ARC
  5
1A5
330
21
100
AcDbEntity
  8
0
  6
Continuous
 62
     7
100
AcDbCircle
 10
60.50001525878906
 20
9.0
 30
0.0
 40
4.0
100
AcDbArc
 50
359.9999906653324
 51
90.00000250447817
  0
ARC
  5
1A6
330
21
100
AcDbEntity
  8
0
  6
Continuous
 62
     7
100
AcDbCircle
 10
11.49998474121094
 20
-39.0
 30
0.0
 40
4.0
100
AcDbArc
 50
180.000008651422
 51
270.000004325711
  0
ARC
  5
1A7
330
21
100
AcDbEntity
  8
0
  6
Continuous
 62
     7
100
AcDbCircle
 10
57.50001525878906
 20
8.5
 30
0.0
 40
1.0
100
AcDbArc
 50
359.9999906653324
 51
90.00000250447817
  0
ARC
  5
1A8
330
21
100
AcDbEntity
  8
0
  6
Continuous
 62
     7
100
AcDbCircle
 10
11.49998474121094
 20
9.0
 30
0.0
 40
4.0
100
AcDbArc
 50
89.99999567428899
 51
180.0000050089563
  0
ARC
  5
1A9
330
21
100
AcDbEntity
  8
0
  6
Continuous
 62
     7
100
AcDbCircle
 10
14.49998474121094
 20
8.5
 30
0.0
 40
1.0
100
AcDbArc
 50
89.99999567428899
 51
180.0000050089563
  0
ARC
  5
1AA
330
21
100
AcDbEntity
  8
0
  6
Continuous
 62
     7
100
AcDbCircle
 10
60.50001525878906
 20
-39.0
 30
0.0
 40
4.0
100
AcDbArc
 50
270.0000111559001
 51
0.0000043257111045
  0
ARC
  5
1AB
330
21
100
AcDbEntity
  8
0
  6
Continuous
 62
     7
100
AcDbCircle
 10
14.49998474121094
 20
-38.5
 30
0.0
 40
1.0
100
AcDbArc
 50
180.000008651422
 51
270.000004325711
  0
CIRCLE
  5
1AC
330
21
100
AcDbEntity
  8
0
  6
Continuous
 62
     7
100
AcDbCircle
 10
61.50001525878906
 20
-32.0
 30
0.0
 40
1.0
  0
CIRCLE
  5
1AD
330
21
100
AcDbEntity
  8
0
  6
Continuous
 62
     2
100
AcDbCircle
 10
61.50001525878906
 20
-32.0
 30
0.0
 40
1.5
  0
CIRCLE
  5
1AE
330
21
100
AcDbEntity
  8
0
  6
Continuous
 62
     2
100
AcDbCircle
 10
61.50001525878906
 20
2.0
 30
0.0
 40
1.5
  0
CIRCLE
  5
1AF
330
21
100
AcDbEntity
  8
0
  6
Continuous
 62
     7
100
AcDbCircle
 10
10.49998474121093
 20
2.0
 30
0.0
 40
1.0
  0
CIRCLE
  5
1B0
330
21
100
AcDbEntity
  8
0
  6
Continuous
 62
     7
100
AcDbCircle
 10
10.49998474121093
 20
-32.0
 30
0.0
 40
1.0
  0
CIRCLE
  5
1B1
330
21
100
AcDbEntity
  8
0
  6
Continuous
 62
     7
100
AcDbCircle
 10
61.50001525878906
 20
2.0
 30
0.0
 40
1.0
  0
CIRCLE
  5
1B2
330
21
100
AcDbEntity
  8
0
  6
Continuous
 62
     2
100
AcDbCircle
 10
10.49998474121093
 20
-32.0
 30
0.0
 40
1.5
  0
CIRCLE
  5
1B3
330
21
100
AcDbEntity
  8
0
  6
Continuous
 62
     2
100
AcDbCircle
 10
10.49998474121093
 20
2.0
 30
0.0
 40
1.5
  0
CIRCLE
  5
1B4
330
21
100
AcDbEntity
  8
0
  6
Continuous
 62
     7
100
AcDbCircle
 10
0.0
 20
-30.0
 30
0.0
 40
2.400000095367432
  0
CIRCLE
  5
1B5
330
21
100
AcDbEntity
  8
0
  6
Continuous
 62
     7
100
AcDbCircle
 10
0.0
 20
0.0
 30
0.0
 40
2.400000095367432
  0
CIRCLE
  5
1B6
330
21
100
AcDbEntity
  8
0
  6
Continuous
 62
     7
100
AcDbCircle
 10
172.0
 20
-30.0
 30
0.0
 40
2.400000095367432
  0
CIRCLE
  5
1B7
330
21
100
AcDbEntity
  8
0
  6
Continuous
 62
     7
100
AcDbCircle
 10
172.0
 20
0.0
 30
0.0
 40
2.400000095367432
  0
CIRCLE
  5
1B8
330
21
100
AcDbEntity
  8
0
  6
Continuous
 62
     2
100
AcDbCircle
 10
51.0
 20
-32.0
 30
0.0
 40
2.0
  0
CIRCLE
  5
1B9
330
21
100
AcDbEntity
  8
0
  6
Continuous
 62
     2
100
AcDbCircle
 10
21.0
 20
-32.0
 30
0.0
 40
2.0
  0
CIRCLE
  5
1BA
330
21
100
AcDbEntity
  8
0
  6
Continuous
 62
     7
100
AcDbCircle
 10
51.0
 20
-32.0
 30
0.0
 40
1.5
  0
CIRCLE
  5
1BB
330
21
100
AcDbEntity
  8
0
  6
Continuous
 62
     2
100
AcDbCircle
 10
21.0
 20
2.0
 30
0.0
 40
2.0
  0
CIRCLE
  5
1BC
330
21
100
AcDbEntity
  8
0
  6
Continuous
 62
     7
100
AcDbCircle
 10
21.0
 20
2.0
 30
0.0
 40
1.5
  0
CIRCLE
  5
1BD
330
21
100
AcDbEntity
  8
0
  6
Continuous
 62
     7
100
AcDbCircle
 10
21.0
 20
-32.0
 30
0.0
 40
1.5
  0
CIRCLE
  5
1BE
330
21
100
AcDbEntity
  8
0
  6
Continuous
 62
     7
100
AcDbCircle
 10
0.0
 20
0.0
 30
0.0
 40
4.0
  0
CIRCLE
  5
1BF
330
21
100
AcDbEntity
  8
0
  6
Continuous
 62
     7
100
AcDbCircle
 10
51.0
 20
2.0
 30
0.0
 40
1.5
  0
CIRCLE
  5
1C0
330
21
100
AcDbEntity
  8
0
  6
Continuous
 62
     2
100
AcDbCircle
 10
51.0
 20
2.0
 30
0.0
 40
2.0
  0
CIRCLE
  5
1C1
330
21
100
AcDbEntity
  8
0
  6
Continuous
 62
     7
100
AcDbCircle
 10
0.0
 20
-30.0
 30
0.0
 40
4.0
  0
CIRCLE
  5
1C2
330
21
100
AcDbEntity
  8
0
  6
Continuous
 62
     7
100
AcDbCircle
 10
172.0
 20
0.0
 30
0.0
 40
4.0
  0
CIRCLE
  5
1C3
330
21
100
AcDbEntity
  8
0
  6
Continuous
 62
     7
100
AcDbCircle
 10
172.0
 20
-30.0
 30
0.0
 40
4.0
  0
LINE
  5
1C4
330
21
100
AcDbEntity
  8
0
  6
Continuous
 62
     7
100
AcDbLine
 10
14.0
 20
-2.699981689453125
 30
0.0
 11
13.49998474121093
 21
-2.699981689453125
 31
0.0
  0
LINE
  5
1C5
330
21
100
AcDbEntity
  8
0
  6
Continuous
 62
     7
100
AcDbLine
 10
14.0
 20
-27.30001831054688
 30
0.0
 11
13.49998474121093
 21
-27.30001831054688
 31
0.0
  0
LINE
  5
1C6
330
21
100
AcDbEntity
  8
0
  6
Continuous
 62
     7
100
AcDbLine
 10
64.50001525878906
 20
-27.30001831054688
 30
0.0
 11
162.0
 21
-27.30001831054688
 31
0.0
  0
LINE
  5
1C7
330
21
100
AcDbEntity
  8
0
  6
Continuous
 62
     7
100
AcDbLine
 10
64.50001525878906
 20
-2.699981689453125
 30
0.0
 11
162.0
 21
-2.699981689453125
 31
0.0
  0
LINE
  5
1C8
330
21
100
AcDbEntity
  8
0
  6
Continuous
 62
     7
100
AcDbLine
 10
14.0
 20
6.25
 30
0.0
 11
13.49998474121093
 21
6.25
 31
0.0
  0
LINE
  5
1C9
330
21
100
AcDbEntity
  8
0
  6
Continuous
 62
     7
100
AcDbLine
 10
14.0
 20
1.75
 30
0.0
 11
13.49998474121093
 21
1.75
 31
0.0
  0
LINE
  5
1CA
330
21
100
AcDbEntity
  8
0
  6
Continuous
 62
     7
100
AcDbLine
 10
14.0
 20
-31.75
 30
0.0
 11
13.49998474121093
 21
-31.75
 31
0.0
  0
LINE
  5
1CB
330
21
100
AcDbEntity
  8
0
  6
Continuous
 62
     7
100
AcDbLine
 10
14.0
 20
-36.25
 30
0.0
 11
13.49998474121093
 21
-36.25
 31
0.0
  0
LINE
  5
1CC
330
21
100
AcDbEntity
  8
0
  6
Continuous
 62
     7
100
AcDbLine
 10
7.499984741210937
 20
-6.5
 30
0.0
 11
5.0
 21
-6.5
 31
0.0
  0
LINE
  5
1CD
330
21
100
AcDbEntity
  8
0
  6
Continuous
 62
     7
100
AcDbLine
 10
7.499984741210937
 20
-23.5
 30
0.0
 11
5.0
 21
-23.5
 31
0.0
  0
LINE
  5
1CE
330
21
100
AcDbEntity
  8
0
  6
Continuous
 62
     7
100
AcDbLine
 10
162.0
 20
-23.5
 30
0.0
 11
167.0
 21
-23.5
 31
0.0
  0
LINE
  5
1CF
330
21
100
AcDbEntity
  8
0
  6
Continuous
 62
     7
100
AcDbLine
 10
162.0
 20
-6.5
 30
0.0
 11
167.0
 21
-6.5
 31
0.0
  0
LINE
  5
1D0
330
21
100
AcDbEntity
  8
0
  6
Continuous
 62
     7
100
AcDbLine
 10
58.50001525878906
 20
-22.0
 30
0.0
 11
58.50001525878906
 21
-38.5
 31
0.0
  0
LINE
  5
1D1
330
21
100
AcDbEntity
  8
0
  6
Continuous
 62
     7
100
AcDbLine
 10
14.0
 20
-22.0
 30
0.0
 11
13.49998474121093
 21
-22.0
 31
0.0
  0
LINE
  5
1D2
330
21
100
AcDbEntity
  8
0
  6
Continuous
 62
     7
100
AcDbLine
 10
13.49998474121093
 20
-22.0
 30
0.0
 11
13.49998474121093
 21
-38.5
 31
0.0
  0
LINE
  5
1D3
330
21
100
AcDbEntity
  8
0
  6
Continuous
 62
     7
100
AcDbLine
 10
14.0
 20
-8.0
 30
0.0
 11
13.49998474121093
 21
-8.0
 31
0.0
  0
LINE
  5
1D4
330
21
100
AcDbEntity
  8
0
  6
Continuous
 62
     7
100
AcDbLine
 10
58.50001525878906
 20
8.5
 30
0.0
 11
58.50001525878906
 21
-8.0
 31
0.0
  0
LINE
  5
1D5
330
21
100
AcDbEntity
  8
0
  6
Continuous
 62
     7
100
AcDbLine
 10
57.50001525878906
 20
-39.5
 30
0.0
 11
14.49998474121094
 21
-39.5
 31
0.0
  0
LINE
  5
1D6
330
21
100
AcDbEntity
  8
0
  6
Continuous
 62
     7
100
AcDbLine
 10
60.50001525878906
 20
13.0
 30
0.0
 11
11.49998474121094
 21
13.0
 31
0.0
  0
LINE
  5
1D7
330
21
100
AcDbEntity
  8
0
  6
Continuous
 62
     7
100
AcDbLine
 10
60.50001525878906
 20
-43.0
 30
0.0
 11
11.49998474121094
 21
-43.0
 31
0.0
  0
LINE
  5
1D8
330
21
100
AcDbEntity
  8
0
  6
Continuous
 62
     7
100
AcDbLine
 10
58.0
 20
-8.0
 30
0.0
 11
58.50001525878906
 21
-8.0
 31
0.0
  0
LINE
  5
1D9
330
21
100
AcDbEntity
  8
0
  6
Continuous
 62
     7
100
AcDbLine
 10
13.49998474121093
 20
8.5
 30
0.0
 11
13.49998474121093
 21
-8.0
 31
0.0
  0
LINE
  5
1DA
330
21
100
AcDbEntity
  8
0
  6
Continuous
 62
     7
100
AcDbLine
 10
58.0
 20
-22.0
 30
0.0
 11
58.50001525878906
 21
-22.0
 31
0.0
  0
LINE
  5
1DB
330
21
100
AcDbEntity
  8
0
  6
Continuous
 62
     7
100
AcDbLine
 10
57.50001525878906
 20
9.5
 30
0.0
 11
14.49998474121094
 21
9.5
 31
0.0
  0
LINE
  5
1DC
330
21
100
AcDbEntity
  8
0
  6
Continuous
 62
     7
100
AcDbLine
 10
7.499984741210937
 20
9.0
 30
0.0
 11
7.499984741210937
 21
-39.0
 31
0.0
  0
LINE
  5
1DD
330
21
100
AcDbEntity
  8
0
  6
Continuous
 62
     7
100
AcDbLine
 10
64.50001525878906
 20
9.0
 30
0.0
 11
64.50001525878906
 21
-39.0
 31
0.0
  0
LINE
  5
1DE
330
21
100
AcDbEntity
  8
0
  6
Continuous
 62
     2
100
AcDbLine
 10
61.50001525878906
 20
-2.039993286132812
 30
0.0
 11
61.50001525878906
 21
6.039993286132812
 31
0.0
  0
LINE
  5
1DF
330
21
100
AcDbEntity
  8
0
  6
Continuous
 62
     2
100
AcDbLine
 10
65.54000854492189
 20
2.0
 30
0.0
 11
57.46002197265625
 21
2.0
 31
0.0
  0
LINE
  5
1E0
330
21
100
AcDbEntity
  8
0
  6
Continuous
 62
     2
100
AcDbLine
 10
61.50001525878906
 20
-27.96000671386719
 30
0.0
 11
61.50001525878906
 21
-36.03999328613281
 31
0.0
  0
LINE
  5
1E1
330
21
100
AcDbEntity
  8
0
  6
Continuous
 62
     2
100
AcDbLine
 10
65.54000854492189
 20
-32.0
 30
0.0
 11
57.46002197265625
 21
-32.0
 31
0.0
  0
LINE
  5
1E2
330
21
100
AcDbEntity
  8
0
  6
Continuous
 62
     2
100
AcDbLine
 10
6.459991455078125
 20
-32.0
 30
0.0
 11
14.53997802734375
 21
-32.0
 31
0.0
  0
LINE
  5
1E3
330
21
100
AcDbEntity
  8
0
  6
Continuous
 62
     2
100
AcDbLine
 10
10.49998474121093
 20
-2.039993286132812
 30
0.0
 11
10.49998474121093
 21
6.039993286132812
 31
0.0
  0
LINE
  5
1E4
330
21
100
AcDbEntity
  8
0
  6
Continuous
 62
     2
100
AcDbLine
 10
6.459991455078125
 20
2.0
 30
0.0
 11
14.53997802734375
 21
2.0
 31
0.0
  0
LINE
  5
1E5
330
21
100
AcDbEntity
  8
0
  6
Continuous
 62
     2
100
AcDbLine
 10
10.49998474121093
 20
-27.96000671386719
 30
0.0
 11
10.49998474121093
 21
-36.03999328613281
 31
0.0
  0
LINE
  5
1E6
330
21
100
AcDbEntity
  8
0
  6
Continuous
 62
     7
100
AcDbLine
 10
-5.0
 20
-7.0
 30
0.0
 11
5.0
 21
-7.0
 31
0.0
  0
LINE
  5
1E7
330
21
100
AcDbEntity
  8
0
  6
Continuous
 62
     7
100
AcDbLine
 10
-5.0
 20
-23.0
 30
0.0
 11
5.0
 21
-23.0
 31
0.0
  0
LINE
  5
1E8
330
21
100
AcDbEntity
  8
0
  6
Continuous
 62
     7
100
AcDbLine
 10
5.0
 20
-38.5
 30
0.0
 11
5.0
 21
8.5
 31
0.0
  0
LINE
  5
1E9
330
21
100
AcDbEntity
  8
0
  6
Continuous
 62
     7
100
AcDbLine
 10
-5.0
 20
8.5
 30
0.0
 11
7.499984741210937
 21
8.5
 31
0.0
  0
LINE
  5
1EA
330
21
100
AcDbEntity
  8
0
  6
Continuous
 62
     2
100
AcDbLine
 10
46.46002197265625
 20
-32.0
 30
0.0
 11
55.53997802734375
 21
-32.0
 31
0.0
  0
LINE
  5
1EB
330
21
100
AcDbEntity
  8
0
  6
Continuous
 62
     2
100
AcDbLine
 10
36.0
 20
16.0
 30
0.0
 11
36.0
 21
-46.0
 31
0.0
  0
LINE
  5
1EC
330
21
100
AcDbEntity
  8
0
  6
Continuous
 62
     2
100
AcDbLine
 10
25.53997802734375
 20
2.0
 30
0.0
 11
16.46002197265625
 21
2.0
 31
0.0
  0
LINE
  5
1ED
330
21
100
AcDbEntity
  8
0
  6
Continuous
 62
     2
100
AcDbLine
 10
25.53997802734375
 20
-32.0
 30
0.0
 11
16.46002197265625
 21
-32.0
 31
0.0
  0
LINE
  5
1EE
330
21
100
AcDbEntity
  8
0
  6
Continuous
 62
     2
100
AcDbLine
 10
21.0
 20
-36.53999328613281
 30
0.0
 11
21.0
 21
-27.46000671386719
 31
0.0
  0
LINE
  5
1EF
330
21
100
AcDbEntity
  8
0
  6
Continuous
 62
     7
100
AcDbLine
 10
56.4000244140625
 20
-37.0
 30
0.0
 11
56.4000244140625
 21
7.0
 31
0.0
  0
LINE
  5
1F0
330
21
100
AcDbEntity
  8
0
  6
Continuous
 62
     7
100
AcDbLine
 10
58.0
 20
-2.699981689453125
 30
0.0
 11
58.50001525878906
 21
-2.699981689453125
 31
0.0
  0
LINE
  5
1F1
330
21
100
AcDbEntity
  8
0
  6
Continuous
 62
     7
100
AcDbLine
 10
58.0
 20
-27.30001831054688
 30
0.0
 11
58.50001525878906
 21
-27.30001831054688
 31
0.0
  0
LINE
  5
1F2
330
21
100
AcDbEntity
  8
0
  6
Continuous
 62
     2
100
AcDbLine
 10
6.53997802734375
 20
0.0
 30
0.0
 11
-6.53997802734375
 21
0.0
 31
0.0
  0
LINE
  5
1F3
330
21
100
AcDbEntity
  8
0
  6
Continuous
 62
     2
100
AcDbLine
 10
46.46002197265625
 20
2.0
 30
0.0
 11
55.53997802734375
 21
2.0
 31
0.0
  0
LINE
  5
1F4
330
21
100
AcDbEntity
  8
0
  6
Continuous
 62
     2
100
AcDbLine
 10
0.0
 20
-6.539993286132812
 30
0.0
 11
0.0
 21
6.539993286132812
 31
0.0
  0
LINE
  5
1F5
330
21
100
AcDbEntity
  8
0
  6
Continuous
 62
     7
100
AcDbLine
 10
58.0
 20
6.25
 30
0.0
 11
58.50001525878906
 21
6.25
 31
0.0
  0
LINE
  5
1F6
330
21
100
AcDbEntity
  8
0
  6
Continuous
 62
     7
100
AcDbLine
 10
58.0
 20
1.75
 30
0.0
 11
58.50001525878906
 21
1.75
 31
0.0
  0
LINE
  5
1F7
330
21
100
AcDbEntity
  8
0
  6
Continuous
 62
     7
100
AcDbLine
 10
15.5999755859375
 20
-37.0
 30
0.0
 11
15.5999755859375
 21
7.0
 31
0.0
  0
LINE
  5
1F8
330
21
100
AcDbEntity
  8
0
  6
Continuous
 62
     2
100
AcDbLine
 10
21.0
 20
6.539993286132812
 30
0.0
 11
21.0
 21
-2.539993286132812
 31
0.0
  0
LINE
  5
1F9
330
21
100
AcDbEntity
  8
0
  6
Continuous
 62
     7
100
AcDbLine
 10
14.0
 20
-37.0
 30
0.0
 11
14.0
 21
7.0
 31
0.0
  0
LINE
  5
1FA
330
21
100
AcDbEntity
  8
0
  6
Continuous
 62
     7
100
AcDbLine
 10
58.0
 20
-31.75
 30
0.0
 11
58.50001525878906
 21
-31.75
 31
0.0
  0
LINE
  5
1FB
330
21
100
AcDbEntity
  8
0
  6
Continuous
 62
     2
100
AcDbLine
 10
0.0
 20
-23.46000671386719
 30
0.0
 11
0.0
 21
-36.53999328613281
 31
0.0
  0
LINE
  5
1FC
330
21
100
AcDbEntity
  8
0
  6
Continuous
 62
     2
100
AcDbLine
 10
6.53997802734375
 20
-30.0
 30
0.0
 11
-6.53997802734375
 21
-30.0
 31
0.0
  0
LINE
  5
1FD
330
21
100
AcDbEntity
  8
0
  6
Continuous
 62
     7
100
AcDbLine
 10
58.0
 20
-36.25
 30
0.0
 11
58.50001525878906
 21
-36.25
 31
0.0
  0
LINE
  5
1FE
330
21
100
AcDbEntity
  8
0
  6
Continuous
 62
     2
100
AcDbLine
 10
51.0
 20
6.539993286132812
 30
0.0
 11
51.0
 21
-2.539993286132812
 31
0.0
  0
LINE
  5
1FF
330
21
100
AcDbEntity
  8
0
  6
Continuous
 62
     7
100
AcDbLine
 10
-5.0
 20
-38.5
 30
0.0
 11
7.499984741210937
 21
-38.5
 31
0.0
  0
LINE
  5
200
330
21
100
AcDbEntity
  8
0
  6
Continuous
 62
     7
100
AcDbLine
 10
58.0
 20
-37.0
 30
0.0
 11
58.0
 21
7.0
 31
0.0
  0
LINE
  5
201
330
21
100
AcDbEntity
  8
0
  6
Continuous
 62
     7
100
AcDbLine
 10
14.0
 20
7.0
 30
0.0
 11
58.0
 21
7.0
 31
0.0
  0
LINE
  5
202
330
21
100
AcDbEntity
  8
0
  6
Continuous
 62
     7
100
AcDbLine
 10
-5.0
 20
-38.5
 30
0.0
 11
-5.0
 21
8.5
 31
0.0
  0
LINE
  5
203
330
21
100
AcDbEntity
  8
0
  6
Continuous
 62
     7
100
AcDbLine
 10
14.0
 20
-37.0
 30
0.0
 11
58.0
 21
-37.0
 31
0.0
  0
LINE
  5
204
330
21
100
AcDbEntity
  8
0
  6
Continuous
 62
     2
100
AcDbLine
 10
51.0
 20
-36.53999328613281
 30
0.0
 11
51.0
 21
-27.46000671386719
 31
0.0
  0
LINE
  5
205
330
21
100
AcDbEntity
  8
0
  6
Continuous
 62
     7
100
AcDbLine
 10
15.5999755859375
 20
-5.0
 30
0.0
 11
56.4000244140625
 21
-5.0
 31
0.0
  0
LINE
  5
206
330
21
100
AcDbEntity
  8
0
  6
Continuous
 62
     7
100
AcDbLine
 10
15.5999755859375
 20
-25.0
 30
0.0
 11
56.4000244140625
 21
-25.0
 31
0.0
  0
LINE
  5
207
330
21
100
AcDbEntity
  8
0
  6
Continuous
 62
     7
100
AcDbLine
 10
177.0
 20
-7.0
 30
0.0
 11
167.0
 21
-7.0
 31
0.0
  0
LINE
  5
208
330
21
100
AcDbEntity
  8
0
  6
Continuous
 62
     7
100
AcDbLine
 10
162.0
 20
-38.5
 30
0.0
 11
162.0
 21
8.5
 31
0.0
  0
LINE
  5
209
330
21
100
AcDbEntity
  8
0
  6
Continuous
 62
     7
100
AcDbLine
 10
177.0
 20
-23.0
 30
0.0
 11
167.0
 21
-23.0
 31
0.0
  0
LINE
  5
20A
330
21
100
AcDbEntity
  8
0
  6
Continuous
 62
     2
100
AcDbLine
 10
178.5400085449218
 20
0.0
 30
0.0
 11
165.4600067138671
 21
0.0
 31
0.0
  0
LINE
  5
20B
330
21
100
AcDbEntity
  8
0
  6
Continuous
 62
     2
100
AcDbLine
 10
172.0
 20
-6.53997802734375
 30
0.0
 11
172.0
 21
6.53997802734375
 31
0.0
  0
LINE
  5
20C
330
21
100
AcDbEntity
  8
0
  6
Continuous
 62
     7
100
AcDbLine
 10
167.0
 20
-38.5
 30
0.0
 11
167.0
 21
8.5
 31
0.0
  0
LINE
  5
20D
330
21
100
AcDbEntity
  8
0
  6
Continuous
 62
     7
100
AcDbLine
 10
177.0
 20
8.5
 30
0.0
 11
162.0
 21
8.5
 31
0.0
  0
LINE
  5
20E
330
21
100
AcDbEntity
  8
0
  6
Continuous
 62
     2
100
AcDbLine
 10
178.5400085449218
 20
-30.0
 30
0.0
 11
165.4600067138671
 21
-30.0
 31
0.0
  0
LINE
  5
20F
330
21
100
AcDbEntity
  8
0
  6
Continuous
 62
     2
100
AcDbLine
 10
172.0
 20
-23.46002197265625
 30
0.0
 11
172.0
 21
-36.53997802734375
 31
0.0
  0
LINE
  5
210
330
21
100
AcDbEntity
  8
0
  6
Continuous
 62
     7
100
AcDbLine
 10
177.0
 20
-38.5
 30
0.0
 11
162.0
 21
-38.5
 31
0.0
  0
LINE
  5
211
330
21
100
AcDbEntity
  8
0
  6
Continuous
 62
     7
100
AcDbLine
 10
177.0
 20
-38.5
 30
0.0
 11
177.0
 21
8.5
 31
0.0
  0
LINE
  5
212
330
21
100
AcDbEntity
  8
0
  6
Continuous
 62
     7
100
AcDbLine
 10
174.5
 20
-44.69999694824219
 30
0.0
 11
-2.5
 21
-44.69999694824219
 31
0.0
  0
LINE
  5
213
330
21
100
AcDbEntity
  8
0
  6
Continuous
 62
     7
100
AcDbLine
 10
-2.5
 20
-44.69999694824219
 30
0.0
 11
-2.5
 21
-38.5
 31
0.0
  0
LINE
  5
214
330
21
100
AcDbEntity
  8
0
  6
Continuous
 62
     7
100
AcDbLine
 10
174.5
 20
-44.69999694824219
 30
0.0
 11
174.5
 21
-38.5
 31
0.0
  0
LINE
  5
215
330
21
100
AcDbEntity
  8
0
  6
Continuous
 62
     7
100
AcDbLine
 10
161.9178009033203
 20
-37.5
 30
0.0
 11
64.50001525878906
 21
-37.5
 31
0.0
  0
LINE
  5
216
330
21
100
AcDbEntity
  8
0
  6
Continuous
 62
     2
100
AcDbLine
 10
-7.384033203125
 20
-15.0
 30
0.0
 11
180.0
 21
-15.0
 31
0.0
  0
LINE
  5
217
330
21
100
AcDbEntity
  8
0
  6
PHANTOM
 62
     3
100
AcDbLine
 10
95.0
 20
45.58309052631579
 30
0.0
 11
95.0
 21
-59.39638315789473
 31
0.0
  0
ENDBLK
  5
218
330
21
100
AcDbEntity
  8
0
100
AcDbBlockEnd
  0
BLOCK
  5
219
330
22
100
AcDbEntity
  8
0
100
AcDbBlockBegin
  2
MRVS14-5
 70
     0
 10
0.0
 20
0.0
 30
0.0
  3
MRVS14-5
  1

  0
LINE
  5
21A
330
22
100
AcDbEntity
  8
0
  6
Continuous
 62
     2
100
AcDbLine
 10
22.99998474121093
 20
2.0
 30
0.0
 11
28.99998474121094
 21
2.0
 31
0.0
  0
CIRCLE
  5
21B
330
22
100
AcDbEntity
  8
0
  6
Continuous
 62
     7
100
AcDbCircle
 10
20.5
 20
6.20001220703125
 30
0.0
 40
1.399999976158142
  0
CIRCLE
  5
21C
330
22
100
AcDbEntity
  8
0
  6
Continuous
 62
     7
100
AcDbCircle
 10
20.5
 20
-36.20001220703125
 30
0.0
 40
1.399999976158142
  0
CIRCLE
  5
21D
330
22
100
AcDbEntity
  8
0
  6
Continuous
 62
     7
100
AcDbCircle
 10
10.0999755859375
 20
-15.0
 30
0.0
 40
2.75
  0
CIRCLE
  5
21E
330
22
100
AcDbEntity
  8
0
  6
Continuous
 62
     7
100
AcDbCircle
 10
16.9000244140625
 20
-15.0
 30
0.0
 40
2.75
  0
LINE
  5
21F
330
22
100
AcDbEntity
  8
0
  6
Continuous
 62
     7
100
AcDbLine
 10
9.522598192290386
 20
-14.00001155465043
 30
0.0
 11
8.945251390532575
 21
-15.00000553093423
 31
0.0
  0
LINE
  5
220
330
22
100
AcDbEntity
  8
0
  6
Continuous
 62
     7
100
AcDbLine
 10
10.6773021670142
 20
-16.00000553093423
 30
0.0
 11
11.25464896877201
 21
-15.00001155465042
 31
0.0
  0
LINE
  5
221
330
22
100
AcDbEntity
  8
0
  6
Continuous
 62
     7
100
AcDbLine
 10
16.3226668940606
 20
-14.00002313440245
 30
0.0
 11
15.74532009230279
 21
-15.00001711068625
 31
0.0
  0
LINE
  5
222
330
22
100
AcDbEntity
  8
0
  6
Continuous
 62
     7
100
AcDbLine
 10
10.67733646382476
 20
-14.0000046835612
 30
0.0
 11
11.25468326558257
 21
-14.99999865984501
 31
0.0
  0
LINE
  5
223
330
22
100
AcDbEntity
  8
0
  6
Continuous
 62
     7
100
AcDbLine
 10
10.67730712890625
 20
-16.0
 30
0.0
 11
9.522613525390623
 21
-16.0
 31
0.0
  0
LINE
  5
224
330
22
100
AcDbEntity
  8
0
  6
Continuous
 62
     7
100
AcDbLine
 10
16.32269287109375
 20
-14.0
 30
0.0
 11
17.47738647460937
 21
-14.0
 31
0.0
  0
LINE
  5
225
330
22
100
AcDbEntity
  8
0
  6
Continuous
 62
     7
100
AcDbLine
 10
10.67730712890625
 20
-14.0
 30
0.0
 11
9.522613525390623
 21
-14.0
 31
0.0
  0
LINE
  5
226
330
22
100
AcDbEntity
  8
0
  6
Continuous
 62
     7
100
AcDbLine
 10
17.47737086878442
 20
-16.00001711068626
 30
0.0
 11
18.05471767054223
 21
-15.00002313440245
 31
0.0
  0
LINE
  5
227
330
22
100
AcDbEntity
  8
0
  6
Continuous
 62
     7
100
AcDbLine
 10
16.32269287109375
 20
-16.0
 30
0.0
 11
17.47738647460937
 21
-16.0
 31
0.0
  0
LINE
  5
228
330
22
100
AcDbEntity
  8
0
  6
Continuous
 62
     7
100
AcDbLine
 10
17.47736347780846
 20
-13.99998193360079
 30
0.0
 11
18.05472553835534
 21
-15.00000233888204
 31
0.0
  0
LINE
  5
229
330
22
100
AcDbEntity
  8
0
  6
Continuous
 62
     7
100
AcDbLine
 10
9.522632489100942
 20
-15.999998659845
 30
0.0
 11
8.94528568734313
 21
-15.0000046835612
 31
0.0
  0
LINE
  5
22A
330
22
100
AcDbEntity
  8
0
  6
Continuous
 62
     7
100
AcDbLine
 10
16.32267476187371
 20
-16.00000233888204
 30
0.0
 11
15.74531270132684
 21
-14.99998193360079
 31
0.0
  0
LINE
  5
22B
330
22
100
AcDbEntity
  8
0
  6
Continuous
 62
     7
100
AcDbLine
 10
9.813049230231627
 20
-21.94871760787509
 30
0.0
 11
16.68691431741354
 21
-25.9173455375626
 31
0.0
  0
LINE
  5
22C
330
22
100
AcDbEntity
  8
0
  6
Continuous
 62
     7
100
AcDbLine
 10
10.31304923023163
 20
-21.08269221963428
 30
0.0
 11
17.18691431741354
 21
-25.05132014932179
 31
0.0
  0
LINE
  5
22D
330
22
100
AcDbEntity
  8
0
  6
Continuous
 62
     2
100
AcDbLine
 10
19.7117919921875
 20
-23.5
 30
0.0
 11
7.0
 21
-23.5
 31
0.0
  0
CIRCLE
  5
22E
330
22
100
AcDbEntity
  8
0
  6
Continuous
 62
     7
100
AcDbCircle
 10
13.5
 20
-23.5
 30
0.0
 40
4.0
  0
CIRCLE
  5
22F
330
22
100
AcDbEntity
  8
0
  6
Continuous
 62
     7
100
AcDbCircle
 10
13.5
 20
-23.5
 30
0.0
 40
5.5
  0
LINE
  5
230
330
22
100
AcDbEntity
  8
0
  6
Continuous
 62
     7
100
AcDbLine
 10
19.0
 20
-38.5
 30
0.0
 11
19.0
 21
-43.0
 31
0.0
  0
LINE
  5
231
330
22
100
AcDbEntity
  8
0
  6
Continuous
 62
     7
100
AcDbLine
 10
19.0
 20
8.5
 30
0.0
 11
19.0
 21
13.0
 31
0.0
  0
ARC
  5
232
330
22
100
AcDbEntity
  8
0
  6
Continuous
 62
     7
100
AcDbCircle
 10
22.0
 20
-37.5
 30
0.0
 40
1.0
100
AcDbArc
 50
269.9999974955219
 51
0.0000025044781673
  0
ARC
  5
233
330
22
100
AcDbEntity
  8
0
  6
Continuous
 62
     7
100
AcDbCircle
 10
22.0
 20
7.5
 30
0.0
 40
1.0
100
AcDbArc
 50
0.0000025044781673
 51
90.00000500895634
  0
LINE
  5
234
330
22
100
AcDbEntity
  8
0
  6
Continuous
 62
     7
100
AcDbLine
 10
21.99999995628861
 20
-38.5
 30
0.0
 11
8.0
 21
-38.5
 31
0.0
  0
LINE
  5
235
330
22
100
AcDbEntity
  8
0
  6
Continuous
 62
     7
100
AcDbLine
 10
21.99999991257721
 20
8.5
 30
0.0
 11
8.0
 21
8.5
 31
0.0
  0
LINE
  5
236
330
22
100
AcDbEntity
  8
0
  6
Continuous
 62
     7
100
AcDbLine
 10
0.0
 20
-22.99997588233418
 30
0.0
 11
0.0
 21
-38.5
 31
0.0
  0
LINE
  5
237
330
22
100
AcDbEntity
  8
0
  6
Continuous
 62
     7
100
AcDbLine
 10
0.0000000000000004
 20
-22.99997588233418
 30
0.0
 11
0.2999877929687493
 21
-22.69998808936543
 31
0.0
  0
LINE
  5
238
330
22
100
AcDbEntity
  8
0
  6
Continuous
 62
     7
100
AcDbLine
 10
0.29998779296875
 20
-7.300003571301204
 30
0.0
 11
0.29998779296875
 21
-22.69998808936543
 31
0.0
  0
LINE
  5
239
330
22
100
AcDbEntity
  8
0
  6
Continuous
 62
     7
100
AcDbLine
 10
0.0000000000000001
 20
-7.000015778332453
 30
0.0
 11
0.2999877929687501
 21
-7.300003571301204
 31
0.0
  0
LINE
  5
23A
330
22
100
AcDbEntity
  8
0
  6
Continuous
 62
     2
100
AcDbLine
 10
29.0
 20
-15.0
 30
0.0
 11
-4.78057698884342
 21
-15.0
 31
0.0
  0
LINE
  5
23B
330
22
100
AcDbEntity
  8
0
  6
Continuous
 62
     7
100
AcDbLine
 10
8.0
 20
-37.5
 30
0.0
 11
1.0
 21
-37.5
 31
0.0
  0
LINE
  5
23C
330
22
100
AcDbEntity
  8
0
  6
Continuous
 62
     7
100
AcDbLine
 10
8.0
 20
7.5
 30
0.0
 11
8.0
 21
8.5
 31
0.0
  0
LINE
  5
23D
330
22
100
AcDbEntity
  8
0
  6
Continuous
 62
     7
100
AcDbLine
 10
8.0
 20
7.5
 30
0.0
 11
1.0
 21
7.5
 31
0.0
  0
LINE
  5
23E
330
22
100
AcDbEntity
  8
0
  6
Continuous
 62
     7
100
AcDbLine
 10
1.0
 20
8.5
 30
0.0
 11
0.0
 21
8.5
 31
0.0
  0
LINE
  5
23F
330
22
100
AcDbEntity
  8
0
  6
Continuous
 62
     7
100
AcDbLine
 10
1.0
 20
-38.5
 30
0.0
 11
0.0
 21
-38.5
 31
0.0
  0
LINE
  5
240
330
22
100
AcDbEntity
  8
0
  6
Continuous
 62
     7
100
AcDbLine
 10
1.0
 20
7.5
 30
0.0
 11
1.0
 21
8.5
 31
0.0
  0
LINE
  5
241
330
22
100
AcDbEntity
  8
0
  6
Continuous
 62
     7
100
AcDbLine
 10
0.0
 20
8.5
 30
0.0
 11
0.0
 21
-7.000015778332453
 31
0.0
  0
LINE
  5
242
330
22
100
AcDbEntity
  8
0
  6
Continuous
 62
     2
100
AcDbLine
 10
13.5
 20
10.4000244140625
 30
0.0
 11
13.5
 21
-40.5999755859375
 31
0.0
  0
LINE
  5
243
330
22
100
AcDbEntity
  8
0
  6
Continuous
 62
     7
100
AcDbLine
 10
26.0
 20
13.0
 30
0.0
 11
26.0
 21
-43.0
 31
0.0
  0
LINE
  5
244
330
22
100
AcDbEntity
  8
0
  6
Continuous
 62
     7
100
AcDbLine
 10
26.0
 20
13.0
 30
0.0
 11
19.0
 21
13.0
 31
0.0
  0
LINE
  5
245
330
22
100
AcDbEntity
  8
0
  6
Continuous
 62
     7
100
AcDbLine
 10
26.0
 20
-43.0
 30
0.0
 11
19.0
 21
-43.0
 31
0.0
  0
LINE
  5
246
330
22
100
AcDbEntity
  8
0
  6
Continuous
 62
     2
100
AcDbLine
 10
4.5
 20
-36.6820068359375
 30
0.0
 11
4.5
 21
-45.391845703125
 31
0.0
  0
LINE
  5
247
330
22
100
AcDbEntity
  8
0
  6
Continuous
 62
     7
100
AcDbLine
 10
1.0
 20
-44.20001220703125
 30
0.0
 11
1.0
 21
-37.5
 31
0.0
  0
LINE
  5
248
330
22
100
AcDbEntity
  8
0
  6
Continuous
 62
     7
100
AcDbLine
 10
8.0
 20
-44.20001220703125
 30
0.0
 11
8.0
 21
-37.5
 31
0.0
  0
LINE
  5
249
330
22
100
AcDbEntity
  8
0
  6
Continuous
 62
     7
100
AcDbLine
 10
2.399993896484375
 20
-42.0999755859375
 30
0.0
 11
2.399993896484375
 21
-43.699951171875
 31
0.0
  0
LINE
  5
24A
330
22
100
AcDbEntity
  8
0
  6
Continuous
 62
     7
100
AcDbLine
 10
7.5
 20
-44.70001220703125
 30
0.0
 11
6.100006103515625
 21
-44.70001220703125
 31
0.0
  0
LINE
  5
24B
330
22
100
AcDbEntity
  8
0
  6
Continuous
 62
     7
100
AcDbLine
 10
1.5
 20
-44.70001220703125
 30
0.0
 11
2.899993896484375
 21
-44.70001220703125
 31
0.0
  0
LINE
  5
24C
330
22
100
AcDbEntity
  8
0
  6
Continuous
 62
     7
100
AcDbLine
 10
6.600006103515625
 20
-42.0999755859375
 30
0.0
 11
6.600006103515625
 21
-43.70001220703125
 31
0.0
  0
LINE
  5
24D
330
22
100
AcDbEntity
  8
0
  6
Continuous
 62
     7
100
AcDbLine
 10
2.899993896484375
 20
-44.70001220703125
 30
0.0
 11
2.899993896484375
 21
-44.19995117187499
 31
0.0
  0
LINE
  5
24E
330
22
100
AcDbEntity
  8
0
  6
Continuous
 62
     7
100
AcDbLine
 10
6.599997543097288
 20
-43.70001658731825
 30
0.0
 11
6.100007801895571
 21
-44.20000632851997
 31
0.0
  0
LINE
  5
24F
330
22
100
AcDbEntity
  8
0
  6
Continuous
 62
     7
100
AcDbLine
 10
2.399997400258598
 20
-43.70001658731825
 30
0.0
 11
2.900008720646383
 21
-44.20002790770605
 31
0.0
  0
LINE
  5
250
330
22
100
AcDbEntity
  8
0
  6
Continuous
 62
     7
100
AcDbLine
 10
6.100006103515625
 20
-44.70001220703125
 30
0.0
 11
6.100006103515625
 21
-44.20001220703125
 31
0.0
  0
ARC
  5
251
330
22
100
AcDbEntity
  8
0
  6
Continuous
 62
     7
100
AcDbCircle
 10
7.5
 20
-44.20001220703125
 30
0.0
 40
0.5
100
AcDbArc
 50
269.9999949910439
 51
0.0000025044781673
  0
ARC
  5
252
330
22
100
AcDbEntity
  8
0
  6
Continuous
 62
     7
100
AcDbCircle
 10
4.5
 20
-42.0999755859375
 30
0.0
 40
2.099999904632568
100
AcDbArc
 50
359.9999956742889
 51
180.0000006832453
  0
ARC
  5
253
330
22
100
AcDbEntity
  8
0
  6
Continuous
 62
     7
100
AcDbCircle
 10
1.5
 20
-44.20001220703125
 30
0.0
 40
0.5
100
AcDbArc
 50
179.9999974955218
 51
270.0000086514222
  0
CIRCLE
  5
254
330
22
100
AcDbEntity
  8
0
  6
Continuous
 62
     7
100
AcDbCircle
 10
3.849999997275176
 20
-42.20001268468478
 30
0.0
 40
0.5
  0
CIRCLE
  5
255
330
22
100
AcDbEntity
  8
0
  6
Continuous
 62
     7
100
AcDbCircle
 10
3.849999997275176
 20
-42.20001268468478
 30
0.0
 40
0.29
  0
CIRCLE
  5
256
330
22
100
AcDbEntity
  8
0
  6
Continuous
 62
     7
100
AcDbCircle
 10
4.5
 20
-42.20001268468478
 30
0.0
 40
1.300000000000011
  0
LINE
  5
257
330
22
100
AcDbEntity
  8
0
  6
Continuous
 62
     7
100
AcDbLine
 10
3.000000006130733
 20
-44.15001221316201
 30
0.0
 11
2.5
 21
-43.65001220703125
 31
0.0
  0
LINE
  5
258
330
22
100
AcDbEntity
  8
0
  6
Continuous
 62
     7
100
AcDbLine
 10
6.0
 20
-44.70001220703125
 30
0.0
 11
3.0
 21
-44.70001220703125
 31
0.0
  0
LINE
  5
259
330
22
100
AcDbEntity
  8
0
  6
Continuous
 62
     7
100
AcDbLine
 10
5.75
 20
-44.93741160885373
 30
0.0
 11
3.25
 21
-44.93741160885373
 31
0.0
  0
LINE
  5
25A
330
22
100
AcDbEntity
  8
0
  6
Continuous
 62
     7
100
AcDbLine
 10
5.550000000000011
 20
-45.13741160885375
 30
0.0
 11
3.449999999999988
 21
-45.13741160885375
 31
0.0
  0
ARC
  5
25B
330
22
100
AcDbEntity
  8
0
  6
Continuous
 62
     7
100
AcDbCircle
 10
4.5
 20
-42.15001220703125
 30
0.0
 40
2.049999999999996
100
AcDbArc
 50
12.68038349181954
 51
167.3196165081805
  0
LINE
  5
25C
330
22
100
AcDbEntity
  8
0
  6
Continuous
 62
     2
100
AcDbLine
 10
3.449999999999988
 20
-44.70001220703125
 30
0.0
 11
3.449999999999988
 21
-45.13741160885375
 31
0.0
  0
LINE
  5
25D
330
22
100
AcDbEntity
  8
0
  6
Continuous
 62
     7
100
AcDbLine
 10
3.449999999999988
 20
-45.13741160885375
 30
0.0
 11
3.25
 21
-44.93741160885373
 31
0.0
  0
LINE
  5
25E
330
22
100
AcDbEntity
  8
0
  6
Continuous
 62
     7
100
AcDbLine
 10
3.25
 20
-44.93741160885373
 30
0.0
 11
3.25
 21
-44.70001220703125
 31
0.0
  0
LINE
  5
25F
330
22
100
AcDbEntity
  8
0
  6
Continuous
 62
     7
100
AcDbLine
 10
3.0
 20
-44.15001220703125
 30
0.0
 11
3.0
 21
-44.70001220975602
 31
0.0
  0
CIRCLE
  5
260
330
22
100
AcDbEntity
  8
0
  6
Continuous
 62
     7
100
AcDbCircle
 10
5.150000002724767
 20
-42.20001268468481
 30
0.0
 40
0.5
  0
LINE
  5
261
330
22
100
AcDbEntity
  8
0
  6
Continuous
 62
     7
100
AcDbLine
 10
6.5
 20
-43.65027262369792
 30
0.0
 11
6.0
 21
-44.15287679036457
 31
0.0
  0
LINE
  5
262
330
22
100
AcDbEntity
  8
0
  6
Continuous
 62
     2
100
AcDbLine
 10
5.550000000000011
 20
-44.70001220703125
 30
0.0
 11
5.550000000000011
 21
-45.13741160885375
 31
0.0
  0
LINE
  5
263
330
22
100
AcDbEntity
  8
0
  6
Continuous
 62
     7
100
AcDbLine
 10
5.75
 20
-44.93741160885373
 30
0.0
 11
5.550000000000011
 21
-45.13741160885375
 31
0.0
  0
LINE
  5
264
330
22
100
AcDbEntity
  8
0
  6
Continuous
 62
     7
100
AcDbLine
 10
5.75
 20
-44.70001220703125
 30
0.0
 11
5.75
 21
-44.93741160885373
 31
0.0
  0
LINE
  5
265
330
22
100
AcDbEntity
  8
0
  6
Continuous
 62
     7
100
AcDbLine
 10
6.0
 20
-44.15287679036457
 30
0.0
 11
6.0
 21
-44.70001220975602
 31
0.0
  0
CIRCLE
  5
266
330
22
100
AcDbEntity
  8
0
  6
Continuous
 62
     7
100
AcDbCircle
 10
5.150000002724767
 20
-42.20001268468481
 30
0.0
 40
0.29
  0
LINE
  5
267
330
22
100
AcDbEntity
  8
0
  6
Continuous
 62
     7
100
AcDbLine
 10
6.5
 20
-41.70001220703126
 30
0.0
 11
6.5
 21
-43.65027262369792
 31
0.0
  0
LINE
  5
268
330
22
100
AcDbEntity
  8
0
  6
Continuous
 62
     7
100
AcDbLine
 10
2.5
 20
-41.70001220703126
 30
0.0
 11
2.5
 21
-43.65001220703125
 31
0.0
  0
LINE
  5
269
330
22
100
AcDbEntity
  8
0
  6
Continuous
 62
     7
100
AcDbLine
 10
23.0
 20
-6.9999666851254
 30
0.0
 11
22.5
 21
-7.499966685125399
 31
0.0
  0
LINE
  5
26A
330
22
100
AcDbEntity
  8
0
  6
Continuous
 62
     7
100
AcDbLine
 10
22.5
 20
-7.499966685125399
 30
0.0
 11
22.5
 21
-22.50000339635517
 31
0.0
  0
LINE
  5
26B
330
22
100
AcDbEntity
  8
0
  6
Continuous
 62
     7
100
AcDbLine
 10
23.0
 20
-23.00000339635517
 30
0.0
 11
23.0
 21
-37.5
 31
0.0
  0
LINE
  5
26C
330
22
100
AcDbEntity
  8
0
  6
Continuous
 62
     7
100
AcDbLine
 10
23.0
 20
-23.00000339635517
 30
0.0
 11
22.5
 21
-22.50000339635517
 31
0.0
  0
LINE
  5
26D
330
22
100
AcDbEntity
  8
0
  6
Continuous
 62
     7
100
AcDbLine
 10
23.0
 20
7.5
 30
0.0
 11
23.0
 21
-6.9999666851254
 31
0.0
  0
LINE
  5
26E
330
22
100
AcDbEntity
  8
0
  6
Continuous
 62
     2
100
AcDbLine
 10
-3.000015258789062
 20
0.0
 30
0.0
 11
2.999984741210937
 21
0.0
 31
0.0
  0
LINE
  5
26F
330
22
100
AcDbEntity
  8
0
  6
Continuous
 62
     2
100
AcDbLine
 10
-3.000015258789062
 20
-30.0
 30
0.0
 11
2.999984741210937
 21
-30.0
 31
0.0
  0
LINE
  5
270
330
22
100
AcDbEntity
  8
0
  6
Continuous
 62
     2
100
AcDbLine
 10
22.99998474121093
 20
-32.0
 30
0.0
 11
28.99998474121094
 21
-32.0
 31
0.0
  0
ENDBLK
  5
271
330
22
100
AcDbEntity
  8
0
100
AcDbBlockEnd
  0
BLOCK
  5
272
330
23
100
AcDbEntity
  8
0
100
AcDbBlockBegin
  2
MRVS14-6
 70
     0
 10
0.0
 20
0.0
 30
0.0
  3
MRVS14-6
  1

  0
CIRCLE
  5
273
330
23
100
AcDbEntity
  8
0
  6
Continuous
 62
     7
100
AcDbCircle
 10
4.5
 20
13.5
 30
0.0
 40
1.0
  0
CIRCLE
  5
274
330
23
100
AcDbEntity
  8
0
  6
Continuous
 62
     2
100
AcDbCircle
 10
4.5
 20
13.5
 30
0.0
 40
2.5
  0
CIRCLE
  5
275
330
23
100
AcDbEntity
  8
0
  6
Continuous
 62
     7
100
AcDbCircle
 10
4.5
 20
13.5
 30
0.0
 40
2.0
  0
CIRCLE
  5
276
330
23
100
AcDbEntity
  8
0
  6
Continuous
 62
     7
100
AcDbCircle
 10
167.5
 20
13.5
 30
0.0
 40
1.0
  0
CIRCLE
  5
277
330
23
100
AcDbEntity
  8
0
  6
Continuous
 62
     2
100
AcDbCircle
 10
167.5
 20
13.5
 30
0.0
 40
2.5
  0
CIRCLE
  5
278
330
23
100
AcDbEntity
  8
0
  6
Continuous
 62
     7
100
AcDbCircle
 10
167.5
 20
13.5
 30
0.0
 40
2.0
  0
LINE
  5
279
330
23
100
AcDbEntity
  8
0
  6
Continuous
 62
     7
100
AcDbLine
 10
15.5999755859375
 20
19.0
 30
0.0
 11
15.5999755859375
 21
8.0
 31
0.0
  0
LINE
  5
27A
330
23
100
AcDbEntity
  8
0
  6
Continuous
 62
     7
100
AcDbLine
 10
14.0
 20
19.0
 30
0.0
 11
14.0
 21
8.0
 31
0.0
  0
LINE
  5
27B
330
23
100
AcDbEntity
  8
0
  6
Continuous
 62
     7
100
AcDbLine
 10
58.0
 20
19.0
 30
0.0
 11
58.0
 21
8.0
 31
0.0
  0
LINE
  5
27C
330
23
100
AcDbEntity
  8
0
  6
Continuous
 62
     7
100
AcDbLine
 10
56.4000244140625
 20
19.0
 30
0.0
 11
56.4000244140625
 21
8.0
 31
0.0
  0
LINE
  5
27D
330
23
100
AcDbEntity
  8
0
  6
Continuous
 62
     7
100
AcDbLine
 10
7.499984741210937
 20
19.0
 30
0.0
 11
64.50001525878906
 21
19.0
 31
0.0
  0
LINE
  5
27E
330
23
100
AcDbEntity
  8
0
  6
Continuous
 62
     7
100
AcDbLine
 10
7.499984741210937
 20
26.0
 30
0.0
 11
64.50001525878906
 21
26.0
 31
0.0
  0
LINE
  5
27F
330
23
100
AcDbEntity
  8
0
  6
Continuous
 62
     7
100
AcDbLine
 10
64.50001525878906
 20
26.0
 30
0.0
 11
64.50001525878906
 21
19.0
 31
0.0
  0
LINE
  5
280
330
23
100
AcDbEntity
  8
0
  6
Continuous
 62
     7
100
AcDbLine
 10
7.499984741210937
 20
26.0
 30
0.0
 11
7.499984741210937
 21
19.0
 31
0.0
  0
LINE
  5
281
330
23
100
AcDbEntity
  8
0
  6
Continuous
 62
     7
100
AcDbLine
 10
167.0
 20
20.5
 30
0.0
 11
162.0
 21
20.5
 31
0.0
  0
LINE
  5
282
330
23
100
AcDbEntity
  8
0
  6
Continuous
 62
     7
100
AcDbLine
 10
5.0
 20
20.5
 30
0.0
 11
7.499984741210937
 21
20.5
 31
0.0
  0
LINE
  5
283
330
23
100
AcDbEntity
  8
0
  6
Continuous
 62
     2
100
AcDbLine
 10
36.0
 20
29.21450805664063
 30
0.0
 11
36.0
 21
-3.134552001953125
 31
0.0
  0
LINE
  5
284
330
23
100
AcDbEntity
  8
0
  6
Continuous
 62
     7
100
AcDbLine
 10
58.0
 20
15.75
 30
0.0
 11
60.5
 21
15.75
 31
0.0
  0
LINE
  5
285
330
23
100
AcDbEntity
  8
0
  6
Continuous
 62
     7
100
AcDbLine
 10
14.0
 20
11.25
 30
0.0
 11
11.5
 21
11.25
 31
0.0
  0
LINE
  5
286
330
23
100
AcDbEntity
  8
0
  6
Continuous
 62
     7
100
AcDbLine
 10
14.0
 20
15.75
 30
0.0
 11
11.5
 21
15.75
 31
0.0
  0
LINE
  5
287
330
23
100
AcDbEntity
  8
0
  6
Continuous
 62
     7
100
AcDbLine
 10
60.5
 20
11.25
 30
0.0
 11
60.5
 21
15.75
 31
0.0
  0
LINE
  5
288
330
23
100
AcDbEntity
  8
0
  6
Continuous
 62
     7
100
AcDbLine
 10
58.0
 20
11.25
 30
0.0
 11
60.5
 21
11.25
 31
0.0
  0
LINE
  5
289
330
23
100
AcDbEntity
  8
0
  6
Continuous
 62
     2
100
AcDbLine
 10
4.5
 20
17.5
 30
0.0
 11
4.5
 21
9.5
 31
0.0
  0
LINE
  5
28A
330
23
100
AcDbEntity
  8
0
  6
Continuous
 62
     7
100
AcDbLine
 10
-5.0
 20
0.0
 30
0.0
 11
10.0
 21
0.0
 31
0.0
  0
LINE
  5
28B
330
23
100
AcDbEntity
  8
0
  6
Continuous
 62
     7
100
AcDbLine
 10
5.0
 20
18.0
 30
0.0
 11
10.0
 21
18.0
 31
0.0
  0
LINE
  5
28C
330
23
100
AcDbEntity
  8
0
  6
Continuous
 62
     7
100
AcDbLine
 10
10.0
 20
19.0
 30
0.0
 11
10.0
 21
8.0
 31
0.0
  0
LINE
  5
28D
330
23
100
AcDbEntity
  8
0
  6
Continuous
 62
     7
100
AcDbLine
 10
-5.0
 20
23.0
 30
0.0
 11
-5.0
 21
0.0
 31
0.0
  0
LINE
  5
28E
330
23
100
AcDbEntity
  8
0
  6
Continuous
 62
     7
100
AcDbLine
 10
11.5
 20
15.75
 30
0.0
 11
11.5
 21
11.25
 31
0.0
  0
LINE
  5
28F
330
23
100
AcDbEntity
  8
0
  6
Continuous
 62
     7
100
AcDbLine
 10
14.0
 20
10.93782043457031
 30
0.0
 11
16.5
 21
10.93782043457031
 31
0.0
  0
LINE
  5
290
330
23
100
AcDbEntity
  8
0
  6
Continuous
 62
     7
100
AcDbLine
 10
5.0
 20
23.0
 30
0.0
 11
-5.0
 21
23.0
 31
0.0
  0
LINE
  5
291
330
23
100
AcDbEntity
  8
0
  6
Continuous
 62
     7
100
AcDbLine
 10
14.0
 20
10.0
 30
0.0
 11
16.5
 21
10.0
 31
0.0
  0
LINE
  5
292
330
23
100
AcDbEntity
  8
0
  6
Continuous
 62
     7
100
AcDbLine
 10
5.0
 20
23.0
 30
0.0
 11
5.0
 21
18.0
 31
0.0
  0
LINE
  5
293
330
23
100
AcDbEntity
  8
0
  6
Continuous
 62
     7
100
AcDbLine
 10
167.0
 20
23.0
 30
0.0
 11
167.0
 21
18.0
 31
0.0
  0
LINE
  5
294
330
23
100
AcDbEntity
  8
0
  6
Continuous
 62
     7
100
AcDbLine
 10
64.50001525878906
 20
19.29998779296875
 30
0.0
 11
162.0
 21
19.29998779296875
 31
0.0
  0
LINE
  5
295
330
23
100
AcDbEntity
  8
0
  6
Continuous
 62
     2
100
AcDbLine
 10
167.5
 20
17.5
 30
0.0
 11
167.5
 21
9.5
 31
0.0
  0
LINE
  5
296
330
23
100
AcDbEntity
  8
0
  6
Continuous
 62
     7
100
AcDbLine
 10
167.0
 20
23.0
 30
0.0
 11
177.0
 21
23.0
 31
0.0
  0
LINE
  5
297
330
23
100
AcDbEntity
  8
0
  6
Continuous
 62
     7
100
AcDbLine
 10
162.0
 20
0.0
 30
0.0
 11
177.0
 21
0.0
 31
0.0
  0
LINE
  5
298
330
23
100
AcDbEntity
  8
0
  6
Continuous
 62
     7
100
AcDbLine
 10
162.0
 20
20.5
 30
0.0
 11
162.0
 21
8.0
 31
0.0
  0
LINE
  5
299
330
23
100
AcDbEntity
  8
0
  6
Continuous
 62
     7
100
AcDbLine
 10
177.0
 20
23.0
 30
0.0
 11
177.0
 21
0.0
 31
0.0
  0
LINE
  5
29A
330
23
100
AcDbEntity
  8
0
  6
Continuous
 62
     7
100
AcDbLine
 10
167.0
 20
18.0
 30
0.0
 11
162.0
 21
18.0
 31
0.0
  0
LINE
  5
29B
330
23
100
AcDbEntity
  8
0
  6
Continuous
 62
     7
100
AcDbLine
 10
8.08192443847656
 20
6.100006103515625
 30
0.0
 11
163.4180755615234
 21
6.100006103515625
 31
0.0
  0
LINE
  5
29C
330
23
100
AcDbEntity
  8
0
  6
Continuous
 62
     7
100
AcDbLine
 10
-2.5
 20
8.0
 30
0.0
 11
-2.5
 21
1.0
 31
0.0
  0
LINE
  5
29D
330
23
100
AcDbEntity
  8
0
  6
Continuous
 62
     7
100
AcDbLine
 10
8.08192443847656
 20
2.899993896484375
 30
0.0
 11
163.4180755615234
 21
2.899993896484375
 31
0.0
  0
CIRCLE
  5
29E
330
23
100
AcDbEntity
  8
0
  6
Continuous
 62
     7
100
AcDbCircle
 10
6.5
 20
4.5
 30
0.0
 40
1.75
  0
CIRCLE
  5
29F
330
23
100
AcDbEntity
  8
0
  6
Continuous
 62
     7
100
AcDbCircle
 10
6.5
 20
4.5
 30
0.0
 40
2.25
  0
LINE
  5
2A0
330
23
100
AcDbEntity
  8
0
  6
Continuous
 62
     7
100
AcDbLine
 10
-2.5
 20
2.899993896484375
 30
0.0
 11
4.918075561523437
 21
2.899993896484375
 31
0.0
  0
LINE
  5
2A1
330
23
100
AcDbEntity
  8
0
  6
Continuous
 62
     7
100
AcDbLine
 10
7.383894096195489
 20
3.616124799914815
 30
0.0
 11
5.616127173483164
 21
5.38389172262714
 31
0.0
  0
LINE
  5
2A2
330
23
100
AcDbEntity
  8
0
  6
Continuous
 62
     7
100
AcDbLine
 10
-2.5
 20
6.100006103515625
 30
0.0
 11
4.918075561523437
 21
6.100006103515625
 31
0.0
  0
LINE
  5
2A3
330
23
100
AcDbEntity
  8
0
  6
Continuous
 62
     7
100
AcDbLine
 10
5.616121778686647
 20
3.616119405118297
 30
0.0
 11
7.383894096195489
 21
5.38389172262714
 31
0.0
  0
LINE
  5
2A4
330
23
100
AcDbEntity
  8
0
  6
Continuous
 62
     7
100
AcDbLine
 10
-5.0
 20
1.0
 30
0.0
 11
177.0
 21
1.0
 31
0.0
  0
LINE
  5
2A5
330
23
100
AcDbEntity
  8
0
  6
Continuous
 62
     7
100
AcDbLine
 10
174.5
 20
6.100006103515625
 30
0.0
 11
167.5819244384765
 21
6.100006103515625
 31
0.0
  0
LINE
  5
2A6
330
23
100
AcDbEntity
  8
0
  6
Continuous
 62
     7
100
AcDbLine
 10
174.5
 20
2.899993896484375
 30
0.0
 11
167.5819244384765
 21
2.899993896484375
 31
0.0
  0
ARC
  5
2A7
330
23
100
AcDbEntity
  8
0
  6
Continuous
 62
     7
100
AcDbCircle
 10
165.0
 20
4.5
 30
0.0
 40
2.25
100
AcDbArc
 50
90.00000250447817
 51
270.0000006832453
  0
CIRCLE
  5
2A8
330
23
100
AcDbEntity
  8
0
  6
Continuous
 62
     7
100
AcDbCircle
 10
165.5
 20
4.5
 30
0.0
 40
1.75
  0
ARC
  5
2A9
330
23
100
AcDbEntity
  8
0
  6
Continuous
 62
     7
100
AcDbCircle
 10
166.0
 20
4.5
 30
0.0
 40
2.25
100
AcDbArc
 50
269.9999974955218
 51
90.00000250447817
  0
LINE
  5
2AA
330
23
100
AcDbEntity
  8
0
  6
Continuous
 62
     7
100
AcDbLine
 10
166.0
 20
2.25
 30
0.0
 11
165.0
 21
2.25
 31
0.0
  0
LINE
  5
2AB
330
23
100
AcDbEntity
  8
0
  6
Continuous
 62
     7
100
AcDbLine
 10
164.616112490007
 20
3.616122102516556
 30
0.0
 11
166.3838794127194
 21
5.383889025228882
 31
0.0
  0
LINE
  5
2AC
330
23
100
AcDbEntity
  8
0
  6
Continuous
 62
     7
100
AcDbLine
 10
166.3838686231263
 20
3.61613289210959
 30
0.0
 11
164.616112490007
 21
5.383889025228882
 31
0.0
  0
LINE
  5
2AD
330
23
100
AcDbEntity
  8
0
  6
Continuous
 62
     7
100
AcDbLine
 10
166.0
 20
6.75
 30
0.0
 11
165.0
 21
6.75
 31
0.0
  0
LINE
  5
2AE
330
23
100
AcDbEntity
  8
0
  6
Continuous
 62
     7
100
AcDbLine
 10
174.5
 20
8.0
 30
0.0
 11
174.5
 21
1.0
 31
0.0
  0
LINE
  5
2AF
330
23
100
AcDbEntity
  8
0
  6
Continuous
 62
     7
100
AcDbLine
 10
21.5
 20
8.75
 30
0.0
 11
21.5
 21
8.0
 31
0.0
  0
LINE
  5
2B0
330
23
100
AcDbEntity
  8
0
  6
Continuous
 62
     7
100
AcDbLine
 10
21.5
 20
8.75
 30
0.0
 11
50.5
 21
8.75
 31
0.0
  0
LINE
  5
2B1
330
23
100
AcDbEntity
  8
0
  6
Continuous
 62
     7
100
AcDbLine
 10
50.5
 20
8.75
 30
0.0
 11
50.5
 21
8.0
 31
0.0
  0
LINE
  5
2B2
330
23
100
AcDbEntity
  8
0
  6
Continuous
 62
     7
100
AcDbLine
 10
-5.0
 20
8.0
 30
0.0
 11
177.0
 21
8.0
 31
0.0
  0
LINE
  5
2B3
330
23
100
AcDbEntity
  8
0
  6
Continuous
 62
     7
100
AcDbLine
 10
10.0
 20
1.0
 30
0.0
 11
10.0
 21
0.0
 31
0.0
  0
LINE
  5
2B4
330
23
100
AcDbEntity
  8
0
  6
Continuous
 62
     7
100
AcDbLine
 10
162.0
 20
1.0
 30
0.0
 11
162.0
 21
0.0
 31
0.0
  0
LINE
  5
2B5
330
23
100
AcDbEntity
  8
0
  6
Continuous
 62
     7
100
AcDbLine
 10
16.5
 20
11.03526306152343
 30
0.0
 11
16.5
 21
8.0
 31
0.0
  0
LINE
  5
2B6
330
23
100
AcDbEntity
  8
0
  6
Continuous
 62
     7
100
AcDbLine
 10
55.5
 20
11.03526306152343
 30
0.0
 11
55.5
 21
8.0
 31
0.0
  0
LINE
  5
2B7
330
23
100
AcDbEntity
  8
0
  6
Continuous
 62
     7
100
AcDbLine
 10
16.5
 20
10.55230712890625
 30
0.0
 11
55.5
 21
10.55230712890625
 31
0.0
  0
LINE
  5
2B8
330
23
100
AcDbEntity
  8
0
  6
Continuous
 62
     7
100
AcDbLine
 10
55.5
 20
10.0
 30
0.0
 11
58.0
 21
10.0
 31
0.0
  0
LINE
  5
2B9
330
23
100
AcDbEntity
  8
0
  6
Continuous
 62
     7
100
AcDbLine
 10
55.5
 20
10.93782043457031
 30
0.0
 11
58.0
 21
10.93782043457031
 31
0.0
  0
LINE
  5
2BA
330
23
100
AcDbEntity
  8
0
  6
Continuous
 62
     7
100
AcDbLine
 10
16.5
 20
11.03526306152343
 30
0.0
 11
55.5
 21
11.03526306152343
 31
0.0
  0
LINE
  5
2BB
330
23
100
AcDbEntity
  8
0
  6
Continuous
 62
     7
100
AcDbLine
 10
17.02276611328125
 20
9.6163330078125
 30
0.0
 11
54.94464111328125
 21
9.6163330078125
 31
0.0
  0
LINE
  5
2BC
330
23
100
AcDbEntity
  8
0
  6
CENTER
 62
     2
100
AcDbLine
 10
43.41040175778528
 20
4.5
 30
0.0
 11
20.4971131639723
 21
4.5
 31
0.0
  0
LINE
  5
2BD
330
23
100
AcDbEntity
  8
0
  6
Continuous
 62
     2
100
AcDbLine
 10
40.0
 20
1.557142857142849
 30
0.0
 11
40.0
 21
7.799984673423465
 31
0.0
  0
LINE
  5
2BE
330
23
100
AcDbEntity
  8
0
  6
Continuous
 62
     2
100
AcDbLine
 10
24.24769053117785
 20
3.199999999999988
 30
0.0
 11
22.74653579676675
 21
5.799999999999997
 31
0.0
  0
LINE
  5
2BF
330
23
100
AcDbEntity
  8
0
  6
Continuous
 62
     7
100
AcDbLine
 10
26.5
 20
5.799999999999997
 30
0.0
 11
22.74653579676675
 21
5.799999999999997
 31
0.0
  0
LINE
  5
2C0
330
23
100
AcDbEntity
  8
0
  6
Continuous
 62
     7
100
AcDbLine
 10
26.5
 20
3.199999999999988
 30
0.0
 11
24.24769053117785
 21
3.199999999999988
 31
0.0
  0
LINE
  5
2C1
330
23
100
AcDbEntity
  8
0
  6
Continuous
 62
     7
100
AcDbLine
 10
38.10000000000002
 20
6.0
 30
0.0
 11
38.10000000000002
 21
3.0
 31
0.0
  0
LINE
  5
2C2
330
23
100
AcDbEntity
  8
0
  6
Continuous
 62
     7
100
AcDbLine
 10
31.60000000000002
 20
6.0
 30
0.0
 11
31.60000000000002
 21
3.0
 31
0.0
  0
LINE
  5
2C3
330
23
100
AcDbEntity
  8
0
  6
Continuous
 62
     7
100
AcDbLine
 10
42.00000000476836
 20
6.100006103515625
 30
0.0
 11
42.00000000476836
 21
2.899993896484375
 31
0.0
  0
LINE
  5
2C4
330
23
100
AcDbEntity
  8
0
  6
Continuous
 62
     7
100
AcDbLine
 10
26.5
 20
6.100006103515625
 30
0.0
 11
26.5
 21
2.899993896484375
 31
0.0
  0
LINE
  5
2C5
330
23
100
AcDbEntity
  8
0
  6
Continuous
 62
     7
100
AcDbLine
 10
42.00000000476836
 20
3.0
 30
0.0
 11
26.5
 21
3.0
 31
0.0
  0
LINE
  5
2C6
330
23
100
AcDbEntity
  8
0
  6
Continuous
 62
     7
100
AcDbLine
 10
42.00000000476836
 20
6.0
 30
0.0
 11
26.5
 21
6.0
 31
0.0
  0
CIRCLE
  5
2C7
330
23
100
AcDbEntity
  8
0
  6
Continuous
 62
     7
100
AcDbCircle
 10
40.0
 20
4.5
 30
0.0
 40
1.399999999999999
  0
CIRCLE
  5
2C8
330
23
100
AcDbEntity
  8
0
  6
Continuous
 62
     7
100
AcDbCircle
 10
40.0
 20
4.5
 30
0.0
 40
1.25
  0
CIRCLE
  5
2C9
330
23
100
AcDbEntity
  8
0
  6
Continuous
 62
     2
100
AcDbCircle
 10
40.0
 20
4.5
 30
0.0
 40
1.05
  0
LINE
  5
2CA
330
23
100
AcDbEntity
  8
0
  6
Continuous
 62
     7
100
AcDbLine
 10
41.04280210609306
 20
5.189248697879008
 30
0.0
 11
39.31075130212099
 21
3.457197893906964
 31
0.0
  0
LINE
  5
2CB
330
23
100
AcDbEntity
  8
0
  6
Continuous
 62
     7
100
AcDbLine
 10
40.68924868583678
 20
5.542802072252555
 30
0.0
 11
38.95719789232528
 21
3.810751278741008
 31
0.0
  0
LINE
  5
2CC
330
23
100
AcDbEntity
  8
0
  6
Continuous
 62
     2
100
AcDbLine
 10
139.9999999952316
 20
1.557142857142849
 30
0.0
 11
139.9999999952316
 21
7.799984673423465
 31
0.0
  0
LINE
  5
2CD
330
23
100
AcDbEntity
  8
0
  6
CENTER
 62
     2
100
AcDbLine
 10
143.4104017530169
 20
4.5
 30
0.0
 11
120.4971131592039
 21
4.5
 31
0.0
  0
LINE
  5
2CE
330
23
100
AcDbEntity
  8
0
  6
Continuous
 62
     7
100
AcDbLine
 10
140.6892486810684
 20
5.542802072252555
 30
0.0
 11
138.9571978875569
 21
3.810751278741008
 31
0.0
  0
LINE
  5
2CF
330
23
100
AcDbEntity
  8
0
  6
Continuous
 62
     7
100
AcDbLine
 10
141.0428021013247
 20
5.189248697879008
 30
0.0
 11
139.3107512973526
 21
3.457197893906964
 31
0.0
  0
CIRCLE
  5
2D0
330
23
100
AcDbEntity
  8
0
  6
Continuous
 62
     2
100
AcDbCircle
 10
139.9999999952316
 20
4.5
 30
0.0
 40
1.05
  0
CIRCLE
  5
2D1
330
23
100
AcDbEntity
  8
0
  6
Continuous
 62
     7
100
AcDbCircle
 10
139.9999999952316
 20
4.5
 30
0.0
 40
1.25
  0
CIRCLE
  5
2D2
330
23
100
AcDbEntity
  8
0
  6
Continuous
 62
     7
100
AcDbCircle
 10
139.9999999952316
 20
4.5
 30
0.0
 40
1.399999999999999
  0
LINE
  5
2D3
330
23
100
AcDbEntity
  8
0
  6
Continuous
 62
     7
100
AcDbLine
 10
142.0
 20
6.0
 30
0.0
 11
126.4999999952316
 21
6.0
 31
0.0
  0
LINE
  5
2D4
330
23
100
AcDbEntity
  8
0
  6
Continuous
 62
     7
100
AcDbLine
 10
142.0
 20
3.0
 30
0.0
 11
126.4999999952316
 21
3.0
 31
0.0
  0
LINE
  5
2D5
330
23
100
AcDbEntity
  8
0
  6
Continuous
 62
     7
100
AcDbLine
 10
126.4999999952316
 20
6.100006103515625
 30
0.0
 11
126.4999999952316
 21
2.899993896484375
 31
0.0
  0
LINE
  5
2D6
330
23
100
AcDbEntity
  8
0
  6
Continuous
 62
     7
100
AcDbLine
 10
142.0
 20
6.100006103515625
 30
0.0
 11
142.0
 21
2.899993896484375
 31
0.0
  0
LINE
  5
2D7
330
23
100
AcDbEntity
  8
0
  6
Continuous
 62
     7
100
AcDbLine
 10
131.5999999952316
 20
6.0
 30
0.0
 11
131.5999999952316
 21
3.0
 31
0.0
  0
LINE
  5
2D8
330
23
100
AcDbEntity
  8
0
  6
Continuous
 62
     7
100
AcDbLine
 10
138.0999999952316
 20
6.0
 30
0.0
 11
138.0999999952316
 21
3.0
 31
0.0
  0
LINE
  5
2D9
330
23
100
AcDbEntity
  8
0
  6
Continuous
 62
     7
100
AcDbLine
 10
126.4999999952316
 20
3.199999999999988
 30
0.0
 11
124.2476905264095
 21
3.199999999999988
 31
0.0
  0
LINE
  5
2DA
330
23
100
AcDbEntity
  8
0
  6
Continuous
 62
     7
100
AcDbLine
 10
126.4999999952316
 20
5.799999999999997
 30
0.0
 11
122.7465357919983
 21
5.799999999999997
 31
0.0
  0
LINE
  5
2DB
330
23
100
AcDbEntity
  8
0
  6
Continuous
 62
     2
100
AcDbLine
 10
124.2476905264095
 20
3.199999999999988
 30
0.0
 11
122.7465357919983
 21
5.799999999999997
 31
0.0
  0
LINE
  5
2DC
330
23
100
AcDbEntity
  8
0
  6
Continuous
 62
     2
100
AcDbLine
 10
0.0
 20
-3.0
 30
0.0
 11
0.0
 21
3.0
 31
0.0
  0
LINE
  5
2DD
330
23
100
AcDbEntity
  8
0
  6
Continuous
 62
     2
100
AcDbLine
 10
172.0
 20
-3.0
 30
0.0
 11
172.0
 21
3.0
 31
0.0
  0
LINE
  5
2DE
330
23
100
AcDbEntity
  8
0
  6
Continuous
 62
     2
100
AcDbLine
 10
10.49998474121093
 20
23.0
 30
0.0
 11
10.49998474121093
 21
29.0
 31
0.0
  0
LINE
  5
2DF
330
23
100
AcDbEntity
  8
0
  6
Continuous
 62
     2
100
AcDbLine
 10
61.50001525878906
 20
23.0
 30
0.0
 11
61.50001525878906
 21
29.0
 31
0.0
  0
LINE
  5
2E0
330
23
100
AcDbEntity
  8
0
  6
PHANTOM
 62
     3
100
AcDbLine
 10
95.0
 20
58.60361684210527
 30
0.0
 11
95.0
 21
-46.37585684210526
 31
0.0
  0
LINE
  5
2E1
330
23
100
AcDbEntity
  8
0
  6
Continuous
 62
     2
100
AcDbLine
 10
-8.0
 20
13.5
 30
0.0
 11
180.0
 21
13.5
 31
0.0
  0
ENDBLK
  5
2E2
330
23
100
AcDbEntity
  8
0
100
AcDbBlockEnd
  0
ENDSEC
  0
SECTION
  2
ENTITIES
  0
INSERT
  5
2E3
330
A
100
AcDbEntity
  8
0
  6
ByBlock
100
AcDbBlockReference
  2
MRVS14-6
 10
90.0
 20
-50.0
 30
0.0
  0
INSERT
  5
2E4
330
A
100
AcDbEntity
  8
0
  6
ByBlock
100
AcDbBlockReference
  2
MRVS14-5
 10
20.0
 20
70.0
 30
0.0
  0
INSERT
  5
2E5
330
A
100
AcDbEntity
  8
0
  6
ByBlock
100
AcDbBlockReference
  2
MRVS14-4
 10
90.0
 20
70.0
 30
0.0
  0
INSERT
  5
2E6
330
A
100
AcDbEntity
  8
0
  6
ByBlock
100
AcDbBlockReference
  2
MRVS14-3
 10
-190.0
 20
-50.0
 30
0.0
  0
INSERT
  5
2E7
330
A
100
AcDbEntity
  8
0
  6
ByBlock
100
AcDbBlockReference
  2
MRVS14-2
 10
-260.0
 20
70.0
 30
0.0
  0
INSERT
  5
2E8
330
A
100
AcDbEntity
  8
0
  6
ByBlock
100
AcDbBlockReference
  2
MRVS14-1
 10
-190.0
 20
70.0
 30
0.0
  0
MTEXT
  5
2E9
330
A
100
AcDbEntity
  8
0
  6
Continuous
 62
     7
100
AcDbMText
 10
53.92744587606219
 20
150.5
 30
0.0
 40
6.300000190734863
 41
0.0
 71
     4
 72
     5
  1
\W1.079;\A1;(WITH SENSOR SWITCH)
 73
     1
 44
1.0
1001
ACAD
1000
MTEXTBEGIN
1070
    73
1070
     1
1070
    44
1040
1.0
1070
    74
1070
     0
1000
MTEXTEND
  0
MTEXT
  5
2EA
330
A
100
AcDbEntity
  8
0
  6
Continuous
 62
     7
100
AcDbMText
 10
-227.7474808817503
 20
150.5
 30
0.0
 40
6.300000190734863
 41
0.0
 71
     4
 72
     5
  1
\W1.079;\A1;(WITH SENSOR SWITCH)
 73
     1
 44
1.0
1001
ACAD
1000
MTEXTBEGIN
1070
    73
1070
     1
1070
    44
1040
1.0
1070
    74
1070
     0
1000
MTEXTEND
  0
LINE
  5
2EB
330
A
100
AcDbEntity
  8
0
  6
Continuous
 62
     7
100
AcDbLine
 10
-118.8250732421875
 20
-158.738768887954
 30
0.0
 11
119.6749267578125
 21
-158.738768887954
 31
0.0
  0
LINE
  5
2EC
330
A
100
AcDbEntity
  8
0
  6
Continuous
 62
     7
100
AcDbLine
 10
-118.8250732421875
 20
-150.738768887954
 30
0.0
 11
119.6749267578125
 21
-150.738768887954
 31
0.0
  0
LINE
  5
2ED
330
A
100
AcDbEntity
  8
0
  6
Continuous
 62
     7
100
AcDbLine
 10
-118.8250732421875
 20
-142.738768887954
 30
0.0
 11
119.6749267578125
 21
-142.738768887954
 31
0.0
  0
LINE
  5
2EE
330
A
100
AcDbEntity
  8
0
  6
Continuous
 62
     7
100
AcDbLine
 10
-118.8250732421875
 20
-142.738768887954
 30
0.0
 11
-118.8250732421875
 21
-158.738768887954
 31
0.0
  0
MTEXT
  5
2EF
330
A
100
AcDbEntity
  8
0
  6
Continuous
 62
     7
100
AcDbMText
 10
-113.5750732421875
 20
-146.738768887954
 30
0.0
 40
4.5
 41
0.0
 71
     4
 72
     5
  1
\A1;STROKE
 73
     1
 44
1.0
1001
ACAD
1000
MTEXTBEGIN
1070
    73
1070
     1
1070
    44
1040
1.0
1070
    74
1070
     0
1000
MTEXTEND
  0
MTEXT
  5
2F0
330
A
100
AcDbEntity
  8
0
  6
Continuous
 62
     7
100
AcDbMText
 10
-115.8250732421875
 20
-154.738768887954
 30
0.0
 40
4.5
 41
0.0
 71
     4
 72
     5
  1
\A1;STRETCH
 73
     1
 44
1.0
1001
ACAD
1000
MTEXTBEGIN
1070
    73
1070
     1
1070
    44
1040
1.0
1070
    74
1070
     0
1000
MTEXTEND
  0
MTEXT
  5
2F1
330
A
100
AcDbEntity
  8
0
  6
Continuous
 62
     7
100
AcDbMText
 10
-54.92507324218752
 20
-146.738768887954
 30
0.0
 40
4.5
 41
0.0
 71
     4
 72
     5
  1
\W1.200;\A1;150
 73
     1
 44
1.0
1001
ACAD
1000
MTEXTBEGIN
1070
    73
1070
     1
1070
    44
1040
1.0
1070
    74
1070
     0
1000
MTEXTEND
  0
MTEXT
  5
2F2
330
A
100
AcDbEntity
  8
0
  6
Continuous
 62
     7
100
AcDbMText
 10
-52.7568914151389
 20
-154.738768887954
 30
0.0
 40
4.5
 41
0.0
 71
     4
 72
     5
  1
\W1.091;\A1;50
 73
     1
 44
1.0
1001
ACAD
1000
MTEXTBEGIN
1070
    73
1070
     1
1070
    44
1040
1.0
1070
    74
1070
     0
1000
MTEXTEND
  0
MTEXT
  5
2F3
330
A
100
AcDbEntity
  8
0
  6
Continuous
 62
     7
100
AcDbMText
 10
-32.48132322961466
 20
-146.738768887954
 30
0.0
 40
4.5
 41
0.0
 71
     4
 72
     5
  1
\W1.125;\A1;200
 73
     1
 44
1.0
1001
ACAD
1000
MTEXTBEGIN
1070
    73
1070
     1
1070
    44
1040
1.0
1070
    74
1070
     0
1000
MTEXTEND
  0
MTEXT
  5
2F4
330
A
100
AcDbEntity
  8
0
  6
Continuous
 62
     7
100
AcDbMText
 10
-32.36078751969096
 20
-154.738768887954
 30
0.0
 40
4.5
 41
0.0
 71
     4
 72
     5
  1
\W1.286;\A1;100
 73
     1
 44
1.0
1001
ACAD
1000
MTEXTBEGIN
1070
    73
1070
     1
1070
    44
1040
1.0
1070
    74
1070
     0
1000
MTEXTEND
  0
MTEXT
  5
2F5
330
A
100
AcDbEntity
  8
0
  6
Continuous
 62
     7
100
AcDbMText
 10
-10.0309555895601
 20
-146.738768887954
 30
0.0
 40
4.5
 41
0.0
 71
     4
 72
     5
  1
\W1.059;\A1;250
 73
     1
 44
1.0
1001
ACAD
1000
MTEXTBEGIN
1070
    73
1070
     1
1070
    44
1040
1.0
1070
    74
1070
     0
1000
MTEXTEND
  0
MTEXT
  5
2F6
330
A
100
AcDbEntity
  8
0
  6
Continuous
 62
     7
100
AcDbMText
 10
-9.925073242187528
 20
-154.738768887954
 30
0.0
 40
4.5
 41
0.0
 71
     4
 72
     5
  1
\W1.200;\A1;150
 73
     1
 44
1.0
1001
ACAD
1000
MTEXTBEGIN
1070
    73
1070
     1
1070
    44
1040
1.0
1070
    74
1070
     0
1000
MTEXTEND
  0
MTEXT
  5
2F7
330
A
100
AcDbEntity
  8
0
  6
Continuous
 62
     7
100
AcDbMText
 10
12.51867677038534
 20
-146.738768887954
 30
0.0
 40
4.5
 41
0.0
 71
     4
 72
     5
  1
\W1.125;\A1;300
 73
     1
 44
1.0
1001
ACAD
1000
MTEXTBEGIN
1070
    73
1070
     1
1070
    44
1040
1.0
1070
    74
1070
     0
1000
MTEXTEND
  0
MTEXT
  5
2F8
330
A
100
AcDbEntity
  8
0
  6
Continuous
 62
     7
100
AcDbMText
 10
12.51867677038534
 20
-154.738768887954
 30
0.0
 40
4.5
 41
0.0
 71
     4
 72
     5
  1
\W1.125;\A1;200
 73
     1
 44
1.0
1001
ACAD
1000
MTEXTBEGIN
1070
    73
1070
     1
1070
    44
1040
1.0
1070
    74
1070
     0
1000
MTEXTEND
  0
MTEXT
  5
2F9
330
A
100
AcDbEntity
  8
0
  6
Continuous
 62
     7
100
AcDbMText
 10
34.96904441043993
 20
-146.738768887954
 30
0.0
 40
4.5
 41
0.0
 71
     4
 72
     5
  1
\W1.059;\A1;350
 73
     1
 44
1.0
1001
ACAD
1000
MTEXTBEGIN
1070
    73
1070
     1
1070
    44
1040
1.0
1070
    74
1070
     0
1000
MTEXTEND
  0
MTEXT
  5
2FA
330
A
100
AcDbEntity
  8
0
  6
Continuous
 62
     7
100
AcDbMText
 10
34.96904441043993
 20
-154.738768887954
 30
0.0
 40
4.5
 41
0.0
 71
     4
 72
     5
  1
\W1.059;\A1;250
 73
     1
 44
1.0
1001
ACAD
1000
MTEXTBEGIN
1070
    73
1070
     1
1070
    44
1040
1.0
1070
    74
1070
     0
1000
MTEXTEND
  0
LINE
  5
2FB
330
A
100
AcDbEntity
  8
0
  6
Continuous
 62
     7
100
AcDbLine
 10
-82.8250732421875
 20
-142.738768887954
 30
0.0
 11
-82.8250732421875
 21
-158.738768887954
 31
0.0
  0
LINE
  5
2FC
330
A
100
AcDbEntity
  8
0
  6
Continuous
 62
     7
100
AcDbLine
 10
-60.32507324218752
 20
-142.738768887954
 30
0.0
 11
-60.32507324218752
 21
-158.738768887954
 31
0.0
  0
LINE
  5
2FD
330
A
100
AcDbEntity
  8
0
  6
Continuous
 62
     7
100
AcDbLine
 10
-37.82507324218752
 20
-142.738768887954
 30
0.0
 11
-37.82507324218752
 21
-158.738768887954
 31
0.0
  0
LINE
  5
2FE
330
A
100
AcDbEntity
  8
0
  6
Continuous
 62
     7
100
AcDbLine
 10
-15.32507324218751
 20
-142.738768887954
 30
0.0
 11
-15.32507324218751
 21
-158.738768887954
 31
0.0
  0
LINE
  5
2FF
330
A
100
AcDbEntity
  8
0
  6
Continuous
 62
     7
100
AcDbLine
 10
29.6749267578125
 20
-142.738768887954
 30
0.0
 11
29.6749267578125
 21
-158.738768887954
 31
0.0
  0
LINE
  5
300
330
A
100
AcDbEntity
  8
0
  6
Continuous
 62
     7
100
AcDbLine
 10
7.174926757812485
 20
-142.738768887954
 30
0.0
 11
7.174926757812485
 21
-158.738768887954
 31
0.0
  0
LINE
  5
301
330
A
100
AcDbEntity
  8
0
  6
Continuous
 62
     7
100
AcDbLine
 10
74.6749267578125
 20
-142.738768887954
 30
0.0
 11
74.6749267578125
 21
-158.738768887954
 31
0.0
  0
LINE
  5
302
330
A
100
AcDbEntity
  8
0
  6
Continuous
 62
     7
100
AcDbLine
 10
52.1749267578125
 20
-142.738768887954
 30
0.0
 11
52.1749267578125
 21
-158.738768887954
 31
0.0
  0
LINE
  5
303
330
A
100
AcDbEntity
  8
0
  6
Continuous
 62
     7
100
AcDbLine
 10
119.6749267578125
 20
-142.738768887954
 30
0.0
 11
119.6749267578125
 21
-158.738768887954
 31
0.0
  0
LINE
  5
304
330
A
100
AcDbEntity
  8
0
  6
Continuous
 62
     7
100
AcDbLine
 10
97.17492675781251
 20
-142.738768887954
 30
0.0
 11
97.17492675781251
 21
-158.738768887954
 31
0.0
  0
MTEXT
  5
305
330
A
100
AcDbEntity
  8
0
  6
Continuous
 62
     7
100
AcDbMText
 10
-77.36078751969095
 20
-146.738768887954
 30
0.0
 40
4.5
 41
0.0
 71
     4
 72
     5
  1
\W1.286;\A1;100
 73
     1
 44
1.0
1001
ACAD
1000
MTEXTBEGIN
1070
    73
1070
     1
1070
    44
1040
1.0
1070
    74
1070
     0
1000
MTEXTEND
  0
MTEXT
  5
306
330
A
100
AcDbEntity
  8
0
  6
Continuous
 62
     7
100
AcDbMText
 10
-72.92507322072984
 20
-154.738768887954
 30
0.0
 40
4.5
 41
0.0
 71
     4
 72
     5
  1
\W1.200;\A1;0
 73
     1
 44
1.0
1001
ACAD
1000
MTEXTBEGIN
1070
    73
1070
     1
1070
    44
1040
1.0
1070
    74
1070
     0
1000
MTEXTEND
  0
MTEXT
  5
307
330
A
100
AcDbEntity
  8
0
  6
Continuous
 62
     7
100
AcDbMText
 10
57.51867677038534
 20
-146.738768887954
 30
0.0
 40
4.5
 41
0.0
 71
     4
 72
     5
  1
\W1.125;\A1;400
 73
     1
 44
1.0
1001
ACAD
1000
MTEXTBEGIN
1070
    73
1070
     1
1070
    44
1040
1.0
1070
    74
1070
     0
1000
MTEXTEND
  0
MTEXT
  5
308
330
A
100
AcDbEntity
  8
0
  6
Continuous
 62
     7
100
AcDbMText
 10
57.51867677038534
 20
-154.738768887954
 30
0.0
 40
4.5
 41
0.0
 71
     4
 72
     5
  1
\W1.125;\A1;300
 73
     1
 44
1.0
1001
ACAD
1000
MTEXTBEGIN
1070
    73
1070
     1
1070
    44
1040
1.0
1070
    74
1070
     0
1000
MTEXTEND
  0
MTEXT
  5
309
330
A
100
AcDbEntity
  8
0
  6
Continuous
 62
     7
100
AcDbMText
 10
79.96904441043991
 20
-146.738768887954
 30
0.0
 40
4.5
 41
0.0
 71
     4
 72
     5
  1
\W1.059;\A1;450
 73
     1
 44
1.0
1001
ACAD
1000
MTEXTBEGIN
1070
    73
1070
     1
1070
    44
1040
1.0
1070
    74
1070
     0
1000
MTEXTEND
  0
MTEXT
  5
30A
330
A
100
AcDbEntity
  8
0
  6
Continuous
 62
     7
100
AcDbMText
 10
79.96904441043991
 20
-154.738768887954
 30
0.0
 40
4.5
 41
0.0
 71
     4
 72
     5
  1
\W1.059;\A1;350
 73
     1
 44
1.0
1001
ACAD
1000
MTEXTBEGIN
1070
    73
1070
     1
1070
    44
1040
1.0
1070
    74
1070
     0
1000
MTEXTEND
  0
MTEXT
  5
30B
330
A
100
AcDbEntity
  8
0
  6
Continuous
 62
     7
100
AcDbMText
 10
102.5186767703853
 20
-146.738768887954
 30
0.0
 40
4.5
 41
0.0
 71
     4
 72
     5
  1
\W1.125;\A1;500
 73
     1
 44
1.0
1001
ACAD
1000
MTEXTBEGIN
1070
    73
1070
     1
1070
    44
1040
1.0
1070
    74
1070
     0
1000
MTEXTEND
  0
MTEXT
  5
30C
330
A
100
AcDbEntity
  8
0
  6
Continuous
 62
     7
100
AcDbMText
 10
102.5186767703853
 20
-154.738768887954
 30
0.0
 40
4.5
 41
0.0
 71
     4
 72
     5
  1
\W1.125;\A1;400
 73
     1
 44
1.0
1001
ACAD
1000
MTEXTBEGIN
1070
    73
1070
     1
1070
    44
1040
1.0
1070
    74
1070
     0
1000
MTEXTEND
  0
MTEXT
  5
30D
330
A
100
AcDbEntity
  8
0
  6
Continuous
 62
     7
100
AcDbMText
 10
-25.77625667554884
 20
-138.1025377759081
 30
0.0
 40
4.5
 41
0.0
 71
     4
 72
     5
  1
\W1.065;\A1;STRETCH LIST
 73
     1
 44
1.0
1001
ACAD
1000
MTEXTBEGIN
1070
    73
1070
     1
1070
    44
1040
1.0
1070
    74
1070
     0
1000
MTEXTEND
  0
MTEXT
  5
30E
330
A
100
AcDbEntity
  8
0
  6
Continuous
 62
     7
100
AcDbMText
 10
104.9305966608507
 20
-138.3667679589708
 30
0.0
 40
4.5
 41
0.0
 71
     4
 72
     5
  1
\W0.833;\A1;（ｍｍ）
 73
     1
 44
1.0
1001
ACAD
1000
MTEXTBEGIN
1070
    73
1070
     1
1070
    44
1040
1.0
1070
    74
1070
     0
1000
MTEXTEND
  0
MTEXT
  5
30F
330
A
100
AcDbEntity
  8
0
  6
Continuous
 62
     3
100
AcDbMText
 10
144.5812238277536
 20
125.1468820316171
 30
0.0
 40
6.300000190734863
 41
0.0
 71
     4
 72
     5
  1
\W1.065;\A1;STRETCH LINE
 73
     1
 44
1.0
1001
ACAD
1000
MTEXTBEGIN
1070
    73
1070
     1
1070
    44
1040
1.0
1070
    74
1070
     0
1000
MTEXTEND
  0
MTEXT
  5
310
330
A
100
AcDbEntity
  8
0
  6
Continuous
 62
     3
100
AcDbMText
 10
-135.4187761722464
 20
125.1468820316171
 30
0.0
 40
6.300000190734863
 41
0.0
 71
     4
 72
     5
  1
\W1.065;\A1;STRETCH LINE
 73
     1
 44
1.0
1001
ACAD
1000
MTEXTBEGIN
1070
    73
1070
     1
1070
    44
1040
1.0
1070
    74
1070
     0
1000
MTEXTEND
  0
MTEXT
  5
311
330
A
100
AcDbEntity
  8
0
  6
Continuous
 62
     7
100
AcDbMText
 10
13.42992669224987
 20
160.5
 30
0.0
 40
6.300000190734863
 41
0.0
 71
     4
 72
     5
  1
{\W1.1;MODEL:CS-MRVS14*ST(100)-M}
 73
     1
 44
1.0
1001
ACAD
1000
ACAD_MTEXT_DEFINED_HEIGHT_BEGIN
1070
    46
1040
0.0
1000
ACAD_MTEXT_DEFINED_HEIGHT_END
1000
MTEXTBEGIN
1070
    73
1070
     1
1070
    44
1040
1.0
1070
    74
1070
     0
1000
MTEXTEND
  0
MTEXT
  5
312
330
A
100
AcDbEntity
  8
0
  6
Continuous
 62
     7
100
AcDbMText
 10
-239.1000005404154
 20
180.5
 30
0.0
 40
6.300000190734863
 41
0.0
 71
     4
 72
     5
  1
CS-MRVS14
 73
     1
 44
1.0
1001
ACAD
1000
ACAD_MTEXT_DEFINED_HEIGHT_BEGIN
1070
    46
1040
0.0
1000
ACAD_MTEXT_DEFINED_HEIGHT_END
1000
MTEXTBEGIN
1070
    73
1070
     1
1070
    44
1040
1.0
1070
    74
1070
     0
1000
MTEXTEND
  0
MTEXT
  5
313
330
A
100
AcDbEntity
  8
0
  6
Continuous
 62
     7
100
AcDbMText
 10
-270.5495648127721
 20
190.5
 30
0.0
 40
6.300000190734863
 41
0.0
 71
     4
 72
     5
  1
\W1.048;\A1;RODLESS CYLINDER
 73
     1
 44
1.0
1001
ACAD
1000
MTEXTBEGIN
1070
    73
1070
     1
1070
    44
1040
1.0
1070
    74
1070
     0
1000
MTEXTEND
  0
LINE
  5
314
330
A
100
AcDbEntity
  8
0
  6
Continuous
 62
     7
100
AcDbLine
 10
0.4249267578125
 20
195.5
 30
0.0
 11
0.4249267578125
 21
-120.0
 31
0.0
  0
LINE
  5
315
330
A
100
AcDbEntity
  8
0
  6
Continuous
 62
     7
100
AcDbLine
 10
-281.25
 20
175.5
 30
0.0
 11
-161.25
 21
175.5
 31
0.0
  0
LINE
  5
316
330
A
100
AcDbEntity
  8
0
  6
Continuous
 62
     7
100
AcDbLine
 10
-161.25
 20
195.5
 30
0.0
 11
-161.25
 21
175.5
 31
0.0
  0
LINE
  5
317
330
A
100
AcDbEntity
  8
0
  6
Continuous
 62
     7
100
AcDbLine
 10
162.0999755859375
 20
-175.0
 30
0.0
 11
162.0999755859375
 21
-195.0
 31
0.0
  0
LINE
  5
318
330
A
100
AcDbEntity
  8
0
  6
Continuous
 62
     7
100
AcDbLine
 10
162.0999755859375
 20
-175.0
 30
0.0
 11
282.099853515625
 21
-175.0
 31
0.0
  0
MTEXT
  5
319
330
A
100
AcDbEntity
  8
0
  6
Continuous
 62
     7
100
AcDbMText
 10
170.2809980228688
 20
-185.0
 30
0.0
 40
9.0
 41
0.0
 71
     4
 72
     5
  1
\W1.121;\A1;KOGANEI CORP.
 73
     1
 44
1.0
1001
ACAD
1000
MTEXTBEGIN
1070
    73
1070
     1
1070
    44
1040
1.0
1070
    74
1070
     0
1000
MTEXTEND
  0
MTEXT
  5
31A
330
A
100
AcDbEntity
  8
0
  6
Continuous
 62
     7
100
AcDbMText
 10
198.2770240315611
 20
185.5
 30
0.0
 40
6.300000190734863
 41
0.0
 71
     4
 72
     5
  1
\W1.311;\A1;Ver. 1.0
 73
     1
 44
1.0
1001
ACAD
1000
MTEXTBEGIN
1070
    73
1070
     1
1070
    44
1040
1.0
1070
    74
1070
     0
1000
MTEXTEND
  0
LINE
  5
31B
330
A
100
AcDbEntity
  8
0
  6
Continuous
 62
     7
100
AcDbLine
 10
162.0999755859375
 20
175.5
 30
0.0
 11
282.099853515625
 21
175.5
 31
0.0
  0
LINE
  5
31C
330
A
100
AcDbEntity
  8
0
  6
Continuous
 62
     7
100
AcDbLine
 10
162.0999755859375
 20
195.5
 30
0.0
 11
162.0999755859375
 21
175.5
 31
0.0
  0
LINE
  5
31D
330
A
100
AcDbEntity
  8
0
  6
Continuous
 62
     7
100
AcDbLine
 10
282.099853515625
 20
195.5
 30
0.0
 11
282.099853515625
 21
-195.0
 31
0.0
  0
LINE
  5
31E
330
A
100
AcDbEntity
  8
0
  6
Continuous
 62
     7
100
AcDbLine
 10
-281.25
 20
195.5
 30
0.0
 11
282.099853515625
 21
195.5
 31
0.0
  0
LINE
  5
31F
330
A
100
AcDbEntity
  8
0
  6
Continuous
 62
     7
100
AcDbLine
 10
-281.25
 20
195.5
 30
0.0
 11
-281.25
 21
-195.0
 31
0.0
  0
LINE
  5
320
330
A
100
AcDbEntity
  8
0
  6
Continuous
 62
     7
100
AcDbLine
 10
-281.25
 20
-195.0
 30
0.0
 11
282.099853515625
 21
-195.0
 31
0.0
  0
MTEXT
  5
321
330
A
100
AcDbEntity
  8
0
  6
Continuous
 62
     7
100
AcDbMText
 10
-268.2333333991744
 20
160.5
 30
0.0
 40
6.300000190734863
 41
0.0
 71
     4
 72
     5
  1
{\W1.111;MODEL:CS-MRVS14*ST(100)}
 73
     1
 44
1.0
1001
ACAD
1000
ACAD_MTEXT_DEFINED_HEIGHT_BEGIN
1070
    46
1040
0.0
1000
ACAD_MTEXT_DEFINED_HEIGHT_END
1000
MTEXTBEGIN
1070
    73
1070
     1
1070
    44
1040
1.0
1070
    74
1070
     0
1000
MTEXTEND
  0
ENDSEC
  0
SECTION
  2
OBJECTS
  0
DICTIONARY
  5
19
330
0
100
AcDbDictionary
281
     1
  3
ACAD_COLOR
350
32A
  3
ACAD_GROUP
350
1A
  3
ACAD_LAYOUT
350
32D
  3
ACAD_MATERIAL
350
329
  3
ACAD_MLINESTYLE
350
1B
  3
ACAD_PLOTSETTINGS
350
32E
  3
ACAD_PLOTSTYLENAME
350
327
  3
ACAD_TABLESTYLE
350
32B
  3
ACDBHEADERROUNDTRIPXREC
350
339
  3
AcDbVariableDictionary
350
334
  0
DICTIONARY
  5
32A
102
{ACAD_REACTORS
330
19
102
}
330
19
100
AcDbDictionary
281
     1
  0
DICTIONARY
  5
1A
102
{ACAD_REACTORS
330
19
102
}
330
19
100
AcDbDictionary
281
     1
  0
DICTIONARY
  5
32D
102
{ACAD_REACTORS
330
19
102
}
330
19
100
AcDbDictionary
281
     1
  3
Model
350
32F
  3
レイアウト1
350
330
  0
DICTIONARY
  5
329
102
{ACAD_REACTORS
330
19
102
}
330
19
100
AcDbDictionary
281
     1
  0
DICTIONARY
  5
1B
102
{ACAD_REACTORS
330
19
102
}
330
19
100
AcDbDictionary
281
     1
  3
STANDARD
350
1C
  0
DICTIONARY
  5
32E
102
{ACAD_REACTORS
330
19
102
}
330
19
100
AcDbDictionary
281
     1
  0
ACDBDICTIONARYWDFLT
  5
327
102
{ACAD_REACTORS
330
19
102
}
330
19
100
AcDbDictionary
281
     1
  3
Normal
350
328
100
AcDbDictionaryWithDefault
340
328
  0
DICTIONARY
  5
32B
102
{ACAD_REACTORS
330
19
102
}
330
19
100
AcDbDictionary
281
     1
  3
Standard
350
32C
  0
DICTIONARY
  5
339
102
{ACAD_REACTORS
330
19
102
}
330
19
100
AcDbDictionary
281
     1
  0
DICTIONARY
  5
334
102
{ACAD_REACTORS
330
19
102
}
330
19
100
AcDbDictionary
281
     1
  3
CTABLESTYLE
350
335
  3
DIMASSOC
350
336
  3
PROJECTNAME
350
337
  0
LAYOUT
  5
32F
102
{ACAD_XDICTIONARY
360
33A
102
}
102
{ACAD_REACTORS
330
32D
102
}
330
32D
100
AcDbPlotSettings
  1

  2
\\Tg_salsvr02\DCCF450-41.214
  4

  6

 40
0.0
 41
0.0
 42
0.0
 43
0.0
 44
0.0
 45
0.0
 46
0.0
 47
0.0
 48
0.0
 49
0.0
140
0.0
141
0.0
142
1.0
143
1.0
 70
  1712
 72
     0
 73
     0
 74
     0
  7

 75
     0
147
1.0
148
0.0
149
0.0
100
AcDbLayout
  1
Model
 70
     1
 71
     0
 10
0.0
 20
0.0
 11
12.0
 21
9.0
 12
0.0
 22
0.0
 32
0.0
 14
0.0
 24
0.0
 34
0.0
 15
0.0
 25
0.0
 35
0.0
146
0.0
 13
0.0
 23
0.0
 33
0.0
 16
1.0
 26
0.0
 36
0.0
 17
0.0
 27
1.0
 37
0.0
 76
     0
330
A
  0
LAYOUT
  5
330
102
{ACAD_XDICTIONARY
360
33C
102
}
102
{ACAD_REACTORS
330
32D
102
}
330
32D
100
AcDbPlotSettings
  1

  2
\\Tg_salsvr02\DCCF450-41.214
  4

  6

 40
0.0
 41
0.0
 42
0.0
 43
0.0
 44
0.0
 45
0.0
 46
0.0
 47
0.0
 48
0.0
 49
0.0
140
0.0
141
0.0
142
1.0
143
1.0
 70
   688
 72
     0
 73
     0
 74
     5
  7

 75
    16
147
1.0
148
0.0
149
0.0
100
AcDbLayout
  1
レイアウト1
 70
     0
 71
     1
 10
0.0
 20
0.0
 11
12.0
 21
9.0
 12
0.0
 22
0.0
 32
0.0
 14
1.000000000000000E+20
 24
1.000000000000000E+20
 34
1.000000000000000E+20
 15
-1.000000000000000E+20
 25
-1.000000000000000E+20
 35
-1.000000000000000E+20
146
0.0
 13
0.0
 23
0.0
 33
0.0
 16
1.0
 26
0.0
 36
0.0
 17
0.0
 27
1.0
 37
0.0
 76
     0
330
B
  0
MLINESTYLE
  5
1C
102
{ACAD_REACTORS
330
1B
102
}
330
1B
100
AcDbMlineStyle
  2
STANDARD
 70
     0
  3

 62
     0
 51
90.0
 52
90.0
 71
     2
 49
0.5
 62
   256
  6
BYLAYER
 49
-0.5
 62
   256
  6
BYLAYER
  0
ACDBPLACEHOLDER
  5
328
102
{ACAD_REACTORS
330
327
102
}
330
327
  0
TABLESTYLE
  5
32C
102
{ACAD_REACTORS
330
32B
102
}
330
32B
100
AcDbTableStyle
  3
Standard
 70
     0
 71
     0
 40
0.06
 41
0.06
280
     0
281
     0
  7
MX_NOTE_STANDARD
140
0.18
170
     2
 62
     0
 63
     7
283
     0
274
    -2
284
     1
 64
     0
275
    -2
285
     1
 65
     0
276
    -2
286
     1
 66
     0
277
    -2
287
     1
 67
     0
278
    -2
288
     1
 68
     0
279
    -2
289
     1
 69
     0
  7
MX_NOTE_STANDARD
140
0.25
170
     5
 62
     0
 63
     7
283
     0
274
    -2
284
     1
 64
     0
275
    -2
285
     1
 65
     0
276
    -2
286
     1
 66
     0
277
    -2
287
     1
 67
     0
278
    -2
288
     1
 68
     0
279
    -2
289
     1
 69
     0
  7
MX_NOTE_STANDARD
140
0.18
170
     5
 62
     0
 63
     7
283
     0
274
    -2
284
     1
 64
     0
275
    -2
285
     1
 65
     0
276
    -2
286
     1
 66
     0
277
    -2
287
     1
 67
     0
278
    -2
288
     1
 68
     0
279
    -2
289
     1
 69
     0
  0
DICTIONARYVAR
  5
335
102
{ACAD_REACTORS
330
334
102
}
330
334
100
DictionaryVariables
280
     0
  1
STANDARD
  0
DICTIONARYVAR
  5
336
102
{ACAD_REACTORS
330
334
102
}
330
334
100
DictionaryVariables
280
     0
  1
1
  0
DICTIONARYVAR
  5
337
102
{ACAD_REACTORS
330
334
102
}
330
334
100
DictionaryVariables
280
     0
  1

  0
DICTIONARY
  5
33A
330
32F
100
AcDbDictionary
280
     1
281
     1
  3
ACAD_XREC_ROUNDTRIP
360
33B
  0
DICTIONARY
  5
33C
330
330
100
AcDbDictionary
280
     1
281
     1
  3
ACAD_XREC_ROUNDTRIP
360
33D
  0
XRECORD
  5
33B
102
{ACAD_REACTORS
330
33A
102
}
330
33A
100
AcDbXrecord
280
     1
102
SHADEPLOT
 70
     0
102
SHADEPLOTRESLEVEL
 70
     2
102
SHADEPLOTCUSTOMDPI
 70
   300
  0
XRECORD
  5
33D
102
{ACAD_REACTORS
330
33C
102
}
330
33C
100
AcDbXrecord
280
     1
102
SHADEPLOT
 70
     0
102
SHADEPLOTRESLEVEL
 70
     2
102
SHADEPLOTCUSTOMDPI
 70
   300
  0
ENDSEC
  0
EOF
