  0
SECTION
  2
HEADER
  9
$ACADVER
  1
AC1012
  9
$DWGCODEPAGE
  3
dos932
  9
$INSBASE
 10
0.0
 20
0.0
 30
0.0
  9
$EXTMIN
 10
-281.25
 20
-195.0
 30
0.0
  9
$EXTMAX
 10
285.63191774774975
 20
195.5
 30
0.0
  9
$LIMMIN
 10
-281.25
 20
-195.0
  9
$LIMMAX
 10
285.63191774774975
 20
195.5
  9
$ORTHOMODE
 70
               0
  9
$REGENMODE
 70
               1
  9
$FILLMODE
 70
               1
  9
$QTEXTMODE
 70
               0
  9
$MIRRTEXT
 70
               1
  9
$DRAGMODE
 70
               2
  9
$LTSCALE
 40
1.0
  9
$OSMODE
 70
               0
  9
$ATTMODE
 70
               1
  9
$TEXTSIZE
 40
3.2000000476837158
  9
$TRACEWID
 40
0.05
  9
$TEXTSTYLE
  7
MX_NOTE_STANDARD
  9
$CLAYER
  8
0
  9
$CELTYPE
  6
CONTINUOUS
  9
$CECOLOR
 62
             256
  9
$CELTSCALE
 40
1.0
  9
$DELOBJ
 70
               1
  9
$DISPSILH
 70
               0
  9
$DIMSCALE
 40
1.0
  9
$DIMASZ
 40
2.5
  9
$DIMEXO
 40
1.5
  9
$DIMDLI
 40
3.75
  9
$DIMRND
 40
0.0
  9
$DIMDLE
 40
0.0
  9
$DIMEXE
 40
1.5
  9
$DIMTP
 40
0.0
  9
$DIMTM
 40
0.0
  9
$DIMTXT
 40
3.2000000476837158
  9
$DIMCEN
 40
2.5
  9
$DIMTSZ
 40
0.0
  9
$DIMTOL
 70
               0
  9
$DIMLIM
 70
               0
  9
$DIMTIH
 70
               0
  9
$DIMTOH
 70
               0
  9
$DIMSE1
 70
               0
  9
$DIMSE2
 70
               0
  9
$DIMTAD
 70
               1
  9
$DIMZIN
 70
               8
  9
$DIMBLK
  1

  9
$DIMASO
 70
               1
  9
$DIMSHO
 70
               1
  9
$DIMPOST
  1

  9
$DIMAPOST
  1

  9
$DIMALT
 70
               0
  9
$DIMALTD
 70
               4
  9
$DIMALTF
 40
0.03937007874016
  9
$DIMLFAC
 40
1.0
  9
$DIMTOFL
 70
               1
  9
$DIMTVP
 40
0.0
  9
$DIMTIX
 70
               0
  9
$DIMSOXD
 70
               0
  9
$DIMSAH
 70
               0
  9
$DIMBLK1
  1

  9
$DIMBLK2
  1

  9
$DIMSTYLE
  2
MXDIMSTYLE
  9
$DIMCLRD
 70
               0
  9
$DIMCLRE
 70
               0
  9
$DIMCLRT
 70
               0
  9
$DIMTFAC
 40
1.0
  9
$DIMGAP
 40
1.0
  9
$DIMJUST
 70
               0
  9
$DIMSD1
 70
               0
  9
$DIMSD2
 70
               0
  9
$DIMTOLJ
 70
               1
  9
$DIMTZIN
 70
               0
  9
$DIMALTZ
 70
               0
  9
$DIMALTTZ
 70
               0
  9
$DIMFIT
 70
               3
  9
$DIMUPT
 70
               1
  9
$DIMUNIT
 70
               2
  9
$DIMDEC
 70
               4
  9
$DIMTDEC
 70
               4
  9
$DIMALTU
 70
               2
  9
$DIMALTTD
 70
               4
  9
$DIMTXSTY
  7
MX_NOTE_STANDARD
  9
$DIMAUNIT
 70
               0
  9
$LUNITS
 70
               2
  9
$LUPREC
 70
               4
  9
$SKETCHINC
 40
0.1
  9
$FILLETRAD
 40
0.0
  9
$AUNITS
 70
               0
  9
$AUPREC
 70
               0
  9
$MENU
  1
acad
  9
$ELEVATION
 40
0.0
  9
$PELEVATION
 40
0.0
  9
$THICKNESS
 40
0.0
  9
$LIMCHECK
 70
               0
  9
$BLIPMODE
 70
               1
  9
$CHAMFERA
 40
0.0
  9
$CHAMFERB
 40
0.0
  9
$CHAMFERC
 40
0.0
  9
$CHAMFERD
 40
0.0
  9
$SKPOLY
 70
               0
  9
$TDCREATE
 40
2453378.356215278
  9
$TDUPDATE
 40
2453378.356215278
  9
$TDINDWG
 40
0.0000000000
  9
$TDUSRTIMER
 40
0.0000000000
  9
$USRTIMER
 70
               1
  9
$ANGBASE
 50
0.0
  9
$ANGDIR
 70
               0
  9
$PDMODE
 70
               0
  9
$PDSIZE
 40
0.0
  9
$PLINEWID
 40
0.0
  9
$COORDS
 70
               1
  9
$SPLFRAME
 70
               0
  9
$SPLINETYPE
 70
               6
  9
$SPLINESEGS
 70
               8
  9
$ATTDIA
 70
               0
  9
$ATTREQ
 70
               1
  9
$HANDLING
 70
               1
  9
$HANDSEED
  5
75E
  9
$SURFTAB1
 70
               6
  9
$SURFTAB2
 70
               6
  9
$SURFTYPE
 70
               6
  9
$SURFU
 70
               6
  9
$SURFV
 70
               6
  9
$UCSNAME
  2

  9
$UCSORG
 10
0.0
 20
0.0
 30
0.0
  9
$UCSXDIR
 10
1.0
 20
0.0
 30
0.0
  9
$UCSYDIR
 10
0.0
 20
1.0
 30
0.0
  9
$PUCSNAME
  2

  9
$PUCSORG
 10
0.0
 20
0.0
 30
0.0
  9
$PUCSXDIR
 10
1.0
 20
0.0
 30
0.0
  9
$PUCSYDIR
 10
0.0
 20
1.0
 30
0.0
  9
$USERI1
 70
               0
  9
$USERI2
 70
               0
  9
$USERI3
 70
               0
  9
$USERI4
 70
               0
  9
$USERI5
 70
               0
  9
$USERR1
 40
0.0
  9
$USERR2
 40
0.0
  9
$USERR3
 40
0.0
  9
$USERR4
 40
0.0
  9
$USERR5
 40
0.0
  9
$WORLDVIEW
 70
               1
  9
$SHADEDGE
 70
               3
  9
$SHADEDIF
 70
              70
  9
$TILEMODE
 70
               1
  9
$MAXACTVP
 70
              16
  9
$PINSBASE
 10
0.0
 20
0.0
 30
0.0
  9
$PLIMCHECK
 70
               0
  9
$PEXTMIN
 10
1.0000000000000000E+20
 20
1.0000000000000000E+20
 30
1.0000000000000000E+20
  9
$PEXTMAX
 10
-1.0000000000000000E+20
 20
-1.0000000000000000E+20
 30
-1.0000000000000000E+20
  9
$PLIMMIN
 10
0.0
 20
0.0
  9
$PLIMMAX
 10
12.0
 20
9.0
  9
$UNITMODE
 70
               0
  9
$VISRETAIN
 70
               0
  9
$PLINEGEN
 70
               1
  9
$PSLTSCALE
 70
               0
  9
$TREEDEPTH
 70
            3020
  9
$PICKSTYLE
 70
               1
  9
$CMLSTYLE
  2
Standard
  9
$CMLJUST
 70
               0
  9
$CMLSCALE
 40
1.0
  9
$SAVEIMAGES
 70
               0
  0
ENDSEC
  0
SECTION
  2
CLASSES
  0
CLASS
  1
LWPOLYLINE
  2
AcDbPolyline
  3
"AutoCAD"
 90
        0
280
               0
281
               1
  0
CLASS
  1
IMAGE
  2
AcDbRasterImage
  3
ISM
 90
      127
280
               0
281
               1
  0
CLASS
  1
OLE2FRAME
  2
AcDbOle2Frame
  3
""
 90
        0
280
               0
281
               1
  0
CLASS
  1
HATCH
  2
AcDbHatch
  3
"ACAD_SEDONA"
 90
        0
280
               0
281
               1
  0
CLASS
  1
DICTIONARYVAR
  2
AcDbDictionaryVar
  3
"AutoCAD"
 90
        0
280
               0
281
               0
  0
CLASS
  1
RASTERVARIABLES
  2
AcDbRasterVariables
  3
ISM
 90
        0
280
               0
281
               0
  0
CLASS
  1
IMAGEDEF
  2
AcDbRasterImageDef
  3
ISM
 90
        0
280
               0
281
               0
  0
CLASS
  1
IMAGEDEF_REACTOR
  2
AcDbRasterImageDefReactor
  3
ISM
 90
        1
280
               0
281
               0
  0
CLASS
  1
IDBUFFER
  2
AcDbIdBuffer
  3
"Acad"
 90
        0
280
               0
281
               0
  0
CLASS
  1
SPATIAL_FILTER
  2
AcDbSpatialFilter
  3
"Acad"
 90
        0
280
               0
281
               0
  0
CLASS
  1
XRECORD
  2
AcDbXrecord
  3
"<Built In>"
 90
        0
280
               0
281
               0
  0
CLASS
  1
SORTENTSTABLE
  2
AcDbSortentsTable
  3
"AutoCAD"
 90
        0
280
               0
281
               0
  0
CLASS
  1
LAYER_INDEX
  2
AcDbLayerIndex
  3
"Acad"
 90
        0
280
               0
281
               0
  0
CLASS
  1
SPATIAL_INDEX
  2
AcDbSpatialIndex
  3
"Acad"
 90
        0
280
               0
281
               0
  0
CLASS
  1
OBJECT_PTR
  2
CAseDLPNTableRecord
  3
"ASE-LPNTableRecord"
 90
        1
280
               0
281
               0
  0
CLASS
  1
LAYOUT
  2
AcDbLayout
  3
"AutoCAD 2000"
 90
        1
280
               0
281
               0
  0
CLASS
  1
PLOTSETTINGS
  2
AcDbPlotSettings
  3
"AutoCAD 2000"
 90
        1
280
               0
281
               0
  0
CLASS
  1
ACDBDICTIONARYWDFLT
  2
AcDbDictionaryWithDefault
  3
"AutoCAD 2000"
 90
        1
280
               0
281
               0
  0
CLASS
  1
ACDBPLACEHOLDER
  2
AcDbPlaceHolder
  3
"AutoCAD 2000"
 90
        1
280
               0
281
               0
  0
ENDSEC
  0
SECTION
  2
TABLES
  0
TABLE
  2
VPORT
  5
7
100
AcDbSymbolTable
 70
               1
  0
VPORT
  5
15
100
AcDbSymbolTableRecord
100
AcDbViewportTableRecord
  2
*ACTIVE
 70
               0
 10
0.0
 20
0.0
 11
1.0
 21
1.0
 12
2.1909588738748766
 22
0.25
 13
0.0
 23
0.0
 14
1.0
 24
1.0
 15
0.0
 25
0.0
 16
0.0
 26
0.0
 36
1.0
 17
0.0
 27
0.0
 37
0.0
 40
394.40500000000003
 41
1.7320508075688772
 42
50.0
 43
0.0
 44
0.0
 50
0.0
 51
0.0
 71
               0
 72
             100
 73
               1
 74
               1
 75
               0
 76
               0
 77
               0
 78
               0
  0
ENDTAB
  0
TABLE
  2
LTYPE
  5
4
100
AcDbSymbolTable
 70
               6
  0
LTYPE
  5
11
100
AcDbSymbolTableRecord
100
AcDbLinetypeTableRecord
  2
BYBLOCK
 70
              64
  3

 72
              65
 73
               0
 40
0.0
  0
LTYPE
  5
12
100
AcDbSymbolTableRecord
100
AcDbLinetypeTableRecord
  2
BYLAYER
 70
              64
  3

 72
              65
 73
               0
 40
0.0
  0
LTYPE
  5
13
100
AcDbSymbolTableRecord
100
AcDbLinetypeTableRecord
  2
CONTINUOUS
 70
              64
  3
Solid line
 72
              65
 73
               0
 40
0.0
  0
LTYPE
  5
39
100
AcDbSymbolTableRecord
100
AcDbLinetypeTableRecord
  2
PHANTOM
 70
              64
  3
Phantom ______  __  __  ______  __  __  ______
 72
              65
 73
               6
 40
30.0
 49
20.0
 74
               0
 49
-2.0
 74
               0
 49
2.0
 74
               0
 49
-2.0
 74
               0
 49
2.0
 74
               0
 49
-2.0
 74
               0
  0
LTYPE
  5
47
100
AcDbSymbolTableRecord
100
AcDbLinetypeTableRecord
  2
CENTER
 70
              64
  3
Center ____ _ ____ _ ____ _ ____ _ ____ _ ____
 72
              65
 73
               4
 40
26.0
 49
20.0
 74
               0
 49
-2.0
 74
               0
 49
2.0
 74
               0
 49
-2.0
 74
               0
  0
LTYPE
  5
738
100
AcDbSymbolTableRecord
100
AcDbLinetypeTableRecord
  2
DASHED
 70
              64
  3
Dashed __ __ __ __ __ __ __ __ __ __ __ __ __ _
 72
              65
 73
               2
 40
4.0
 49
2.0
 74
               0
 49
-2.0
 74
               0
  0
ENDTAB
  0
TABLE
  2
LAYER
  5
2
100
AcDbSymbolTable
 70
               2
  0
LAYER
  5
14
100
AcDbSymbolTableRecord
100
AcDbLayerTableRecord
  2
0
 70
               0
 62
               7
  6
CONTINUOUS
  0
LAYER
  5
1D
100
AcDbSymbolTableRecord
100
AcDbLayerTableRecord
  2
DEFPOINTS
 70
               0
 62
               7
  6
CONTINUOUS
  0
ENDTAB
  0
TABLE
  2
STYLE
  5
3
100
AcDbSymbolTable
 70
               1
  0
STYLE
  5
17
100
AcDbSymbolTableRecord
100
AcDbTextStyleTableRecord
  2
MX_NOTE_STANDARD
 70
               0
 40
0.0
 41
1.0
 50
0.0
 71
               0
 42
3.2000000476837158
  3
txt.shx
  4
extfont.shx
  0
ENDTAB
  0
TABLE
  2
VIEW
  5
5
100
AcDbSymbolTable
 70
               0
  0
ENDTAB
  0
TABLE
  2
UCS
  5
6
100
AcDbSymbolTable
 70
               0
  0
ENDTAB
  0
TABLE
  2
APPID
  5
8
100
AcDbSymbolTable
 70
               1
  0
APPID
  5
16
100
AcDbSymbolTableRecord
100
AcDbRegAppTableRecord
  2
ACAD
 70
               0
  0
ENDTAB
  0
TABLE
  2
DIMSTYLE
  5
9
100
AcDbSymbolTable
 70
               1
  0
DIMSTYLE
105
18
100
AcDbSymbolTableRecord
100
AcDbDimStyleTableRecord
  2
MXDIMSTYLE
 70
               0
  3

  4

  5

  6

  7

 40
1.0
 41
2.5
 42
1.5
 43
3.75
 44
1.5
 45
0.0
 46
0.0
 47
0.0
 48
0.0
 71
               0
 72
               0
 73
               0
 74
               0
 75
               0
 76
               0
 77
               1
 78
               8
140
3.2000000476837158
141
2.5
142
0.0
143
0.03937007874016
144
1.0
145
0.0
146
1.0
147
1.0
170
               0
171
               4
172
               1
173
               0
174
               0
175
               0
176
               0
177
               0
178
               0
270
               2
271
               4
272
               4
273
               2
274
               4
275
               0
280
               0
281
               0
282
               0
283
               1
284
               0
285
               0
286
               0
287
               3
288
               1
340
17
  0
ENDTAB
  0
TABLE
  2
BLOCK_RECORD
  5
1
100
AcDbSymbolTable
 70
              26
  0
BLOCK_RECORD
  5
A
100
AcDbSymbolTableRecord
100
AcDbBlockTableRecord
  2
*MODEL_SPACE
  0
BLOCK_RECORD
  5
B
100
AcDbSymbolTableRecord
100
AcDbBlockTableRecord
  2
*PAPER_SPACE
  0
BLOCK_RECORD
  5
1E
100
AcDbSymbolTableRecord
100
AcDbBlockTableRecord
  2
CS-MGA8-1
  0
BLOCK_RECORD
  5
1F
100
AcDbSymbolTableRecord
100
AcDbBlockTableRecord
  2
CS-MGA8-2
  0
BLOCK_RECORD
  5
20
100
AcDbSymbolTableRecord
100
AcDbBlockTableRecord
  2
CS-MGA8-3
  0
BLOCK_RECORD
  5
21
100
AcDbSymbolTableRecord
100
AcDbBlockTableRecord
  2
CS-MGA8-4
  0
BLOCK_RECORD
  5
22
100
AcDbSymbolTableRecord
100
AcDbBlockTableRecord
  2
CS-MGA8-5
  0
BLOCK_RECORD
  5
23
100
AcDbSymbolTableRecord
100
AcDbBlockTableRecord
  2
CS-MGA8-6
  0
BLOCK_RECORD
  5
24
100
AcDbSymbolTableRecord
100
AcDbBlockTableRecord
  2
CS-MGA8-7
  0
BLOCK_RECORD
  5
25
100
AcDbSymbolTableRecord
100
AcDbBlockTableRecord
  2
CS-MGA8-8
  0
BLOCK_RECORD
  5
26
100
AcDbSymbolTableRecord
100
AcDbBlockTableRecord
  2
CS-MGA8-9
  0
BLOCK_RECORD
  5
27
100
AcDbSymbolTableRecord
100
AcDbBlockTableRecord
  2
CS-MGA8-10
  0
BLOCK_RECORD
  5
28
100
AcDbSymbolTableRecord
100
AcDbBlockTableRecord
  2
CS-MGA8-11
  0
BLOCK_RECORD
  5
29
100
AcDbSymbolTableRecord
100
AcDbBlockTableRecord
  2
CS-MGA8-12
  0
BLOCK_RECORD
  5
2A
100
AcDbSymbolTableRecord
100
AcDbBlockTableRecord
  2
CS-MGA8-13
  0
BLOCK_RECORD
  5
2B
100
AcDbSymbolTableRecord
100
AcDbBlockTableRecord
  2
CS-MGA8-14
  0
BLOCK_RECORD
  5
2C
100
AcDbSymbolTableRecord
100
AcDbBlockTableRecord
  2
CS-MGA8-15
  0
BLOCK_RECORD
  5
2D
100
AcDbSymbolTableRecord
100
AcDbBlockTableRecord
  2
CS-MGA8-16
  0
BLOCK_RECORD
  5
2E
100
AcDbSymbolTableRecord
100
AcDbBlockTableRecord
  2
CS-MGA8-17
  0
BLOCK_RECORD
  5
2F
100
AcDbSymbolTableRecord
100
AcDbBlockTableRecord
  2
CS-MGA8-18
  0
BLOCK_RECORD
  5
30
100
AcDbSymbolTableRecord
100
AcDbBlockTableRecord
  2
CS-MGA8-19
  0
BLOCK_RECORD
  5
31
100
AcDbSymbolTableRecord
100
AcDbBlockTableRecord
  2
CS-MGA8-20
  0
BLOCK_RECORD
  5
32
100
AcDbSymbolTableRecord
100
AcDbBlockTableRecord
  2
CS-MGA8-21
  0
BLOCK_RECORD
  5
33
100
AcDbSymbolTableRecord
100
AcDbBlockTableRecord
  2
CS-MGA8-22
  0
BLOCK_RECORD
  5
34
100
AcDbSymbolTableRecord
100
AcDbBlockTableRecord
  2
CS-MGA8-23
  0
BLOCK_RECORD
  5
35
100
AcDbSymbolTableRecord
100
AcDbBlockTableRecord
  2
CS-MGA8-24
  0
BLOCK_RECORD
  5
36
100
AcDbSymbolTableRecord
100
AcDbBlockTableRecord
  2
CS-MGA8-25
  0
BLOCK_RECORD
  5
37
100
AcDbSymbolTableRecord
100
AcDbBlockTableRecord
  2
CS-MGA8-26
  0
ENDTAB
  0
ENDSEC
  0
SECTION
  2
BLOCKS
  0
BLOCK
  5
D
100
AcDbEntity
  8
0
100
AcDbBlockBegin
  2
*MODEL_SPACE
 70
               0
 10
0.0
 20
0.0
 30
0.0
  3
*MODEL_SPACE
  1

  0
ENDBLK
  5
E
100
AcDbEntity
  8
0
100
AcDbBlockEnd
  0
BLOCK
  5
F
100
AcDbEntity
 67
               1
  8
0
100
AcDbBlockBegin
  2
*PAPER_SPACE
 70
               0
 10
0.0
 20
0.0
 30
0.0
  3
*PAPER_SPACE
  1

  0
ENDBLK
  5
10
100
AcDbEntity
 67
               1
  8
0
100
AcDbBlockEnd
  0
BLOCK
  5
38
100
AcDbEntity
  8
0
100
AcDbBlockBegin
  2
CS-MGA8-1
 70
               0
 10
0.0
 20
0.0
 30
0.0
  3
CS-MGA8-1
  1

  0
LINE
  5
3A
100
AcDbEntity
  8
0
  6
PHANTOM
 62
               3
100
AcDbLine
 10
27.950000011920935
 20
-22.049411212710794
 30
0.0
 11
27.950000011920935
 21
20.303087437840048
 31
0.0
  0
LINE
  5
3B
100
AcDbEntity
  8
0
  6
CONTINUOUS
 62
               7
100
AcDbLine
 10
0.0
 20
-11.5
 30
0.0
 11
49.0
 21
-11.5
 31
0.0
  0
LINE
  5
3C
100
AcDbEntity
  8
0
  6
CONTINUOUS
 62
               7
100
AcDbLine
 10
0.0
 20
11.5
 30
0.0
 11
49.0
 21
11.5
 31
0.0
  0
LINE
  5
3D
100
AcDbEntity
  8
0
  6
CONTINUOUS
 62
               7
100
AcDbLine
 10
2.8000000000000114
 20
10.900000000000006
 30
0.0
 11
2.8000000000000114
 21
6.0999999999999943
 31
0.0
  0
LINE
  5
3E
100
AcDbEntity
  8
0
  6
CONTINUOUS
 62
               7
100
AcDbLine
 10
0.600000017860765
 20
6.25
 30
0.0
 11
2.8000000000000114
 21
6.25
 31
0.0
  0
LINE
  5
3F
100
AcDbEntity
  8
0
  6
CONTINUOUS
 62
               7
100
AcDbLine
 10
0.600000017860765
 20
10.75
 30
0.0
 11
2.8000000000000114
 21
10.75
 31
0.0
  0
LINE
  5
40
100
AcDbEntity
  8
0
  6
CONTINUOUS
 62
               7
100
AcDbLine
 10
0.3000000000000114
 20
10.450000002969574
 30
0.0
 11
0.3000000000000114
 21
6.550000026811432
 31
0.0
  0
LINE
  5
41
100
AcDbEntity
  8
0
  6
CONTINUOUS
 62
               7
100
AcDbLine
 10
0.600000017860765
 20
6.25
 30
0.0
 11
0.299999999999983
 21
6.550000017860782
 31
0.0
  0
LINE
  5
42
100
AcDbEntity
  8
0
  6
CONTINUOUS
 62
               7
100
AcDbLine
 10
0.3000000000000114
 20
10.450000002969574
 30
0.0
 11
0.5999999970304657
 21
10.75
 31
0.0
  0
LINE
  5
43
100
AcDbEntity
  8
0
  6
CONTINUOUS
 62
               7
100
AcDbLine
 10
0.600000017860765
 20
6.25
 30
0.0
 11
0.600000017860765
 21
10.75
 31
0.0
  0
LINE
  5
44
100
AcDbEntity
  8
0
  6
CONTINUOUS
 62
               7
100
AcDbLine
 10
0.0
 20
6.0999999999999943
 30
0.0
 11
2.8000000000000114
 21
6.0999999999999943
 31
0.0
  0
LINE
  5
45
100
AcDbEntity
  8
0
  6
CONTINUOUS
 62
               7
100
AcDbLine
 10
0.0
 20
10.900000000000006
 30
0.0
 11
2.8000000000000114
 21
10.900000000000006
 31
0.0
  0
LINE
  5
46
100
AcDbEntity
  8
0
  6
CONTINUOUS
 62
               7
100
AcDbLine
 10
0.0
 20
12.0
 30
0.0
 11
49.0
 21
12.0
 31
0.0
  0
LINE
  5
48
100
AcDbEntity
  8
0
  6
CENTER
 62
               2
100
AcDbLine
 10
-0.5906947681626775
 20
8.5
 30
0.0
 11
6.3197120448923272
 21
8.5
 31
0.0
  0
LINE
  5
49
100
AcDbEntity
  8
0
  6
CENTER
 62
               2
100
AcDbLine
 10
17.000000023841864
 20
6.5
 30
0.0
 11
17.000000023841864
 21
11.5
 31
0.0
  0
CIRCLE
  5
4A
100
AcDbEntity
  8
0
  6
CONTINUOUS
 62
               2
100
AcDbCircle
 10
17.000000023841864
 20
9.0
 30
0.0
 40
1.5
  0
CIRCLE
  5
4B
100
AcDbEntity
  8
0
  6
CONTINUOUS
 62
               7
100
AcDbCircle
 10
17.000000023841864
 20
9.0
 30
0.0
 40
1.25
  0
CIRCLE
  5
4C
100
AcDbEntity
  8
0
  6
CONTINUOUS
 62
               7
100
AcDbCircle
 10
22.0
 20
9.0
 30
0.0
 40
2.3999999999999999
  0
LINE
  5
4D
100
AcDbEntity
  8
0
  6
CENTER
 62
               2
100
AcDbLine
 10
22.0
 20
12.400000000000006
 30
0.0
 11
22.0
 21
5.5999999999999943
 31
0.0
  0
LINE
  5
4E
100
AcDbEntity
  8
0
  6
CENTER
 62
               2
100
AcDbLine
 10
33.000000023841864
 20
6.5
 30
0.0
 11
33.000000023841864
 21
11.5
 31
0.0
  0
CIRCLE
  5
4F
100
AcDbEntity
  8
0
  6
CONTINUOUS
 62
               2
100
AcDbCircle
 10
33.000000023841864
 20
9.0
 30
0.0
 40
1.5
  0
CIRCLE
  5
50
100
AcDbEntity
  8
0
  6
CONTINUOUS
 62
               7
100
AcDbCircle
 10
33.000000023841864
 20
9.0
 30
0.0
 40
1.25
  0
ARC
  5
51
100
AcDbEntity
  8
0
  6
CONTINUOUS
 62
               7
100
AcDbCircle
 10
33.500000023841864
 20
0.0
 30
0.0
 40
1.5
100
AcDbArc
 50
269.99999999999937
 51
89.999999999999801
  0
LINE
  5
52
100
AcDbEntity
  8
0
  6
CENTER
 62
               2
100
AcDbLine
 10
33.000000023841864
 20
2.2999999999999972
 30
0.0
 11
33.000000023841864
 21
-2.2999999999999972
 31
0.0
  0
ARC
  5
53
100
AcDbEntity
  8
0
  6
CONTINUOUS
 62
               7
100
AcDbCircle
 10
32.500000023841864
 20
0.0
 30
0.0
 40
1.5
100
AcDbArc
 50
89.999999999999815
 51
269.99999999999937
  0
LINE
  5
54
100
AcDbEntity
  8
0
  6
CONTINUOUS
 62
               7
100
AcDbLine
 10
33.500000023841864
 20
-1.5
 30
0.0
 11
32.500000023841864
 21
-1.5
 31
0.0
  0
LINE
  5
55
100
AcDbEntity
  8
0
  6
CONTINUOUS
 62
               7
100
AcDbLine
 10
33.500000023841864
 20
1.5
 30
0.0
 11
32.500000023841864
 21
1.5
 31
0.0
  0
CIRCLE
  5
56
100
AcDbEntity
  8
0
  6
CONTINUOUS
 62
               7
100
AcDbCircle
 10
17.000000023841864
 20
0.0
 30
0.0
 40
1.5
  0
LINE
  5
57
100
AcDbEntity
  8
0
  6
CENTER
 62
               2
100
AcDbLine
 10
17.000000023841864
 20
-2.5
 30
0.0
 11
17.000000023841864
 21
2.5
 31
0.0
  0
LINE
  5
58
100
AcDbEntity
  8
0
  6
CENTER
 62
               2
100
AcDbLine
 10
33.000000023841864
 20
-6.5
 30
0.0
 11
33.000000023841864
 21
-11.5
 31
0.0
  0
CIRCLE
  5
59
100
AcDbEntity
  8
0
  6
CONTINUOUS
 62
               2
100
AcDbCircle
 10
33.000000023841864
 20
-9.0
 30
0.0
 40
1.5
  0
CIRCLE
  5
5A
100
AcDbEntity
  8
0
  6
CONTINUOUS
 62
               7
100
AcDbCircle
 10
33.000000023841864
 20
-9.0
 30
0.0
 40
1.25
  0
LINE
  5
5B
100
AcDbEntity
  8
0
  6
CENTER
 62
               2
100
AcDbLine
 10
17.000000023841864
 20
-6.5
 30
0.0
 11
17.000000023841864
 21
-11.5
 31
0.0
  0
CIRCLE
  5
5C
100
AcDbEntity
  8
0
  6
CONTINUOUS
 62
               2
100
AcDbCircle
 10
17.000000023841864
 20
-9.0
 30
0.0
 40
1.5
  0
CIRCLE
  5
5D
100
AcDbEntity
  8
0
  6
CONTINUOUS
 62
               7
100
AcDbCircle
 10
17.000000023841864
 20
-9.0
 30
0.0
 40
1.25
  0
LINE
  5
5E
100
AcDbEntity
  8
0
  6
CONTINUOUS
 62
               7
100
AcDbLine
 10
0.0
 20
-10.900000000000006
 30
0.0
 11
2.8000000000000114
 21
-10.900000000000006
 31
0.0
  0
LINE
  5
5F
100
AcDbEntity
  8
0
  6
CONTINUOUS
 62
               7
100
AcDbLine
 10
0.0
 20
-6.0999999999999943
 30
0.0
 11
2.8000000000000114
 21
-6.0999999999999943
 31
0.0
  0
LINE
  5
60
100
AcDbEntity
  8
0
  6
CONTINUOUS
 62
               7
100
AcDbLine
 10
0.600000017860765
 20
-6.25
 30
0.0
 11
0.600000017860765
 21
-10.75
 31
0.0
  0
LINE
  5
61
100
AcDbEntity
  8
0
  6
CONTINUOUS
 62
               7
100
AcDbLine
 10
0.3000000000000114
 20
-10.450000002969574
 30
0.0
 11
0.5999999970304657
 21
-10.75
 31
0.0
  0
LINE
  5
62
100
AcDbEntity
  8
0
  6
CONTINUOUS
 62
               7
100
AcDbLine
 10
0.600000017860765
 20
-6.25
 30
0.0
 11
0.299999999999983
 21
-6.550000017860782
 31
0.0
  0
LINE
  5
63
100
AcDbEntity
  8
0
  6
CONTINUOUS
 62
               7
100
AcDbLine
 10
0.3000000000000114
 20
-10.450000002969574
 30
0.0
 11
0.3000000000000114
 21
-6.550000026811432
 31
0.0
  0
LINE
  5
64
100
AcDbEntity
  8
0
  6
CONTINUOUS
 62
               7
100
AcDbLine
 10
0.600000017860765
 20
-10.75
 30
0.0
 11
2.8000000000000114
 21
-10.75
 31
0.0
  0
LINE
  5
65
100
AcDbEntity
  8
0
  6
CONTINUOUS
 62
               7
100
AcDbLine
 10
0.600000017860765
 20
-6.25
 30
0.0
 11
2.8000000000000114
 21
-6.25
 31
0.0
  0
LINE
  5
66
100
AcDbEntity
  8
0
  6
CONTINUOUS
 62
               7
100
AcDbLine
 10
2.8000000000000114
 20
-10.900000000000006
 30
0.0
 11
2.8000000000000114
 21
-6.0999999999999943
 31
0.0
  0
LINE
  5
67
100
AcDbEntity
  8
0
  6
CENTER
 62
               2
100
AcDbLine
 10
-0.5906947681626775
 20
-8.5
 30
0.0
 11
6.3197120448923272
 21
-8.5
 31
0.0
  0
LINE
  5
68
100
AcDbEntity
  8
0
  6
CENTER
 62
               2
100
AcDbLine
 10
-1.682963049411768
 20
0.0
 30
0.0
 11
51.345010395010434
 21
0.0
 31
0.0
  0
LINE
  5
69
100
AcDbEntity
  8
0
  6
CONTINUOUS
 62
               7
100
AcDbLine
 10
49.0
 20
-12.0
 30
0.0
 11
49.0
 21
12.0
 31
0.0
  0
LINE
  5
6A
100
AcDbEntity
  8
0
  6
CONTINUOUS
 62
               7
100
AcDbLine
 10
0.0
 20
-12.0
 30
0.0
 11
0.0
 21
12.0
 31
0.0
  0
LINE
  5
6B
100
AcDbEntity
  8
0
  6
CONTINUOUS
 62
               7
100
AcDbLine
 10
9.9999999758560705
 20
-12.0
 30
0.0
 11
9.9999999758560705
 21
12.0
 31
0.0
  0
CIRCLE
  5
6C
100
AcDbEntity
  8
0
  6
CONTINUOUS
 62
               7
100
AcDbCircle
 10
21.0
 20
9.0
 30
0.0
 40
1.3
  0
ARC
  5
6D
100
AcDbEntity
  8
0
  6
CONTINUOUS
 62
               7
100
AcDbCircle
 10
21.0
 20
9.0
 30
0.0
 40
2.3999999999999999
100
AcDbArc
 50
282.02469918056596
 51
0.0
  0
LINE
  5
6E
100
AcDbEntity
  8
0
  6
CONTINUOUS
 62
               7
100
AcDbLine
 10
23.400000000000006
 20
9.0
 30
0.0
 11
23.400000000000006
 21
10.949358868961795
 31
0.0
  0
LINE
  5
6F
100
AcDbEntity
  8
0
  6
CENTER
 62
               2
100
AcDbLine
 10
21.0
 20
12.399999999999991
 30
0.0
 11
21.0
 21
5.5999999999999943
 31
0.0
  0
LINE
  5
70
100
AcDbEntity
  8
0
  6
CONTINUOUS
 62
               7
100
AcDbLine
 10
39.400000000000006
 20
-9.0
 30
0.0
 11
39.400000000000006
 21
-10.949358868961781
 31
0.0
  0
CIRCLE
  5
71
100
AcDbEntity
  8
0
  6
CONTINUOUS
 62
               7
100
AcDbCircle
 10
37.0
 20
-9.0
 30
0.0
 40
1.3
  0
LINE
  5
72
100
AcDbEntity
  8
0
  6
CENTER
 62
               2
100
AcDbLine
 10
37.0
 20
-12.400000000000006
 30
0.0
 11
37.0
 21
-5.5999999999999943
 31
0.0
  0
ARC
  5
73
100
AcDbEntity
  8
0
  6
CONTINUOUS
 62
               7
100
AcDbCircle
 10
37.0
 20
-9.0
 30
0.0
 40
2.3999999999999999
100
AcDbArc
 50
0.0
 51
77.975300819433997
  0
CIRCLE
  5
74
100
AcDbEntity
  8
0
  6
CONTINUOUS
 62
               7
100
AcDbCircle
 10
38.0
 20
9.0
 30
0.0
 40
2.3999999999999999
  0
LINE
  5
75
100
AcDbEntity
  8
0
  6
CENTER
 62
               2
100
AcDbLine
 10
38.0
 20
12.400000000000006
 30
0.0
 11
38.0
 21
5.5999999999999943
 31
0.0
  0
LINE
  5
76
100
AcDbEntity
  8
0
  6
CONTINUOUS
 62
               7
100
AcDbLine
 10
39.400000000000006
 20
9.0
 30
0.0
 11
39.400000000000006
 21
10.949358868961795
 31
0.0
  0
LINE
  5
77
100
AcDbEntity
  8
0
  6
CENTER
 62
               2
100
AcDbLine
 10
37.0
 20
12.399999999999991
 30
0.0
 11
37.0
 21
5.5999999999999943
 31
0.0
  0
ARC
  5
78
100
AcDbEntity
  8
0
  6
CONTINUOUS
 62
               7
100
AcDbCircle
 10
37.0
 20
9.0
 30
0.0
 40
2.3999999999999999
100
AcDbArc
 50
282.02469918056596
 51
0.0
  0
CIRCLE
  5
79
100
AcDbEntity
  8
0
  6
CONTINUOUS
 62
               7
100
AcDbCircle
 10
37.0
 20
9.0
 30
0.0
 40
1.3
  0
CIRCLE
  5
7A
100
AcDbEntity
  8
0
  6
CONTINUOUS
 62
               7
100
AcDbCircle
 10
22.0
 20
-9.0
 30
0.0
 40
2.3999999999999999
  0
LINE
  5
7B
100
AcDbEntity
  8
0
  6
CENTER
 62
               2
100
AcDbLine
 10
22.0
 20
-12.400000000000006
 30
0.0
 11
22.0
 21
-5.5999999999999943
 31
0.0
  0
LINE
  5
7C
100
AcDbEntity
  8
0
  6
CENTER
 62
               2
100
AcDbLine
 10
21.0
 20
-12.399999999999991
 30
0.0
 11
21.0
 21
-5.5999999999999943
 31
0.0
  0
LINE
  5
7D
100
AcDbEntity
  8
0
  6
CONTINUOUS
 62
               7
100
AcDbLine
 10
23.400000000000006
 20
-9.0
 30
0.0
 11
23.400000000000006
 21
-10.949358868961795
 31
0.0
  0
ARC
  5
7E
100
AcDbEntity
  8
0
  6
CONTINUOUS
 62
               7
100
AcDbCircle
 10
21.0
 20
-9.0
 30
0.0
 40
2.3999999999999999
100
AcDbArc
 50
0.0
 51
77.975300819433997
  0
CIRCLE
  5
7F
100
AcDbEntity
  8
0
  6
CONTINUOUS
 62
               7
100
AcDbCircle
 10
21.0
 20
-9.0
 30
0.0
 40
1.3
  0
LINE
  5
80
100
AcDbEntity
  8
0
  6
CONTINUOUS
 62
               7
100
AcDbLine
 10
0.0
 20
-12.0
 30
0.0
 11
49.0
 21
-12.0
 31
0.0
  0
LINE
  5
81
100
AcDbEntity
  8
0
  6
CONTINUOUS
 62
               7
100
AcDbLine
 10
49.5
 20
9.2999999999999972
 30
0.0
 11
49.5
 21
-9.2999999999999972
 31
0.0
  0
LINE
  5
82
100
AcDbEntity
  8
0
  6
CENTER
 62
               2
100
AcDbLine
 10
48.027939082946432
 20
7.5
 30
0.0
 11
50.641499936682152
 21
7.5
 31
0.0
  0
LINE
  5
83
100
AcDbEntity
  8
0
  6
CONTINUOUS
 62
               7
100
AcDbLine
 10
49.0
 20
9.2999999999999972
 30
0.0
 11
49.5
 21
9.2999999999999972
 31
0.0
  0
LINE
  5
84
100
AcDbEntity
  8
0
  6
CONTINUOUS
 62
               7
100
AcDbLine
 10
50.0
 20
8.2000000000000171
 30
0.0
 11
50.0
 21
6.8000000000000114
 31
0.0
  0
ARC
  5
85
100
AcDbEntity
  8
0
  6
CONTINUOUS
 62
               7
100
AcDbCircle
 10
49.700000000000017
 20
6.8000000000000114
 30
0.0
 40
0.3
100
AcDbArc
 50
269.99999999999937
 51
0.0
  0
ARC
  5
86
100
AcDbEntity
  8
0
  6
CONTINUOUS
 62
               7
100
AcDbCircle
 10
49.700000000000017
 20
8.2000000000000171
 30
0.0
 40
0.3
100
AcDbArc
 50
0.0
 51
89.999999999999815
  0
LINE
  5
87
100
AcDbEntity
  8
0
  6
CONTINUOUS
 62
               7
100
AcDbLine
 10
49.5
 20
8.5
 30
0.0
 11
49.700000000000017
 21
8.5
 31
0.0
  0
LINE
  5
88
100
AcDbEntity
  8
0
  6
CONTINUOUS
 62
               7
100
AcDbLine
 10
49.5
 20
6.5
 30
0.0
 11
49.700000000000017
 21
6.5
 31
0.0
  0
LINE
  5
89
100
AcDbEntity
  8
0
  6
CENTER
 62
               2
100
AcDbLine
 10
48.027939082946432
 20
-7.5
 30
0.0
 11
50.641499936682152
 21
-7.5
 31
0.0
  0
LINE
  5
8A
100
AcDbEntity
  8
0
  6
CONTINUOUS
 62
               7
100
AcDbLine
 10
49.0
 20
-9.2999999999999972
 30
0.0
 11
49.5
 21
-9.2999999999999972
 31
0.0
  0
LINE
  5
8B
100
AcDbEntity
  8
0
  6
CONTINUOUS
 62
               7
100
AcDbLine
 10
50.0
 20
-6.7999999999999972
 30
0.0
 11
50.0
 21
-8.2000000000000028
 31
0.0
  0
ARC
  5
8C
100
AcDbEntity
  8
0
  6
CONTINUOUS
 62
               7
100
AcDbCircle
 10
49.700000000000017
 20
-8.2000000000000028
 30
0.0
 40
0.3
100
AcDbArc
 50
269.99999999999937
 51
0.0
  0
ARC
  5
8D
100
AcDbEntity
  8
0
  6
CONTINUOUS
 62
               7
100
AcDbCircle
 10
49.700000000000017
 20
-6.7999999999999972
 30
0.0
 40
0.3
100
AcDbArc
 50
0.0
 51
89.999999999999815
  0
LINE
  5
8E
100
AcDbEntity
  8
0
  6
CONTINUOUS
 62
               7
100
AcDbLine
 10
49.5
 20
-6.5
 30
0.0
 11
49.700000000000017
 21
-6.5
 31
0.0
  0
LINE
  5
8F
100
AcDbEntity
  8
0
  6
CONTINUOUS
 62
               7
100
AcDbLine
 10
49.5
 20
-8.4999999999999858
 30
0.0
 11
49.700000000000017
 21
-8.4999999999999858
 31
0.0
  0
CIRCLE
  5
90
100
AcDbEntity
  8
0
  6
CONTINUOUS
 62
               7
100
AcDbCircle
 10
38.0
 20
-9.0
 30
0.0
 40
2.3999999999999999
  0
LINE
  5
91
100
AcDbEntity
  8
0
  6
CENTER
 62
               2
100
AcDbLine
 10
38.0
 20
-12.400000000000006
 30
0.0
 11
38.0
 21
-5.5999999999999943
 31
0.0
  0
LINE
  5
92
100
AcDbEntity
  8
0
  6
CENTER
 62
               2
100
AcDbLine
 10
14.500000023841864
 20
-9.0
 30
0.0
 11
25.400000000000006
 21
-9.0
 31
0.0
  0
LINE
  5
93
100
AcDbEntity
  8
0
  6
CENTER
 62
               2
100
AcDbLine
 10
30.500000023841864
 20
9.0
 30
0.0
 11
41.400000000000006
 21
9.0
 31
0.0
  0
LINE
  5
94
100
AcDbEntity
  8
0
  6
CENTER
 62
               2
100
AcDbLine
 10
30.500000023841864
 20
-9.0
 30
0.0
 11
40.400000000000006
 21
-9.0
 31
0.0
  0
LINE
  5
95
100
AcDbEntity
  8
0
  6
CENTER
 62
               2
100
AcDbLine
 10
14.500000023841864
 20
9.0
 30
0.0
 11
25.400000000000006
 21
9.0
 31
0.0
  0
ENDBLK
  5
96
100
AcDbEntity
  8
0
100
AcDbBlockEnd
  0
BLOCK
  5
97
100
AcDbEntity
  8
0
100
AcDbBlockBegin
  2
CS-MGA8-2
 70
               0
 10
0.0
 20
0.0
 30
0.0
  3
CS-MGA8-2
  1

  0
LINE
  5
98
100
AcDbEntity
  8
0
  6
PHANTOM
 62
               3
100
AcDbLine
 10
26.50000000253732
 20
-24.051155957217247
 30
0.0
 11
26.50000000253732
 21
-9.6589836637775761
 31
0.0
  0
LINE
  5
99
100
AcDbEntity
  8
0
  6
PHANTOM
 62
               3
100
AcDbLine
 10
28.75
 20
-9.6589836637775761
 30
0.0
 11
28.75
 21
7.1888256941589077
 31
0.0
  0
LINE
  5
9A
100
AcDbEntity
  8
0
  6
PHANTOM
 62
               3
100
AcDbLine
 10
26.50000000253732
 20
-9.6589836637775761
 30
0.0
 11
28.75
 21
-9.6589836637775761
 31
0.0
  0
LINE
  5
9B
100
AcDbEntity
  8
0
  6
CENTER
 62
             200
100
AcDbLine
 10
13.950000000000045
 20
-4.0
 30
0.0
 11
20.050000000000011
 21
-4.0
 31
0.0
  0
LINE
  5
9C
100
AcDbEntity
  8
0
  6
CENTER
 62
             200
100
AcDbLine
 10
17.0
 20
-7.0499999999999545
 30
0.0
 11
17.0
 21
-0.9499999999999602
 31
0.0
  0
LINE
  5
9D
100
AcDbEntity
  8
0
  6
CENTER
 62
             200
100
AcDbLine
 10
49.050000000000068
 20
-4.0
 30
0.0
 11
42.950000000000045
 21
-4.0
 31
0.0
  0
LINE
  5
9E
100
AcDbEntity
  8
0
  6
CENTER
 62
             200
100
AcDbLine
 10
46.0
 20
-7.0499999999999545
 30
0.0
 11
46.0
 21
-0.9499999999999602
 31
0.0
  0
LINE
  5
9F
100
AcDbEntity
  8
0
  6
CONTINUOUS
 62
               4
100
AcDbLine
 10
30.608276249066847
 20
-12.800000000000011
 30
0.0
 11
43.391723750933124
 21
-12.800000000000011
 31
0.0
  0
LINE
  5
A0
100
AcDbEntity
  8
0
  6
CONTINUOUS
 62
               4
100
AcDbLine
 10
44.608276249066847
 20
-12.800000000000011
 30
0.0
 11
46.0
 21
-12.800000000000011
 31
0.0
  0
CIRCLE
  5
A1
100
AcDbEntity
  8
0
  6
CONTINUOUS
 62
               4
100
AcDbCircle
 10
46.0
 20
-4.0
 30
0.0
 40
1.8999999999999999
  0
LINE
  5
A2
100
AcDbEntity
  8
0
  6
CONTINUOUS
 62
               4
100
AcDbLine
 10
45.25
 20
-3.5669872916932377
 30
0.0
 11
45.25
 21
-4.4330126799340519
 31
0.0
  0
LINE
  5
A3
100
AcDbEntity
  8
0
  6
CONTINUOUS
 62
               4
100
AcDbLine
 10
46.75
 20
-3.5669872916932377
 30
0.0
 11
46.75
 21
-4.4330126706926762
 31
0.0
  0
LINE
  5
A4
100
AcDbEntity
  8
0
  6
CONTINUOUS
 62
               4
100
AcDbLine
 10
46.00000001545601
 20
-3.1339745677705082
 30
0.0
 11
45.25000001545601
 21
-3.5669872618909153
 31
0.0
  0
LINE
  5
A5
100
AcDbEntity
  8
0
  6
CONTINUOUS
 62
               4
100
AcDbLine
 10
46.75000001545601
 20
-4.4330126799340519
 30
0.0
 11
45.999999955851365
 21
-4.8660254038567814
 31
0.0
  0
LINE
  5
A6
100
AcDbEntity
  8
0
  6
CONTINUOUS
 62
               4
100
AcDbLine
 10
46.749999955851365
 20
-3.5669872618909153
 30
0.0
 11
45.999999955851365
 21
-3.1339745677705082
 31
0.0
  0
LINE
  5
A7
100
AcDbEntity
  8
0
  6
CONTINUOUS
 62
               4
100
AcDbLine
 10
45.999999955851365
 20
-4.866025374054459
 30
0.0
 11
45.25
 21
-4.4330126976514634
 31
0.0
  0
LINE
  5
A8
100
AcDbEntity
  8
0
  6
CONTINUOUS
 62
               4
100
AcDbLine
 10
16.999999955851365
 20
-4.866025374054459
 30
0.0
 11
16.250000000000057
 21
-4.4330126976514634
 31
0.0
  0
LINE
  5
A9
100
AcDbEntity
  8
0
  6
CONTINUOUS
 62
               4
100
AcDbLine
 10
17.749999955851365
 20
-3.5669872618909153
 30
0.0
 11
16.999999955851365
 21
-3.1339745677705082
 31
0.0
  0
LINE
  5
AA
100
AcDbEntity
  8
0
  6
CONTINUOUS
 62
               4
100
AcDbLine
 10
17.75000001545601
 20
-4.4330126799340519
 30
0.0
 11
16.999999955851365
 21
-4.8660254038567814
 31
0.0
  0
LINE
  5
AB
100
AcDbEntity
  8
0
  6
CONTINUOUS
 62
               4
100
AcDbLine
 10
17.00000001545601
 20
-3.1339745677705082
 30
0.0
 11
16.25000001545601
 21
-3.5669872618909153
 31
0.0
  0
LINE
  5
AC
100
AcDbEntity
  8
0
  6
CONTINUOUS
 62
               4
100
AcDbLine
 10
17.75
 20
-3.5669872916932377
 30
0.0
 11
17.75
 21
-4.4330126706926762
 31
0.0
  0
LINE
  5
AD
100
AcDbEntity
  8
0
  6
CONTINUOUS
 62
               4
100
AcDbLine
 10
16.25
 20
-3.5669872916932377
 30
0.0
 11
16.25
 21
-4.4330126799340519
 31
0.0
  0
CIRCLE
  5
AE
100
AcDbEntity
  8
0
  6
CONTINUOUS
 62
               4
100
AcDbCircle
 10
17.0
 20
-4.0
 30
0.0
 40
1.8999999999999999
  0
LINE
  5
AF
100
AcDbEntity
  8
0
  6
CONTINUOUS
 62
               4
100
AcDbLine
 10
14.000000004378535
 20
-12.30000000000004
 30
0.0
 11
49.000000004378535
 21
-12.30000000000004
 31
0.0
  0
LINE
  5
B0
100
AcDbEntity
  8
0
  6
CONTINUOUS
 62
               4
100
AcDbLine
 10
14.000000004378535
 20
-0.9000000000000341
 30
0.0
 11
49.000000004378535
 21
-0.9000000000000341
 31
0.0
  0
LINE
  5
B1
100
AcDbEntity
  8
0
  6
CONTINUOUS
 62
               4
100
AcDbLine
 10
14.0
 20
-0.9000000000000341
 30
0.0
 11
14.0
 21
-12.30000000000004
 31
0.0
  0
LINE
  5
B2
100
AcDbEntity
  8
0
  6
CONTINUOUS
 62
               4
100
AcDbLine
 10
14.0
 20
-7.6000000000000512
 30
0.0
 11
49.0
 21
-7.6000000000000512
 31
0.0
  0
LINE
  5
B3
100
AcDbEntity
  8
0
  6
CONTINUOUS
 62
               4
100
AcDbLine
 10
14.0
 20
-10.80000000000004
 30
0.0
 11
49.0
 21
-10.80000000000004
 31
0.0
  0
LINE
  5
B4
100
AcDbEntity
  8
0
  6
CONTINUOUS
 62
               4
100
AcDbLine
 10
47.281600561797632
 20
-2.4000000000000341
 30
0.0
 11
49.0
 21
-2.4000000000000341
 31
0.0
  0
LINE
  5
B5
100
AcDbEntity
  8
0
  6
CONTINUOUS
 62
               4
100
AcDbLine
 10
47.281600561797632
 20
-5.6000000000000227
 30
0.0
 11
49.0
 21
-5.6000000000000227
 31
0.0
  0
LINE
  5
B6
100
AcDbEntity
  8
0
  6
CONTINUOUS
 62
               4
100
AcDbLine
 10
18.281600561797688
 20
-2.4000000000000341
 30
0.0
 11
44.718399438202368
 21
-2.4000000000000341
 31
0.0
  0
LINE
  5
B7
100
AcDbEntity
  8
0
  6
CONTINUOUS
 62
               4
100
AcDbLine
 10
18.281600561797632
 20
-5.6000000000000227
 30
0.0
 11
44.718399438202425
 21
-5.6000000000000227
 31
0.0
  0
LINE
  5
B8
100
AcDbEntity
  8
0
  6
CONTINUOUS
 62
               4
100
AcDbLine
 10
14.0
 20
-5.6000000000000227
 30
0.0
 11
15.718399438202425
 21
-5.6000000000000227
 31
0.0
  0
LINE
  5
B9
100
AcDbEntity
  8
0
  6
CONTINUOUS
 62
               4
100
AcDbLine
 10
14.0
 20
-2.4000000000000341
 30
0.0
 11
15.718399438202368
 21
-2.4000000000000341
 31
0.0
  0
CIRCLE
  5
BA
100
AcDbEntity
  8
0
  6
CONTINUOUS
 62
               4
100
AcDbCircle
 10
46.0
 20
-4.0
 30
0.0
 40
2.0499999999999998
  0
CIRCLE
  5
BB
100
AcDbEntity
  8
0
  6
CONTINUOUS
 62
               4
100
AcDbCircle
 10
17.0
 20
-4.0
 30
0.0
 40
2.0499999999999998
  0
LINE
  5
BC
100
AcDbEntity
  8
0
  6
CONTINUOUS
 62
               4
100
AcDbLine
 10
49.0
 20
-0.9000000000000341
 30
0.0
 11
49.0
 21
-12.30000000000004
 31
0.0
  0
LINE
  5
BD
100
AcDbEntity
  8
0
  6
CONTINUOUS
 62
               4
100
AcDbLine
 10
28.0
 20
-12.800000000000011
 30
0.0
 11
29.391723750933153
 21
-12.800000000000011
 31
0.0
  0
LINE
  5
BE
100
AcDbEntity
  8
0
  6
CONTINUOUS
 62
               4
100
AcDbLine
 10
46.0
 20
-12.30000000000004
 30
0.0
 11
46.0
 21
-12.800000000000011
 31
0.0
  0
LINE
  5
BF
100
AcDbEntity
  8
0
  6
CONTINUOUS
 62
               4
100
AcDbLine
 10
28.0
 20
-12.30000000000004
 30
0.0
 11
28.0
 21
-12.800000000000011
 31
0.0
  0
ARC
  5
C0
100
AcDbEntity
  8
0
  6
CONTINUOUS
 62
               4
100
AcDbCircle
 10
30.0
 20
-11.0
 30
0.0
 40
1.5999999987313345
100
AcDbArc
 50
234.34091236718189
 51
305.65908763281692
  0
ARC
  5
C1
100
AcDbEntity
  8
0
  6
CONTINUOUS
 62
               4
100
AcDbCircle
 10
30.0
 20
-11.0
 30
0.0
 40
1.899999998731289
100
AcDbArc
 50
223.17355114315424
 51
316.82644885684459
  0
ARC
  5
C2
100
AcDbEntity
  8
0
  6
CONTINUOUS
 62
               4
100
AcDbCircle
 10
44.0
 20
-11.0
 30
0.0
 40
1.5999999987313345
100
AcDbArc
 50
234.34091236718189
 51
305.65908763281692
  0
ARC
  5
C3
100
AcDbEntity
  8
0
  6
CONTINUOUS
 62
               4
100
AcDbCircle
 10
44.0
 20
-11.0
 30
0.0
 40
1.899999998731289
100
AcDbArc
 50
223.17355114315424
 51
316.82644885684459
  0
LINE
  5
C4
100
AcDbEntity
  8
0
  6
CONTINUOUS
 62
               7
100
AcDbLine
 10
9.0
 20
-8.5
 30
0.0
 11
14.0
 21
-8.5
 31
0.0
  0
LINE
  5
C5
100
AcDbEntity
  8
0
  6
CONTINUOUS
 62
               7
100
AcDbLine
 10
9.0
 20
-0.1999999999999886
 30
0.0
 11
14.0
 21
-0.1999999999999886
 31
0.0
  0
CIRCLE
  5
C6
100
AcDbEntity
  8
0
  6
CONTINUOUS
 62
               2
100
AcDbCircle
 10
11.5
 20
-5.5
 30
0.0
 40
1.5
  0
CIRCLE
  5
C7
100
AcDbEntity
  8
0
  6
CONTINUOUS
 62
               7
100
AcDbCircle
 10
11.5
 20
-5.5
 30
0.0
 40
1.2
  0
LINE
  5
C8
100
AcDbEntity
  8
0
  6
CENTER
 62
               2
100
AcDbLine
 10
11.5
 20
-3.0
 30
0.0
 11
11.5
 21
-8.0
 31
0.0
  0
LINE
  5
C9
100
AcDbEntity
  8
0
  6
CONTINUOUS
 62
               7
100
AcDbLine
 10
9.0
 20
-8.5
 30
0.0
 11
9.0
 21
-0.1999999999999886
 31
0.0
  0
LINE
  5
CA
100
AcDbEntity
  8
0
  6
CONTINUOUS
 62
               7
100
AcDbLine
 10
49.5
 20
-10.0
 30
0.0
 11
49.700000000000017
 21
-10.0
 31
0.0
  0
LINE
  5
CB
100
AcDbEntity
  8
0
  6
CONTINUOUS
 62
               7
100
AcDbLine
 10
49.5
 20
-12.0
 30
0.0
 11
49.700000000000017
 21
-12.0
 31
0.0
  0
ARC
  5
CC
100
AcDbEntity
  8
0
  6
CONTINUOUS
 62
               7
100
AcDbCircle
 10
49.700000000000017
 20
-11.699999999999989
 30
0.0
 40
0.3
100
AcDbArc
 50
270.00000000000023
 51
0.0
  0
ARC
  5
CD
100
AcDbEntity
  8
0
  6
CONTINUOUS
 62
               7
100
AcDbCircle
 10
49.700000000000017
 20
-10.300000000000011
 30
0.0
 40
0.3
100
AcDbArc
 50
0.0
 51
89.999999999999815
  0
LINE
  5
CE
100
AcDbEntity
  8
0
  6
CONTINUOUS
 62
               7
100
AcDbLine
 10
50.0
 20
-11.699999999999989
 30
0.0
 11
50.0
 21
-10.300000000000011
 31
0.0
  0
LINE
  5
CF
100
AcDbEntity
  8
0
  6
CONTINUOUS
 62
               7
100
AcDbLine
 10
49.5
 20
-9.1999999999999886
 30
0.0
 11
49.5
 21
-13.699999999999989
 31
0.0
  0
LINE
  5
D0
100
AcDbEntity
  8
0
  6
CONTINUOUS
 62
               7
100
AcDbLine
 10
49.000000023841864
 20
-13.699999999999989
 30
0.0
 11
49.500000023841864
 21
-13.699999999999989
 31
0.0
  0
LINE
  5
D1
100
AcDbEntity
  8
0
  6
CONTINUOUS
 62
               7
100
AcDbLine
 10
49.000000023841864
 20
-9.1999999999999886
 30
0.0
 11
49.500000023841864
 21
-9.1999999999999886
 31
0.0
  0
LINE
  5
D2
100
AcDbEntity
  8
0
  6
CENTER
 62
               2
100
AcDbLine
 10
48.027939082946432
 20
-11.0
 30
0.0
 11
50.641499936682152
 21
-11.0
 31
0.0
  0
LINE
  5
D3
100
AcDbEntity
  8
0
  6
CONTINUOUS
 62
               7
100
AcDbLine
 10
0.0
 20
-13.800000000000011
 30
0.0
 11
9.9999999758560705
 21
-13.800000000000011
 31
0.0
  0
LINE
  5
D4
100
AcDbEntity
  8
0
  6
CONTINUOUS
 62
               7
100
AcDbLine
 10
49.0
 20
-14.0
 30
0.0
 11
49.0
 21
0.0
 31
0.0
  0
LINE
  5
D5
100
AcDbEntity
  8
0
  6
CONTINUOUS
 62
               7
100
AcDbLine
 10
14.0
 20
-9.0
 30
0.0
 11
14.0
 21
0.0
 31
0.0
  0
LINE
  5
D6
100
AcDbEntity
  8
0
  6
CENTER
 62
               2
100
AcDbLine
 10
-0.9969874860368861
 20
-5.5
 30
0.0
 11
15.163084581928814
 21
-5.5
 31
0.0
  0
LINE
  5
D7
100
AcDbEntity
  8
0
  6
CONTINUOUS
 62
               7
100
AcDbLine
 10
14.0
 20
0.0
 30
0.0
 11
49.0
 21
0.0
 31
0.0
  0
LINE
  5
D8
100
AcDbEntity
  8
0
  6
CONTINUOUS
 62
               7
100
AcDbLine
 10
9.9999999758560705
 20
-14.0
 30
0.0
 11
49.0
 21
-14.0
 31
0.0
  0
LINE
  5
D9
100
AcDbEntity
  8
0
  6
CONTINUOUS
 62
               7
100
AcDbLine
 10
9.9999999758560705
 20
-14.0
 30
0.0
 11
9.9999999758560705
 21
-9.0
 31
0.0
  0
LINE
  5
DA
100
AcDbEntity
  8
0
  6
CONTINUOUS
 62
               7
100
AcDbLine
 10
5.5
 20
-9.0
 30
0.0
 11
14.0
 21
-9.0
 31
0.0
  0
LINE
  5
DB
100
AcDbEntity
  8
0
  6
CONTINUOUS
 62
               7
100
AcDbLine
 10
0.0
 20
-1.5
 30
0.0
 11
5.5
 21
-1.5
 31
0.0
  0
LINE
  5
DC
100
AcDbEntity
  8
0
  6
CONTINUOUS
 62
               7
100
AcDbLine
 10
5.5
 20
-1.5
 30
0.0
 11
5.5
 21
-9.0
 31
0.0
  0
LINE
  5
DD
100
AcDbEntity
  8
0
  6
CONTINUOUS
 62
               7
100
AcDbLine
 10
0.0
 20
-13.800000000000011
 30
0.0
 11
0.0
 21
-1.5
 31
0.0
  0
LINE
  5
DE
100
AcDbEntity
  8
0
  6
CONTINUOUS
 62
               7
100
AcDbLine
 10
7.5
 20
-7.0
 30
0.0
 11
9.0
 21
-7.0
 31
0.0
  0
LINE
  5
DF
100
AcDbEntity
  8
0
  6
CONTINUOUS
 62
               7
100
AcDbLine
 10
7.5
 20
-4.0
 30
0.0
 11
9.0
 21
-4.0
 31
0.0
  0
LINE
  5
E0
100
AcDbEntity
  8
0
  6
CONTINUOUS
 62
               7
100
AcDbLine
 10
9.9999999758560705
 20
-13.5
 30
0.0
 11
49.0
 21
-13.5
 31
0.0
  0
LINE
  5
E1
100
AcDbEntity
  8
0
  6
CONTINUOUS
 62
               7
100
AcDbLine
 10
0.0
 20
-13.300000000000011
 30
0.0
 11
9.9999999758560705
 21
-13.300000000000011
 31
0.0
  0
LINE
  5
E2
100
AcDbEntity
  8
0
  6
CONTINUOUS
 62
               7
100
AcDbLine
 10
5.5
 20
-4.3000000000000114
 30
0.0
 11
7.0
 21
-4.3000000000000114
 31
0.0
  0
LINE
  5
E3
100
AcDbEntity
  8
0
  6
CONTINUOUS
 62
               7
100
AcDbLine
 10
5.5
 20
-6.6999999999999886
 30
0.0
 11
7.0
 21
-6.6999999999999886
 31
0.0
  0
LINE
  5
E4
100
AcDbEntity
  8
0
  6
CONTINUOUS
 62
               7
100
AcDbLine
 10
7.0
 20
-1.8000000000000114
 30
0.0
 11
5.5
 21
-1.8000000000000114
 31
0.0
  0
LINE
  5
E5
100
AcDbEntity
  8
0
  6
CONTINUOUS
 62
               7
100
AcDbLine
 10
7.5
 20
-3.0
 30
0.0
 11
7.5
 21
-8.0
 31
0.0
  0
LINE
  5
E6
100
AcDbEntity
  8
0
  6
CONTINUOUS
 62
               7
100
AcDbLine
 10
7.5
 20
-8.0
 30
0.0
 11
7.0
 21
-8.0
 31
0.0
  0
LINE
  5
E7
100
AcDbEntity
  8
0
  6
CONTINUOUS
 62
               7
100
AcDbLine
 10
7.5
 20
-3.0
 30
0.0
 11
7.0
 21
-3.0
 31
0.0
  0
LINE
  5
E8
100
AcDbEntity
  8
0
  6
CONTINUOUS
 62
               7
100
AcDbLine
 10
7.0
 20
-1.8000000000000114
 30
0.0
 11
7.0
 21
-9.0
 31
0.0
  0
LINE
  5
E9
100
AcDbEntity
  8
0
  6
CONTINUOUS
 62
               2
100
AcDbLine
 10
5.5
 20
-4.3000000000000114
 30
0.0
 11
7.0
 21
-6.6999999999999886
 31
0.0
  0
LINE
  5
EA
100
AcDbEntity
  8
0
  6
CONTINUOUS
 62
               2
100
AcDbLine
 10
5.5
 20
-6.6999999999999886
 30
0.0
 11
7.0
 21
-4.3000000000000114
 31
0.0
  0
ENDBLK
  5
EB
100
AcDbEntity
  8
0
100
AcDbBlockEnd
  0
BLOCK
  5
EC
100
AcDbEntity
  8
0
100
AcDbBlockBegin
  2
CS-MGA8-3
 70
               0
 10
0.0
 20
0.0
 30
0.0
  3
CS-MGA8-3
  1

  0
LINE
  5
ED
100
AcDbEntity
  8
0
  6
PHANTOM
 62
               3
100
AcDbLine
 10
26.50000000253732
 20
20.049411212710794
 30
0.0
 11
26.50000000253732
 21
-28.303087437840048
 31
0.0
  0
LINE
  5
EE
100
AcDbEntity
  8
0
  6
CONTINUOUS
 62
               7
100
AcDbLine
 10
0.0
 20
11.5
 30
0.0
 11
49.0
 21
11.5
 31
0.0
  0
LINE
  5
EF
100
AcDbEntity
  8
0
  6
CONTINUOUS
 62
               7
100
AcDbLine
 10
0.0
 20
-11.5
 30
0.0
 11
49.0
 21
-11.5
 31
0.0
  0
LINE
  5
F0
100
AcDbEntity
  8
0
  6
CONTINUOUS
 62
               7
100
AcDbLine
 10
2.8000000000000114
 20
-10.900000000000006
 30
0.0
 11
2.8000000000000114
 21
-6.0999999999999943
 31
0.0
  0
LINE
  5
F1
100
AcDbEntity
  8
0
  6
CONTINUOUS
 62
               7
100
AcDbLine
 10
0.600000017860765
 20
-6.25
 30
0.0
 11
2.8000000000000114
 21
-6.25
 31
0.0
  0
LINE
  5
F2
100
AcDbEntity
  8
0
  6
CONTINUOUS
 62
               7
100
AcDbLine
 10
0.600000017860765
 20
-10.75
 30
0.0
 11
2.8000000000000114
 21
-10.75
 31
0.0
  0
LINE
  5
F3
100
AcDbEntity
  8
0
  6
CONTINUOUS
 62
               7
100
AcDbLine
 10
0.3000000000000114
 20
-10.450000002969574
 30
0.0
 11
0.3000000000000114
 21
-6.550000026811432
 31
0.0
  0
LINE
  5
F4
100
AcDbEntity
  8
0
  6
CONTINUOUS
 62
               7
100
AcDbLine
 10
0.600000017860765
 20
-6.25
 30
0.0
 11
0.299999999999983
 21
-6.550000017860782
 31
0.0
  0
LINE
  5
F5
100
AcDbEntity
  8
0
  6
CONTINUOUS
 62
               7
100
AcDbLine
 10
0.3000000000000114
 20
-10.450000002969574
 30
0.0
 11
0.5999999970304657
 21
-10.75
 31
0.0
  0
LINE
  5
F6
100
AcDbEntity
  8
0
  6
CONTINUOUS
 62
               7
100
AcDbLine
 10
0.600000017860765
 20
-6.25
 30
0.0
 11
0.600000017860765
 21
-10.75
 31
0.0
  0
LINE
  5
F7
100
AcDbEntity
  8
0
  6
CONTINUOUS
 62
               7
100
AcDbLine
 10
0.0
 20
-6.0999999999999943
 30
0.0
 11
2.8000000000000114
 21
-6.0999999999999943
 31
0.0
  0
LINE
  5
F8
100
AcDbEntity
  8
0
  6
CONTINUOUS
 62
               7
100
AcDbLine
 10
0.0
 20
-10.900000000000006
 30
0.0
 11
2.8000000000000114
 21
-10.900000000000006
 31
0.0
  0
LINE
  5
F9
100
AcDbEntity
  8
0
  6
CONTINUOUS
 62
               7
100
AcDbLine
 10
0.0
 20
-12.0
 30
0.0
 11
49.0
 21
-12.0
 31
0.0
  0
LINE
  5
FA
100
AcDbEntity
  8
0
  6
CENTER
 62
               2
100
AcDbLine
 10
-0.5906947681626775
 20
-8.5
 30
0.0
 11
6.3197120448923272
 21
-8.5
 31
0.0
  0
LINE
  5
FB
100
AcDbEntity
  8
0
  6
CENTER
 62
               2
100
AcDbLine
 10
17.000000023841864
 20
-6.5
 30
0.0
 11
17.000000023841864
 21
-11.5
 31
0.0
  0
CIRCLE
  5
FC
100
AcDbEntity
  8
0
  6
CONTINUOUS
 62
               2
100
AcDbCircle
 10
17.000000023841864
 20
-9.0
 30
0.0
 40
1.5
  0
CIRCLE
  5
FD
100
AcDbEntity
  8
0
  6
CONTINUOUS
 62
               7
100
AcDbCircle
 10
17.000000023841864
 20
-9.0
 30
0.0
 40
1.25
  0
CIRCLE
  5
FE
100
AcDbEntity
  8
0
  6
CONTINUOUS
 62
               7
100
AcDbCircle
 10
22.0
 20
-9.0
 30
0.0
 40
2.3999999999999999
  0
LINE
  5
FF
100
AcDbEntity
  8
0
  6
CENTER
 62
               2
100
AcDbLine
 10
22.0
 20
-12.400000000000006
 30
0.0
 11
22.0
 21
-5.5999999999999943
 31
0.0
  0
LINE
  5
100
100
AcDbEntity
  8
0
  6
CENTER
 62
               2
100
AcDbLine
 10
33.000000023841864
 20
-6.5
 30
0.0
 11
33.000000023841864
 21
-11.5
 31
0.0
  0
CIRCLE
  5
101
100
AcDbEntity
  8
0
  6
CONTINUOUS
 62
               2
100
AcDbCircle
 10
33.000000023841864
 20
-9.0
 30
0.0
 40
1.5
  0
CIRCLE
  5
102
100
AcDbEntity
  8
0
  6
CONTINUOUS
 62
               7
100
AcDbCircle
 10
33.000000023841864
 20
-9.0
 30
0.0
 40
1.25
  0
ARC
  5
103
100
AcDbEntity
  8
0
  6
CONTINUOUS
 62
               7
100
AcDbCircle
 10
33.500000023841864
 20
0.0
 30
0.0
 40
1.5
100
AcDbArc
 50
270.00000000000023
 51
89.999999999999801
  0
LINE
  5
104
100
AcDbEntity
  8
0
  6
CENTER
 62
               2
100
AcDbLine
 10
33.000000023841864
 20
-2.2999999999999972
 30
0.0
 11
33.000000023841864
 21
2.2999999999999972
 31
0.0
  0
ARC
  5
105
100
AcDbEntity
  8
0
  6
CONTINUOUS
 62
               7
100
AcDbCircle
 10
32.500000023841864
 20
0.0
 30
0.0
 40
1.5
100
AcDbArc
 50
89.999999999999815
 51
269.99999999999937
  0
LINE
  5
106
100
AcDbEntity
  8
0
  6
CONTINUOUS
 62
               7
100
AcDbLine
 10
33.500000023841864
 20
1.5
 30
0.0
 11
32.500000023841864
 21
1.5
 31
0.0
  0
LINE
  5
107
100
AcDbEntity
  8
0
  6
CONTINUOUS
 62
               7
100
AcDbLine
 10
33.500000023841864
 20
-1.5
 30
0.0
 11
32.500000023841864
 21
-1.5
 31
0.0
  0
CIRCLE
  5
108
100
AcDbEntity
  8
0
  6
CONTINUOUS
 62
               7
100
AcDbCircle
 10
17.000000023841864
 20
0.0
 30
0.0
 40
1.5
  0
LINE
  5
109
100
AcDbEntity
  8
0
  6
CENTER
 62
               2
100
AcDbLine
 10
17.000000023841864
 20
2.5
 30
0.0
 11
17.000000023841864
 21
-2.5
 31
0.0
  0
LINE
  5
10A
100
AcDbEntity
  8
0
  6
CENTER
 62
               2
100
AcDbLine
 10
33.000000023841864
 20
6.5
 30
0.0
 11
33.000000023841864
 21
11.5
 31
0.0
  0
CIRCLE
  5
10B
100
AcDbEntity
  8
0
  6
CONTINUOUS
 62
               2
100
AcDbCircle
 10
33.000000023841864
 20
9.0
 30
0.0
 40
1.5
  0
CIRCLE
  5
10C
100
AcDbEntity
  8
0
  6
CONTINUOUS
 62
               7
100
AcDbCircle
 10
33.000000023841864
 20
9.0
 30
0.0
 40
1.25
  0
LINE
  5
10D
100
AcDbEntity
  8
0
  6
CENTER
 62
               2
100
AcDbLine
 10
17.000000023841864
 20
6.5
 30
0.0
 11
17.000000023841864
 21
11.5
 31
0.0
  0
CIRCLE
  5
10E
100
AcDbEntity
  8
0
  6
CONTINUOUS
 62
               2
100
AcDbCircle
 10
17.000000023841864
 20
9.0
 30
0.0
 40
1.5
  0
CIRCLE
  5
10F
100
AcDbEntity
  8
0
  6
CONTINUOUS
 62
               7
100
AcDbCircle
 10
17.000000023841864
 20
9.0
 30
0.0
 40
1.25
  0
LINE
  5
110
100
AcDbEntity
  8
0
  6
CONTINUOUS
 62
               7
100
AcDbLine
 10
0.0
 20
10.900000000000006
 30
0.0
 11
2.8000000000000114
 21
10.900000000000006
 31
0.0
  0
LINE
  5
111
100
AcDbEntity
  8
0
  6
CONTINUOUS
 62
               7
100
AcDbLine
 10
0.0
 20
6.0999999999999943
 30
0.0
 11
2.8000000000000114
 21
6.0999999999999943
 31
0.0
  0
LINE
  5
112
100
AcDbEntity
  8
0
  6
CONTINUOUS
 62
               7
100
AcDbLine
 10
0.600000017860765
 20
6.25
 30
0.0
 11
0.600000017860765
 21
10.75
 31
0.0
  0
LINE
  5
113
100
AcDbEntity
  8
0
  6
CONTINUOUS
 62
               7
100
AcDbLine
 10
0.3000000000000114
 20
10.450000002969574
 30
0.0
 11
0.5999999970304657
 21
10.75
 31
0.0
  0
LINE
  5
114
100
AcDbEntity
  8
0
  6
CONTINUOUS
 62
               7
100
AcDbLine
 10
0.600000017860765
 20
6.25
 30
0.0
 11
0.299999999999983
 21
6.550000017860782
 31
0.0
  0
LINE
  5
115
100
AcDbEntity
  8
0
  6
CONTINUOUS
 62
               7
100
AcDbLine
 10
0.3000000000000114
 20
10.450000002969574
 30
0.0
 11
0.3000000000000114
 21
6.550000026811432
 31
0.0
  0
LINE
  5
116
100
AcDbEntity
  8
0
  6
CONTINUOUS
 62
               7
100
AcDbLine
 10
0.600000017860765
 20
10.75
 30
0.0
 11
2.8000000000000114
 21
10.75
 31
0.0
  0
LINE
  5
117
100
AcDbEntity
  8
0
  6
CONTINUOUS
 62
               7
100
AcDbLine
 10
0.600000017860765
 20
6.25
 30
0.0
 11
2.8000000000000114
 21
6.25
 31
0.0
  0
LINE
  5
118
100
AcDbEntity
  8
0
  6
CONTINUOUS
 62
               7
100
AcDbLine
 10
2.8000000000000114
 20
10.900000000000006
 30
0.0
 11
2.8000000000000114
 21
6.0999999999999943
 31
0.0
  0
LINE
  5
119
100
AcDbEntity
  8
0
  6
CENTER
 62
               2
100
AcDbLine
 10
-0.5906947681626775
 20
8.5
 30
0.0
 11
6.3197120448923272
 21
8.5
 31
0.0
  0
LINE
  5
11A
100
AcDbEntity
  8
0
  6
CENTER
 62
               2
100
AcDbLine
 10
-1.682963049411768
 20
0.0
 30
0.0
 11
51.345010395010434
 21
0.0
 31
0.0
  0
LINE
  5
11B
100
AcDbEntity
  8
0
  6
CONTINUOUS
 62
               7
100
AcDbLine
 10
49.0
 20
12.0
 30
0.0
 11
49.0
 21
-12.0
 31
0.0
  0
LINE
  5
11C
100
AcDbEntity
  8
0
  6
CONTINUOUS
 62
               7
100
AcDbLine
 10
0.0
 20
12.0
 30
0.0
 11
0.0
 21
-12.0
 31
0.0
  0
LINE
  5
11D
100
AcDbEntity
  8
0
  6
CONTINUOUS
 62
               7
100
AcDbLine
 10
9.9999999758560705
 20
12.0
 30
0.0
 11
9.9999999758560705
 21
-12.0
 31
0.0
  0
CIRCLE
  5
11E
100
AcDbEntity
  8
0
  6
CONTINUOUS
 62
               7
100
AcDbCircle
 10
21.0
 20
-9.0
 30
0.0
 40
1.3
  0
ARC
  5
11F
100
AcDbEntity
  8
0
  6
CONTINUOUS
 62
               7
100
AcDbCircle
 10
21.0
 20
-9.0
 30
0.0
 40
2.3999999999999999
100
AcDbArc
 50
0.0
 51
77.975300819433997
  0
LINE
  5
120
100
AcDbEntity
  8
0
  6
CONTINUOUS
 62
               7
100
AcDbLine
 10
23.400000000000006
 20
-9.0
 30
0.0
 11
23.400000000000006
 21
-10.949358868961795
 31
0.0
  0
LINE
  5
121
100
AcDbEntity
  8
0
  6
CENTER
 62
               2
100
AcDbLine
 10
21.0
 20
-12.399999999999991
 30
0.0
 11
21.0
 21
-5.5999999999999943
 31
0.0
  0
LINE
  5
122
100
AcDbEntity
  8
0
  6
CONTINUOUS
 62
               7
100
AcDbLine
 10
39.400000000000006
 20
9.0
 30
0.0
 11
39.400000000000006
 21
10.949358868961781
 31
0.0
  0
CIRCLE
  5
123
100
AcDbEntity
  8
0
  6
CONTINUOUS
 62
               7
100
AcDbCircle
 10
37.0
 20
9.0
 30
0.0
 40
1.3
  0
LINE
  5
124
100
AcDbEntity
  8
0
  6
CENTER
 62
               2
100
AcDbLine
 10
37.0
 20
12.400000000000006
 30
0.0
 11
37.0
 21
5.5999999999999943
 31
0.0
  0
ARC
  5
125
100
AcDbEntity
  8
0
  6
CONTINUOUS
 62
               7
100
AcDbCircle
 10
37.0
 20
9.0
 30
0.0
 40
2.3999999999999999
100
AcDbArc
 50
282.02469918056596
 51
0.0
  0
CIRCLE
  5
126
100
AcDbEntity
  8
0
  6
CONTINUOUS
 62
               7
100
AcDbCircle
 10
38.0
 20
-9.0
 30
0.0
 40
2.3999999999999999
  0
LINE
  5
127
100
AcDbEntity
  8
0
  6
CENTER
 62
               2
100
AcDbLine
 10
38.0
 20
-12.400000000000006
 30
0.0
 11
38.0
 21
-5.5999999999999943
 31
0.0
  0
LINE
  5
128
100
AcDbEntity
  8
0
  6
CONTINUOUS
 62
               7
100
AcDbLine
 10
39.400000000000006
 20
-9.0
 30
0.0
 11
39.400000000000006
 21
-10.949358868961795
 31
0.0
  0
LINE
  5
129
100
AcDbEntity
  8
0
  6
CENTER
 62
               2
100
AcDbLine
 10
37.0
 20
-12.399999999999991
 30
0.0
 11
37.0
 21
-5.5999999999999943
 31
0.0
  0
ARC
  5
12A
100
AcDbEntity
  8
0
  6
CONTINUOUS
 62
               7
100
AcDbCircle
 10
37.0
 20
-9.0
 30
0.0
 40
2.3999999999999999
100
AcDbArc
 50
0.0
 51
77.975300819433997
  0
CIRCLE
  5
12B
100
AcDbEntity
  8
0
  6
CONTINUOUS
 62
               7
100
AcDbCircle
 10
37.0
 20
-9.0
 30
0.0
 40
1.3
  0
CIRCLE
  5
12C
100
AcDbEntity
  8
0
  6
CONTINUOUS
 62
               7
100
AcDbCircle
 10
22.0
 20
9.0
 30
0.0
 40
2.3999999999999999
  0
LINE
  5
12D
100
AcDbEntity
  8
0
  6
CENTER
 62
               2
100
AcDbLine
 10
22.0
 20
12.400000000000006
 30
0.0
 11
22.0
 21
5.5999999999999943
 31
0.0
  0
LINE
  5
12E
100
AcDbEntity
  8
0
  6
CENTER
 62
               2
100
AcDbLine
 10
21.0
 20
12.399999999999991
 30
0.0
 11
21.0
 21
5.5999999999999943
 31
0.0
  0
LINE
  5
12F
100
AcDbEntity
  8
0
  6
CONTINUOUS
 62
               7
100
AcDbLine
 10
23.400000000000006
 20
9.0
 30
0.0
 11
23.400000000000006
 21
10.949358868961795
 31
0.0
  0
ARC
  5
130
100
AcDbEntity
  8
0
  6
CONTINUOUS
 62
               7
100
AcDbCircle
 10
21.0
 20
9.0
 30
0.0
 40
2.3999999999999999
100
AcDbArc
 50
282.02469918056596
 51
0.0
  0
CIRCLE
  5
131
100
AcDbEntity
  8
0
  6
CONTINUOUS
 62
               7
100
AcDbCircle
 10
21.0
 20
9.0
 30
0.0
 40
1.3
  0
LINE
  5
132
100
AcDbEntity
  8
0
  6
CONTINUOUS
 62
               7
100
AcDbLine
 10
0.0
 20
12.0
 30
0.0
 11
49.0
 21
12.0
 31
0.0
  0
LINE
  5
133
100
AcDbEntity
  8
0
  6
CONTINUOUS
 62
               7
100
AcDbLine
 10
49.5
 20
-9.2999999999999972
 30
0.0
 11
49.5
 21
9.2999999999999972
 31
0.0
  0
LINE
  5
134
100
AcDbEntity
  8
0
  6
CENTER
 62
               2
100
AcDbLine
 10
48.027939082946432
 20
-7.5
 30
0.0
 11
50.641499936682152
 21
-7.5
 31
0.0
  0
LINE
  5
135
100
AcDbEntity
  8
0
  6
CONTINUOUS
 62
               7
100
AcDbLine
 10
49.0
 20
-9.2999999999999972
 30
0.0
 11
49.5
 21
-9.2999999999999972
 31
0.0
  0
LINE
  5
136
100
AcDbEntity
  8
0
  6
CONTINUOUS
 62
               7
100
AcDbLine
 10
50.0
 20
-8.2000000000000171
 30
0.0
 11
50.0
 21
-6.8000000000000114
 31
0.0
  0
ARC
  5
137
100
AcDbEntity
  8
0
  6
CONTINUOUS
 62
               7
100
AcDbCircle
 10
49.700000000000017
 20
-6.8000000000000114
 30
0.0
 40
0.3
100
AcDbArc
 50
0.0
 51
89.999999999999815
  0
ARC
  5
138
100
AcDbEntity
  8
0
  6
CONTINUOUS
 62
               7
100
AcDbCircle
 10
49.700000000000017
 20
-8.2000000000000171
 30
0.0
 40
0.3
100
AcDbArc
 50
270.00000000000023
 51
0.0
  0
LINE
  5
139
100
AcDbEntity
  8
0
  6
CONTINUOUS
 62
               7
100
AcDbLine
 10
49.5
 20
-8.5
 30
0.0
 11
49.700000000000017
 21
-8.5
 31
0.0
  0
LINE
  5
13A
100
AcDbEntity
  8
0
  6
CONTINUOUS
 62
               7
100
AcDbLine
 10
49.5
 20
-6.5
 30
0.0
 11
49.700000000000017
 21
-6.5
 31
0.0
  0
LINE
  5
13B
100
AcDbEntity
  8
0
  6
CENTER
 62
               2
100
AcDbLine
 10
48.027939082946432
 20
7.5
 30
0.0
 11
50.641499936682152
 21
7.5
 31
0.0
  0
LINE
  5
13C
100
AcDbEntity
  8
0
  6
CONTINUOUS
 62
               7
100
AcDbLine
 10
49.0
 20
9.2999999999999972
 30
0.0
 11
49.5
 21
9.2999999999999972
 31
0.0
  0
LINE
  5
13D
100
AcDbEntity
  8
0
  6
CONTINUOUS
 62
               7
100
AcDbLine
 10
50.0
 20
6.7999999999999972
 30
0.0
 11
50.0
 21
8.2000000000000028
 31
0.0
  0
ARC
  5
13E
100
AcDbEntity
  8
0
  6
CONTINUOUS
 62
               7
100
AcDbCircle
 10
49.700000000000017
 20
8.2000000000000028
 30
0.0
 40
0.3
100
AcDbArc
 50
0.0
 51
89.999999999999815
  0
ARC
  5
13F
100
AcDbEntity
  8
0
  6
CONTINUOUS
 62
               7
100
AcDbCircle
 10
49.700000000000017
 20
6.7999999999999972
 30
0.0
 40
0.3
100
AcDbArc
 50
270.00000000000023
 51
0.0
  0
LINE
  5
140
100
AcDbEntity
  8
0
  6
CONTINUOUS
 62
               7
100
AcDbLine
 10
49.5
 20
6.5
 30
0.0
 11
49.700000000000017
 21
6.5
 31
0.0
  0
LINE
  5
141
100
AcDbEntity
  8
0
  6
CONTINUOUS
 62
               7
100
AcDbLine
 10
49.5
 20
8.4999999999999858
 30
0.0
 11
49.700000000000017
 21
8.4999999999999858
 31
0.0
  0
CIRCLE
  5
142
100
AcDbEntity
  8
0
  6
CONTINUOUS
 62
               7
100
AcDbCircle
 10
38.0
 20
9.0
 30
0.0
 40
2.3999999999999999
  0
LINE
  5
143
100
AcDbEntity
  8
0
  6
CENTER
 62
               2
100
AcDbLine
 10
38.0
 20
12.400000000000006
 30
0.0
 11
38.0
 21
5.5999999999999943
 31
0.0
  0
LINE
  5
144
100
AcDbEntity
  8
0
  6
CENTER
 62
               2
100
AcDbLine
 10
14.500000023841864
 20
9.0
 30
0.0
 11
25.400000000000006
 21
9.0
 31
0.0
  0
LINE
  5
145
100
AcDbEntity
  8
0
  6
CENTER
 62
               2
100
AcDbLine
 10
30.500000023841864
 20
-9.0
 30
0.0
 11
41.400000000000006
 21
-9.0
 31
0.0
  0
LINE
  5
146
100
AcDbEntity
  8
0
  6
CENTER
 62
               2
100
AcDbLine
 10
30.500000023841864
 20
9.0
 30
0.0
 11
40.400000000000006
 21
9.0
 31
0.0
  0
LINE
  5
147
100
AcDbEntity
  8
0
  6
CENTER
 62
               2
100
AcDbLine
 10
14.500000023841864
 20
-9.0
 30
0.0
 11
25.400000000000006
 21
-9.0
 31
0.0
  0
LINE
  5
148
100
AcDbEntity
  8
0
  6
CONTINUOUS
 62
               4
100
AcDbLine
 10
14.000000023841864
 20
-21.500000000000071
 30
0.0
 11
14.000000023841864
 21
-12.0
 31
0.0
  0
LINE
  5
149
100
AcDbEntity
  8
0
  6
CONTINUOUS
 62
               4
100
AcDbLine
 10
49.000000023841864
 20
-21.500000000000071
 30
0.0
 11
49.000000023841864
 21
-12.0
 31
0.0
  0
LINE
  5
14A
100
AcDbEntity
  8
0
  6
CONTINUOUS
 62
               4
100
AcDbLine
 10
20.000000023841864
 20
-15.50000001369061
 30
0.0
 11
20.000000023841864
 21
-12.0
 31
0.0
  0
LINE
  5
14B
100
AcDbEntity
  8
0
  6
CENTER
 62
             200
100
AcDbLine
 10
30.0
 20
-15.530849309951407
 30
0.0
 11
30.0
 21
-10.99561853404532
 31
0.0
  0
LINE
  5
14C
100
AcDbEntity
  8
0
  6
CONTINUOUS
 62
               4
100
AcDbLine
 10
31.900000000000006
 20
-14.699999986309393
 30
0.0
 11
31.900000000000006
 21
-12.99999998630939
 31
0.0
  0
LINE
  5
14D
100
AcDbEntity
  8
0
  6
CONTINUOUS
 62
               4
100
AcDbLine
 10
28.100000000000023
 20
-14.699999986309393
 30
0.0
 11
28.100000000000023
 21
-12.99999998630939
 31
0.0
  0
LINE
  5
14E
100
AcDbEntity
  8
0
  6
CENTER
 62
             200
100
AcDbLine
 10
44.0
 20
-15.530849309951407
 30
0.0
 11
44.0
 21
-10.99561853404532
 31
0.0
  0
LINE
  5
14F
100
AcDbEntity
  8
0
  6
CONTINUOUS
 62
               4
100
AcDbLine
 10
45.900000000000006
 20
-14.699999986309393
 30
0.0
 11
45.900000000000006
 21
-12.99999998630939
 31
0.0
  0
LINE
  5
150
100
AcDbEntity
  8
0
  6
CONTINUOUS
 62
               4
100
AcDbLine
 10
42.100000000000023
 20
-14.699999986309393
 30
0.0
 11
42.100000000000023
 21
-12.99999998630939
 31
0.0
  0
LINE
  5
151
100
AcDbEntity
  8
0
  6
CONTINUOUS
 62
               4
100
AcDbLine
 10
35.0
 20
-14.699999986309393
 30
0.0
 11
35.0
 21
-12.99999998630939
 31
0.0
  0
LINE
  5
152
100
AcDbEntity
  8
0
  6
CONTINUOUS
 62
               4
100
AcDbLine
 10
39.0
 20
-14.699999986309393
 30
0.0
 11
39.0
 21
-12.99999998630939
 31
0.0
  0
LINE
  5
153
100
AcDbEntity
  8
0
  6
CONTINUOUS
 62
               4
100
AcDbLine
 10
35.0
 20
-14.699999986309393
 30
0.0
 11
39.0
 21
-14.699999986309393
 31
0.0
  0
LINE
  5
154
100
AcDbEntity
  8
0
  6
CONTINUOUS
 62
               4
100
AcDbLine
 10
42.400000000000034
 20
-14.99999998630939
 30
0.0
 11
42.100000000000023
 21
-14.699999986309393
 31
0.0
  0
LINE
  5
155
100
AcDbEntity
  8
0
  6
CONTINUOUS
 62
               4
100
AcDbLine
 10
45.600000000000023
 20
-14.99999998630939
 30
0.0
 11
42.400000000000034
 21
-14.99999998630939
 31
0.0
  0
LINE
  5
156
100
AcDbEntity
  8
0
  6
CONTINUOUS
 62
               4
100
AcDbLine
 10
45.900000000000006
 20
-14.699999986309393
 30
0.0
 11
42.100000000000023
 21
-14.699999986309393
 31
0.0
  0
LINE
  5
157
100
AcDbEntity
  8
0
  6
CONTINUOUS
 62
               4
100
AcDbLine
 10
45.600000000000023
 20
-14.99999998630939
 30
0.0
 11
45.900000000000006
 21
-14.699999986309393
 31
0.0
  0
LINE
  5
158
100
AcDbEntity
  8
0
  6
CONTINUOUS
 62
               4
100
AcDbLine
 10
28.400000000000006
 20
-14.99999998630939
 30
0.0
 11
28.100000000000023
 21
-14.699999986309393
 31
0.0
  0
LINE
  5
159
100
AcDbEntity
  8
0
  6
CONTINUOUS
 62
               4
100
AcDbLine
 10
31.600000000000023
 20
-14.99999998630939
 30
0.0
 11
31.900000000000006
 21
-14.699999986309393
 31
0.0
  0
LINE
  5
15A
100
AcDbEntity
  8
0
  6
CONTINUOUS
 62
               4
100
AcDbLine
 10
31.600000000000023
 20
-14.99999998630939
 30
0.0
 11
28.400000000000006
 21
-14.99999998630939
 31
0.0
  0
LINE
  5
15B
100
AcDbEntity
  8
0
  6
CONTINUOUS
 62
               4
100
AcDbLine
 10
31.900000000000006
 20
-14.699999986309393
 30
0.0
 11
28.100000000000023
 21
-14.699999986309393
 31
0.0
  0
LINE
  5
15C
100
AcDbEntity
  8
0
  6
CONTINUOUS
 62
               4
100
AcDbLine
 10
14.000000023841864
 20
-21.500000000000071
 30
0.0
 11
49.000000023841864
 21
-21.500000000000071
 31
0.0
  0
LINE
  5
15D
100
AcDbEntity
  8
0
  6
CONTINUOUS
 62
               4
100
AcDbLine
 10
14.000000047381661
 20
-15.5
 30
0.0
 11
49.000000023841864
 21
-15.5
 31
0.0
  0
LINE
  5
15E
100
AcDbEntity
  8
0
  6
CONTINUOUS
 62
               4
100
AcDbLine
 10
43.000000023841864
 20
-15.50000001369061
 30
0.0
 11
43.000000023841864
 21
-14.99999998630939
 31
0.0
  0
LINE
  5
15F
100
AcDbEntity
  8
0
  6
CONTINUOUS
 62
               4
100
AcDbLine
 10
28.0
 20
-12.99999998630939
 30
0.0
 11
28.0
 21
-12.0
 31
0.0
  0
LINE
  5
160
100
AcDbEntity
  8
0
  6
CONTINUOUS
 62
               4
100
AcDbLine
 10
46.0
 20
-12.99999998630939
 30
0.0
 11
46.0
 21
-12.0
 31
0.0
  0
LINE
  5
161
100
AcDbEntity
  8
0
  6
CONTINUOUS
 62
               4
100
AcDbLine
 10
28.0
 20
-12.99999998630939
 30
0.0
 11
46.0
 21
-12.99999998630939
 31
0.0
  0
ENDBLK
  5
162
100
AcDbEntity
  8
0
100
AcDbBlockEnd
  0
BLOCK
  5
163
100
AcDbEntity
  8
0
100
AcDbBlockBegin
  2
CS-MGA8-4
 70
               0
 10
0.0
 20
0.0
 30
0.0
  3
CS-MGA8-4
  1

  0
LINE
  5
164
100
AcDbEntity
  8
0
  6
CONTINUOUS
 62
               7
100
AcDbLine
 10
0.3000000000000114
 20
-3.4000000000000057
 30
0.0
 11
0.3000000000000114
 21
3.4000000000000057
 31
0.0
  0
LINE
  5
165
100
AcDbEntity
  8
0
  6
CONTINUOUS
 62
               7
100
AcDbLine
 10
0.3000000000000114
 20
3.4000000000000057
 30
0.0
 11
0.0
 21
3.7000000000000171
 31
0.0
  0
LINE
  5
166
100
AcDbEntity
  8
0
  6
CONTINUOUS
 62
               7
100
AcDbLine
 10
0.3000000000000114
 20
-3.4000000000000057
 30
0.0
 11
0.0
 21
-3.7000000000000171
 31
0.0
  0
LINE
  5
167
100
AcDbEntity
  8
0
  6
CONTINUOUS
 62
               7
100
AcDbLine
 10
0.0
 20
-11.5
 30
0.0
 11
0.0
 21
-3.7000000000000171
 31
0.0
  0
LINE
  5
168
100
AcDbEntity
  8
0
  6
CONTINUOUS
 62
               7
100
AcDbLine
 10
0.0
 20
3.7000000000000171
 30
0.0
 11
0.0
 21
11.5
 31
0.0
  0
LINE
  5
169
100
AcDbEntity
  8
0
  6
CONTINUOUS
 62
               7
100
AcDbLine
 10
1.5
 20
2.5
 30
0.0
 11
1.5
 21
12.0
 31
0.0
  0
LINE
  5
16A
100
AcDbEntity
  8
0
  6
CONTINUOUS
 62
               7
100
AcDbLine
 10
2.7723636606028208
 20
2.5
 30
0.0
 11
1.5
 21
2.5
 31
0.0
  0
LINE
  5
16B
100
AcDbEntity
  8
0
  6
CONTINUOUS
 62
               7
100
AcDbLine
 10
2.7723636606028208
 20
-2.5
 30
0.0
 11
1.5
 21
-2.5
 31
0.0
  0
CIRCLE
  5
16C
100
AcDbEntity
  8
0
  6
CONTINUOUS
 62
               7
100
AcDbCircle
 10
5.5
 20
-2.5
 30
0.0
 40
0.5
  0
CIRCLE
  5
16D
100
AcDbEntity
  8
0
  6
CONTINUOUS
 62
               7
100
AcDbCircle
 10
5.5
 20
2.5
 30
0.0
 40
0.5
  0
LINE
  5
16E
100
AcDbEntity
  8
0
  6
CENTER
 62
               2
100
AcDbLine
 10
4.5
 20
2.5
 30
0.0
 11
6.5
 21
2.5
 31
0.0
  0
LINE
  5
16F
100
AcDbEntity
  8
0
  6
CONTINUOUS
 62
               7
100
AcDbLine
 10
5.5
 20
4.0
 30
0.0
 11
1.5
 21
4.0
 31
0.0
  0
LINE
  5
170
100
AcDbEntity
  8
0
  6
CONTINUOUS
 62
               7
100
AcDbLine
 10
5.5
 20
-4.0
 30
0.0
 11
1.5
 21
-4.0
 31
0.0
  0
ARC
  5
171
100
AcDbEntity
  8
0
  6
CONTINUOUS
 62
               7
100
AcDbCircle
 10
5.5
 20
0.0
 30
0.0
 40
4.0
100
AcDbArc
 50
270.00000000000023
 51
89.999999999999801
  0
CIRCLE
  5
172
100
AcDbEntity
  8
0
  6
CONTINUOUS
 62
               7
100
AcDbCircle
 10
5.5
 20
0.0
 30
0.0
 40
3.7000000000000002
  0
LINE
  5
173
100
AcDbEntity
  8
0
  6
CENTER
 62
               2
100
AcDbLine
 10
4.5
 20
-2.5
 30
0.0
 11
6.5
 21
-2.5
 31
0.0
  0
LINE
  5
174
100
AcDbEntity
  8
0
  6
CENTER
 62
               2
100
AcDbLine
 10
5.5
 20
5.0
 30
0.0
 11
5.5
 21
-5.0
 31
0.0
  0
CIRCLE
  5
175
100
AcDbEntity
  8
0
  6
CONTINUOUS
 62
               2
100
AcDbCircle
 10
5.5
 20
0.0
 30
0.0
 40
1.2
  0
CIRCLE
  5
176
100
AcDbEntity
  8
0
  6
CONTINUOUS
 62
               7
100
AcDbCircle
 10
5.5
 20
0.0
 30
0.0
 40
1.5
  0
LINE
  5
177
100
AcDbEntity
  8
0
  6
CONTINUOUS
 62
               7
100
AcDbLine
 10
13.5
 20
12.0
 30
0.0
 11
14.0
 21
11.5
 31
0.0
  0
LINE
  5
178
100
AcDbEntity
  8
0
  6
CONTINUOUS
 62
               7
100
AcDbLine
 10
13.799999999999983
 20
11.5
 30
0.0
 11
13.300000000000011
 21
12.0
 31
0.0
  0
LINE
  5
179
100
AcDbEntity
  8
0
  6
CONTINUOUS
 62
               7
100
AcDbLine
 10
14.0
 20
-11.5
 30
0.0
 11
13.499999999999972
 21
-12.0
 31
0.0
  0
LINE
  5
17A
100
AcDbEntity
  8
0
  6
CONTINUOUS
 62
               7
100
AcDbLine
 10
13.299999999999983
 20
-12.0
 30
0.0
 11
13.799999999999983
 21
-11.499999999999943
 31
0.0
  0
LINE
  5
17B
100
AcDbEntity
  8
0
  6
CENTER
 62
               2
100
AcDbLine
 10
6.0
 20
5.5
 30
0.0
 11
6.0
 21
10.5
 31
0.0
  0
CIRCLE
  5
17C
100
AcDbEntity
  8
0
  6
CONTINUOUS
 62
               2
100
AcDbCircle
 10
6.0
 20
8.0
 30
0.0
 40
1.5
  0
LINE
  5
17D
100
AcDbEntity
  8
0
  6
CENTER
 62
               2
100
AcDbLine
 10
3.5
 20
8.0
 30
0.0
 11
8.4999999999999716
 21
8.0
 31
0.0
  0
CIRCLE
  5
17E
100
AcDbEntity
  8
0
  6
CONTINUOUS
 62
               7
100
AcDbCircle
 10
6.0
 20
8.0
 30
0.0
 40
1.25
  0
LINE
  5
17F
100
AcDbEntity
  8
0
  6
CENTER
 62
               2
100
AcDbLine
 10
6.0
 20
-10.5
 30
0.0
 11
6.0
 21
-5.5
 31
0.0
  0
CIRCLE
  5
180
100
AcDbEntity
  8
0
  6
CONTINUOUS
 62
               2
100
AcDbCircle
 10
6.0
 20
-8.0
 30
0.0
 40
1.5
  0
LINE
  5
181
100
AcDbEntity
  8
0
  6
CENTER
 62
               2
100
AcDbLine
 10
3.5
 20
-8.0
 30
0.0
 11
8.4999999999999716
 21
-8.0
 31
0.0
  0
CIRCLE
  5
182
100
AcDbEntity
  8
0
  6
CONTINUOUS
 62
               7
100
AcDbCircle
 10
6.0
 20
-8.0
 30
0.0
 40
1.25
  0
LINE
  5
183
100
AcDbEntity
  8
0
  6
CONTINUOUS
 62
               7
100
AcDbLine
 10
11.5
 20
10.900000000000006
 30
0.0
 11
13.799999999999983
 21
10.900000000000006
 31
0.0
  0
LINE
  5
184
100
AcDbEntity
  8
0
  6
CONTINUOUS
 62
               7
100
AcDbLine
 10
11.5
 20
6.0999999999999943
 30
0.0
 11
13.799999999999983
 21
6.0999999999999943
 31
0.0
  0
LINE
  5
185
100
AcDbEntity
  8
0
  6
CONTINUOUS
 62
               7
100
AcDbLine
 10
11.5
 20
-6.0999999999999943
 30
0.0
 11
13.799999999999983
 21
-6.0999999999999943
 31
0.0
  0
LINE
  5
186
100
AcDbEntity
  8
0
  6
CONTINUOUS
 62
               7
100
AcDbLine
 10
11.5
 20
-10.900000000000006
 30
0.0
 11
13.799999999999983
 21
-10.900000000000006
 31
0.0
  0
LINE
  5
187
100
AcDbEntity
  8
0
  6
CONTINUOUS
 62
               7
100
AcDbLine
 10
12.077350214134384
 20
9.5000000494586203
 30
0.0
 11
12.654700532566238
 21
8.4999999302493308
 31
0.0
  0
LINE
  5
188
100
AcDbEntity
  8
0
  6
CONTINUOUS
 62
               7
100
AcDbLine
 10
10.922649660450332
 20
9.4999999770500665
 30
0.0
 11
12.077350326688958
 21
9.4999999600904488
 31
0.0
  0
LINE
  5
189
100
AcDbEntity
  8
0
  6
CONTINUOUS
 62
               7
100
AcDbLine
 10
10.345299446315948
 20
8.4999999275914462
 30
0.0
 11
10.922649794122748
 21
9.500000029841118
 31
0.0
  0
LINE
  5
18A
100
AcDbEntity
  8
0
  6
CONTINUOUS
 62
               7
100
AcDbLine
 10
10.922649785865616
 20
7.4999999505413797
 30
0.0
 11
10.345299467433762
 21
8.5000000697506692
 31
0.0
  0
LINE
  5
18B
100
AcDbEntity
  8
0
  6
CONTINUOUS
 62
               7
100
AcDbLine
 10
12.077350339549668
 20
7.5000000229499335
 30
0.0
 11
10.922649673311042
 21
7.5000000399095512
 31
0.0
  0
LINE
  5
18C
100
AcDbEntity
  8
0
  6
CONTINUOUS
 62
               7
100
AcDbLine
 10
12.654700553684052
 20
8.5000000724085538
 30
0.0
 11
12.077350205877252
 21
7.499999970158882
 31
0.0
  0
ARC
  5
18D
100
AcDbEntity
  8
0
  6
CONTINUOUS
 62
               7
100
AcDbCircle
 10
11.5
 20
8.5
 30
0.0
 40
2.3999999999999999
100
AcDbArc
 50
89.999999999999815
 51
269.99999999999937
  0
CIRCLE
  5
18E
100
AcDbEntity
  8
0
  6
CONTINUOUS
 62
               7
100
AcDbCircle
 10
11.5
 20
8.5
 30
0.0
 40
1.95
  0
CIRCLE
  5
18F
100
AcDbEntity
  8
0
  6
CONTINUOUS
 62
               7
100
AcDbCircle
 10
11.5
 20
8.5
 30
0.0
 40
2.25
  0
LINE
  5
190
100
AcDbEntity
  8
0
  6
CENTER
 62
               2
100
AcDbLine
 10
15.25
 20
8.5
 30
0.0
 11
7.75
 21
8.5
 31
0.0
  0
LINE
  5
191
100
AcDbEntity
  8
0
  6
CENTER
 62
               2
100
AcDbLine
 10
11.5
 20
12.25
 30
0.0
 11
11.5
 21
4.75
 31
0.0
  0
LINE
  5
192
100
AcDbEntity
  8
0
  6
CONTINUOUS
 62
               7
100
AcDbLine
 10
1.5
 20
-12.0
 30
0.0
 11
1.5
 21
-2.5
 31
0.0
  0
LINE
  5
193
100
AcDbEntity
  8
0
  6
CONTINUOUS
 62
               7
100
AcDbLine
 10
13.799999999999983
 20
-11.499999999999943
 30
0.0
 11
13.799999999999983
 21
11.5
 31
0.0
  0
ARC
  5
194
100
AcDbEntity
  8
0
  6
CONTINUOUS
 62
               7
100
AcDbCircle
 10
11.5
 20
-8.5
 30
0.0
 40
2.3999999999999999
100
AcDbArc
 50
89.999999999999815
 51
269.99999999999937
  0
CIRCLE
  5
195
100
AcDbEntity
  8
0
  6
CONTINUOUS
 62
               7
100
AcDbCircle
 10
11.5
 20
-8.5
 30
0.0
 40
1.95
  0
LINE
  5
196
100
AcDbEntity
  8
0
  6
CONTINUOUS
 62
               7
100
AcDbLine
 10
10.345299446315948
 20
-8.4999999275914462
 30
0.0
 11
10.922649794122748
 21
-9.500000029841118
 31
0.0
  0
LINE
  5
197
100
AcDbEntity
  8
0
  6
CONTINUOUS
 62
               7
100
AcDbLine
 10
10.922649660450332
 20
-9.4999999770500665
 30
0.0
 11
12.077350326688958
 21
-9.4999999600904488
 31
0.0
  0
LINE
  5
198
100
AcDbEntity
  8
0
  6
CONTINUOUS
 62
               7
100
AcDbLine
 10
12.077350214134384
 20
-9.5000000494586203
 30
0.0
 11
12.654700532566238
 21
-8.4999999302493308
 31
0.0
  0
LINE
  5
199
100
AcDbEntity
  8
0
  6
CONTINUOUS
 62
               7
100
AcDbLine
 10
12.654700553684052
 20
-8.5000000724085538
 30
0.0
 11
12.077350205877252
 21
-7.499999970158882
 31
0.0
  0
LINE
  5
19A
100
AcDbEntity
  8
0
  6
CONTINUOUS
 62
               7
100
AcDbLine
 10
12.077350339549668
 20
-7.5000000229499335
 30
0.0
 11
10.922649673311042
 21
-7.5000000399095512
 31
0.0
  0
LINE
  5
19B
100
AcDbEntity
  8
0
  6
CONTINUOUS
 62
               7
100
AcDbLine
 10
10.922649785865616
 20
-7.4999999505413797
 30
0.0
 11
10.345299467433762
 21
-8.5000000697506692
 31
0.0
  0
CIRCLE
  5
19C
100
AcDbEntity
  8
0
  6
CONTINUOUS
 62
               7
100
AcDbCircle
 10
11.5
 20
-8.5
 30
0.0
 40
2.25
  0
LINE
  5
19D
100
AcDbEntity
  8
0
  6
CENTER
 62
               2
100
AcDbLine
 10
7.75
 20
-8.5
 30
0.0
 11
15.25
 21
-8.5
 31
0.0
  0
LINE
  5
19E
100
AcDbEntity
  8
0
  6
CENTER
 62
               2
100
AcDbLine
 10
11.5
 20
-4.75
 30
0.0
 11
11.5
 21
-12.25
 31
0.0
  0
LINE
  5
19F
100
AcDbEntity
  8
0
  6
CONTINUOUS
 62
               7
100
AcDbLine
 10
1.5
 20
-12.0
 30
0.0
 11
13.499999999999972
 21
-12.0
 31
0.0
  0
LINE
  5
1A0
100
AcDbEntity
  8
0
  6
CONTINUOUS
 62
               7
100
AcDbLine
 10
1.5
 20
12.0
 30
0.0
 11
13.5
 21
12.0
 31
0.0
  0
LINE
  5
1A1
100
AcDbEntity
  8
0
  6
CONTINUOUS
 62
               7
100
AcDbLine
 10
-0.0000000136905953
 20
11.5
 30
0.0
 11
1.5
 21
11.5
 31
0.0
  0
LINE
  5
1A2
100
AcDbEntity
  8
0
  6
CONTINUOUS
 62
               7
100
AcDbLine
 10
-0.0000000136905953
 20
-11.5
 30
0.0
 11
1.5
 21
-11.5
 31
0.0
  0
LINE
  5
1A3
100
AcDbEntity
  8
0
  6
CONTINUOUS
 62
               7
100
AcDbLine
 10
14.0
 20
-11.5
 30
0.0
 11
14.0
 21
11.5
 31
0.0
  0
LINE
  5
1A4
100
AcDbEntity
  8
0
  6
CENTER
 62
               2
100
AcDbLine
 10
-1.9560299056583688
 20
0.0
 30
0.0
 11
15.981661064987264
 21
0.0
 31
0.0
  0
LINE
  5
1A5
100
AcDbEntity
  8
0
  6
CENTER
 62
             200
100
AcDbLine
 10
11.0
 20
-15.530849323642016
 30
0.0
 11
11.0
 21
-11.103810020426266
 31
0.0
  0
LINE
  5
1A6
100
AcDbEntity
  8
0
  6
CONTINUOUS
 62
               4
100
AcDbLine
 10
12.800000000000011
 20
-13.0
 30
0.0
 11
12.800000000000011
 21
-12.0
 31
0.0
  0
LINE
  5
1A7
100
AcDbEntity
  8
0
  6
CONTINUOUS
 62
               4
100
AcDbLine
 10
9.1999999999999886
 20
-12.0
 30
0.0
 11
9.1999999999999886
 21
-13.0
 31
0.0
  0
LINE
  5
1A8
100
AcDbEntity
  8
0
  6
CENTER
 62
             200
100
AcDbLine
 10
9.1999999999999886
 20
-22.421064405906037
 30
0.0
 11
9.1999999999999886
 21
-15.763361521378542
 31
0.0
  0
LINE
  5
1A9
100
AcDbEntity
  8
0
  6
CONTINUOUS
 62
               4
100
AcDbLine
 10
6.6999999999999886
 20
-15.5
 30
0.0
 11
6.6999999999999886
 21
-12.0
 31
0.0
  0
LINE
  5
1AA
100
AcDbEntity
  8
0
  6
CENTER
 62
             200
100
AcDbLine
 10
4.0
 20
-22.421064405906037
 30
0.0
 11
4.0
 21
-15.763361521378542
 31
0.0
  0
LINE
  5
1AB
100
AcDbEntity
  8
0
  6
CONTINUOUS
 62
               4
100
AcDbLine
 10
0.9000000000000057
 20
-21.500000000000071
 30
0.0
 11
0.9000000000000057
 21
-11.5
 31
0.0
  0
LINE
  5
1AC
100
AcDbEntity
  8
0
  6
CONTINUOUS
 62
               4
100
AcDbLine
 10
9.0999999999999943
 20
-14.700000000000003
 30
0.0
 11
6.6999999999999886
 21
-14.700000000000003
 31
0.0
  0
ARC
  5
1AD
100
AcDbEntity
  8
0
  6
CONTINUOUS
 62
               4
100
AcDbCircle
 10
10.300000000000011
 20
-17.5
 30
0.0
 40
2.0
100
AcDbArc
 50
0.0000000000000509
 51
89.999999999999844
  0
LINE
  5
1AE
100
AcDbEntity
  8
0
  6
CONTINUOUS
 62
               4
100
AcDbLine
 10
12.300000000000011
 20
-21.500000000000057
 30
0.0
 11
12.300000000000011
 21
-17.5
 31
0.0
  0
LINE
  5
1AF
100
AcDbEntity
  8
0
  6
CONTINUOUS
 62
               4
100
AcDbLine
 10
10.800000000000011
 20
-21.200000000000045
 30
0.0
 11
10.800000000000011
 21
-21.000000000000057
 31
0.0
  0
LINE
  5
1B0
100
AcDbEntity
  8
0
  6
CONTINUOUS
 62
               4
100
AcDbLine
 10
10.800000000000011
 20
-21.000000000000057
 30
0.0
 11
11.300000000000011
 21
-20.500000000000057
 31
0.0
  0
ARC
  5
1B1
100
AcDbEntity
  8
0
  6
CONTINUOUS
 62
               4
100
AcDbCircle
 10
11.099523973635428
 20
-21.20047602636464
 30
0.0
 40
0.2995243519038812
100
AcDbArc
 50
179.90894124989561
 51
270.09105875010249
  0
LINE
  5
1B2
100
AcDbEntity
  8
0
  6
CONTINUOUS
 62
               4
100
AcDbLine
 10
11.300000000000011
 20
-20.500000000000057
 30
0.0
 11
11.300000000000011
 21
-18.900000000000063
 31
0.0
  0
LINE
  5
1B3
100
AcDbEntity
  8
0
  6
CONTINUOUS
 62
               4
100
AcDbLine
 10
11.099999999999994
 20
-21.500000000000057
 30
0.0
 11
12.300000000000011
 21
-21.500000000000057
 31
0.0
  0
ARC
  5
1B4
100
AcDbEntity
  8
0
  6
CONTINUOUS
 62
               4
100
AcDbCircle
 10
9.2000000000000171
 20
-18.900000000000063
 30
0.0
 40
2.1000000111152071
100
AcDbArc
 50
0.0
 51
179.99999999999963
  0
LINE
  5
1B5
100
AcDbEntity
  8
0
  6
CONTINUOUS
 62
               4
100
AcDbLine
 10
7.6000000000000227
 20
-21.20000000000006
 30
0.0
 11
7.6000000000000227
 21
-21.000000000000057
 31
0.0
  0
LINE
  5
1B6
100
AcDbEntity
  8
0
  6
CONTINUOUS
 62
               4
100
AcDbLine
 10
7.1000000000000227
 20
-20.500000000000057
 30
0.0
 11
7.6000000000000227
 21
-21.000000000000057
 31
0.0
  0
ARC
  5
1B7
100
AcDbEntity
  8
0
  6
CONTINUOUS
 62
               4
100
AcDbCircle
 10
7.2993006134913685
 20
-21.199300613491431
 30
0.0
 40
0.3007001998472195
100
AcDbArc
 50
270.13326207080036
 51
359.86673792919737
  0
LINE
  5
1B8
100
AcDbEntity
  8
0
  6
CONTINUOUS
 62
               4
100
AcDbLine
 10
7.1000000000000227
 20
-20.500000000000057
 30
0.0
 11
7.0999999999999943
 21
-18.900000000000063
 31
0.0
  0
ARC
  5
1B9
100
AcDbEntity
  8
0
  6
CONTINUOUS
 62
               4
100
AcDbCircle
 10
2.1004760263645892
 20
-21.200476026364655
 30
0.0
 40
0.2995243519038812
100
AcDbArc
 50
269.90894124989637
 51
0.0910587501040565
  0
ARC
  5
1BA
100
AcDbEntity
  8
0
  6
CONTINUOUS
 62
               4
100
AcDbCircle
 10
5.9006993865086201
 20
-21.199300613491431
 30
0.0
 40
0.3007001998472195
100
AcDbArc
 50
180.13326207080146
 51
269.86673792919845
  0
ARC
  5
1BB
100
AcDbEntity
  8
0
  6
CONTINUOUS
 62
               4
100
AcDbCircle
 10
4.0
 20
-18.900000000000063
 30
0.0
 40
2.1000000111152071
100
AcDbArc
 50
0.0000000000000509
 51
179.99999999999966
  0
LINE
  5
1BC
100
AcDbEntity
  8
0
  6
CONTINUOUS
 62
               4
100
AcDbLine
 10
6.0999999999999943
 20
-20.500000000000057
 30
0.0
 11
5.5999999999999943
 21
-21.000000000000057
 31
0.0
  0
LINE
  5
1BD
100
AcDbEntity
  8
0
  6
CONTINUOUS
 62
               4
100
AcDbLine
 10
2.4000000000000057
 20
-21.000000000000057
 30
0.0
 11
1.9000000000000057
 21
-20.500000000000057
 31
0.0
  0
LINE
  5
1BE
100
AcDbEntity
  8
0
  6
CONTINUOUS
 62
               4
100
AcDbLine
 10
1.9000000000000057
 20
-20.500000000000057
 30
0.0
 11
1.9000000000000057
 21
-18.900000000000063
 31
0.0
  0
LINE
  5
1BF
100
AcDbEntity
  8
0
  6
CONTINUOUS
 62
               4
100
AcDbLine
 10
6.0999999999999943
 20
-20.500000000000057
 30
0.0
 11
6.0999999999999943
 21
-18.900000000000063
 31
0.0
  0
LINE
  5
1C0
100
AcDbEntity
  8
0
  6
CONTINUOUS
 62
               4
100
AcDbLine
 10
7.3000000000000114
 20
-21.500000000000057
 30
0.0
 11
5.9006993865086201
 21
-21.500000000000057
 31
0.0
  0
LINE
  5
1C1
100
AcDbEntity
  8
0
  6
CONTINUOUS
 62
               4
100
AcDbLine
 10
5.5999999999999943
 20
-21.20000000000006
 30
0.0
 11
5.5999999999999943
 21
-21.000000000000057
 31
0.0
  0
LINE
  5
1C2
100
AcDbEntity
  8
0
  6
CONTINUOUS
 62
               4
100
AcDbLine
 10
2.4000000000000057
 20
-21.20000000000006
 30
0.0
 11
2.4000000000000057
 21
-21.000000000000057
 31
0.0
  0
LINE
  5
1C3
100
AcDbEntity
  8
0
  6
CONTINUOUS
 62
               4
100
AcDbLine
 10
2.1000000000000227
 20
-21.500000000000057
 30
0.0
 11
0.9000000000000057
 21
-21.500000000000071
 31
0.0
  0
LINE
  5
1C4
100
AcDbEntity
  8
0
  6
CONTINUOUS
 62
               4
100
AcDbLine
 10
10.300000000000011
 20
-15.5
 30
0.0
 11
6.6999999999999886
 21
-15.5
 31
0.0
  0
LINE
  5
1C5
100
AcDbEntity
  8
0
  6
CONTINUOUS
 62
               4
100
AcDbLine
 10
12.900000000000006
 20
-14.700000000000003
 30
0.0
 11
9.0999999999999943
 21
-14.700000000000003
 31
0.0
  0
LINE
  5
1C6
100
AcDbEntity
  8
0
  6
CONTINUOUS
 62
               4
100
AcDbLine
 10
12.599999999999994
 20
-15.0
 30
0.0
 11
12.900000000000006
 21
-14.700000000000003
 31
0.0
  0
LINE
  5
1C7
100
AcDbEntity
  8
0
  6
CONTINUOUS
 62
               4
100
AcDbLine
 10
9.4000000000000057
 20
-15.0
 30
0.0
 11
9.0999999999999943
 21
-14.700000000000003
 31
0.0
  0
LINE
  5
1C8
100
AcDbEntity
  8
0
  6
CONTINUOUS
 62
               4
100
AcDbLine
 10
12.900000000000006
 20
-14.700000000000003
 30
0.0
 11
12.900000000000006
 21
-13.0
 31
0.0
  0
LINE
  5
1C9
100
AcDbEntity
  8
0
  6
CONTINUOUS
 62
               4
100
AcDbLine
 10
9.0999999999999943
 20
-14.700000000000003
 30
0.0
 11
9.0999999999999943
 21
-13.0
 31
0.0
  0
LINE
  5
1CA
100
AcDbEntity
  8
0
  6
CONTINUOUS
 62
               4
100
AcDbLine
 10
12.599999999999994
 20
-15.0
 30
0.0
 11
9.4000000000000057
 21
-15.0
 31
0.0
  0
LINE
  5
1CB
100
AcDbEntity
  8
0
  6
CONTINUOUS
 62
               4
100
AcDbLine
 10
12.900000000000006
 20
-13.0
 30
0.0
 11
6.6999999999999886
 21
-13.0
 31
0.0
  0
ENDBLK
  5
1CC
100
AcDbEntity
  8
0
100
AcDbBlockEnd
  0
BLOCK
  5
1CD
100
AcDbEntity
  8
0
100
AcDbBlockBegin
  2
CS-MGA8-5
 70
               0
 10
0.0
 20
0.0
 30
0.0
  3
CS-MGA8-5
  1

  0
LINE
  5
1CE
100
AcDbEntity
  8
0
  6
CENTER
 62
               2
100
AcDbLine
 10
1.9560299056583688
 20
0.0
 30
0.0
 11
-16.119979084208666
 21
0.0
 31
0.0
  0
LINE
  5
1CF
100
AcDbEntity
  8
0
  6
CONTINUOUS
 62
               7
100
AcDbLine
 10
-9.0
 20
-12.0
 30
0.0
 11
-9.0
 21
-5.4000000000000057
 31
0.0
  0
ARC
  5
1D0
100
AcDbEntity
  8
0
  6
CONTINUOUS
 62
               7
100
AcDbCircle
 10
-10.0
 20
-5.1999999999999886
 30
0.0
 40
0.5
100
AcDbArc
 50
11.536959032814144
 51
168.46304096718549
  0
ARC
  5
1D1
100
AcDbEntity
  8
0
  6
CONTINUOUS
 62
               7
100
AcDbCircle
 10
-9.9299999999999784
 20
-5.2700000000000102
 30
0.0
 40
0.6000000000000001
100
AcDbArc
 50
110.48731511472248
 51
153.25631604959631
  0
ARC
  5
1D2
100
AcDbEntity
  8
0
  6
CONTINUOUS
 62
               7
100
AcDbCircle
 10
-10.069999999999993
 20
-5.2700000000000102
 30
0.0
 40
0.6000000000000001
100
AcDbArc
 50
26.743683950403316
 51
69.512684885277096
  0
ARC
  5
1D3
100
AcDbEntity
  8
0
  6
CONTINUOUS
 62
               7
100
AcDbCircle
 10
-10.0
 20
-5.0826500600480529
 30
0.0
 40
0.4
100
AcDbArc
 50
69.512684885277096
 51
110.48731511472251
  0
LINE
  5
1D4
100
AcDbEntity
  8
0
  6
CONTINUOUS
 62
               7
100
AcDbLine
 10
-9.5341828670152324
 20
-5.0
 30
0.0
 11
-8.5
 21
-5.0
 31
0.0
  0
LINE
  5
1D5
100
AcDbEntity
  8
0
  6
CONTINUOUS
 62
               7
100
AcDbLine
 10
-10.799999999999983
 20
-5.0
 30
0.0
 11
-10.465817132984739
 21
-5.0
 31
0.0
  0
LINE
  5
1D6
100
AcDbEntity
  8
0
  6
CONTINUOUS
 62
               7
100
AcDbLine
 10
-0.3000000000000114
 20
3.4000000000000057
 30
0.0
 11
-0.3000000000000114
 21
-3.4000000000000057
 31
0.0
  0
LINE
  5
1D7
100
AcDbEntity
  8
0
  6
CONTINUOUS
 62
               7
100
AcDbLine
 10
-0.3000000000000114
 20
-3.4000000000000057
 30
0.0
 11
0.0
 21
-3.7000000000000171
 31
0.0
  0
LINE
  5
1D8
100
AcDbEntity
  8
0
  6
CONTINUOUS
 62
               7
100
AcDbLine
 10
-0.3000000000000114
 20
3.4000000000000057
 30
0.0
 11
0.0
 21
3.7000000000000171
 31
0.0
  0
CIRCLE
  5
1D9
100
AcDbEntity
  8
0
  6
CONTINUOUS
 62
               7
100
AcDbCircle
 10
-5.5
 20
0.0
 30
0.0
 40
3.4000000000000057
  0
CIRCLE
  5
1DA
100
AcDbEntity
  8
0
  6
CONTINUOUS
 62
               7
100
AcDbCircle
 10
-5.5
 20
0.0
 30
0.0
 40
4.1499999999999915
  0
CIRCLE
  5
1DB
100
AcDbEntity
  8
0
  6
CONTINUOUS
 62
               7
100
AcDbCircle
 10
-5.5
 20
0.0
 30
0.0
 40
4.3500000000000085
  0
LINE
  5
1DC
100
AcDbEntity
  8
0
  6
CONTINUOUS
 62
               7
100
AcDbLine
 10
-10.799999999999983
 20
-5.0
 30
0.0
 11
-10.800000000000011
 21
5.0
 31
0.0
  0
LINE
  5
1DD
100
AcDbEntity
  8
0
  6
CONTINUOUS
 62
               7
100
AcDbLine
 10
-9.5341828670152324
 20
5.0
 30
0.0
 11
-8.5
 21
5.0
 31
0.0
  0
ARC
  5
1DE
100
AcDbEntity
  8
0
  6
CONTINUOUS
 62
               7
100
AcDbCircle
 10
-10.0
 20
5.0826500600480529
 30
0.0
 40
0.4
100
AcDbArc
 50
249.51268488527668
 51
290.48731511472209
  0
ARC
  5
1DF
100
AcDbEntity
  8
0
  6
CONTINUOUS
 62
               7
100
AcDbCircle
 10
-10.070000000000022
 20
5.2700000000000102
 30
0.0
 40
0.6000000000000001
100
AcDbArc
 50
290.48731511472209
 51
333.25631604959585
  0
ARC
  5
1E0
100
AcDbEntity
  8
0
  6
CONTINUOUS
 62
               7
100
AcDbCircle
 10
-9.9299999999999784
 20
5.2700000000000102
 30
0.0
 40
0.6000000000000001
100
AcDbArc
 50
206.74368395040295
 51
249.51268488527668
  0
LINE
  5
1E1
100
AcDbEntity
  8
0
  6
CONTINUOUS
 62
               7
100
AcDbLine
 10
-10.800000000000011
 20
5.0
 30
0.0
 11
-10.465817132984768
 21
5.0
 31
0.0
  0
ARC
  5
1E2
100
AcDbEntity
  8
0
  6
CONTINUOUS
 62
               7
100
AcDbCircle
 10
-10.0
 20
5.1999999999999886
 30
0.0
 40
0.5
100
AcDbArc
 50
191.53695903281368
 51
348.46304096718507
  0
LINE
  5
1E3
100
AcDbEntity
  8
0
  6
CONTINUOUS
 62
               7
100
AcDbLine
 10
0.0
 20
11.5
 30
0.0
 11
0.0
 21
3.7000000000000171
 31
0.0
  0
LINE
  5
1E4
100
AcDbEntity
  8
0
  6
CONTINUOUS
 62
               7
100
AcDbLine
 10
0.0
 20
-3.7000000000000171
 30
0.0
 11
0.0
 21
-11.5
 31
0.0
  0
LINE
  5
1E5
100
AcDbEntity
  8
0
  6
CONTINUOUS
 62
               7
100
AcDbLine
 10
-8.5
 20
-11.5
 30
0.0
 11
-8.5
 21
-5.0
 31
0.0
  0
CIRCLE
  5
1E6
100
AcDbEntity
  8
0
  6
CONTINUOUS
 62
               7
100
AcDbCircle
 10
-11.0
 20
-7.5
 30
0.0
 40
1.0
  0
LINE
  5
1E7
100
AcDbEntity
  8
0
  6
CONTINUOUS
 62
               7
100
AcDbLine
 10
-10.434314575050735
 20
-8.0656854249492369
 30
0.0
 11
-11.565685424949237
 21
-6.9343145750507631
 31
0.0
  0
LINE
  5
1E8
100
AcDbEntity
  8
0
  6
CONTINUOUS
 62
               7
100
AcDbLine
 10
-10.434314575050735
 20
-6.9343145750507631
 30
0.0
 11
-11.565685424949237
 21
-8.0656854249492369
 31
0.0
  0
CIRCLE
  5
1E9
100
AcDbEntity
  8
0
  6
CONTINUOUS
 62
               7
100
AcDbCircle
 10
-11.0
 20
7.5
 30
0.0
 40
1.0
  0
LINE
  5
1EA
100
AcDbEntity
  8
0
  6
CONTINUOUS
 62
               7
100
AcDbLine
 10
-8.5
 20
5.0
 30
0.0
 11
-8.5
 21
11.5
 31
0.0
  0
LINE
  5
1EB
100
AcDbEntity
  8
0
  6
CONTINUOUS
 62
               7
100
AcDbLine
 10
-9.0
 20
12.0
 30
0.0
 11
-9.0
 21
5.4000000000000057
 31
0.0
  0
LINE
  5
1EC
100
AcDbEntity
  8
0
  6
CONTINUOUS
 62
               7
100
AcDbLine
 10
-10.434314575050763
 20
6.9343145750507631
 30
0.0
 11
-11.565685424949265
 21
8.0656854249492369
 31
0.0
  0
LINE
  5
1ED
100
AcDbEntity
  8
0
  6
CONTINUOUS
 62
               7
100
AcDbLine
 10
-10.434314575050763
 20
8.0656854249492369
 30
0.0
 11
-11.565685424949265
 21
6.9343145750507631
 31
0.0
  0
LINE
  5
1EE
100
AcDbEntity
  8
0
  6
CONTINUOUS
 62
               7
100
AcDbLine
 10
-14.0
 20
-11.5
 30
0.0
 11
-13.5
 21
-12.0
 31
0.0
  0
LINE
  5
1EF
100
AcDbEntity
  8
0
  6
CONTINUOUS
 62
               7
100
AcDbLine
 10
-14.0
 20
11.5
 30
0.0
 11
-13.5
 21
12.0
 31
0.0
  0
LINE
  5
1F0
100
AcDbEntity
  8
0
  6
CONTINUOUS
 62
               7
100
AcDbLine
 10
-1.5
 20
-12.0
 30
0.0
 11
-13.5
 21
-12.0
 31
0.0
  0
LINE
  5
1F1
100
AcDbEntity
  8
0
  6
CONTINUOUS
 62
               7
100
AcDbLine
 10
-1.5
 20
12.0
 30
0.0
 11
-13.5
 21
12.0
 31
0.0
  0
LINE
  5
1F2
100
AcDbEntity
  8
0
  6
CONTINUOUS
 62
               7
100
AcDbLine
 10
0.0000000136905953
 20
11.5
 30
0.0
 11
-8.5
 21
11.5
 31
0.0
  0
LINE
  5
1F3
100
AcDbEntity
  8
0
  6
CONTINUOUS
 62
               7
100
AcDbLine
 10
0.0000000136905953
 20
-11.5
 30
0.0
 11
-8.5
 21
-11.5
 31
0.0
  0
LINE
  5
1F4
100
AcDbEntity
  8
0
  6
CONTINUOUS
 62
               7
100
AcDbLine
 10
-14.0
 20
-11.5
 30
0.0
 11
-14.0
 21
11.5
 31
0.0
  0
LINE
  5
1F5
100
AcDbEntity
  8
0
  6
CENTER
 62
               2
100
AcDbLine
 10
-5.5
 20
-5.3500000000000085
 30
0.0
 11
-5.5
 21
5.3500000000000085
 31
0.0
  0
LINE
  5
1F6
100
AcDbEntity
  8
0
  6
CONTINUOUS
 62
               7
100
AcDbLine
 10
-13.700000000000017
 20
9.2999999999999972
 30
0.0
 11
-13.700000000000017
 21
-9.2999999999999972
 31
0.0
  0
LINE
  5
1F7
100
AcDbEntity
  8
0
  6
CONTINUOUS
 62
               7
100
AcDbLine
 10
-9.1999999999999886
 20
-9.2999999999999972
 30
0.0
 11
-13.700000000000017
 21
-9.2999999999999972
 31
0.0
  0
LINE
  5
1F8
100
AcDbEntity
  8
0
  6
CONTINUOUS
 62
               7
100
AcDbLine
 10
-9.1999999999999886
 20
9.2999999999999972
 30
0.0
 11
-13.700000000000017
 21
9.2999999999999972
 31
0.0
  0
LINE
  5
1F9
100
AcDbEntity
  8
0
  6
CONTINUOUS
 62
               7
100
AcDbLine
 10
-9.1999999999999886
 20
9.2999999999999972
 30
0.0
 11
-9.1999999999999886
 21
5.0999999999999943
 31
0.0
  0
LINE
  5
1FA
100
AcDbEntity
  8
0
  6
CONTINUOUS
 62
               7
100
AcDbLine
 10
-9.1999999999999886
 20
5.0999999999999943
 30
0.0
 11
-11.199999999999989
 21
5.0999999999999943
 31
0.0
  0
LINE
  5
1FB
100
AcDbEntity
  8
0
  6
CONTINUOUS
 62
               7
100
AcDbLine
 10
-9.1999999999999886
 20
-9.2999999999999972
 30
0.0
 11
-9.1999999999999886
 21
-5.0999999999999943
 31
0.0
  0
LINE
  5
1FC
100
AcDbEntity
  8
0
  6
CONTINUOUS
 62
               7
100
AcDbLine
 10
-9.1999999999999886
 20
-5.0999999999999943
 30
0.0
 11
-11.199999999999989
 21
-5.0999999999999943
 31
0.0
  0
LINE
  5
1FD
100
AcDbEntity
  8
0
  6
CONTINUOUS
 62
               7
100
AcDbLine
 10
-11.199999999999989
 20
-5.0999999999999943
 30
0.0
 11
-11.199999999999989
 21
5.0999999999999943
 31
0.0
  0
LINE
  5
1FE
100
AcDbEntity
  8
0
  6
CONTINUOUS
 62
               7
100
AcDbLine
 10
-9.1999999999999886
 20
-5.4000000000000057
 30
0.0
 11
-9.0
 21
-5.4000000000000057
 31
0.0
  0
LINE
  5
1FF
100
AcDbEntity
  8
0
  6
CONTINUOUS
 62
               7
100
AcDbLine
 10
-9.1999999999999886
 20
5.4000000000000057
 30
0.0
 11
-9.0
 21
5.4000000000000057
 31
0.0
  0
CIRCLE
  5
200
100
AcDbEntity
  8
0
  6
CONTINUOUS
 62
               2
100
AcDbCircle
 10
-4.0
 20
7.0
 30
0.0
 40
1.5
  0
CIRCLE
  5
201
100
AcDbEntity
  8
0
  6
CONTINUOUS
 62
               7
100
AcDbCircle
 10
-4.0
 20
7.0
 30
0.0
 40
1.2
  0
LINE
  5
202
100
AcDbEntity
  8
0
  6
CENTER
 62
               2
100
AcDbLine
 10
-4.0
 20
9.5
 30
0.0
 11
-4.0
 21
4.5
 31
0.0
  0
LINE
  5
203
100
AcDbEntity
  8
0
  6
CENTER
 62
               2
100
AcDbLine
 10
-6.5
 20
7.0
 30
0.0
 11
-1.5000000000000284
 21
7.0
 31
0.0
  0
CIRCLE
  5
204
100
AcDbEntity
  8
0
  6
CONTINUOUS
 62
               2
100
AcDbCircle
 10
-4.0
 20
-7.0
 30
0.0
 40
1.5
  0
CIRCLE
  5
205
100
AcDbEntity
  8
0
  6
CONTINUOUS
 62
               7
100
AcDbCircle
 10
-4.0
 20
-7.0
 30
0.0
 40
1.2
  0
LINE
  5
206
100
AcDbEntity
  8
0
  6
CENTER
 62
               2
100
AcDbLine
 10
-4.0
 20
-9.5
 30
0.0
 11
-4.0
 21
-4.5
 31
0.0
  0
LINE
  5
207
100
AcDbEntity
  8
0
  6
CENTER
 62
               2
100
AcDbLine
 10
-6.5
 20
-7.0
 30
0.0
 11
-1.5000000000000284
 21
-7.0
 31
0.0
  0
LINE
  5
208
100
AcDbEntity
  8
0
  6
CONTINUOUS
 62
               7
100
AcDbLine
 10
-1.5
 20
-12.0
 30
0.0
 11
-1.5
 21
-11.5
 31
0.0
  0
LINE
  5
209
100
AcDbEntity
  8
0
  6
CONTINUOUS
 62
               7
100
AcDbLine
 10
-1.5
 20
11.5
 30
0.0
 11
-1.5
 21
12.0
 31
0.0
  0
LINE
  5
20A
100
AcDbEntity
  8
0
  6
CENTER
 62
             200
100
AcDbLine
 10
-10.999999986309405
 20
-15.530849323642016
 30
0.0
 11
-10.999999986309405
 21
-11.103810020426266
 31
0.0
  0
LINE
  5
20B
100
AcDbEntity
  8
0
  6
CONTINUOUS
 62
               4
100
AcDbLine
 10
-12.799999986309416
 20
-13.0
 30
0.0
 11
-12.799999986309416
 21
-12.0
 31
0.0
  0
LINE
  5
20C
100
AcDbEntity
  8
0
  6
CONTINUOUS
 62
               4
100
AcDbLine
 10
-9.1999999863093933
 20
-12.0
 30
0.0
 11
-9.1999999863093933
 21
-13.0
 31
0.0
  0
LINE
  5
20D
100
AcDbEntity
  8
0
  6
CENTER
 62
             200
100
AcDbLine
 10
-9.1999999863093933
 20
-22.421064405906037
 30
0.0
 11
-9.1999999863093933
 21
-15.763361521378542
 31
0.0
  0
LINE
  5
20E
100
AcDbEntity
  8
0
  6
CONTINUOUS
 62
               4
100
AcDbLine
 10
-6.6999999863093933
 20
-15.5
 30
0.0
 11
-6.6999999863093933
 21
-12.0
 31
0.0
  0
LINE
  5
20F
100
AcDbEntity
  8
0
  6
CENTER
 62
             200
100
AcDbLine
 10
-3.9999999863094047
 20
-22.421064405906037
 30
0.0
 11
-3.9999999863094047
 21
-15.763361521378542
 31
0.0
  0
LINE
  5
210
100
AcDbEntity
  8
0
  6
CONTINUOUS
 62
               4
100
AcDbLine
 10
-0.8999999863094104
 20
-21.500000000000071
 30
0.0
 11
-0.8999999863094104
 21
-11.5
 31
0.0
  0
LINE
  5
211
100
AcDbEntity
  8
0
  6
CONTINUOUS
 62
               4
100
AcDbLine
 10
-12.89999998630941
 20
-13.0
 30
0.0
 11
-6.6999999863093933
 21
-13.0
 31
0.0
  0
LINE
  5
212
100
AcDbEntity
  8
0
  6
CONTINUOUS
 62
               4
100
AcDbLine
 10
-12.599999986309399
 20
-15.0
 30
0.0
 11
-9.3999999863094104
 21
-15.0
 31
0.0
  0
LINE
  5
213
100
AcDbEntity
  8
0
  6
CONTINUOUS
 62
               4
100
AcDbLine
 10
-9.099999986309399
 20
-14.700000000000003
 30
0.0
 11
-9.099999986309399
 21
-13.0
 31
0.0
  0
LINE
  5
214
100
AcDbEntity
  8
0
  6
CONTINUOUS
 62
               4
100
AcDbLine
 10
-12.89999998630941
 20
-14.700000000000003
 30
0.0
 11
-12.89999998630941
 21
-13.0
 31
0.0
  0
LINE
  5
215
100
AcDbEntity
  8
0
  6
CONTINUOUS
 62
               4
100
AcDbLine
 10
-9.3999999863094104
 20
-15.0
 30
0.0
 11
-9.099999986309399
 21
-14.700000000000003
 31
0.0
  0
LINE
  5
216
100
AcDbEntity
  8
0
  6
CONTINUOUS
 62
               4
100
AcDbLine
 10
-12.599999986309399
 20
-15.0
 30
0.0
 11
-12.89999998630941
 21
-14.700000000000003
 31
0.0
  0
LINE
  5
217
100
AcDbEntity
  8
0
  6
CONTINUOUS
 62
               4
100
AcDbLine
 10
-12.89999998630941
 20
-14.700000000000003
 30
0.0
 11
-9.099999986309399
 21
-14.700000000000003
 31
0.0
  0
LINE
  5
218
100
AcDbEntity
  8
0
  6
CONTINUOUS
 62
               4
100
AcDbLine
 10
-10.299999986309416
 20
-15.5
 30
0.0
 11
-6.6999999863093933
 21
-15.5
 31
0.0
  0
LINE
  5
219
100
AcDbEntity
  8
0
  6
CONTINUOUS
 62
               4
100
AcDbLine
 10
-2.0999999863094274
 20
-21.500000000000057
 30
0.0
 11
-0.8999999863094104
 21
-21.500000000000071
 31
0.0
  0
LINE
  5
21A
100
AcDbEntity
  8
0
  6
CONTINUOUS
 62
               4
100
AcDbLine
 10
-2.3999999863094104
 20
-21.20000000000006
 30
0.0
 11
-2.3999999863094104
 21
-21.000000000000057
 31
0.0
  0
LINE
  5
21B
100
AcDbEntity
  8
0
  6
CONTINUOUS
 62
               4
100
AcDbLine
 10
-5.599999986309399
 20
-21.20000000000006
 30
0.0
 11
-5.599999986309399
 21
-21.000000000000057
 31
0.0
  0
LINE
  5
21C
100
AcDbEntity
  8
0
  6
CONTINUOUS
 62
               4
100
AcDbLine
 10
-7.299999986309416
 20
-21.500000000000057
 30
0.0
 11
-5.9006993728180248
 21
-21.500000000000057
 31
0.0
  0
LINE
  5
21D
100
AcDbEntity
  8
0
  6
CONTINUOUS
 62
               4
100
AcDbLine
 10
-6.099999986309399
 20
-20.500000000000057
 30
0.0
 11
-6.099999986309399
 21
-18.900000000000063
 31
0.0
  0
LINE
  5
21E
100
AcDbEntity
  8
0
  6
CONTINUOUS
 62
               4
100
AcDbLine
 10
-1.8999999863094104
 20
-20.500000000000057
 30
0.0
 11
-1.8999999863094104
 21
-18.900000000000063
 31
0.0
  0
LINE
  5
21F
100
AcDbEntity
  8
0
  6
CONTINUOUS
 62
               4
100
AcDbLine
 10
-2.3999999863094104
 20
-21.000000000000057
 30
0.0
 11
-1.8999999863094104
 21
-20.500000000000057
 31
0.0
  0
LINE
  5
220
100
AcDbEntity
  8
0
  6
CONTINUOUS
 62
               4
100
AcDbLine
 10
-6.099999986309399
 20
-20.500000000000057
 30
0.0
 11
-5.599999986309399
 21
-21.000000000000057
 31
0.0
  0
ARC
  5
221
100
AcDbEntity
  8
0
  6
CONTINUOUS
 62
               4
100
AcDbCircle
 10
-3.9999999863094047
 20
-18.900000000000063
 30
0.0
 40
2.1000000111152071
100
AcDbArc
 50
359.99999999999994
 51
179.9999999999996
  0
ARC
  5
222
100
AcDbEntity
  8
0
  6
CONTINUOUS
 62
               4
100
AcDbCircle
 10
-5.9006993728180248
 20
-21.199300613491431
 30
0.0
 40
0.3007001998472195
100
AcDbArc
 50
270.13326207080036
 51
359.86673792919731
  0
ARC
  5
223
100
AcDbEntity
  8
0
  6
CONTINUOUS
 62
               4
100
AcDbCircle
 10
-2.1004760126739939
 20
-21.200476026364655
 30
0.0
 40
0.2995243519038812
100
AcDbArc
 50
179.90894124989555
 51
270.09105875010243
  0
LINE
  5
224
100
AcDbEntity
  8
0
  6
CONTINUOUS
 62
               4
100
AcDbLine
 10
-7.0999999863094274
 20
-20.500000000000057
 30
0.0
 11
-7.099999986309399
 21
-18.900000000000063
 31
0.0
  0
ARC
  5
225
100
AcDbEntity
  8
0
  6
CONTINUOUS
 62
               4
100
AcDbCircle
 10
-7.2993005998007732
 20
-21.199300613491431
 30
0.0
 40
0.3007001998472195
100
AcDbArc
 50
180.13326207080141
 51
269.86673792919845
  0
LINE
  5
226
100
AcDbEntity
  8
0
  6
CONTINUOUS
 62
               4
100
AcDbLine
 10
-7.0999999863094274
 20
-20.500000000000057
 30
0.0
 11
-7.5999999863094274
 21
-21.000000000000057
 31
0.0
  0
LINE
  5
227
100
AcDbEntity
  8
0
  6
CONTINUOUS
 62
               4
100
AcDbLine
 10
-7.5999999863094274
 20
-21.20000000000006
 30
0.0
 11
-7.5999999863094274
 21
-21.000000000000057
 31
0.0
  0
ARC
  5
228
100
AcDbEntity
  8
0
  6
CONTINUOUS
 62
               4
100
AcDbCircle
 10
-9.1999999863094217
 20
-18.900000000000063
 30
0.0
 40
2.1000000111152071
100
AcDbArc
 50
0.0
 51
179.99999999999963
  0
LINE
  5
229
100
AcDbEntity
  8
0
  6
CONTINUOUS
 62
               4
100
AcDbLine
 10
-11.099999986309399
 20
-21.500000000000057
 30
0.0
 11
-12.299999986309416
 21
-21.500000000000057
 31
0.0
  0
LINE
  5
22A
100
AcDbEntity
  8
0
  6
CONTINUOUS
 62
               4
100
AcDbLine
 10
-11.299999986309416
 20
-20.500000000000057
 30
0.0
 11
-11.299999986309416
 21
-18.900000000000063
 31
0.0
  0
ARC
  5
22B
100
AcDbEntity
  8
0
  6
CONTINUOUS
 62
               4
100
AcDbCircle
 10
-11.099523959944833
 20
-21.20047602636464
 30
0.0
 40
0.2995243519038812
100
AcDbArc
 50
269.90894124989632
 51
0.0910587501040056
  0
LINE
  5
22C
100
AcDbEntity
  8
0
  6
CONTINUOUS
 62
               4
100
AcDbLine
 10
-10.799999986309416
 20
-21.000000000000057
 30
0.0
 11
-11.299999986309416
 21
-20.500000000000057
 31
0.0
  0
LINE
  5
22D
100
AcDbEntity
  8
0
  6
CONTINUOUS
 62
               4
100
AcDbLine
 10
-10.799999986309416
 20
-21.200000000000045
 30
0.0
 11
-10.799999986309416
 21
-21.000000000000057
 31
0.0
  0
LINE
  5
22E
100
AcDbEntity
  8
0
  6
CONTINUOUS
 62
               4
100
AcDbLine
 10
-12.299999986309416
 20
-21.500000000000057
 30
0.0
 11
-12.299999986309416
 21
-17.5
 31
0.0
  0
ARC
  5
22F
100
AcDbEntity
  8
0
  6
CONTINUOUS
 62
               4
100
AcDbCircle
 10
-10.299999986309416
 20
-17.5
 30
0.0
 40
2.0
100
AcDbArc
 50
89.999999999999744
 51
179.99999999999955
  0
LINE
  5
230
100
AcDbEntity
  8
0
  6
CONTINUOUS
 62
               4
100
AcDbLine
 10
-9.099999986309399
 20
-14.700000000000003
 30
0.0
 11
-6.6999999863093933
 21
-14.700000000000003
 31
0.0
  0
ENDBLK
  5
231
100
AcDbEntity
  8
0
100
AcDbBlockEnd
  0
BLOCK
  5
232
100
AcDbEntity
  8
0
100
AcDbBlockBegin
  2
CS-MGA8-6
 70
               0
 10
0.0
 20
0.0
 30
0.0
  3
CS-MGA8-6
  1

  0
LINE
  5
233
100
AcDbEntity
  8
0
  6
PHANTOM
 62
               3
100
AcDbLine
 10
26.50000000253732
 20
24.051155957217247
 30
0.0
 11
26.50000000253732
 21
9.6589836637775761
 31
0.0
  0
LINE
  5
234
100
AcDbEntity
  8
0
  6
PHANTOM
 62
               3
100
AcDbLine
 10
28.75
 20
9.6589836637775761
 30
0.0
 11
28.75
 21
-7.1888256941589077
 31
0.0
  0
LINE
  5
235
100
AcDbEntity
  8
0
  6
CONTINUOUS
 62
               2
100
AcDbLine
 10
5.5
 20
6.6999999999999886
 30
0.0
 11
7.0
 21
4.3000000000000114
 31
0.0
  0
LINE
  5
236
100
AcDbEntity
  8
0
  6
CONTINUOUS
 62
               2
100
AcDbLine
 10
5.5
 20
4.3000000000000114
 30
0.0
 11
7.0
 21
6.6999999999999886
 31
0.0
  0
LINE
  5
237
100
AcDbEntity
  8
0
  6
CONTINUOUS
 62
               7
100
AcDbLine
 10
7.0
 20
1.8000000000000114
 30
0.0
 11
7.0
 21
9.0
 31
0.0
  0
LINE
  5
238
100
AcDbEntity
  8
0
  6
CONTINUOUS
 62
               7
100
AcDbLine
 10
7.5
 20
3.0
 30
0.0
 11
7.0
 21
3.0
 31
0.0
  0
LINE
  5
239
100
AcDbEntity
  8
0
  6
CONTINUOUS
 62
               7
100
AcDbLine
 10
7.5
 20
8.0
 30
0.0
 11
7.0
 21
8.0
 31
0.0
  0
LINE
  5
23A
100
AcDbEntity
  8
0
  6
CONTINUOUS
 62
               7
100
AcDbLine
 10
7.5
 20
3.0
 30
0.0
 11
7.5
 21
8.0
 31
0.0
  0
LINE
  5
23B
100
AcDbEntity
  8
0
  6
CONTINUOUS
 62
               7
100
AcDbLine
 10
7.0
 20
1.8000000000000114
 30
0.0
 11
5.5
 21
1.8000000000000114
 31
0.0
  0
LINE
  5
23C
100
AcDbEntity
  8
0
  6
CONTINUOUS
 62
               7
100
AcDbLine
 10
5.5
 20
6.6999999999999886
 30
0.0
 11
7.0
 21
6.6999999999999886
 31
0.0
  0
LINE
  5
23D
100
AcDbEntity
  8
0
  6
CONTINUOUS
 62
               7
100
AcDbLine
 10
5.5
 20
4.3000000000000114
 30
0.0
 11
7.0
 21
4.3000000000000114
 31
0.0
  0
LINE
  5
23E
100
AcDbEntity
  8
0
  6
CONTINUOUS
 62
               7
100
AcDbLine
 10
0.0
 20
13.300000000000011
 30
0.0
 11
9.9999999758560705
 21
13.300000000000011
 31
0.0
  0
LINE
  5
23F
100
AcDbEntity
  8
0
  6
CONTINUOUS
 62
               7
100
AcDbLine
 10
9.9999999758560705
 20
13.5
 30
0.0
 11
49.0
 21
13.5
 31
0.0
  0
LINE
  5
240
100
AcDbEntity
  8
0
  6
CONTINUOUS
 62
               7
100
AcDbLine
 10
7.5
 20
4.0
 30
0.0
 11
9.0
 21
4.0
 31
0.0
  0
LINE
  5
241
100
AcDbEntity
  8
0
  6
CONTINUOUS
 62
               7
100
AcDbLine
 10
7.5
 20
7.0
 30
0.0
 11
9.0
 21
7.0
 31
0.0
  0
LINE
  5
242
100
AcDbEntity
  8
0
  6
CONTINUOUS
 62
               7
100
AcDbLine
 10
0.0
 20
13.800000000000011
 30
0.0
 11
0.0
 21
1.5
 31
0.0
  0
LINE
  5
243
100
AcDbEntity
  8
0
  6
CONTINUOUS
 62
               7
100
AcDbLine
 10
5.5
 20
1.5
 30
0.0
 11
5.5
 21
9.0
 31
0.0
  0
LINE
  5
244
100
AcDbEntity
  8
0
  6
CONTINUOUS
 62
               7
100
AcDbLine
 10
0.0
 20
1.5
 30
0.0
 11
5.5
 21
1.5
 31
0.0
  0
LINE
  5
245
100
AcDbEntity
  8
0
  6
CONTINUOUS
 62
               7
100
AcDbLine
 10
5.5
 20
9.0
 30
0.0
 11
14.0
 21
9.0
 31
0.0
  0
LINE
  5
246
100
AcDbEntity
  8
0
  6
CONTINUOUS
 62
               7
100
AcDbLine
 10
9.9999999758560705
 20
14.0
 30
0.0
 11
9.9999999758560705
 21
9.0
 31
0.0
  0
LINE
  5
247
100
AcDbEntity
  8
0
  6
CONTINUOUS
 62
               7
100
AcDbLine
 10
9.9999999758560705
 20
14.0
 30
0.0
 11
49.0
 21
14.0
 31
0.0
  0
LINE
  5
248
100
AcDbEntity
  8
0
  6
CONTINUOUS
 62
               7
100
AcDbLine
 10
14.0
 20
0.0
 30
0.0
 11
49.0
 21
0.0
 31
0.0
  0
LINE
  5
249
100
AcDbEntity
  8
0
  6
CENTER
 62
               2
100
AcDbLine
 10
-0.9969874860368861
 20
5.5
 30
0.0
 11
15.163084581928814
 21
5.5
 31
0.0
  0
LINE
  5
24A
100
AcDbEntity
  8
0
  6
CONTINUOUS
 62
               7
100
AcDbLine
 10
14.0
 20
9.0
 30
0.0
 11
14.0
 21
0.0
 31
0.0
  0
LINE
  5
24B
100
AcDbEntity
  8
0
  6
CONTINUOUS
 62
               7
100
AcDbLine
 10
49.0
 20
14.0
 30
0.0
 11
49.0
 21
0.0
 31
0.0
  0
LINE
  5
24C
100
AcDbEntity
  8
0
  6
CONTINUOUS
 62
               7
100
AcDbLine
 10
0.0
 20
13.800000000000011
 30
0.0
 11
9.9999999758560705
 21
13.800000000000011
 31
0.0
  0
LINE
  5
24D
100
AcDbEntity
  8
0
  6
CENTER
 62
               2
100
AcDbLine
 10
48.027939082946432
 20
11.0
 30
0.0
 11
50.641499936682152
 21
11.0
 31
0.0
  0
LINE
  5
24E
100
AcDbEntity
  8
0
  6
CONTINUOUS
 62
               7
100
AcDbLine
 10
49.000000023841864
 20
9.1999999999999886
 30
0.0
 11
49.500000023841864
 21
9.1999999999999886
 31
0.0
  0
LINE
  5
24F
100
AcDbEntity
  8
0
  6
CONTINUOUS
 62
               7
100
AcDbLine
 10
49.000000023841864
 20
13.699999999999989
 30
0.0
 11
49.500000023841864
 21
13.699999999999989
 31
0.0
  0
LINE
  5
250
100
AcDbEntity
  8
0
  6
CONTINUOUS
 62
               7
100
AcDbLine
 10
49.5
 20
9.1999999999999886
 30
0.0
 11
49.5
 21
13.699999999999989
 31
0.0
  0
LINE
  5
251
100
AcDbEntity
  8
0
  6
CONTINUOUS
 62
               7
100
AcDbLine
 10
50.0
 20
11.699999999999989
 30
0.0
 11
50.0
 21
10.300000000000011
 31
0.0
  0
ARC
  5
252
100
AcDbEntity
  8
0
  6
CONTINUOUS
 62
               7
100
AcDbCircle
 10
49.700000000000017
 20
10.300000000000011
 30
0.0
 40
0.3
100
AcDbArc
 50
269.99999999999937
 51
0.0
  0
ARC
  5
253
100
AcDbEntity
  8
0
  6
CONTINUOUS
 62
               7
100
AcDbCircle
 10
49.700000000000017
 20
11.699999999999989
 30
0.0
 40
0.3
100
AcDbArc
 50
0.0
 51
89.999999999999815
  0
LINE
  5
254
100
AcDbEntity
  8
0
  6
CONTINUOUS
 62
               7
100
AcDbLine
 10
49.5
 20
12.0
 30
0.0
 11
49.700000000000017
 21
12.0
 31
0.0
  0
LINE
  5
255
100
AcDbEntity
  8
0
  6
CONTINUOUS
 62
               7
100
AcDbLine
 10
49.5
 20
10.0
 30
0.0
 11
49.700000000000017
 21
10.0
 31
0.0
  0
LINE
  5
256
100
AcDbEntity
  8
0
  6
CONTINUOUS
 62
               7
100
AcDbLine
 10
9.0
 20
8.5
 30
0.0
 11
9.0
 21
0.1999999999999886
 31
0.0
  0
LINE
  5
257
100
AcDbEntity
  8
0
  6
CENTER
 62
               2
100
AcDbLine
 10
11.5
 20
3.0
 30
0.0
 11
11.5
 21
8.0
 31
0.0
  0
CIRCLE
  5
258
100
AcDbEntity
  8
0
  6
CONTINUOUS
 62
               7
100
AcDbCircle
 10
11.5
 20
5.5
 30
0.0
 40
1.2
  0
CIRCLE
  5
259
100
AcDbEntity
  8
0
  6
CONTINUOUS
 62
               2
100
AcDbCircle
 10
11.5
 20
5.5
 30
0.0
 40
1.5
  0
LINE
  5
25A
100
AcDbEntity
  8
0
  6
CONTINUOUS
 62
               7
100
AcDbLine
 10
9.0
 20
0.1999999999999886
 30
0.0
 11
14.0
 21
0.1999999999999886
 31
0.0
  0
LINE
  5
25B
100
AcDbEntity
  8
0
  6
CONTINUOUS
 62
               7
100
AcDbLine
 10
9.0
 20
8.5
 30
0.0
 11
14.0
 21
8.5
 31
0.0
  0
ARC
  5
25C
100
AcDbEntity
  8
0
  6
CONTINUOUS
 62
               4
100
AcDbCircle
 10
44.0
 20
11.0
 30
0.0
 40
1.899999998731289
100
AcDbArc
 50
43.173551143154619
 51
136.82644885684496
  0
ARC
  5
25D
100
AcDbEntity
  8
0
  6
CONTINUOUS
 62
               4
100
AcDbCircle
 10
44.0
 20
11.0
 30
0.0
 40
1.5999999987313345
100
AcDbArc
 50
54.34091236718227
 51
125.65908763281733
  0
ARC
  5
25E
100
AcDbEntity
  8
0
  6
CONTINUOUS
 62
               4
100
AcDbCircle
 10
30.0
 20
11.0
 30
0.0
 40
1.899999998731289
100
AcDbArc
 50
43.173551143154619
 51
136.82644885684496
  0
ARC
  5
25F
100
AcDbEntity
  8
0
  6
CONTINUOUS
 62
               4
100
AcDbCircle
 10
30.0
 20
11.0
 30
0.0
 40
1.5999999987313345
100
AcDbArc
 50
54.34091236718227
 51
125.65908763281733
  0
LINE
  5
260
100
AcDbEntity
  8
0
  6
CONTINUOUS
 62
               4
100
AcDbLine
 10
28.0
 20
12.30000000000004
 30
0.0
 11
28.0
 21
12.800000000000011
 31
0.0
  0
LINE
  5
261
100
AcDbEntity
  8
0
  6
CONTINUOUS
 62
               4
100
AcDbLine
 10
46.0
 20
12.30000000000004
 30
0.0
 11
46.0
 21
12.800000000000011
 31
0.0
  0
LINE
  5
262
100
AcDbEntity
  8
0
  6
CONTINUOUS
 62
               4
100
AcDbLine
 10
28.0
 20
12.800000000000011
 30
0.0
 11
29.391723750933153
 21
12.800000000000011
 31
0.0
  0
LINE
  5
263
100
AcDbEntity
  8
0
  6
CONTINUOUS
 62
               4
100
AcDbLine
 10
49.0
 20
0.9000000000000341
 30
0.0
 11
49.0
 21
12.30000000000004
 31
0.0
  0
CIRCLE
  5
264
100
AcDbEntity
  8
0
  6
CONTINUOUS
 62
               4
100
AcDbCircle
 10
17.0
 20
4.0
 30
0.0
 40
2.0499999999999998
  0
CIRCLE
  5
265
100
AcDbEntity
  8
0
  6
CONTINUOUS
 62
               4
100
AcDbCircle
 10
46.0
 20
4.0
 30
0.0
 40
2.0499999999999998
  0
LINE
  5
266
100
AcDbEntity
  8
0
  6
CONTINUOUS
 62
               4
100
AcDbLine
 10
14.0
 20
2.4000000000000341
 30
0.0
 11
15.718399438202368
 21
2.4000000000000341
 31
0.0
  0
LINE
  5
267
100
AcDbEntity
  8
0
  6
CONTINUOUS
 62
               4
100
AcDbLine
 10
14.0
 20
5.6000000000000227
 30
0.0
 11
15.718399438202425
 21
5.6000000000000227
 31
0.0
  0
LINE
  5
268
100
AcDbEntity
  8
0
  6
CONTINUOUS
 62
               4
100
AcDbLine
 10
18.281600561797632
 20
5.6000000000000227
 30
0.0
 11
44.718399438202425
 21
5.6000000000000227
 31
0.0
  0
LINE
  5
269
100
AcDbEntity
  8
0
  6
CONTINUOUS
 62
               4
100
AcDbLine
 10
18.281600561797688
 20
2.4000000000000341
 30
0.0
 11
44.718399438202368
 21
2.4000000000000341
 31
0.0
  0
LINE
  5
26A
100
AcDbEntity
  8
0
  6
CONTINUOUS
 62
               4
100
AcDbLine
 10
47.281600561797632
 20
5.6000000000000227
 30
0.0
 11
49.0
 21
5.6000000000000227
 31
0.0
  0
LINE
  5
26B
100
AcDbEntity
  8
0
  6
CONTINUOUS
 62
               4
100
AcDbLine
 10
47.281600561797632
 20
2.4000000000000341
 30
0.0
 11
49.0
 21
2.4000000000000341
 31
0.0
  0
LINE
  5
26C
100
AcDbEntity
  8
0
  6
CONTINUOUS
 62
               4
100
AcDbLine
 10
14.0
 20
10.80000000000004
 30
0.0
 11
49.0
 21
10.80000000000004
 31
0.0
  0
LINE
  5
26D
100
AcDbEntity
  8
0
  6
CONTINUOUS
 62
               4
100
AcDbLine
 10
14.0
 20
7.6000000000000512
 30
0.0
 11
49.0
 21
7.6000000000000512
 31
0.0
  0
LINE
  5
26E
100
AcDbEntity
  8
0
  6
CONTINUOUS
 62
               4
100
AcDbLine
 10
14.0
 20
0.9000000000000341
 30
0.0
 11
14.0
 21
12.30000000000004
 31
0.0
  0
LINE
  5
26F
100
AcDbEntity
  8
0
  6
CONTINUOUS
 62
               4
100
AcDbLine
 10
14.000000004378535
 20
0.9000000000000341
 30
0.0
 11
49.000000004378535
 21
0.9000000000000341
 31
0.0
  0
LINE
  5
270
100
AcDbEntity
  8
0
  6
CONTINUOUS
 62
               4
100
AcDbLine
 10
14.000000004378535
 20
12.30000000000004
 30
0.0
 11
49.000000004378535
 21
12.30000000000004
 31
0.0
  0
CIRCLE
  5
271
100
AcDbEntity
  8
0
  6
CONTINUOUS
 62
               4
100
AcDbCircle
 10
17.0
 20
4.0
 30
0.0
 40
1.8999999999999999
  0
LINE
  5
272
100
AcDbEntity
  8
0
  6
CONTINUOUS
 62
               4
100
AcDbLine
 10
16.25
 20
3.5669872916932377
 30
0.0
 11
16.25
 21
4.4330126799340519
 31
0.0
  0
LINE
  5
273
100
AcDbEntity
  8
0
  6
CONTINUOUS
 62
               4
100
AcDbLine
 10
17.75
 20
3.5669872916932377
 30
0.0
 11
17.75
 21
4.4330126706926762
 31
0.0
  0
LINE
  5
274
100
AcDbEntity
  8
0
  6
CONTINUOUS
 62
               4
100
AcDbLine
 10
17.00000001545601
 20
3.1339745677705082
 30
0.0
 11
16.25000001545601
 21
3.5669872618909153
 31
0.0
  0
LINE
  5
275
100
AcDbEntity
  8
0
  6
CONTINUOUS
 62
               4
100
AcDbLine
 10
17.75000001545601
 20
4.4330126799340519
 30
0.0
 11
16.999999955851365
 21
4.8660254038567814
 31
0.0
  0
LINE
  5
276
100
AcDbEntity
  8
0
  6
CONTINUOUS
 62
               4
100
AcDbLine
 10
17.749999955851365
 20
3.5669872618909153
 30
0.0
 11
16.999999955851365
 21
3.1339745677705082
 31
0.0
  0
LINE
  5
277
100
AcDbEntity
  8
0
  6
CONTINUOUS
 62
               4
100
AcDbLine
 10
16.999999955851365
 20
4.866025374054459
 30
0.0
 11
16.250000000000057
 21
4.4330126976514634
 31
0.0
  0
LINE
  5
278
100
AcDbEntity
  8
0
  6
CONTINUOUS
 62
               4
100
AcDbLine
 10
45.999999955851365
 20
4.866025374054459
 30
0.0
 11
45.25
 21
4.4330126976514634
 31
0.0
  0
LINE
  5
279
100
AcDbEntity
  8
0
  6
CONTINUOUS
 62
               4
100
AcDbLine
 10
46.749999955851365
 20
3.5669872618909153
 30
0.0
 11
45.999999955851365
 21
3.1339745677705082
 31
0.0
  0
LINE
  5
27A
100
AcDbEntity
  8
0
  6
CONTINUOUS
 62
               4
100
AcDbLine
 10
46.75000001545601
 20
4.4330126799340519
 30
0.0
 11
45.999999955851365
 21
4.8660254038567814
 31
0.0
  0
LINE
  5
27B
100
AcDbEntity
  8
0
  6
CONTINUOUS
 62
               4
100
AcDbLine
 10
46.00000001545601
 20
3.1339745677705082
 30
0.0
 11
45.25000001545601
 21
3.5669872618909153
 31
0.0
  0
LINE
  5
27C
100
AcDbEntity
  8
0
  6
CONTINUOUS
 62
               4
100
AcDbLine
 10
46.75
 20
3.5669872916932377
 30
0.0
 11
46.75
 21
4.4330126706926762
 31
0.0
  0
LINE
  5
27D
100
AcDbEntity
  8
0
  6
CONTINUOUS
 62
               4
100
AcDbLine
 10
45.25
 20
3.5669872916932377
 30
0.0
 11
45.25
 21
4.4330126799340519
 31
0.0
  0
CIRCLE
  5
27E
100
AcDbEntity
  8
0
  6
CONTINUOUS
 62
               4
100
AcDbCircle
 10
46.0
 20
4.0
 30
0.0
 40
1.8999999999999999
  0
LINE
  5
27F
100
AcDbEntity
  8
0
  6
CONTINUOUS
 62
               4
100
AcDbLine
 10
44.608276249066847
 20
12.800000000000011
 30
0.0
 11
46.0
 21
12.800000000000011
 31
0.0
  0
LINE
  5
280
100
AcDbEntity
  8
0
  6
CONTINUOUS
 62
               4
100
AcDbLine
 10
30.608276249066847
 20
12.800000000000011
 30
0.0
 11
43.391723750933124
 21
12.800000000000011
 31
0.0
  0
LINE
  5
281
100
AcDbEntity
  8
0
  6
CENTER
 62
             200
100
AcDbLine
 10
46.0
 20
7.0499999999999545
 30
0.0
 11
46.0
 21
0.9499999999999602
 31
0.0
  0
LINE
  5
282
100
AcDbEntity
  8
0
  6
CENTER
 62
             200
100
AcDbLine
 10
49.050000000000068
 20
4.0
 30
0.0
 11
42.950000000000045
 21
4.0
 31
0.0
  0
LINE
  5
283
100
AcDbEntity
  8
0
  6
CENTER
 62
             200
100
AcDbLine
 10
17.0
 20
7.0499999999999545
 30
0.0
 11
17.0
 21
0.9499999999999602
 31
0.0
  0
LINE
  5
284
100
AcDbEntity
  8
0
  6
CENTER
 62
             200
100
AcDbLine
 10
13.950000000000045
 20
4.0
 30
0.0
 11
20.050000000000011
 21
4.0
 31
0.0
  0
LINE
  5
285
100
AcDbEntity
  8
0
  6
PHANTOM
 62
               3
100
AcDbLine
 10
26.50000000253732
 20
9.6589836637775761
 30
0.0
 11
28.75
 21
9.6589836637775761
 31
0.0
  0
ENDBLK
  5
286
100
AcDbEntity
  8
0
100
AcDbBlockEnd
  0
BLOCK
  5
287
100
AcDbEntity
  8
0
100
AcDbBlockBegin
  2
CS-MGA8-7
 70
               0
 10
0.0
 20
0.0
 30
0.0
  3
CS-MGA8-7
  1

  0
LINE
  5
288
100
AcDbEntity
  8
0
  6
CONTINUOUS
 62
               4
100
AcDbLine
 10
0.0
 20
0.0
 30
0.0
 11
22.0
 21
0.0
 31
0.0
  0
LINE
  5
289
100
AcDbEntity
  8
0
  6
CONTINUOUS
 62
               4
100
AcDbLine
 10
4.7000000000000002
 20
-4.5999999999999996
 30
0.0
 11
22.0
 21
-4.5999999999999996
 31
0.0
  0
LINE
  5
28A
100
AcDbEntity
  8
0
  6
CONTINUOUS
 62
               4
100
AcDbLine
 10
22.0
 20
0.0
 30
0.0
 11
22.0
 21
-4.5999999999999996
 31
0.0
  0
LINE
  5
28B
100
AcDbEntity
  8
0
  6
CONTINUOUS
 62
               4
100
AcDbLine
 10
0.0
 20
-1.8
 30
0.0
 11
0.0
 21
0.0
 31
0.0
  0
LINE
  5
28C
100
AcDbEntity
  8
0
  6
CONTINUOUS
 62
               4
100
AcDbLine
 10
4.7000000000000002
 20
-3.04
 30
0.0
 11
4.7000000000000002
 21
-4.5999999999999996
 31
0.0
  0
LINE
  5
28D
100
AcDbEntity
  8
0
  6
CONTINUOUS
 62
               4
100
AcDbLine
 10
0.0
 20
-1.8
 30
0.0
 11
4.25
 21
-1.8
 31
0.0
  0
LINE
  5
28E
100
AcDbEntity
  8
0
  6
CENTER
 62
             200
100
AcDbLine
 10
2.0
 20
0.8
 30
0.0
 11
2.0
 21
-5.4299999999999997
 31
0.0
  0
LINE
  5
28F
100
AcDbEntity
  8
0
  6
CONTINUOUS
 62
               4
100
AcDbLine
 10
4.25
 20
-1.8
 30
0.0
 11
4.25
 21
-3.04
 31
0.0
  0
LINE
  5
290
100
AcDbEntity
  8
0
  6
CONTINUOUS
 62
               4
100
AcDbLine
 10
4.0
 20
-1.8
 30
0.0
 11
4.0
 21
-2.6000000000000001
 31
0.0
  0
LINE
  5
291
100
AcDbEntity
  8
0
  6
CONTINUOUS
 62
               4
100
AcDbLine
 10
0.0
 20
-1.8
 30
0.0
 11
0.0
 21
-2.6000000000000001
 31
0.0
  0
LINE
  5
292
100
AcDbEntity
  8
0
  6
CONTINUOUS
 62
               4
100
AcDbLine
 10
0.0
 20
-2.6000000000000001
 30
0.0
 11
4.0
 21
-2.6000000000000001
 31
0.0
  0
LINE
  5
293
100
AcDbEntity
  8
0
  6
CONTINUOUS
 62
               4
100
AcDbLine
 10
4.2000000000000002
 20
-1.8
 30
0.0
 11
4.2000000000000002
 21
-3.7999999999999998
 31
0.0
  0
LINE
  5
294
100
AcDbEntity
  8
0
  6
CONTINUOUS
 62
               4
100
AcDbLine
 10
4.2000000000000002
 20
-3.7999999999999998
 30
0.0
 11
4.7000000000000002
 21
-3.7999999999999998
 31
0.0
  0
LINE
  5
295
100
AcDbEntity
  8
0
  6
CONTINUOUS
 62
               4
100
AcDbLine
 10
4.25
 20
-3.04
 30
0.0
 11
4.7000000000000002
 21
-3.04
 31
0.0
  0
LINE
  5
296
100
AcDbEntity
  8
0
  6
CONTINUOUS
 62
               4
100
AcDbLine
 10
30.5
 20
-1.0
 30
0.0
 11
30.5
 21
-3.6000000000000001
 31
0.0
  0
LINE
  5
297
100
AcDbEntity
  8
0
  6
CENTER
 62
             200
100
AcDbLine
 10
28.77
 20
-1.8500000000000001
 30
0.0
 11
40.700000000000003
 21
-1.8500000000000001
 31
0.0
  0
LINE
  5
298
100
AcDbEntity
  8
0
  6
CENTER
 62
             200
100
AcDbLine
 10
28.82
 20
-2.75
 30
0.0
 11
40.75
 21
-2.75
 31
0.0
  0
LINE
  5
299
100
AcDbEntity
  8
0
  6
CONTINUOUS
 62
               4
100
AcDbLine
 10
40.5
 20
-1.6000000000000001
 30
0.0
 11
40.5
 21
-2.1000000000000001
 31
0.0
  0
LINE
  5
29A
100
AcDbEntity
  8
0
  6
CONTINUOUS
 62
               4
100
AcDbLine
 10
40.5
 20
-2.5
 30
0.0
 11
40.5
 21
-3.0
 31
0.0
  0
LINE
  5
29B
100
AcDbEntity
  8
0
  6
CONTINUOUS
 62
               4
100
AcDbLine
 10
37.5
 20
-1.3999999999999999
 30
0.0
 11
37.5
 21
-3.2000000000000002
 31
0.0
  0
LINE
  5
29C
100
AcDbEntity
  8
0
  6
CONTINUOUS
 62
               4
100
AcDbLine
 10
30.5
 20
-3.2000000000000002
 30
0.0
 11
34.5
 21
-3.2000000000000002
 31
0.0
  0
LINE
  5
29D
100
AcDbEntity
  8
0
  6
CONTINUOUS
 62
               4
100
AcDbLine
 10
30.5
 20
-2.2999999999999998
 30
0.0
 11
33.979999999999997
 21
-2.2999999999999998
 31
0.0
  0
LINE
  5
29E
100
AcDbEntity
  8
0
  6
CONTINUOUS
 62
               4
100
AcDbLine
 10
35.479999999999997
 20
-2.2999999999999998
 30
0.0
 11
37.5
 21
-2.2999999999999998
 31
0.0
  0
LINE
  5
29F
100
AcDbEntity
  8
0
  6
CONTINUOUS
 62
               4
100
AcDbLine
 10
36.0
 20
-3.2000000000000002
 30
0.0
 11
37.5
 21
-3.2000000000000002
 31
0.0
  0
LINE
  5
2A0
100
AcDbEntity
  8
0
  6
CONTINUOUS
 62
               4
100
AcDbLine
 10
30.5
 20
-1.3999999999999999
 30
0.0
 11
33.460000000000001
 21
-1.3999999999999999
 31
0.0
  0
LINE
  5
2A1
100
AcDbEntity
  8
0
  6
CONTINUOUS
 62
               4
100
AcDbLine
 10
34.960000000000001
 20
-1.3999999999999999
 30
0.0
 11
37.5
 21
-1.3999999999999999
 31
0.0
  0
LINE
  5
2A2
100
AcDbEntity
  8
0
  6
CONTINUOUS
 62
               4
100
AcDbLine
 10
37.5
 20
-1.6000000000000001
 30
0.0
 11
40.5
 21
-1.6000000000000001
 31
0.0
  0
LINE
  5
2A3
100
AcDbEntity
  8
0
  6
CONTINUOUS
 62
               4
100
AcDbLine
 10
37.5
 20
-2.1000000000000001
 30
0.0
 11
40.5
 21
-2.1000000000000001
 31
0.0
  0
LINE
  5
2A4
100
AcDbEntity
  8
0
  6
CONTINUOUS
 62
               4
100
AcDbLine
 10
37.5
 20
-2.5
 30
0.0
 11
40.5
 21
-2.5
 31
0.0
  0
LINE
  5
2A5
100
AcDbEntity
  8
0
  6
CONTINUOUS
 62
               4
100
AcDbLine
 10
37.5
 20
-3.0
 30
0.0
 11
40.5
 21
-3.0
 31
0.0
  0
LINE
  5
2A6
100
AcDbEntity
  8
0
  6
CONTINUOUS
 62
             200
100
AcDbLine
 10
34.229999999999997
 20
-0.13
 30
0.0
 11
36.729999999999997
 21
-4.46
 31
0.0
  0
LINE
  5
2A7
100
AcDbEntity
  8
0
  6
CENTER
 62
             200
100
AcDbLine
 10
20.68
 20
-2.2999999999999998
 30
0.0
 11
30.5
 21
-2.2999999999999998
 31
0.0
  0
LINE
  5
2A8
100
AcDbEntity
  8
0
  6
CONTINUOUS
 62
             200
100
AcDbLine
 10
32.729999999999997
 20
-0.13
 30
0.0
 11
35.229999999999997
 21
-4.46
 31
0.0
  0
LINE
  5
2A9
100
AcDbEntity
  8
0
  6
CONTINUOUS
 62
             200
100
AcDbLine
 10
25.25
 20
-0.13
 30
0.0
 11
27.75
 21
-4.46
 31
0.0
  0
LINE
  5
2AA
100
AcDbEntity
  8
0
  6
CONTINUOUS
 62
             200
100
AcDbLine
 10
23.75
 20
-0.13
 30
0.0
 11
26.25
 21
-4.46
 31
0.0
  0
LINE
  5
2AB
100
AcDbEntity
  8
0
  6
CONTINUOUS
 62
               4
100
AcDbLine
 10
0.97
 20
-4.0
 30
0.0
 11
3.02
 21
-4.0
 31
0.0
  0
LINE
  5
2AC
100
AcDbEntity
  8
0
  6
CONTINUOUS
 62
               4
100
AcDbLine
 10
3.02
 20
-4.0
 30
0.0
 11
3.25
 21
-3.77
 31
0.0
  0
LINE
  5
2AD
100
AcDbEntity
  8
0
  6
CONTINUOUS
 62
               4
100
AcDbLine
 10
0.97
 20
-4.0
 30
0.0
 11
0.75
 21
-3.77
 31
0.0
  0
LINE
  5
2AE
100
AcDbEntity
  8
0
  6
CONTINUOUS
 62
               4
100
AcDbLine
 10
0.75
 20
-2.5899999999999999
 30
0.0
 11
0.75
 21
-3.77
 31
0.0
  0
LINE
  5
2AF
100
AcDbEntity
  8
0
  6
CONTINUOUS
 62
             200
100
AcDbLine
 10
0.97
 20
-2.5899999999999999
 30
0.0
 11
0.97
 21
-4.0
 31
0.0
  0
LINE
  5
2B0
100
AcDbEntity
  8
0
  6
CONTINUOUS
 62
             200
100
AcDbLine
 10
3.02
 20
-2.5899999999999999
 30
0.0
 11
3.02
 21
-4.0
 31
0.0
  0
LINE
  5
2B1
100
AcDbEntity
  8
0
  6
CONTINUOUS
 62
               4
100
AcDbLine
 10
3.25
 20
-2.5899999999999999
 30
0.0
 11
3.25
 21
-3.77
 31
0.0
  0
LINE
  5
2B2
100
AcDbEntity
  8
0
  6
CONTINUOUS
 62
               4
100
AcDbLine
 10
0.75
 20
-3.77
 30
0.0
 11
3.25
 21
-3.77
 31
0.0
  0
LINE
  5
2B3
100
AcDbEntity
  8
0
  6
CONTINUOUS
 62
               4
100
AcDbLine
 10
0.75
 20
0.5
 30
0.0
 11
0.75
 21
0.0
 31
0.0
  0
LINE
  5
2B4
100
AcDbEntity
  8
0
  6
CONTINUOUS
 62
             200
100
AcDbLine
 10
0.97
 20
0.5
 30
0.0
 11
0.97
 21
0.0
 31
0.0
  0
LINE
  5
2B5
100
AcDbEntity
  8
0
  6
CONTINUOUS
 62
             200
100
AcDbLine
 10
3.02
 20
0.5
 30
0.0
 11
3.02
 21
0.0
 31
0.0
  0
LINE
  5
2B6
100
AcDbEntity
  8
0
  6
CONTINUOUS
 62
               4
100
AcDbLine
 10
3.25
 20
0.5
 30
0.0
 11
3.25
 21
0.0
 31
0.0
  0
LINE
  5
2B7
100
AcDbEntity
  8
0
  6
CONTINUOUS
 62
               4
100
AcDbLine
 10
0.75
 20
0.5
 30
0.0
 11
3.25
 21
0.5
 31
0.0
  0
LINE
  5
2B8
100
AcDbEntity
  8
0
  6
CONTINUOUS
 62
               4
100
AcDbLine
 10
0.0
 20
-1.0
 30
0.0
 11
22.0
 21
-1.0
 31
0.0
  0
LINE
  5
2B9
100
AcDbEntity
  8
0
  6
CONTINUOUS
 62
               4
100
AcDbLine
 10
0.0
 20
-0.45
 30
0.0
 11
22.0
 21
-0.45
 31
0.0
  0
LINE
  5
2BA
100
AcDbEntity
  8
0
  6
CONTINUOUS
 62
               4
100
AcDbLine
 10
22.0
 20
-1.0
 30
0.0
 11
24.25
 21
-1.0
 31
0.0
  0
LINE
  5
2BB
100
AcDbEntity
  8
0
  6
CONTINUOUS
 62
               4
100
AcDbLine
 10
22.0
 20
-3.6000000000000001
 30
0.0
 11
25.75
 21
-3.6000000000000001
 31
0.0
  0
LINE
  5
2BC
100
AcDbEntity
  8
0
  6
CONTINUOUS
 62
               4
100
AcDbLine
 10
25.75
 20
-1.0
 30
0.0
 11
30.5
 21
-1.0
 31
0.0
  0
LINE
  5
2BD
100
AcDbEntity
  8
0
  6
CONTINUOUS
 62
               4
100
AcDbLine
 10
27.25
 20
-3.6000000000000001
 30
0.0
 11
30.5
 21
-3.6000000000000001
 31
0.0
  0
ENDBLK
  5
2BE
100
AcDbEntity
  8
0
100
AcDbBlockEnd
  0
BLOCK
  5
2BF
100
AcDbEntity
  8
0
100
AcDbBlockBegin
  2
CS-MGA8-8
 70
               0
 10
0.0
 20
0.0
 30
0.0
  3
CS-MGA8-8
  1

  0
LINE
  5
2C0
100
AcDbEntity
  8
0
  6
CENTER
 62
             200
100
AcDbLine
 10
0.0
 20
2.0499999999999998
 30
0.0
 11
0.0
 21
-6.6600000000000001
 31
0.0
  0
LINE
  5
2C1
100
AcDbEntity
  8
0
  6
CONTINUOUS
 62
               4
100
AcDbLine
 10
-2.0499999999999998
 20
-1.0
 30
0.0
 11
-2.0499999999999998
 21
-2.5499999999999998
 31
0.0
  0
LINE
  5
2C2
100
AcDbEntity
  8
0
  6
CONTINUOUS
 62
               4
100
AcDbLine
 10
-2.0499999999999998
 20
-1.0
 30
0.0
 11
-1.5
 21
-0.45
 31
0.0
  0
LINE
  5
2C3
100
AcDbEntity
  8
0
  6
CONTINUOUS
 62
               4
100
AcDbLine
 10
-1.5
 20
0.0
 30
0.0
 11
-1.5
 21
-0.45
 31
0.0
  0
LINE
  5
2C4
100
AcDbEntity
  8
0
  6
CONTINUOUS
 62
               4
100
AcDbLine
 10
-1.5
 20
0.0
 30
0.0
 11
1.5
 21
0.0
 31
0.0
  0
LINE
  5
2C5
100
AcDbEntity
  8
0
  6
CONTINUOUS
 62
               4
100
AcDbLine
 10
1.5
 20
0.0
 30
0.0
 11
1.5
 21
-0.45
 31
0.0
  0
LINE
  5
2C6
100
AcDbEntity
  8
0
  6
CONTINUOUS
 62
               4
100
AcDbLine
 10
2.0499999999999998
 20
-1.0
 30
0.0
 11
1.5
 21
-0.45
 31
0.0
  0
LINE
  5
2C7
100
AcDbEntity
  8
0
  6
CONTINUOUS
 62
               4
100
AcDbLine
 10
2.0499999999999998
 20
-1.0
 30
0.0
 11
2.0499999999999998
 21
-2.5499999999999998
 31
0.0
  0
LINE
  5
2C8
100
AcDbEntity
  8
0
  6
CONTINUOUS
 62
               4
100
AcDbLine
 10
-2.0499999999999998
 20
-1.8
 30
0.0
 11
2.0499999999999998
 21
-1.8
 31
0.0
  0
LINE
  5
2C9
100
AcDbEntity
  8
0
  6
CONTINUOUS
 62
               4
100
AcDbLine
 10
-2.0499999999999998
 20
-2.5899999999999999
 30
0.0
 11
2.0499999999999998
 21
-2.5899999999999999
 31
0.0
  0
LINE
  5
2CA
100
AcDbEntity
  8
0
  6
CONTINUOUS
 62
               4
100
AcDbLine
 10
-1.02
 20
-4.0
 30
0.0
 11
1.02
 21
-4.0
 31
0.0
  0
LINE
  5
2CB
100
AcDbEntity
  8
0
  6
CONTINUOUS
 62
               4
100
AcDbLine
 10
1.02
 20
-4.0
 30
0.0
 11
1.25
 21
-3.77
 31
0.0
  0
LINE
  5
2CC
100
AcDbEntity
  8
0
  6
CONTINUOUS
 62
               4
100
AcDbLine
 10
-1.02
 20
-4.0
 30
0.0
 11
-1.25
 21
-3.77
 31
0.0
  0
LINE
  5
2CD
100
AcDbEntity
  8
0
  6
CONTINUOUS
 62
               4
100
AcDbLine
 10
-1.25
 20
-2.5899999999999999
 30
0.0
 11
-1.25
 21
-3.77
 31
0.0
  0
LINE
  5
2CE
100
AcDbEntity
  8
0
  6
CONTINUOUS
 62
             200
100
AcDbLine
 10
-1.02
 20
-2.5899999999999999
 30
0.0
 11
-1.02
 21
-4.0
 31
0.0
  0
LINE
  5
2CF
100
AcDbEntity
  8
0
  6
CONTINUOUS
 62
             200
100
AcDbLine
 10
1.02
 20
-2.5899999999999999
 30
0.0
 11
1.02
 21
-4.0
 31
0.0
  0
LINE
  5
2D0
100
AcDbEntity
  8
0
  6
CONTINUOUS
 62
               4
100
AcDbLine
 10
1.25
 20
-2.5899999999999999
 30
0.0
 11
1.25
 21
-3.77
 31
0.0
  0
LINE
  5
2D1
100
AcDbEntity
  8
0
  6
CONTINUOUS
 62
               4
100
AcDbLine
 10
-1.25
 20
-3.77
 30
0.0
 11
1.25
 21
-3.77
 31
0.0
  0
LINE
  5
2D2
100
AcDbEntity
  8
0
  6
CONTINUOUS
 62
               4
100
AcDbLine
 10
-1.25
 20
0.5
 30
0.0
 11
-1.25
 21
0.0
 31
0.0
  0
LINE
  5
2D3
100
AcDbEntity
  8
0
  6
CONTINUOUS
 62
             200
100
AcDbLine
 10
-1.02
 20
0.5
 30
0.0
 11
-1.02
 21
0.0
 31
0.0
  0
LINE
  5
2D4
100
AcDbEntity
  8
0
  6
CONTINUOUS
 62
             200
100
AcDbLine
 10
1.02
 20
0.5
 30
0.0
 11
1.02
 21
0.0
 31
0.0
  0
LINE
  5
2D5
100
AcDbEntity
  8
0
  6
CONTINUOUS
 62
               4
100
AcDbLine
 10
1.25
 20
0.5
 30
0.0
 11
1.25
 21
0.0
 31
0.0
  0
LINE
  5
2D6
100
AcDbEntity
  8
0
  6
CONTINUOUS
 62
               4
100
AcDbLine
 10
-1.25
 20
0.5
 30
0.0
 11
1.25
 21
0.5
 31
0.0
  0
ARC
  5
2D7
100
AcDbEntity
  8
0
  6
CONTINUOUS
 62
               4
100
AcDbCircle
 10
0.0000022888196369
 20
-2.5499977111803629
 30
0.0
 40
2.0500022888209148
100
AcDbArc
 50
180.00006397051609
 51
269.99993602948291
  0
ARC
  5
2D8
100
AcDbEntity
  8
0
  6
CONTINUOUS
 62
               4
100
AcDbCircle
 10
-0.0000022888196369
 20
-2.5499977111803629
 30
0.0
 40
2.0500022888209148
100
AcDbArc
 50
270.0000639705159
 51
359.99993602948268
  0
ENDBLK
  5
2D9
100
AcDbEntity
  8
0
100
AcDbBlockEnd
  0
BLOCK
  5
2DA
100
AcDbEntity
  8
0
100
AcDbBlockBegin
  2
CS-MGA8-9
 70
               0
 10
0.0
 20
0.0
 30
0.0
  3
CS-MGA8-9
  1

  0
LINE
  5
2DB
100
AcDbEntity
  8
0
  6
CENTER
 62
             200
100
AcDbLine
 10
-2.7999999999999998
 20
0.0
 30
0.0
 11
27.399999999999999
 21
0.0
 31
0.0
  0
LINE
  5
2DC
100
AcDbEntity
  8
0
  6
CONTINUOUS
 62
               4
100
AcDbLine
 10
0.0
 20
-1.5
 30
0.0
 11
22.0
 21
-1.5
 31
0.0
  0
LINE
  5
2DD
100
AcDbEntity
  8
0
  6
CONTINUOUS
 62
               4
100
AcDbLine
 10
0.0
 20
1.5
 30
0.0
 11
22.0
 21
1.5
 31
0.0
  0
LINE
  5
2DE
100
AcDbEntity
  8
0
  6
CONTINUOUS
 62
               4
100
AcDbLine
 10
0.0
 20
-2.0499999999999998
 30
0.0
 11
22.0
 21
-2.0499999999999998
 31
0.0
  0
LINE
  5
2DF
100
AcDbEntity
  8
0
  6
CONTINUOUS
 62
               4
100
AcDbLine
 10
0.0
 20
2.0499999999999998
 30
0.0
 11
22.0
 21
2.0499999999999998
 31
0.0
  0
LINE
  5
2E0
100
AcDbEntity
  8
0
  6
CONTINUOUS
 62
               4
100
AcDbLine
 10
0.0
 20
2.0499999999999998
 30
0.0
 11
0.0
 21
-2.0499999999999998
 31
0.0
  0
LINE
  5
2E1
100
AcDbEntity
  8
0
  6
CONTINUOUS
 62
               4
100
AcDbLine
 10
22.0
 20
2.0499999999999998
 30
0.0
 11
22.0
 21
-2.0499999999999998
 31
0.0
  0
LINE
  5
2E2
100
AcDbEntity
  8
0
  6
CENTER
 62
             200
100
AcDbLine
 10
2.0
 20
2.8300000000000001
 30
0.0
 11
2.0
 21
-2.75
 31
0.0
  0
LINE
  5
2E3
100
AcDbEntity
  8
0
  6
CONTINUOUS
 62
               4
100
AcDbLine
 10
0.95
 20
-0.71
 30
0.0
 11
2.6800000000000002
 21
1.02
 31
0.0
  0
LINE
  5
2E4
100
AcDbEntity
  8
0
  6
CONTINUOUS
 62
               4
100
AcDbLine
 10
1.3
 20
-1.0600000000000001
 30
0.0
 11
2.9399999999999999
 21
0.5600000000000001
 31
0.0
  0
LINE
  5
2E5
100
AcDbEntity
  8
0
  6
CONTINUOUS
 62
             200
100
AcDbLine
 10
23.079999999999998
 20
2.1600000000000001
 30
0.0
 11
25.579999999999998
 21
-2.1600000000000001
 31
0.0
  0
LINE
  5
2E6
100
AcDbEntity
  8
0
  6
CONTINUOUS
 62
               4
100
AcDbLine
 10
22.0
 20
1.3
 30
0.0
 11
23.579999999999998
 21
1.3
 31
0.0
  0
LINE
  5
2E7
100
AcDbEntity
  8
0
  6
CONTINUOUS
 62
               4
100
AcDbLine
 10
22.0
 20
-1.3
 30
0.0
 11
25.09
 21
-1.3
 31
0.0
  0
CIRCLE
  5
2E8
100
AcDbEntity
  8
0
  6
CONTINUOUS
 62
               4
100
AcDbCircle
 10
2.0000152587890625
 20
0.0
 30
0.0
 40
1.25
  0
CIRCLE
  5
2E9
100
AcDbEntity
  8
0
  6
CONTINUOUS
 62
               4
100
AcDbCircle
 10
2.0000152587890625
 20
0.0
 30
0.0
 40
1.3999996185302734
  0
ENDBLK
  5
2EA
100
AcDbEntity
  8
0
100
AcDbBlockEnd
  0
BLOCK
  5
2EB
100
AcDbEntity
  8
0
100
AcDbBlockBegin
  2
CS-MGA8-10
 70
               0
 10
0.0
 20
0.0
 30
0.0
  3
CS-MGA8-10
  1

  0
LINE
  5
2EC
100
AcDbEntity
  8
0
  6
CONTINUOUS
 62
               4
100
AcDbLine
 10
0.0
 20
0.0
 30
0.0
 11
16.100000000000001
 21
0.0
 31
0.0
  0
LINE
  5
2ED
100
AcDbEntity
  8
0
  6
CONTINUOUS
 62
               4
100
AcDbLine
 10
4.7000000000000002
 20
-4.5999999999999996
 30
0.0
 11
22.0
 21
-4.5999999999999996
 31
0.0
  0
LINE
  5
2EE
100
AcDbEntity
  8
0
  6
CONTINUOUS
 62
               4
100
AcDbLine
 10
22.0
 20
6.9000000000000004
 30
0.0
 11
22.0
 21
-4.5999999999999996
 31
0.0
  0
LINE
  5
2EF
100
AcDbEntity
  8
0
  6
CONTINUOUS
 62
               4
100
AcDbLine
 10
0.0
 20
-2.6000000000000001
 30
0.0
 11
0.0
 21
0.0
 31
0.0
  0
LINE
  5
2F0
100
AcDbEntity
  8
0
  6
CONTINUOUS
 62
               4
100
AcDbLine
 10
4.7000000000000002
 20
-2.98
 30
0.0
 11
4.7000000000000002
 21
-4.5999999999999996
 31
0.0
  0
LINE
  5
2F1
100
AcDbEntity
  8
0
  6
CENTER
 62
             200
100
AcDbLine
 10
2.0
 20
0.73
 30
0.0
 11
2.0
 21
-5.1699999999999999
 31
0.0
  0
LINE
  5
2F2
100
AcDbEntity
  8
0
  6
CONTINUOUS
 62
               4
100
AcDbLine
 10
16.100000000000001
 20
6.9000000000000004
 30
0.0
 11
16.100000000000001
 21
0.0
 31
0.0
  0
LINE
  5
2F3
100
AcDbEntity
  8
0
  6
CONTINUOUS
 62
               4
100
AcDbLine
 10
0.0
 20
-1.8
 30
0.0
 11
4.2699999999999996
 21
-1.8
 31
0.0
  0
LINE
  5
2F4
100
AcDbEntity
  8
0
  6
CONTINUOUS
 62
               4
100
AcDbLine
 10
0.0
 20
-2.6000000000000001
 30
0.0
 11
4.0
 21
-2.6000000000000001
 31
0.0
  0
LINE
  5
2F5
100
AcDbEntity
  8
0
  6
CONTINUOUS
 62
               4
100
AcDbLine
 10
4.0
 20
-1.8
 30
0.0
 11
4.0
 21
-2.6000000000000001
 31
0.0
  0
LINE
  5
2F6
100
AcDbEntity
  8
0
  6
CONTINUOUS
 62
               4
100
AcDbLine
 10
16.100000000000001
 20
6.9000000000000004
 30
0.0
 11
22.0
 21
6.9000000000000004
 31
0.0
  0
LINE
  5
2F7
100
AcDbEntity
  8
0
  6
CONTINUOUS
 62
               4
100
AcDbLine
 10
4.2000000000000002
 20
-3.7999999999999998
 30
0.0
 11
4.7000000000000002
 21
-3.7999999999999998
 31
0.0
  0
LINE
  5
2F8
100
AcDbEntity
  8
0
  6
CONTINUOUS
 62
               4
100
AcDbLine
 10
4.2000000000000002
 20
-1.8
 30
0.0
 11
4.2000000000000002
 21
-3.7999999999999998
 31
0.0
  0
LINE
  5
2F9
100
AcDbEntity
  8
0
  6
CONTINUOUS
 62
               4
100
AcDbLine
 10
4.2699999999999996
 20
-2.98
 30
0.0
 11
4.7000000000000002
 21
-2.98
 31
0.0
  0
LINE
  5
2FA
100
AcDbEntity
  8
0
  6
CONTINUOUS
 62
               4
100
AcDbLine
 10
4.2699999999999996
 20
-1.8
 30
0.0
 11
4.2699999999999996
 21
-2.98
 31
0.0
  0
LINE
  5
2FB
100
AcDbEntity
  8
0
  6
CONTINUOUS
 62
               4
100
AcDbLine
 10
0.0
 20
-1.0
 30
0.0
 11
22.0
 21
-1.0
 31
0.0
  0
LINE
  5
2FC
100
AcDbEntity
  8
0
  6
CONTINUOUS
 62
               4
100
AcDbLine
 10
0.0
 20
-0.45
 30
0.0
 11
22.0
 21
-0.45
 31
0.0
  0
LINE
  5
2FD
100
AcDbEntity
  8
0
  6
CONTINUOUS
 62
               4
100
AcDbLine
 10
16.100000000000001
 20
1.1499999999999999
 30
0.0
 11
22.0
 21
1.1499999999999999
 31
0.0
  0
LINE
  5
2FE
100
AcDbEntity
  8
0
  6
CONTINUOUS
 62
               4
100
AcDbLine
 10
16.100000000000001
 20
0.4
 30
0.0
 11
22.0
 21
0.4
 31
0.0
  0
LINE
  5
2FF
100
AcDbEntity
  8
0
  6
CONTINUOUS
 62
               4
100
AcDbLine
 10
16.100000000000001
 20
5.4000000000000004
 30
0.0
 11
22.0
 21
5.4000000000000004
 31
0.0
  0
LINE
  5
300
100
AcDbEntity
  8
0
  6
CONTINUOUS
 62
               4
100
AcDbLine
 10
18.100000000000001
 20
15.4
 30
0.0
 11
20.699999999999999
 21
15.4
 31
0.0
  0
LINE
  5
301
100
AcDbEntity
  8
0
  6
CENTER
 62
             200
100
AcDbLine
 10
18.949999999999999
 20
13.67
 30
0.0
 11
18.949999999999999
 21
25.600000000000001
 31
0.0
  0
LINE
  5
302
100
AcDbEntity
  8
0
  6
CENTER
 62
             200
100
AcDbLine
 10
19.850000000000001
 20
13.720000000000001
 30
0.0
 11
19.850000000000001
 21
25.649999999999999
 31
0.0
  0
LINE
  5
303
100
AcDbEntity
  8
0
  6
CONTINUOUS
 62
               4
100
AcDbLine
 10
18.699999999999999
 20
25.399999999999999
 30
0.0
 11
19.199999999999999
 21
25.399999999999999
 31
0.0
  0
LINE
  5
304
100
AcDbEntity
  8
0
  6
CONTINUOUS
 62
               4
100
AcDbLine
 10
19.600000000000001
 20
25.399999999999999
 30
0.0
 11
20.100000000000001
 21
25.399999999999999
 31
0.0
  0
LINE
  5
305
100
AcDbEntity
  8
0
  6
CONTINUOUS
 62
               4
100
AcDbLine
 10
18.5
 20
22.399999999999999
 30
0.0
 11
20.300000000000001
 21
22.399999999999999
 31
0.0
  0
LINE
  5
306
100
AcDbEntity
  8
0
  6
CONTINUOUS
 62
               4
100
AcDbLine
 10
20.300000000000001
 20
15.4
 30
0.0
 11
20.300000000000001
 21
19.399999999999999
 31
0.0
  0
LINE
  5
307
100
AcDbEntity
  8
0
  6
CONTINUOUS
 62
               4
100
AcDbLine
 10
19.399999999999999
 20
15.4
 30
0.0
 11
19.399999999999999
 21
18.879999999999999
 31
0.0
  0
LINE
  5
308
100
AcDbEntity
  8
0
  6
CONTINUOUS
 62
               4
100
AcDbLine
 10
19.399999999999999
 20
20.379999999999999
 30
0.0
 11
19.399999999999999
 21
22.399999999999999
 31
0.0
  0
LINE
  5
309
100
AcDbEntity
  8
0
  6
CONTINUOUS
 62
               4
100
AcDbLine
 10
20.300000000000001
 20
20.899999999999999
 30
0.0
 11
20.300000000000001
 21
22.399999999999999
 31
0.0
  0
LINE
  5
30A
100
AcDbEntity
  8
0
  6
CONTINUOUS
 62
               4
100
AcDbLine
 10
18.5
 20
15.4
 30
0.0
 11
18.5
 21
18.359999999999999
 31
0.0
  0
LINE
  5
30B
100
AcDbEntity
  8
0
  6
CONTINUOUS
 62
               4
100
AcDbLine
 10
18.5
 20
19.859999999999999
 30
0.0
 11
18.5
 21
22.399999999999999
 31
0.0
  0
LINE
  5
30C
100
AcDbEntity
  8
0
  6
CONTINUOUS
 62
               4
100
AcDbLine
 10
18.699999999999999
 20
22.399999999999999
 30
0.0
 11
18.699999999999999
 21
25.399999999999999
 31
0.0
  0
LINE
  5
30D
100
AcDbEntity
  8
0
  6
CONTINUOUS
 62
               4
100
AcDbLine
 10
19.199999999999999
 20
22.399999999999999
 30
0.0
 11
19.199999999999999
 21
25.399999999999999
 31
0.0
  0
LINE
  5
30E
100
AcDbEntity
  8
0
  6
CONTINUOUS
 62
               4
100
AcDbLine
 10
19.600000000000001
 20
22.399999999999999
 30
0.0
 11
19.600000000000001
 21
25.399999999999999
 31
0.0
  0
LINE
  5
30F
100
AcDbEntity
  8
0
  6
CONTINUOUS
 62
               4
100
AcDbLine
 10
20.100000000000001
 20
22.399999999999999
 30
0.0
 11
20.100000000000001
 21
25.399999999999999
 31
0.0
  0
LINE
  5
310
100
AcDbEntity
  8
0
  6
CONTINUOUS
 62
             200
100
AcDbLine
 10
17.239999999999998
 20
19.129999999999999
 30
0.0
 11
21.57
 21
21.629999999999999
 31
0.0
  0
LINE
  5
311
100
AcDbEntity
  8
0
  6
CENTER
 62
             200
100
AcDbLine
 10
19.399999999999999
 20
5.5800000000000001
 30
0.0
 11
19.399999999999999
 21
15.4
 31
0.0
  0
LINE
  5
312
100
AcDbEntity
  8
0
  6
CONTINUOUS
 62
             200
100
AcDbLine
 10
17.239999999999998
 20
17.629999999999999
 30
0.0
 11
21.57
 21
20.129999999999999
 31
0.0
  0
LINE
  5
313
100
AcDbEntity
  8
0
  6
CONTINUOUS
 62
             200
100
AcDbLine
 10
17.239999999999998
 20
10.15
 30
0.0
 11
21.57
 21
12.65
 31
0.0
  0
LINE
  5
314
100
AcDbEntity
  8
0
  6
CONTINUOUS
 62
             200
100
AcDbLine
 10
17.239999999999998
 20
8.6500000000000004
 30
0.0
 11
21.57
 21
11.15
 31
0.0
  0
LINE
  5
315
100
AcDbEntity
  8
0
  6
CONTINUOUS
 62
               4
100
AcDbLine
 10
0.97
 20
-4.0
 30
0.0
 11
3.02
 21
-4.0
 31
0.0
  0
LINE
  5
316
100
AcDbEntity
  8
0
  6
CONTINUOUS
 62
               4
100
AcDbLine
 10
3.02
 20
-4.0
 30
0.0
 11
3.25
 21
-3.77
 31
0.0
  0
LINE
  5
317
100
AcDbEntity
  8
0
  6
CONTINUOUS
 62
               4
100
AcDbLine
 10
0.97
 20
-4.0
 30
0.0
 11
0.75
 21
-3.77
 31
0.0
  0
LINE
  5
318
100
AcDbEntity
  8
0
  6
CONTINUOUS
 62
               4
100
AcDbLine
 10
0.75
 20
-2.6000000000000001
 30
0.0
 11
0.75
 21
-3.77
 31
0.0
  0
LINE
  5
319
100
AcDbEntity
  8
0
  6
CONTINUOUS
 62
             200
100
AcDbLine
 10
0.97
 20
-2.6000000000000001
 30
0.0
 11
0.97
 21
-4.0
 31
0.0
  0
LINE
  5
31A
100
AcDbEntity
  8
0
  6
CONTINUOUS
 62
             200
100
AcDbLine
 10
3.02
 20
-2.6000000000000001
 30
0.0
 11
3.02
 21
-4.0
 31
0.0
  0
LINE
  5
31B
100
AcDbEntity
  8
0
  6
CONTINUOUS
 62
               4
100
AcDbLine
 10
3.25
 20
-2.6000000000000001
 30
0.0
 11
3.25
 21
-3.77
 31
0.0
  0
LINE
  5
31C
100
AcDbEntity
  8
0
  6
CONTINUOUS
 62
               4
100
AcDbLine
 10
0.75
 20
-3.77
 30
0.0
 11
3.25
 21
-3.77
 31
0.0
  0
LINE
  5
31D
100
AcDbEntity
  8
0
  6
CONTINUOUS
 62
               4
100
AcDbLine
 10
0.75
 20
0.5
 30
0.0
 11
0.75
 21
0.0
 31
0.0
  0
LINE
  5
31E
100
AcDbEntity
  8
0
  6
CONTINUOUS
 62
             200
100
AcDbLine
 10
0.97
 20
0.5
 30
0.0
 11
0.97
 21
0.0
 31
0.0
  0
LINE
  5
31F
100
AcDbEntity
  8
0
  6
CONTINUOUS
 62
             200
100
AcDbLine
 10
3.02
 20
0.5
 30
0.0
 11
3.02
 21
0.0
 31
0.0
  0
LINE
  5
320
100
AcDbEntity
  8
0
  6
CONTINUOUS
 62
               4
100
AcDbLine
 10
3.25
 20
0.5
 30
0.0
 11
3.25
 21
0.0
 31
0.0
  0
LINE
  5
321
100
AcDbEntity
  8
0
  6
CONTINUOUS
 62
               4
100
AcDbLine
 10
0.75
 20
0.5
 30
0.0
 11
3.25
 21
0.5
 31
0.0
  0
LINE
  5
322
100
AcDbEntity
  8
0
  6
CONTINUOUS
 62
               4
100
AcDbLine
 10
20.699999999999999
 20
6.9000000000000004
 30
0.0
 11
20.699999999999999
 21
10.65
 31
0.0
  0
LINE
  5
323
100
AcDbEntity
  8
0
  6
CONTINUOUS
 62
               4
100
AcDbLine
 10
18.100000000000001
 20
6.9000000000000004
 30
0.0
 11
18.100000000000001
 21
9.1500000000000004
 31
0.0
  0
LINE
  5
324
100
AcDbEntity
  8
0
  6
CONTINUOUS
 62
               4
100
AcDbLine
 10
18.100000000000001
 20
10.65
 30
0.0
 11
18.100000000000001
 21
15.4
 31
0.0
  0
LINE
  5
325
100
AcDbEntity
  8
0
  6
CONTINUOUS
 62
               4
100
AcDbLine
 10
20.699999999999999
 20
12.15
 30
0.0
 11
20.699999999999999
 21
15.4
 31
0.0
  0
ENDBLK
  5
326
100
AcDbEntity
  8
0
100
AcDbBlockEnd
  0
BLOCK
  5
327
100
AcDbEntity
  8
0
100
AcDbBlockBegin
  2
CS-MGA8-11
 70
               0
 10
0.0
 20
0.0
 30
0.0
  3
CS-MGA8-11
  1

  0
LINE
  5
328
100
AcDbEntity
  8
0
  6
CONTINUOUS
 62
               4
100
AcDbLine
 10
-2.25
 20
5.4000000000000004
 30
0.0
 11
2.25
 21
5.4000000000000004
 31
0.0
  0
LINE
  5
329
100
AcDbEntity
  8
0
  6
CONTINUOUS
 62
               4
100
AcDbLine
 10
-2.25
 20
6.9000000000000004
 30
0.0
 11
-2.25
 21
1.1499999999999999
 31
0.0
  0
LINE
  5
32A
100
AcDbEntity
  8
0
  6
CONTINUOUS
 62
               4
100
AcDbLine
 10
-1.5
 20
0.4
 30
0.0
 11
-2.25
 21
1.1499999999999999
 31
0.0
  0
LINE
  5
32B
100
AcDbEntity
  8
0
  6
CONTINUOUS
 62
               4
100
AcDbLine
 10
-1.5
 20
-0.45
 30
0.0
 11
-1.5
 21
0.4
 31
0.0
  0
LINE
  5
32C
100
AcDbEntity
  8
0
  6
CONTINUOUS
 62
               4
100
AcDbLine
 10
-2.0499999999999998
 20
-1.0
 30
0.0
 11
-1.5
 21
-0.45
 31
0.0
  0
LINE
  5
32D
100
AcDbEntity
  8
0
  6
CONTINUOUS
 62
               4
100
AcDbLine
 10
-2.0499999999999998
 20
-1.0
 30
0.0
 11
-2.0499999999999998
 21
-2.5499999999999998
 31
0.0
  0
LINE
  5
32E
100
AcDbEntity
  8
0
  6
CONTINUOUS
 62
               4
100
AcDbLine
 10
2.0499999999999998
 20
-1.0
 30
0.0
 11
2.0499999999999998
 21
-2.5499999999999998
 31
0.0
  0
LINE
  5
32F
100
AcDbEntity
  8
0
  6
CONTINUOUS
 62
               4
100
AcDbLine
 10
2.0499999999999998
 20
-1.0
 30
0.0
 11
1.5
 21
-0.45
 31
0.0
  0
LINE
  5
330
100
AcDbEntity
  8
0
  6
CONTINUOUS
 62
               4
100
AcDbLine
 10
1.5
 20
-0.45
 30
0.0
 11
1.5
 21
0.4
 31
0.0
  0
LINE
  5
331
100
AcDbEntity
  8
0
  6
CONTINUOUS
 62
               4
100
AcDbLine
 10
1.5
 20
0.4
 30
0.0
 11
2.25
 21
1.1499999999999999
 31
0.0
  0
LINE
  5
332
100
AcDbEntity
  8
0
  6
CONTINUOUS
 62
               4
100
AcDbLine
 10
2.25
 20
6.9000000000000004
 30
0.0
 11
2.25
 21
1.1499999999999999
 31
0.0
  0
LINE
  5
333
100
AcDbEntity
  8
0
  6
CENTER
 62
             200
100
AcDbLine
 10
0.0
 20
12.56
 30
0.0
 11
0.0
 21
-6.0599999999999996
 31
0.0
  0
LINE
  5
334
100
AcDbEntity
  8
0
  6
CONTINUOUS
 62
               4
100
AcDbLine
 10
-1.5
 20
0.0
 30
0.0
 11
1.5
 21
0.0
 31
0.0
  0
LINE
  5
335
100
AcDbEntity
  8
0
  6
CONTINUOUS
 62
               4
100
AcDbLine
 10
-2.0499999999999998
 20
-1.8
 30
0.0
 11
2.0499999999999998
 21
-1.8
 31
0.0
  0
LINE
  5
336
100
AcDbEntity
  8
0
  6
CONTINUOUS
 62
               4
100
AcDbLine
 10
-2.0499999999999998
 20
-2.6000000000000001
 30
0.0
 11
2.0499999999999998
 21
-2.6000000000000001
 31
0.0
  0
LINE
  5
337
100
AcDbEntity
  8
0
  6
CONTINUOUS
 62
               4
100
AcDbLine
 10
-2.25
 20
6.9000000000000004
 30
0.0
 11
2.25
 21
6.9000000000000004
 31
0.0
  0
LINE
  5
338
100
AcDbEntity
  8
0
  6
CONTINUOUS
 62
             200
100
AcDbLine
 10
-2.1600000000000001
 20
8.6500000000000004
 30
0.0
 11
2.1600000000000001
 21
11.15
 31
0.0
  0
LINE
  5
339
100
AcDbEntity
  8
0
  6
CONTINUOUS
 62
               4
100
AcDbLine
 10
-1.02
 20
-4.0
 30
0.0
 11
1.02
 21
-4.0
 31
0.0
  0
LINE
  5
33A
100
AcDbEntity
  8
0
  6
CONTINUOUS
 62
               4
100
AcDbLine
 10
1.02
 20
-4.0
 30
0.0
 11
1.25
 21
-3.77
 31
0.0
  0
LINE
  5
33B
100
AcDbEntity
  8
0
  6
CONTINUOUS
 62
               4
100
AcDbLine
 10
-1.02
 20
-4.0
 30
0.0
 11
-1.25
 21
-3.77
 31
0.0
  0
LINE
  5
33C
100
AcDbEntity
  8
0
  6
CONTINUOUS
 62
               4
100
AcDbLine
 10
-1.25
 20
-2.6000000000000001
 30
0.0
 11
-1.25
 21
-3.77
 31
0.0
  0
LINE
  5
33D
100
AcDbEntity
  8
0
  6
CONTINUOUS
 62
             200
100
AcDbLine
 10
-1.02
 20
-2.6000000000000001
 30
0.0
 11
-1.02
 21
-4.0
 31
0.0
  0
LINE
  5
33E
100
AcDbEntity
  8
0
  6
CONTINUOUS
 62
             200
100
AcDbLine
 10
1.02
 20
-2.6000000000000001
 30
0.0
 11
1.02
 21
-4.0
 31
0.0
  0
LINE
  5
33F
100
AcDbEntity
  8
0
  6
CONTINUOUS
 62
               4
100
AcDbLine
 10
1.25
 20
-2.6000000000000001
 30
0.0
 11
1.25
 21
-3.77
 31
0.0
  0
LINE
  5
340
100
AcDbEntity
  8
0
  6
CONTINUOUS
 62
               4
100
AcDbLine
 10
-1.25
 20
-3.77
 30
0.0
 11
1.25
 21
-3.77
 31
0.0
  0
LINE
  5
341
100
AcDbEntity
  8
0
  6
CONTINUOUS
 62
               4
100
AcDbLine
 10
-1.25
 20
0.5
 30
0.0
 11
-1.25
 21
0.0
 31
0.0
  0
LINE
  5
342
100
AcDbEntity
  8
0
  6
CONTINUOUS
 62
             200
100
AcDbLine
 10
-1.02
 20
0.5
 30
0.0
 11
-1.02
 21
0.0
 31
0.0
  0
LINE
  5
343
100
AcDbEntity
  8
0
  6
CONTINUOUS
 62
             200
100
AcDbLine
 10
1.02
 20
0.5
 30
0.0
 11
1.02
 21
0.0
 31
0.0
  0
LINE
  5
344
100
AcDbEntity
  8
0
  6
CONTINUOUS
 62
               4
100
AcDbLine
 10
1.25
 20
0.5
 30
0.0
 11
1.25
 21
0.0
 31
0.0
  0
LINE
  5
345
100
AcDbEntity
  8
0
  6
CONTINUOUS
 62
               4
100
AcDbLine
 10
-1.25
 20
0.5
 30
0.0
 11
1.25
 21
0.5
 31
0.0
  0
LINE
  5
346
100
AcDbEntity
  8
0
  6
CONTINUOUS
 62
               4
100
AcDbLine
 10
-1.3
 20
9.1500000000000004
 30
0.0
 11
-1.3
 21
6.9000000000000004
 31
0.0
  0
LINE
  5
347
100
AcDbEntity
  8
0
  6
CONTINUOUS
 62
               4
100
AcDbLine
 10
1.3
 20
10.65
 30
0.0
 11
1.3
 21
6.9000000000000004
 31
0.0
  0
ARC
  5
348
100
AcDbEntity
  8
0
  6
CONTINUOUS
 62
               4
100
AcDbCircle
 10
0.0000022888196369
 20
-2.5499977111803629
 30
0.0
 40
2.0500022888209148
100
AcDbArc
 50
180.00006397051609
 51
269.99993602948291
  0
ARC
  5
349
100
AcDbEntity
  8
0
  6
CONTINUOUS
 62
               4
100
AcDbCircle
 10
-0.0000022888196369
 20
-2.5499977111803629
 30
0.0
 40
2.0500022888209148
100
AcDbArc
 50
270.0000639705159
 51
359.99993602948268
  0
ENDBLK
  5
34A
100
AcDbEntity
  8
0
100
AcDbBlockEnd
  0
BLOCK
  5
34B
100
AcDbEntity
  8
0
100
AcDbBlockBegin
  2
CS-MGA8-12
 70
               0
 10
0.0
 20
0.0
 30
0.0
  3
CS-MGA8-12
  1

  0
LINE
  5
34C
100
AcDbEntity
  8
0
  6
CONTINUOUS
 62
               7
100
AcDbLine
 10
0.3000000000000114
 20
3.4000000000000057
 30
0.0
 11
0.3000000000000114
 21
-3.4000000000000057
 31
0.0
  0
LINE
  5
34D
100
AcDbEntity
  8
0
  6
CONTINUOUS
 62
               7
100
AcDbLine
 10
0.3000000000000114
 20
-3.4000000000000057
 30
0.0
 11
0.0
 21
-3.7000000000000171
 31
0.0
  0
LINE
  5
34E
100
AcDbEntity
  8
0
  6
CONTINUOUS
 62
               7
100
AcDbLine
 10
0.3000000000000114
 20
3.4000000000000057
 30
0.0
 11
0.0
 21
3.7000000000000171
 31
0.0
  0
LINE
  5
34F
100
AcDbEntity
  8
0
  6
CONTINUOUS
 62
               7
100
AcDbLine
 10
0.0
 20
11.5
 30
0.0
 11
0.0
 21
3.7000000000000171
 31
0.0
  0
LINE
  5
350
100
AcDbEntity
  8
0
  6
CONTINUOUS
 62
               7
100
AcDbLine
 10
0.0
 20
-3.7000000000000171
 30
0.0
 11
0.0
 21
-11.5
 31
0.0
  0
LINE
  5
351
100
AcDbEntity
  8
0
  6
CONTINUOUS
 62
               7
100
AcDbLine
 10
1.5
 20
-2.5
 30
0.0
 11
1.5
 21
-12.0
 31
0.0
  0
LINE
  5
352
100
AcDbEntity
  8
0
  6
CONTINUOUS
 62
               7
100
AcDbLine
 10
2.7723636606028208
 20
-2.5
 30
0.0
 11
1.5
 21
-2.5
 31
0.0
  0
LINE
  5
353
100
AcDbEntity
  8
0
  6
CONTINUOUS
 62
               7
100
AcDbLine
 10
2.7723636606028208
 20
2.5
 30
0.0
 11
1.5
 21
2.5
 31
0.0
  0
CIRCLE
  5
354
100
AcDbEntity
  8
0
  6
CONTINUOUS
 62
               7
100
AcDbCircle
 10
5.5
 20
2.5
 30
0.0
 40
0.5
  0
CIRCLE
  5
355
100
AcDbEntity
  8
0
  6
CONTINUOUS
 62
               7
100
AcDbCircle
 10
5.5
 20
-2.5
 30
0.0
 40
0.5
  0
LINE
  5
356
100
AcDbEntity
  8
0
  6
CENTER
 62
               2
100
AcDbLine
 10
4.5
 20
-2.5
 30
0.0
 11
6.5
 21
-2.5
 31
0.0
  0
LINE
  5
357
100
AcDbEntity
  8
0
  6
CONTINUOUS
 62
               7
100
AcDbLine
 10
5.5
 20
-4.0
 30
0.0
 11
1.5
 21
-4.0
 31
0.0
  0
LINE
  5
358
100
AcDbEntity
  8
0
  6
CONTINUOUS
 62
               7
100
AcDbLine
 10
5.5
 20
4.0
 30
0.0
 11
1.5
 21
4.0
 31
0.0
  0
ARC
  5
359
100
AcDbEntity
  8
0
  6
CONTINUOUS
 62
               7
100
AcDbCircle
 10
5.5
 20
0.0
 30
0.0
 40
4.0
100
AcDbArc
 50
269.99999999999937
 51
89.999999999999801
  0
CIRCLE
  5
35A
100
AcDbEntity
  8
0
  6
CONTINUOUS
 62
               7
100
AcDbCircle
 10
5.5
 20
0.0
 30
0.0
 40
3.7000000000000002
  0
LINE
  5
35B
100
AcDbEntity
  8
0
  6
CENTER
 62
               2
100
AcDbLine
 10
4.5
 20
2.5
 30
0.0
 11
6.5
 21
2.5
 31
0.0
  0
LINE
  5
35C
100
AcDbEntity
  8
0
  6
CENTER
 62
               2
100
AcDbLine
 10
5.5
 20
-5.0
 30
0.0
 11
5.5
 21
5.0
 31
0.0
  0
CIRCLE
  5
35D
100
AcDbEntity
  8
0
  6
CONTINUOUS
 62
               2
100
AcDbCircle
 10
5.5
 20
0.0
 30
0.0
 40
1.2
  0
CIRCLE
  5
35E
100
AcDbEntity
  8
0
  6
CONTINUOUS
 62
               7
100
AcDbCircle
 10
5.5
 20
0.0
 30
0.0
 40
1.5
  0
LINE
  5
35F
100
AcDbEntity
  8
0
  6
CONTINUOUS
 62
               7
100
AcDbLine
 10
13.5
 20
-12.0
 30
0.0
 11
14.0
 21
-11.5
 31
0.0
  0
LINE
  5
360
100
AcDbEntity
  8
0
  6
CONTINUOUS
 62
               7
100
AcDbLine
 10
13.799999999999983
 20
-11.5
 30
0.0
 11
13.300000000000011
 21
-12.0
 31
0.0
  0
LINE
  5
361
100
AcDbEntity
  8
0
  6
CONTINUOUS
 62
               7
100
AcDbLine
 10
14.0
 20
11.5
 30
0.0
 11
13.499999999999972
 21
12.0
 31
0.0
  0
LINE
  5
362
100
AcDbEntity
  8
0
  6
CONTINUOUS
 62
               7
100
AcDbLine
 10
13.299999999999983
 20
12.0
 30
0.0
 11
13.799999999999983
 21
11.499999999999943
 31
0.0
  0
LINE
  5
363
100
AcDbEntity
  8
0
  6
CENTER
 62
               2
100
AcDbLine
 10
6.0
 20
-5.5
 30
0.0
 11
6.0
 21
-10.5
 31
0.0
  0
CIRCLE
  5
364
100
AcDbEntity
  8
0
  6
CONTINUOUS
 62
               2
100
AcDbCircle
 10
6.0
 20
-8.0
 30
0.0
 40
1.5
  0
LINE
  5
365
100
AcDbEntity
  8
0
  6
CENTER
 62
               2
100
AcDbLine
 10
3.5
 20
-8.0
 30
0.0
 11
8.4999999999999716
 21
-8.0
 31
0.0
  0
CIRCLE
  5
366
100
AcDbEntity
  8
0
  6
CONTINUOUS
 62
               7
100
AcDbCircle
 10
6.0
 20
-8.0
 30
0.0
 40
1.25
  0
LINE
  5
367
100
AcDbEntity
  8
0
  6
CENTER
 62
               2
100
AcDbLine
 10
6.0
 20
10.5
 30
0.0
 11
6.0
 21
5.5
 31
0.0
  0
CIRCLE
  5
368
100
AcDbEntity
  8
0
  6
CONTINUOUS
 62
               2
100
AcDbCircle
 10
6.0
 20
8.0
 30
0.0
 40
1.5
  0
LINE
  5
369
100
AcDbEntity
  8
0
  6
CENTER
 62
               2
100
AcDbLine
 10
3.5
 20
8.0
 30
0.0
 11
8.4999999999999716
 21
8.0
 31
0.0
  0
CIRCLE
  5
36A
100
AcDbEntity
  8
0
  6
CONTINUOUS
 62
               7
100
AcDbCircle
 10
6.0
 20
8.0
 30
0.0
 40
1.25
  0
LINE
  5
36B
100
AcDbEntity
  8
0
  6
CONTINUOUS
 62
               7
100
AcDbLine
 10
11.5
 20
-10.900000000000006
 30
0.0
 11
13.799999999999983
 21
-10.900000000000006
 31
0.0
  0
LINE
  5
36C
100
AcDbEntity
  8
0
  6
CONTINUOUS
 62
               7
100
AcDbLine
 10
11.5
 20
-6.0999999999999943
 30
0.0
 11
13.799999999999983
 21
-6.0999999999999943
 31
0.0
  0
LINE
  5
36D
100
AcDbEntity
  8
0
  6
CONTINUOUS
 62
               7
100
AcDbLine
 10
11.5
 20
6.0999999999999943
 30
0.0
 11
13.799999999999983
 21
6.0999999999999943
 31
0.0
  0
LINE
  5
36E
100
AcDbEntity
  8
0
  6
CONTINUOUS
 62
               7
100
AcDbLine
 10
11.5
 20
10.900000000000006
 30
0.0
 11
13.799999999999983
 21
10.900000000000006
 31
0.0
  0
LINE
  5
36F
100
AcDbEntity
  8
0
  6
CONTINUOUS
 62
               7
100
AcDbLine
 10
12.077350214134384
 20
-9.5000000494586203
 30
0.0
 11
12.654700532566238
 21
-8.4999999302493308
 31
0.0
  0
LINE
  5
370
100
AcDbEntity
  8
0
  6
CONTINUOUS
 62
               7
100
AcDbLine
 10
10.922649660450332
 20
-9.4999999770500665
 30
0.0
 11
12.077350326688958
 21
-9.4999999600904488
 31
0.0
  0
LINE
  5
371
100
AcDbEntity
  8
0
  6
CONTINUOUS
 62
               7
100
AcDbLine
 10
10.345299446315948
 20
-8.4999999275914462
 30
0.0
 11
10.922649794122748
 21
-9.500000029841118
 31
0.0
  0
LINE
  5
372
100
AcDbEntity
  8
0
  6
CONTINUOUS
 62
               7
100
AcDbLine
 10
10.922649785865616
 20
-7.4999999505413797
 30
0.0
 11
10.345299467433762
 21
-8.5000000697506692
 31
0.0
  0
LINE
  5
373
100
AcDbEntity
  8
0
  6
CONTINUOUS
 62
               7
100
AcDbLine
 10
12.077350339549668
 20
-7.5000000229499335
 30
0.0
 11
10.922649673311042
 21
-7.5000000399095512
 31
0.0
  0
LINE
  5
374
100
AcDbEntity
  8
0
  6
CONTINUOUS
 62
               7
100
AcDbLine
 10
12.654700553684052
 20
-8.5000000724085538
 30
0.0
 11
12.077350205877252
 21
-7.499999970158882
 31
0.0
  0
ARC
  5
375
100
AcDbEntity
  8
0
  6
CONTINUOUS
 62
               7
100
AcDbCircle
 10
11.5
 20
-8.5
 30
0.0
 40
2.3999999999999999
100
AcDbArc
 50
89.999999999999815
 51
269.99999999999937
  0
CIRCLE
  5
376
100
AcDbEntity
  8
0
  6
CONTINUOUS
 62
               7
100
AcDbCircle
 10
11.5
 20
-8.5
 30
0.0
 40
1.95
  0
CIRCLE
  5
377
100
AcDbEntity
  8
0
  6
CONTINUOUS
 62
               7
100
AcDbCircle
 10
11.5
 20
-8.5
 30
0.0
 40
2.25
  0
LINE
  5
378
100
AcDbEntity
  8
0
  6
CENTER
 62
               2
100
AcDbLine
 10
15.25
 20
-8.5
 30
0.0
 11
7.75
 21
-8.5
 31
0.0
  0
LINE
  5
379
100
AcDbEntity
  8
0
  6
CENTER
 62
               2
100
AcDbLine
 10
11.5
 20
-12.25
 30
0.0
 11
11.5
 21
-4.75
 31
0.0
  0
LINE
  5
37A
100
AcDbEntity
  8
0
  6
CONTINUOUS
 62
               7
100
AcDbLine
 10
1.5
 20
12.0
 30
0.0
 11
1.5
 21
2.5
 31
0.0
  0
LINE
  5
37B
100
AcDbEntity
  8
0
  6
CONTINUOUS
 62
               7
100
AcDbLine
 10
13.799999999999983
 20
11.499999999999943
 30
0.0
 11
13.799999999999983
 21
-11.5
 31
0.0
  0
ARC
  5
37C
100
AcDbEntity
  8
0
  6
CONTINUOUS
 62
               7
100
AcDbCircle
 10
11.5
 20
8.5
 30
0.0
 40
2.3999999999999999
100
AcDbArc
 50
89.999999999999815
 51
269.99999999999937
  0
CIRCLE
  5
37D
100
AcDbEntity
  8
0
  6
CONTINUOUS
 62
               7
100
AcDbCircle
 10
11.5
 20
8.5
 30
0.0
 40
1.95
  0
LINE
  5
37E
100
AcDbEntity
  8
0
  6
CONTINUOUS
 62
               7
100
AcDbLine
 10
10.345299446315948
 20
8.4999999275914462
 30
0.0
 11
10.922649794122748
 21
9.500000029841118
 31
0.0
  0
LINE
  5
37F
100
AcDbEntity
  8
0
  6
CONTINUOUS
 62
               7
100
AcDbLine
 10
10.922649660450332
 20
9.4999999770500665
 30
0.0
 11
12.077350326688958
 21
9.4999999600904488
 31
0.0
  0
LINE
  5
380
100
AcDbEntity
  8
0
  6
CONTINUOUS
 62
               7
100
AcDbLine
 10
12.077350214134384
 20
9.5000000494586203
 30
0.0
 11
12.654700532566238
 21
8.4999999302493308
 31
0.0
  0
LINE
  5
381
100
AcDbEntity
  8
0
  6
CONTINUOUS
 62
               7
100
AcDbLine
 10
12.654700553684052
 20
8.5000000724085538
 30
0.0
 11
12.077350205877252
 21
7.499999970158882
 31
0.0
  0
LINE
  5
382
100
AcDbEntity
  8
0
  6
CONTINUOUS
 62
               7
100
AcDbLine
 10
12.077350339549668
 20
7.5000000229499335
 30
0.0
 11
10.922649673311042
 21
7.5000000399095512
 31
0.0
  0
LINE
  5
383
100
AcDbEntity
  8
0
  6
CONTINUOUS
 62
               7
100
AcDbLine
 10
10.922649785865616
 20
7.4999999505413797
 30
0.0
 11
10.345299467433762
 21
8.5000000697506692
 31
0.0
  0
CIRCLE
  5
384
100
AcDbEntity
  8
0
  6
CONTINUOUS
 62
               7
100
AcDbCircle
 10
11.5
 20
8.5
 30
0.0
 40
2.25
  0
LINE
  5
385
100
AcDbEntity
  8
0
  6
CENTER
 62
               2
100
AcDbLine
 10
7.75
 20
8.5
 30
0.0
 11
15.25
 21
8.5
 31
0.0
  0
LINE
  5
386
100
AcDbEntity
  8
0
  6
CENTER
 62
               2
100
AcDbLine
 10
11.5
 20
4.75
 30
0.0
 11
11.5
 21
12.25
 31
0.0
  0
LINE
  5
387
100
AcDbEntity
  8
0
  6
CONTINUOUS
 62
               7
100
AcDbLine
 10
1.5
 20
12.0
 30
0.0
 11
13.499999999999972
 21
12.0
 31
0.0
  0
LINE
  5
388
100
AcDbEntity
  8
0
  6
CONTINUOUS
 62
               7
100
AcDbLine
 10
1.5
 20
-12.0
 30
0.0
 11
13.5
 21
-12.0
 31
0.0
  0
LINE
  5
389
100
AcDbEntity
  8
0
  6
CONTINUOUS
 62
               7
100
AcDbLine
 10
-0.0000000136905953
 20
-11.5
 30
0.0
 11
1.5
 21
-11.5
 31
0.0
  0
LINE
  5
38A
100
AcDbEntity
  8
0
  6
CONTINUOUS
 62
               7
100
AcDbLine
 10
-0.0000000136905953
 20
11.5
 30
0.0
 11
1.5
 21
11.5
 31
0.0
  0
LINE
  5
38B
100
AcDbEntity
  8
0
  6
CONTINUOUS
 62
               7
100
AcDbLine
 10
14.0
 20
11.5
 30
0.0
 11
14.0
 21
-11.5
 31
0.0
  0
LINE
  5
38C
100
AcDbEntity
  8
0
  6
CENTER
 62
               2
100
AcDbLine
 10
-1.9560299056583688
 20
0.0
 30
0.0
 11
15.981661064987264
 21
0.0
 31
0.0
  0
ENDBLK
  5
38D
100
AcDbEntity
  8
0
100
AcDbBlockEnd
  0
BLOCK
  5
38E
100
AcDbEntity
  8
0
100
AcDbBlockBegin
  2
CS-MGA8-13
 70
               0
 10
0.0
 20
0.0
 30
0.0
  3
CS-MGA8-13
  1

  0
LINE
  5
38F
100
AcDbEntity
  8
0
  6
CENTER
 62
             200
100
AcDbLine
 10
-1.3200000000000001
 20
0.0
 30
0.0
 11
23.579999999999998
 21
0.0
 31
0.0
  0
LINE
  5
390
100
AcDbEntity
  8
0
  6
CONTINUOUS
 62
               4
100
AcDbLine
 10
0.0
 20
-1.5
 30
0.0
 11
16.559999999999999
 21
-1.5
 31
0.0
  0
LINE
  5
391
100
AcDbEntity
  8
0
  6
CONTINUOUS
 62
               4
100
AcDbLine
 10
0.0
 20
1.5
 30
0.0
 11
16.559999999999999
 21
1.5
 31
0.0
  0
LINE
  5
392
100
AcDbEntity
  8
0
  6
CONTINUOUS
 62
               4
100
AcDbLine
 10
0.0
 20
-2.0499999999999998
 30
0.0
 11
16.91
 21
-2.0499999999999998
 31
0.0
  0
LINE
  5
393
100
AcDbEntity
  8
0
  6
CONTINUOUS
 62
               4
100
AcDbLine
 10
0.0
 20
2.0499999999999998
 30
0.0
 11
16.91
 21
2.0499999999999998
 31
0.0
  0
LINE
  5
394
100
AcDbEntity
  8
0
  6
CONTINUOUS
 62
               4
100
AcDbLine
 10
0.0
 20
2.0499999999999998
 30
0.0
 11
0.0
 21
-2.0499999999999998
 31
0.0
  0
LINE
  5
395
100
AcDbEntity
  8
0
  6
CENTER
 62
             200
100
AcDbLine
 10
2.0
 20
2.8300000000000001
 30
0.0
 11
2.0
 21
-2.75
 31
0.0
  0
LINE
  5
396
100
AcDbEntity
  8
0
  6
CONTINUOUS
 62
               4
100
AcDbLine
 10
17.079999999999998
 20
2.25
 30
0.0
 11
22.0
 21
2.25
 31
0.0
  0
LINE
  5
397
100
AcDbEntity
  8
0
  6
CONTINUOUS
 62
               4
100
AcDbLine
 10
17.079999999999998
 20
-2.25
 30
0.0
 11
22.0
 21
-2.25
 31
0.0
  0
LINE
  5
398
100
AcDbEntity
  8
0
  6
CONTINUOUS
 62
               4
100
AcDbLine
 10
22.0
 20
2.25
 30
0.0
 11
22.0
 21
-2.25
 31
0.0
  0
LINE
  5
399
100
AcDbEntity
  8
0
  6
CONTINUOUS
 62
               4
100
AcDbLine
 10
1.3500000000000001
 20
-1.0700000000000001
 30
0.0
 11
3.0699999999999998
 21
0.64
 31
0.0
  0
LINE
  5
39A
100
AcDbEntity
  8
0
  6
CONTINUOUS
 62
               4
100
AcDbLine
 10
0.9300000000000001
 20
-0.64
 30
0.0
 11
2.6400000000000001
 21
1.0700000000000001
 31
0.0
  0
ARC
  5
39B
100
AcDbEntity
  8
0
  6
CONTINUOUS
 62
               4
100
AcDbCircle
 10
19.5
 20
0.0
 30
0.0
 40
3.3043758866085451
100
AcDbArc
 50
137.08479304050996
 51
222.91520695948927
  0
CIRCLE
  5
39C
100
AcDbEntity
  8
0
  6
CONTINUOUS
 62
               4
100
AcDbCircle
 10
2.0
 20
0.0
 30
0.0
 40
1.25
  0
CIRCLE
  5
39D
100
AcDbEntity
  8
0
  6
CONTINUOUS
 62
               4
100
AcDbCircle
 10
2.0
 20
0.0
 30
0.0
 40
1.3999996185302734
  0
CIRCLE
  5
39E
100
AcDbEntity
  8
0
  6
CONTINUOUS
 62
               4
100
AcDbCircle
 10
19.4073486328125
 20
0.0
 30
0.0
 40
1.2999992370605469
  0
CIRCLE
  5
39F
100
AcDbEntity
  8
0
  6
CONTINUOUS
 62
               4
100
AcDbCircle
 10
19.729156494140625
 20
-0.34100341796875
 30
0.0
 40
0.449999988079071
  0
CIRCLE
  5
3A0
100
AcDbEntity
  8
0
  6
CONTINUOUS
 62
               4
100
AcDbCircle
 10
19.117279052734375
 20
0.3181533813476563
 30
0.0
 40
0.449999988079071
  0
CIRCLE
  5
3A1
100
AcDbEntity
  8
0
  6
CONTINUOUS
 62
               4
100
AcDbCircle
 10
19.729156494140625
 20
-0.34100341796875
 30
0.0
 40
0.25
  0
CIRCLE
  5
3A2
100
AcDbEntity
  8
0
  6
CONTINUOUS
 62
               4
100
AcDbCircle
 10
19.117279052734375
 20
0.3181533813476563
 30
0.0
 40
0.25
  0
ENDBLK
  5
3A3
100
AcDbEntity
  8
0
100
AcDbBlockEnd
  0
BLOCK
  5
3A4
100
AcDbEntity
  8
0
100
AcDbBlockBegin
  2
CS-MGA8-14
 70
               0
 10
0.0
 20
0.0
 30
0.0
  3
CS-MGA8-14
  1

  0
LINE
  5
3A5
100
AcDbEntity
  8
0
  6
CENTER
 62
             200
100
AcDbLine
 10
14.651603613580974
 20
-2.4999995223464566
 30
0.0
 11
33.252631011319536
 21
-2.4999995223464566
 31
0.0
  0
LINE
  5
3A6
100
AcDbEntity
  8
0
  6
CONTINUOUS
 62
               4
100
AcDbLine
 10
20.753464208001631
 20
-3.7999995223464538
 30
0.0
 11
24.000000000000014
 21
-3.7999995223464538
 31
0.0
  0
LINE
  5
3A7
100
AcDbEntity
  8
0
  6
CONTINUOUS
 62
               4
100
AcDbLine
 10
19.252309473590529
 20
-1.1999995223464452
 30
0.0
 11
24.000000000000014
 21
-1.1999995223464452
 31
0.0
  0
LINE
  5
3A8
100
AcDbEntity
  8
0
  6
CONTINUOUS
 62
               4
100
AcDbLine
 10
15.500000004768381
 20
-3.7999995223464538
 30
0.0
 11
19.253464208001631
 21
-3.7999995223464538
 31
0.0
  0
LINE
  5
3A9
100
AcDbEntity
  8
0
  6
CONTINUOUS
 62
               4
100
AcDbLine
 10
15.500000004768381
 20
-1.1999995223464452
 30
0.0
 11
17.752309473590529
 21
-1.1999995223464452
 31
0.0
  0
LINE
  5
3AA
100
AcDbEntity
  8
0
  6
CONTINUOUS
 62
               4
100
AcDbLine
 10
0.0
 20
0.0
 30
0.0
 11
15.500000004768381
 21
0.0
 31
0.0
  0
LINE
  5
3AB
100
AcDbEntity
  8
0
  6
CONTINUOUS
 62
               4
100
AcDbLine
 10
0.0
 20
-0.5499999965940106
 30
0.0
 11
15.500000004768381
 21
-0.5499999965940106
 31
0.0
  0
LINE
  5
3AC
100
AcDbEntity
  8
0
  6
CONTINUOUS
 62
               4
100
AcDbLine
 10
0.0
 20
-1.1000000027247836
 30
0.0
 11
15.500000004768381
 21
-1.1000000027247836
 31
0.0
  0
LINE
  5
3AD
100
AcDbEntity
  8
0
  6
CONTINUOUS
 62
               4
100
AcDbLine
 10
0.0
 20
-2.6000000027247836
 30
0.0
 11
4.0000000000000142
 21
-2.6000000027247836
 31
0.0
  0
LINE
  5
3AE
100
AcDbEntity
  8
0
  6
CONTINUOUS
 62
               4
100
AcDbLine
 10
0.0
 20
-1.8000000027247722
 30
0.0
 11
4.3000000034059696
 21
-1.8000000027247722
 31
0.0
  0
LINE
  5
3AF
100
AcDbEntity
  8
0
  6
CONTINUOUS
 62
               4
100
AcDbLine
 10
4.3000000034059696
 20
-4.5999995223464509
 30
0.0
 11
15.500000000000014
 21
-4.5999995223464509
 31
0.0
  0
LINE
  5
3B0
100
AcDbEntity
  8
0
  6
CONTINUOUS
 62
               4
100
AcDbLine
 10
24.000000000000014
 20
-1.1999995223464452
 30
0.0
 11
24.000000000000014
 21
-3.7999995223464538
 31
0.0
  0
LINE
  5
3B1
100
AcDbEntity
  8
0
  6
CONTINUOUS
 62
               4
100
AcDbLine
 10
15.500000004768381
 20
-4.5999995223464509
 30
0.0
 11
15.500000004768381
 21
0.0
 31
0.0
  0
LINE
  5
3B2
100
AcDbEntity
  8
0
  6
CONTINUOUS
 62
               4
100
AcDbLine
 10
4.3000000047683926
 20
-1.8000000027247722
 30
0.0
 11
4.3000000047683926
 21
-4.5999995223464509
 31
0.0
  0
LINE
  5
3B3
100
AcDbEntity
  8
0
  6
CONTINUOUS
 62
               4
100
AcDbLine
 10
3.2514285761969433
 20
-2.5998640027247859
 30
0.0
 11
3.2514285761969433
 21
-3.8998640027247831
 31
0.0
  0
LINE
  5
3B4
100
AcDbEntity
  8
0
  6
CONTINUOUS
 62
               4
100
AcDbLine
 10
3.2514285761969433
 20
-3.8998640027247831
 30
0.0
 11
2.7514285761969433
 21
-4.3998640027247831
 31
0.0
  0
LINE
  5
3B5
100
AcDbEntity
  8
0
  6
CONTINUOUS
 62
               4
100
AcDbLine
 10
1.2514285761969433
 20
-4.3998640027247831
 30
0.0
 11
2.7514285761969433
 21
-4.3998640027247831
 31
0.0
  0
LINE
  5
3B6
100
AcDbEntity
  8
0
  6
CONTINUOUS
 62
               4
100
AcDbLine
 10
1.2514285761969433
 20
-4.3998640027247831
 30
0.0
 11
0.7514285761969433
 21
-3.8998640027247831
 31
0.0
  0
LINE
  5
3B7
100
AcDbEntity
  8
0
  6
CONTINUOUS
 62
             200
100
AcDbLine
 10
0.7514285761969433
 20
-3.8998640027247831
 30
0.0
 11
3.2514285761969433
 21
-3.8998640027247831
 31
0.0
  0
LINE
  5
3B8
100
AcDbEntity
  8
0
  6
CONTINUOUS
 62
               4
100
AcDbLine
 10
0.7514285761969433
 20
-2.5998640027247859
 30
0.0
 11
0.7514285761969433
 21
-3.8998640027247831
 31
0.0
  0
LINE
  5
3B9
100
AcDbEntity
  8
0
  6
CONTINUOUS
 62
               4
100
AcDbLine
 10
0.000000004768367
 20
-1.7998640027247745
 30
0.0
 11
0.000000004768367
 21
-2.6000000027247836
 31
0.0
  0
LINE
  5
3BA
100
AcDbEntity
  8
0
  6
CONTINUOUS
 62
               4
100
AcDbLine
 10
4.0000000047683812
 20
-1.8000000027247722
 30
0.0
 11
4.0000000047683812
 21
-2.6000000027247836
 31
0.0
  0
LINE
  5
3BB
100
AcDbEntity
  8
0
  6
CENTER
 62
             200
100
AcDbLine
 10
2.000000004768367
 20
1.2864823084401849
 30
0.0
 11
2.000000004768367
 21
-5.0670362493540893
 31
0.0
  0
LINE
  5
3BC
100
AcDbEntity
  8
0
  6
CONTINUOUS
 62
               4
100
AcDbLine
 10
0.000000004768367
 20
-1.7998640027247745
 30
0.0
 11
0.000000004768367
 21
0.0
 31
0.0
  0
LINE
  5
3BD
100
AcDbEntity
  8
0
  6
CENTER
 62
             200
100
AcDbLine
 10
6.0000000047683812
 20
-6.0904161991769143
 30
0.0
 11
6.0000000047683812
 21
-3.6810090657418471
 31
0.0
  0
LINE
  5
3BE
100
AcDbEntity
  8
0
  6
CONTINUOUS
 62
               4
100
AcDbLine
 10
0.9514285761969461
 20
0.6001359972752312
 30
0.0
 11
3.0514285761969546
 21
0.6001359972752312
 31
0.0
  0
LINE
  5
3BF
100
AcDbEntity
  8
0
  6
CONTINUOUS
 62
             200
100
AcDbLine
 10
3.0500000047683926
 20
-2.5998640027247859
 30
0.0
 11
3.0500000047683926
 21
-4.1012925741533479
 31
0.0
  0
LINE
  5
3C0
100
AcDbEntity
  8
0
  6
CONTINUOUS
 62
             200
100
AcDbLine
 10
0.9500000047683699
 20
-2.5998640027247859
 30
0.0
 11
0.9500000047683699
 21
-4.0984354312962097
 31
0.0
  0
LINE
  5
3C1
100
AcDbEntity
  8
0
  6
CONTINUOUS
 62
               4
100
AcDbLine
 10
0.7514285761969433
 20
0.0
 30
0.0
 11
0.7514285761969433
 21
0.4001359972752141
 31
0.0
  0
LINE
  5
3C2
100
AcDbEntity
  8
0
  6
CONTINUOUS
 62
               4
100
AcDbLine
 10
3.2514285761969433
 20
0.4001359972752141
 30
0.0
 11
3.2514285761969433
 21
0.0
 31
0.0
  0
LINE
  5
3C3
100
AcDbEntity
  8
0
  6
CONTINUOUS
 62
               4
100
AcDbLine
 10
0.7514285761969433
 20
0.4001359972752141
 30
0.0
 11
0.9514285761969461
 21
0.6001359972752312
 31
0.0
  0
LINE
  5
3C4
100
AcDbEntity
  8
0
  6
CONTINUOUS
 62
               4
100
AcDbLine
 10
3.0514285761969546
 20
0.6001359972752312
 30
0.0
 11
3.2514285761969433
 21
0.4001359972752141
 31
0.0
  0
LINE
  5
3C5
100
AcDbEntity
  8
0
  6
CONTINUOUS
 62
               4
100
AcDbLine
 10
0.7514285761969433
 20
0.4001359972752141
 30
0.0
 11
3.2514285761969433
 21
0.4001359972752141
 31
0.0
  0
LINE
  5
3C6
100
AcDbEntity
  8
0
  6
CONTINUOUS
 62
             200
100
AcDbLine
 10
3.0500000047683926
 20
0.6001359972752312
 30
0.0
 11
3.0500000047683926
 21
0.0
 31
0.0
  0
LINE
  5
3C7
100
AcDbEntity
  8
0
  6
CONTINUOUS
 62
             200
100
AcDbLine
 10
0.9500000047683699
 20
0.6001359972752312
 30
0.0
 11
0.9500000047683699
 21
0.0
 31
0.0
  0
LINE
  5
3C8
100
AcDbEntity
  8
0
  6
CONTINUOUS
 62
               4
100
AcDbLine
 10
24.000000000000014
 20
-3.6499995223464481
 30
0.0
 11
28.146859127170174
 21
-3.6499995223464481
 31
0.0
  0
LINE
  5
3C9
100
AcDbEntity
  8
0
  6
CONTINUOUS
 62
               4
100
AcDbLine
 10
24.000000000000014
 20
-2.6499995223464481
 30
0.0
 11
27.56949192162746
 21
-2.6499995223464481
 31
0.0
  0
LINE
  5
3CA
100
AcDbEntity
  8
0
  6
CONTINUOUS
 62
               4
100
AcDbLine
 10
31.000000000000014
 20
-2.6499995223464481
 30
0.0
 11
31.000000000000014
 21
-3.6499995223464481
 31
0.0
  0
LINE
  5
3CB
100
AcDbEntity
  8
0
  6
CONTINUOUS
 62
               4
100
AcDbLine
 10
29.646859127170231
 20
-3.6499995223464481
 30
0.0
 11
31.000000000000014
 21
-3.6499995223464481
 31
0.0
  0
LINE
  5
3CC
100
AcDbEntity
  8
0
  6
CONTINUOUS
 62
               4
100
AcDbLine
 10
29.06949192162746
 20
-2.6499995223464481
 30
0.0
 11
31.000000000000014
 21
-2.6499995223464481
 31
0.0
  0
LINE
  5
3CD
100
AcDbEntity
  8
0
  6
CONTINUOUS
 62
               4
100
AcDbLine
 10
34.000000000000014
 20
-3.4399995300630763
 30
0.0
 11
34.000000000000014
 21
-2.8599995212075271
 31
0.0
  0
LINE
  5
3CE
100
AcDbEntity
  8
0
  6
CONTINUOUS
 62
               4
100
AcDbLine
 10
31.000000000000014
 20
-2.859999522346456
 30
0.0
 11
34.000000004980919
 21
-2.859999522346456
 31
0.0
  0
LINE
  5
3CF
100
AcDbEntity
  8
0
  6
CONTINUOUS
 62
               4
100
AcDbLine
 10
31.000000000000014
 20
-3.4399995223464543
 30
0.0
 11
34.000000004980919
 21
-3.4399995223464543
 31
0.0
  0
LINE
  5
3D0
100
AcDbEntity
  8
0
  6
CONTINUOUS
 62
               4
100
AcDbLine
 10
24.000000000000014
 20
-1.3499995223464509
 30
0.0
 11
26.818914554421937
 21
-1.3499995223464509
 31
0.0
  0
LINE
  5
3D1
100
AcDbEntity
  8
0
  6
CONTINUOUS
 62
               4
100
AcDbLine
 10
24.000000000000014
 20
-2.3499995223464509
 30
0.0
 11
27.39628175996468
 21
-2.3499995223464509
 31
0.0
  0
LINE
  5
3D2
100
AcDbEntity
  8
0
  6
CONTINUOUS
 62
               4
100
AcDbLine
 10
28.318914554421966
 20
-1.3499995223464509
 30
0.0
 11
31.000000000000014
 21
-1.3499995223464509
 31
0.0
  0
LINE
  5
3D3
100
AcDbEntity
  8
0
  6
CONTINUOUS
 62
               4
100
AcDbLine
 10
28.89628175996468
 20
-2.3499995223464509
 30
0.0
 11
31.000000000000014
 21
-2.3499995223464509
 31
0.0
  0
LINE
  5
3D4
100
AcDbEntity
  8
0
  6
CONTINUOUS
 62
               4
100
AcDbLine
 10
31.000000000000014
 20
-2.3499995223464509
 30
0.0
 11
31.000000000000014
 21
-1.3499995223464509
 31
0.0
  0
LINE
  5
3D5
100
AcDbEntity
  8
0
  6
CONTINUOUS
 62
               4
100
AcDbLine
 10
31.000000000000014
 20
-2.1399995223464572
 30
0.0
 11
34.000000004980919
 21
-2.1399995223464572
 31
0.0
  0
LINE
  5
3D6
100
AcDbEntity
  8
0
  6
CONTINUOUS
 62
               4
100
AcDbLine
 10
31.000000000000014
 20
-1.5599995223464589
 30
0.0
 11
34.000000004980919
 21
-1.5599995223464589
 31
0.0
  0
LINE
  5
3D7
100
AcDbEntity
  8
0
  6
CONTINUOUS
 62
               4
100
AcDbLine
 10
34.000000000000014
 20
-1.5599995146298227
 30
0.0
 11
34.000000000000014
 21
-2.1399995234853719
 31
0.0
  0
LINE
  5
3D8
100
AcDbEntity
  8
0
  6
CENTER
 62
             200
100
AcDbLine
 10
22.320000000000007
 20
-3.1499995223464481
 30
0.0
 11
34.200000000000003
 21
-3.1499995223464481
 31
0.0
  0
LINE
  5
3D9
100
AcDbEntity
  8
0
  6
CENTER
 62
             200
100
AcDbLine
 10
22.269999999999996
 20
-1.8499995223464509
 30
0.0
 11
34.200000000000003
 21
-1.8499995223464509
 31
0.0
  0
LINE
  5
3DA
100
AcDbEntity
  8
0
  6
CONTINUOUS
 62
             200
100
AcDbLine
 10
17.250000004768381
 20
-0.3299995223464407
 30
0.0
 11
19.750000004768381
 21
-4.6599995223464532
 31
0.0
  0
LINE
  5
3DB
100
AcDbEntity
  8
0
  6
CONTINUOUS
 62
             200
100
AcDbLine
 10
18.750000004768381
 20
-0.3299995223464407
 30
0.0
 11
21.250000004768381
 21
-4.6599995223464532
 31
0.0
  0
LINE
  5
3DC
100
AcDbEntity
  8
0
  6
CONTINUOUS
 62
             200
100
AcDbLine
 10
26.230000004768343
 20
-0.3299995223464407
 30
0.0
 11
28.730000004768343
 21
-4.6599995223464532
 31
0.0
  0
LINE
  5
3DD
100
AcDbEntity
  8
0
  6
CONTINUOUS
 62
             200
100
AcDbLine
 10
27.730000004768343
 20
-0.3299995223464407
 30
0.0
 11
30.230000004768343
 21
-4.6599995223464532
 31
0.0
  0
ENDBLK
  5
3DE
100
AcDbEntity
  8
0
100
AcDbBlockEnd
  0
BLOCK
  5
3DF
100
AcDbEntity
  8
0
100
AcDbBlockBegin
  2
CS-MGA8-15
 70
               0
 10
0.0
 20
0.0
 30
0.0
  3
CS-MGA8-15
  1

  0
LINE
  5
3E0
100
AcDbEntity
  8
0
  6
CONTINUOUS
 62
               4
100
AcDbLine
 10
-1.0499999999999829
 20
0.6001360000000062
 30
0.0
 11
1.0500000000000114
 21
0.6001360000000062
 31
0.0
  0
LINE
  5
3E1
100
AcDbEntity
  8
0
  6
CONTINUOUS
 62
               4
100
AcDbLine
 10
-1.25
 20
0.4001359999999892
 30
0.0
 11
1.25
 21
0.4001359999999892
 31
0.0
  0
LINE
  5
3E2
100
AcDbEntity
  8
0
  6
CONTINUOUS
 62
               4
100
AcDbLine
 10
-1.501428571428562
 20
0.0
 30
0.0
 11
1.5
 21
0.0
 31
0.0
  0
LINE
  5
3E3
100
AcDbEntity
  8
0
  6
CONTINUOUS
 62
               4
100
AcDbLine
 10
-1.25
 20
-3.8970068571428556
 30
0.0
 11
1.25
 21
-3.8970068571428556
 31
0.0
  0
LINE
  5
3E4
100
AcDbEntity
  8
0
  6
CONTINUOUS
 62
               4
100
AcDbLine
 10
1.25
 20
-3.8970068571428556
 30
0.0
 11
0.747142857142876
 21
-4.399864000000008
 31
0.0
  0
ARC
  5
3E5
100
AcDbEntity
  8
0
  6
CONTINUOUS
 62
               4
100
AcDbCircle
 10
0.0
 20
-2.5499989233983342
 30
0.0
 40
2.050000596223347
100
AcDbArc
 50
179.95630164031311
 51
0.0
  0
LINE
  5
3E6
100
AcDbEntity
  8
0
  6
CONTINUOUS
 62
               4
100
AcDbLine
 10
-2.0499999999999972
 20
-1.7999999999999972
 30
0.0
 11
2.0500000000000114
 21
-1.7999999999999972
 31
0.0
  0
LINE
  5
3E7
100
AcDbEntity
  8
0
  6
CONTINUOUS
 62
               4
100
AcDbLine
 10
-2.0499999999999972
 20
-2.6000000000000085
 30
0.0
 11
2.0493907233260273
 21
-2.6000000000000085
 31
0.0
  0
LINE
  5
3E8
100
AcDbEntity
  8
0
  6
CONTINUOUS
 62
               4
100
AcDbLine
 10
1.4999999938692525
 20
-0.5499999938692355
 30
0.0
 11
2.0500000000000114
 21
-1.1000000000000085
 31
0.0
  0
LINE
  5
3E9
100
AcDbEntity
  8
0
  6
CONTINUOUS
 62
               4
100
AcDbLine
 10
1.5
 20
-0.5499999999999972
 30
0.0
 11
1.5
 21
0.0000000027247751
 31
0.0
  0
LINE
  5
3EA
100
AcDbEntity
  8
0
  6
CONTINUOUS
 62
               4
100
AcDbLine
 10
1.25
 20
-2.5998640000000108
 30
0.0
 11
1.25
 21
-3.8970068571428556
 31
0.0
  0
LINE
  5
3EB
100
AcDbEntity
  8
0
  6
CONTINUOUS
 62
               4
100
AcDbLine
 10
2.0500000000000114
 20
-1.1000000000000085
 30
0.0
 11
2.0500000000000114
 21
-2.5484354285714375
 31
0.0
  0
LINE
  5
3EC
100
AcDbEntity
  8
0
  6
CONTINUOUS
 62
               4
100
AcDbLine
 10
1.25
 20
0.4001359999999892
 30
0.0
 11
1.25
 21
0.0
 31
0.0
  0
LINE
  5
3ED
100
AcDbEntity
  8
0
  6
CONTINUOUS
 62
               4
100
AcDbLine
 10
1.0500000000000114
 20
0.6001360000000062
 30
0.0
 11
1.25
 21
0.4001359999999892
 31
0.0
  0
LINE
  5
3EE
100
AcDbEntity
  8
0
  6
CONTINUOUS
 62
               4
100
AcDbLine
 10
-1.5
 20
-0.5471354166666771
 30
0.0
 11
-1.5
 21
0.0000000027247751
 31
0.0
  0
LINE
  5
3EF
100
AcDbEntity
  8
0
  6
CENTER
 62
             200
100
AcDbLine
 10
0.0
 20
-5.0670362466293142
 30
0.0
 11
0.0
 21
1.2864823111649599
 31
0.0
  0
LINE
  5
3F0
100
AcDbEntity
  8
0
  6
CONTINUOUS
 62
               4
100
AcDbLine
 10
-0.7471428571428476
 20
-4.399864000000008
 30
0.0
 11
0.747142857142876
 21
-4.399864000000008
 31
0.0
  0
LINE
  5
3F1
100
AcDbEntity
  8
0
  6
CONTINUOUS
 62
               4
100
AcDbLine
 10
-0.7471428571428476
 20
-4.399864000000008
 30
0.0
 11
-1.25
 21
-3.8970068571428556
 31
0.0
  0
LINE
  5
3F2
100
AcDbEntity
  8
0
  6
CONTINUOUS
 62
               4
100
AcDbLine
 10
-1.25
 20
-2.6000000000000085
 30
0.0
 11
-1.25
 21
-3.8970068571428556
 31
0.0
  0
LINE
  5
3F3
100
AcDbEntity
  8
0
  6
CONTINUOUS
 62
               4
100
AcDbLine
 10
-2.0499999999999972
 20
-1.1000000000000085
 30
0.0
 11
-1.501428571428562
 21
-0.5485714285714352
 31
0.0
  0
LINE
  5
3F4
100
AcDbEntity
  8
0
  6
CONTINUOUS
 62
               4
100
AcDbLine
 10
-2.0499999999999972
 20
-1.1000000000000085
 30
0.0
 11
-2.0499999999999972
 21
-2.5484354285714375
 31
0.0
  0
LINE
  5
3F5
100
AcDbEntity
  8
0
  6
CONTINUOUS
 62
               4
100
AcDbLine
 10
-1.25
 20
0.0
 30
0.0
 11
-1.25
 21
0.4001359999999892
 31
0.0
  0
LINE
  5
3F6
100
AcDbEntity
  8
0
  6
CONTINUOUS
 62
               4
100
AcDbLine
 10
-1.25
 20
0.4001359999999892
 30
0.0
 11
-1.0499999999999829
 21
0.6001360000000062
 31
0.0
  0
LINE
  5
3F7
100
AcDbEntity
  8
0
  6
CONTINUOUS
 62
             200
100
AcDbLine
 10
-1.0499999999999829
 20
-4.0970068571428584
 30
0.0
 11
-1.0499999999999829
 21
-2.6000000000000085
 31
0.0
  0
LINE
  5
3F8
100
AcDbEntity
  8
0
  6
CONTINUOUS
 62
             200
100
AcDbLine
 10
1.0500000000000114
 20
-4.0970068571428584
 30
0.0
 11
1.0500000000000114
 21
-2.6000000000000085
 31
0.0
  0
LINE
  5
3F9
100
AcDbEntity
  8
0
  6
CONTINUOUS
 62
             200
100
AcDbLine
 10
-1.0499999999999829
 20
0.0
 30
0.0
 11
-1.0499999999999829
 21
0.6001360000000062
 31
0.0
  0
LINE
  5
3FA
100
AcDbEntity
  8
0
  6
CONTINUOUS
 62
             200
100
AcDbLine
 10
1.0500000000000114
 20
0.0
 30
0.0
 11
1.0500000000000114
 21
0.6001360000000062
 31
0.0
  0
ENDBLK
  5
3FB
100
AcDbEntity
  8
0
100
AcDbBlockEnd
  0
BLOCK
  5
3FC
100
AcDbEntity
  8
0
100
AcDbBlockBegin
  2
CS-MGA8-16
 70
               0
 10
0.0
 20
0.0
 30
0.0
  3
CS-MGA8-16
  1

  0
LINE
  5
3FD
100
AcDbEntity
  8
0
  6
CONTINUOUS
 62
               4
100
AcDbLine
 10
0.0
 20
-2.0499999999999972
 30
0.0
 11
15.500000004768381
 21
-2.0499999999999972
 31
0.0
  0
LINE
  5
3FE
100
AcDbEntity
  8
0
  6
CONTINUOUS
 62
               4
100
AcDbLine
 10
0.0
 20
2.0500000000000114
 30
0.0
 11
15.500000004768381
 21
2.0500000000000114
 31
0.0
  0
LINE
  5
3FF
100
AcDbEntity
  8
0
  6
CONTINUOUS
 62
               4
100
AcDbLine
 10
8.0000000047683812
 20
-0.5999999999999943
 30
0.0
 11
9.6000000047683756
 21
-0.5999999999999943
 31
0.0
  0
LINE
  5
400
100
AcDbEntity
  8
0
  6
CONTINUOUS
 62
               4
100
AcDbLine
 10
8.0000000047683812
 20
0.9000000000000057
 30
0.0
 11
9.6000000047683756
 21
0.9000000000000057
 31
0.0
  0
LINE
  5
401
100
AcDbEntity
  8
0
  6
CONTINUOUS
 62
               4
100
AcDbLine
 10
1.3107513189315796
 20
-1.0428020722525559
 30
0.0
 11
3.0428021124431126
 21
0.6892487212589913
 31
0.0
  0
LINE
  5
402
100
AcDbEntity
  8
0
  6
CONTINUOUS
 62
               4
100
AcDbLine
 10
0.9571978986753322
 20
-0.6892486978790089
 30
0.0
 11
2.6892487026473901
 21
1.0428021060930348
 31
0.0
  0
CIRCLE
  5
403
100
AcDbEntity
  8
0
  6
CONTINUOUS
 62
             200
100
AcDbCircle
 10
2.000000004768367
 20
0.0
 30
0.0
 40
1.05
  0
CIRCLE
  5
404
100
AcDbEntity
  8
0
  6
CONTINUOUS
 62
               4
100
AcDbCircle
 10
2.000000004768367
 20
0.0
 30
0.0
 40
1.25
  0
CIRCLE
  5
405
100
AcDbEntity
  8
0
  6
CONTINUOUS
 62
               4
100
AcDbCircle
 10
2.000000004768367
 20
0.0
 30
0.0
 40
1.3999999999999997
  0
LINE
  5
406
100
AcDbEntity
  8
0
  6
CONTINUOUS
 62
               4
100
AcDbLine
 10
0.0
 20
-1.5
 30
0.0
 11
15.500000004768381
 21
-1.5
 31
0.0
  0
LINE
  5
407
100
AcDbEntity
  8
0
  6
CONTINUOUS
 62
               4
100
AcDbLine
 10
0.0
 20
1.5
 30
0.0
 11
15.500000004768381
 21
1.5
 31
0.0
  0
LINE
  5
408
100
AcDbEntity
  8
0
  6
CONTINUOUS
 62
               4
100
AcDbLine
 10
15.500000004768381
 20
-2.0499999999999972
 30
0.0
 11
15.500000004768381
 21
2.0500000000000114
 31
0.0
  0
LINE
  5
409
100
AcDbEntity
  8
0
  6
CONTINUOUS
 62
               4
100
AcDbLine
 10
0.0
 20
-2.0499999999999972
 30
0.0
 11
0.0
 21
2.0500000000000114
 31
0.0
  0
LINE
  5
40A
100
AcDbEntity
  8
0
  6
CONTINUOUS
 62
               4
100
AcDbLine
 10
9.6000000047683756
 20
-0.5999999999999943
 30
0.0
 11
9.6000000047683756
 21
0.9000000000000057
 31
0.0
  0
LINE
  5
40B
100
AcDbEntity
  8
0
  6
CONTINUOUS
 62
               4
100
AcDbLine
 10
8.0000000047683812
 20
-0.5999999999999943
 30
0.0
 11
8.0000000047683812
 21
0.9000000000000057
 31
0.0
  0
LINE
  5
40C
100
AcDbEntity
  8
0
  6
CONTINUOUS
 62
               4
100
AcDbLine
 10
10.400000004768359
 20
-1.5
 30
0.0
 11
10.400000004768359
 21
1.5
 31
0.0
  0
LINE
  5
40D
100
AcDbEntity
  8
0
  6
CONTINUOUS
 62
               4
100
AcDbLine
 10
3.9000000047683585
 20
-1.5
 30
0.0
 11
3.9000000047683585
 21
1.5
 31
0.0
  0
LINE
  5
40E
100
AcDbEntity
  8
0
  6
CENTER
 62
             200
100
AcDbLine
 10
2.000000004768367
 20
2.9428571428571502
 30
0.0
 11
2.000000004768367
 21
-3.2999846734234666
 31
0.0
  0
LINE
  5
40F
100
AcDbEntity
  8
0
  6
CONTINUOUS
 62
               4
100
AcDbLine
 10
15.500000004768381
 20
1.3000000000000114
 30
0.0
 11
17.752309473590529
 21
1.3000000000000114
 31
0.0
  0
LINE
  5
410
100
AcDbEntity
  8
0
  6
CONTINUOUS
 62
               4
100
AcDbLine
 10
15.500000004768381
 20
-1.2999999999999972
 30
0.0
 11
19.253464208001631
 21
-1.2999999999999972
 31
0.0
  0
LINE
  5
411
100
AcDbEntity
  8
0
  6
CONTINUOUS
 62
             200
100
AcDbLine
 10
17.250000004768381
 20
2.1700000000000159
 30
0.0
 11
19.750000004768381
 21
-2.1599999999999966
 31
0.0
  0
LINE
  5
412
100
AcDbEntity
  8
0
  6
CENTER
 62
             200
100
AcDbLine
 10
-1.4104017530168846
 20
0.0
 30
0.0
 11
21.50288684079608
 21
0.0
 31
0.0
  0
ENDBLK
  5
413
100
AcDbEntity
  8
0
100
AcDbBlockEnd
  0
BLOCK
  5
414
100
AcDbEntity
  8
0
100
AcDbBlockBegin
  2
CS-MGA8-17
 70
               0
 10
0.0
 20
0.0
 30
0.0
  3
CS-MGA8-17
  1

  0
LINE
  5
415
100
AcDbEntity
  8
0
  6
CONTINUOUS
 62
               4
100
AcDbLine
 10
11.56000000204358
 20
21.397976315961238
 30
0.0
 11
11.56000000204358
 21
24.397976315961238
 31
0.0
  0
LINE
  5
416
100
AcDbEntity
  8
0
  6
CONTINUOUS
 62
               4
100
AcDbLine
 10
12.140000002043564
 20
21.397976315961238
 30
0.0
 11
12.140000002043564
 21
24.397976315961238
 31
0.0
  0
LINE
  5
417
100
AcDbEntity
  8
0
  6
CONTINUOUS
 62
               4
100
AcDbLine
 10
12.139999995231619
 20
24.397976315961238
 30
0.0
 11
11.560000003405975
 21
24.397976315961238
 31
0.0
  0
LINE
  5
418
100
AcDbEntity
  8
0
  6
CONTINUOUS
 62
               4
100
AcDbLine
 10
12.860000014305115
 20
24.397976315961238
 30
0.0
 11
13.440000006130759
 21
24.397976315961238
 31
0.0
  0
LINE
  5
419
100
AcDbEntity
  8
0
  6
CONTINUOUS
 62
               4
100
AcDbLine
 10
13.440000007493154
 20
21.397976315961238
 30
0.0
 11
13.440000007493154
 21
24.397976315961238
 31
0.0
  0
LINE
  5
41A
100
AcDbEntity
  8
0
  6
CONTINUOUS
 62
               4
100
AcDbLine
 10
12.86000000749317
 20
21.397976315961238
 30
0.0
 11
12.86000000749317
 21
24.397976315961238
 31
0.0
  0
LINE
  5
41B
100
AcDbEntity
  8
0
  6
CENTER
 62
             200
100
AcDbLine
 10
13.150000007493162
 20
12.667976315961241
 30
0.0
 11
13.150000007493162
 21
24.647976315961238
 31
0.0
  0
LINE
  5
41C
100
AcDbEntity
  8
0
  6
CENTER
 62
             200
100
AcDbLine
 10
11.8500000020436
 20
12.667976315961241
 30
0.0
 11
11.8500000020436
 21
24.59797631596124
 31
0.0
  0
LINE
  5
41D
100
AcDbEntity
  8
0
  6
CONTINUOUS
 62
               4
100
AcDbLine
 10
12.350000004768361
 20
19.288484399102117
 30
0.0
 11
12.350000004768361
 21
21.397976315961238
 31
0.0
  0
LINE
  5
41E
100
AcDbEntity
  8
0
  6
CONTINUOUS
 62
               4
100
AcDbLine
 10
11.350000004768361
 20
18.711117193559389
 30
0.0
 11
11.350000004768361
 21
21.397976315961238
 31
0.0
  0
LINE
  5
41F
100
AcDbEntity
  8
0
  6
CONTINUOUS
 62
               4
100
AcDbLine
 10
13.650000004768373
 20
20.039061766307668
 30
0.0
 11
13.650000004768373
 21
21.397976315961238
 31
0.0
  0
LINE
  5
420
100
AcDbEntity
  8
0
  6
CONTINUOUS
 62
               4
100
AcDbLine
 10
12.650000004768373
 20
19.46169456076494
 30
0.0
 11
12.650000004768373
 21
21.397976315961238
 31
0.0
  0
LINE
  5
421
100
AcDbEntity
  8
0
  6
CONTINUOUS
 62
               4
100
AcDbLine
 10
12.650000004768373
 20
21.397976315961238
 30
0.0
 11
13.650000010217923
 21
21.397976315961238
 31
0.0
  0
LINE
  5
422
100
AcDbEntity
  8
0
  6
CONTINUOUS
 62
               4
100
AcDbLine
 10
11.350000006811968
 20
21.397976315961238
 30
0.0
 11
12.350000004768361
 21
21.397976315961238
 31
0.0
  0
LINE
  5
423
100
AcDbEntity
  8
0
  6
CONTINUOUS
 62
               4
100
AcDbLine
 10
11.350000004768361
 20
14.397976315961245
 30
0.0
 11
11.350000004768361
 21
17.211117193559389
 31
0.0
  0
LINE
  5
424
100
AcDbEntity
  8
0
  6
CONTINUOUS
 62
               4
100
AcDbLine
 10
13.650000004768373
 20
14.397976315961245
 30
0.0
 11
13.650000004768373
 21
18.539061766307668
 31
0.0
  0
LINE
  5
425
100
AcDbEntity
  8
0
  6
CONTINUOUS
 62
               4
100
AcDbLine
 10
12.650000004768373
 20
14.397976315961245
 30
0.0
 11
12.650000004768373
 21
17.96169456076494
 31
0.0
  0
LINE
  5
426
100
AcDbEntity
  8
0
  6
CONTINUOUS
 62
               4
100
AcDbLine
 10
12.350000004768361
 20
14.397976315961245
 30
0.0
 11
12.350000004768361
 21
17.788484399102117
 31
0.0
  0
LINE
  5
427
100
AcDbEntity
  8
0
  6
CONTINUOUS
 62
               4
100
AcDbLine
 10
10.400000010217923
 20
1.4979762335365336
 30
0.0
 11
15.000000004768367
 21
1.4979762335365336
 31
0.0
  0
LINE
  5
428
100
AcDbEntity
  8
0
  6
CONTINUOUS
 62
               4
100
AcDbLine
 10
10.399999993188032
 20
0.9479762301305641
 30
0.0
 11
15.0
 21
0.9479762301305641
 31
0.0
  0
LINE
  5
429
100
AcDbEntity
  8
0
  6
CONTINUOUS
 62
               4
100
AcDbLine
 10
0.0
 20
-0.5500000000000114
 30
0.0
 11
15.000000004768367
 21
-0.5500000000000114
 31
0.0
  0
LINE
  5
42A
100
AcDbEntity
  8
0
  6
CONTINUOUS
 62
               4
100
AcDbLine
 10
0.0
 20
-1.1000000082564156
 30
0.0
 11
15.0
 21
-1.1000000082564156
 31
0.0
  0
LINE
  5
42B
100
AcDbEntity
  8
0
  6
CONTINUOUS
 62
               4
100
AcDbLine
 10
0.0
 20
-2.6000000000000085
 30
0.0
 11
4.0
 21
-2.6000000000000085
 31
0.0
  0
LINE
  5
42C
100
AcDbEntity
  8
0
  6
CONTINUOUS
 62
               4
100
AcDbLine
 10
0.000000004768367
 20
-1.8000000000000114
 30
0.0
 11
4.3000000047683784
 21
-1.8000000000000114
 31
0.0
  0
LINE
  5
42D
100
AcDbEntity
  8
0
  6
CONTINUOUS
 62
               4
100
AcDbLine
 10
0.0
 20
0.0
 30
0.0
 11
15.0
 21
0.0
 31
0.0
  0
LINE
  5
42E
100
AcDbEntity
  8
0
  6
CONTINUOUS
 62
               4
100
AcDbLine
 10
4.3000000034059838
 20
-4.6000000000000085
 30
0.0
 11
15.0
 21
-4.6000000000000085
 31
0.0
  0
LINE
  5
42F
100
AcDbEntity
  8
0
  6
CONTINUOUS
 62
               4
100
AcDbLine
 10
13.800000004768378
 20
5.8979763159612446
 30
0.0
 11
13.800000004768378
 21
9.6456668471390827
 31
0.0
  0
LINE
  5
430
100
AcDbEntity
  8
0
  6
CONTINUOUS
 62
               4
100
AcDbLine
 10
11.200000004768356
 20
5.8979763159612446
 30
0.0
 11
11.200000004768356
 21
8.1445121127279805
 31
0.0
  0
LINE
  5
431
100
AcDbEntity
  8
0
  6
CONTINUOUS
 62
               4
100
AcDbLine
 10
11.200000004768356
 20
14.397976315961245
 30
0.0
 11
13.800000004768378
 21
14.397976315961245
 31
0.0
  0
LINE
  5
432
100
AcDbEntity
  8
0
  6
CONTINUOUS
 62
               4
100
AcDbLine
 10
15.000000004768367
 20
-4.6000000000000085
 30
0.0
 11
15.000000004768367
 21
4.8979763159612446
 31
0.0
  0
LINE
  5
433
100
AcDbEntity
  8
0
  6
CONTINUOUS
 62
               4
100
AcDbLine
 10
4.3000000047683784
 20
-1.8000000000000114
 30
0.0
 11
4.3000000047683784
 21
-4.6000000000000085
 31
0.0
  0
LINE
  5
434
100
AcDbEntity
  8
0
  6
CONTINUOUS
 62
               4
100
AcDbLine
 10
3.251428576196929
 20
-2.6020236840387554
 30
0.0
 11
3.251428576196929
 21
-3.9020236840387525
 31
0.0
  0
LINE
  5
435
100
AcDbEntity
  8
0
  6
CONTINUOUS
 62
               4
100
AcDbLine
 10
3.251428576196929
 20
-3.9020236840387525
 30
0.0
 11
2.751428576196929
 21
-4.4020236840387525
 31
0.0
  0
LINE
  5
436
100
AcDbEntity
  8
0
  6
CONTINUOUS
 62
               4
100
AcDbLine
 10
1.251428576196929
 20
-4.4020236840387525
 30
0.0
 11
2.751428576196929
 21
-4.4020236840387525
 31
0.0
  0
LINE
  5
437
100
AcDbEntity
  8
0
  6
CONTINUOUS
 62
               4
100
AcDbLine
 10
1.251428576196929
 20
-4.4020236840387525
 30
0.0
 11
0.751428576196929
 21
-3.9020236840387525
 31
0.0
  0
LINE
  5
438
100
AcDbEntity
  8
0
  6
CONTINUOUS
 62
             200
100
AcDbLine
 10
0.751428576196929
 20
-3.9020236840387525
 30
0.0
 11
3.251428576196929
 21
-3.9020236840387525
 31
0.0
  0
LINE
  5
439
100
AcDbEntity
  8
0
  6
CONTINUOUS
 62
               4
100
AcDbLine
 10
0.751428576196929
 20
-2.6020236840387554
 30
0.0
 11
0.751428576196929
 21
-3.9020236840387525
 31
0.0
  0
LINE
  5
43A
100
AcDbEntity
  8
0
  6
CONTINUOUS
 62
               4
100
AcDbLine
 10
0.000000004768367
 20
-1.8020236840387582
 30
0.0
 11
0.000000004768367
 21
-2.6020236840387554
 31
0.0
  0
LINE
  5
43B
100
AcDbEntity
  8
0
  6
CONTINUOUS
 62
               4
100
AcDbLine
 10
4.000000004768367
 20
-1.8020236840387582
 30
0.0
 11
4.000000004768367
 21
-2.6020236840387554
 31
0.0
  0
LINE
  5
43C
100
AcDbEntity
  8
0
  6
CENTER
 62
             200
100
AcDbLine
 10
2.000000004768367
 20
1.2843226271262154
 30
0.0
 11
2.000000004768367
 21
-5.0691959306680587
 31
0.0
  0
LINE
  5
43D
100
AcDbEntity
  8
0
  6
CONTINUOUS
 62
               4
100
AcDbLine
 10
0.000000004768367
 20
-1.8020236840387582
 30
0.0
 11
0.000000004768367
 21
0.0
 31
0.0
  0
LINE
  5
43E
100
AcDbEntity
  8
0
  6
CENTER
 62
             200
100
AcDbLine
 10
6.000000004768367
 20
-6.0925758804908838
 30
0.0
 11
6.000000004768367
 21
-3.6831687470558165
 31
0.0
  0
LINE
  5
43F
100
AcDbEntity
  8
0
  6
CONTINUOUS
 62
               4
100
AcDbLine
 10
0.9514285761969461
 20
0.5979763159612475
 30
0.0
 11
3.0514285761969404
 21
0.5979763159612475
 31
0.0
  0
LINE
  5
440
100
AcDbEntity
  8
0
  6
CONTINUOUS
 62
             200
100
AcDbLine
 10
3.0500000047683784
 20
-2.6020236840387554
 30
0.0
 11
3.0500000047683784
 21
-4.1034522554673174
 31
0.0
  0
LINE
  5
441
100
AcDbEntity
  8
0
  6
CONTINUOUS
 62
             200
100
AcDbLine
 10
0.9500000047683557
 20
-2.6020236840387554
 30
0.0
 11
0.9500000047683557
 21
-4.1005951126101792
 31
0.0
  0
LINE
  5
442
100
AcDbEntity
  8
0
  6
CONTINUOUS
 62
               4
100
AcDbLine
 10
0.751428576196929
 20
-0.0020236840387469
 30
0.0
 11
0.751428576196929
 21
0.3979763159612446
 31
0.0
  0
LINE
  5
443
100
AcDbEntity
  8
0
  6
CONTINUOUS
 62
               4
100
AcDbLine
 10
3.251428576196929
 20
0.3979763159612446
 30
0.0
 11
3.251428576196929
 21
-0.0020236840387469
 31
0.0
  0
LINE
  5
444
100
AcDbEntity
  8
0
  6
CONTINUOUS
 62
               4
100
AcDbLine
 10
0.751428576196929
 20
0.3979763159612446
 30
0.0
 11
0.9514285761969461
 21
0.5979763159612475
 31
0.0
  0
LINE
  5
445
100
AcDbEntity
  8
0
  6
CONTINUOUS
 62
               4
100
AcDbLine
 10
3.0514285761969404
 20
0.5979763159612475
 30
0.0
 11
3.251428576196929
 21
0.3979763159612446
 31
0.0
  0
LINE
  5
446
100
AcDbEntity
  8
0
  6
CONTINUOUS
 62
               4
100
AcDbLine
 10
0.751428576196929
 20
0.3979763159612446
 30
0.0
 11
3.251428576196929
 21
0.3979763159612446
 31
0.0
  0
LINE
  5
447
100
AcDbEntity
  8
0
  6
CONTINUOUS
 62
             200
100
AcDbLine
 10
3.0500000047683784
 20
0.5979763159612475
 30
0.0
 11
3.0500000047683784
 21
-0.0020236840387469
 31
0.0
  0
LINE
  5
448
100
AcDbEntity
  8
0
  6
CONTINUOUS
 62
             200
100
AcDbLine
 10
0.9500000047683557
 20
0.5979763159612475
 30
0.0
 11
0.9500000047683557
 21
-0.0020236840387469
 31
0.0
  0
LINE
  5
449
100
AcDbEntity
  8
0
  6
CENTER
 62
             200
100
AcDbLine
 10
12.500000004768367
 20
5.393395200374826
 30
0.0
 11
12.500000004768367
 21
17.186465534727617
 31
0.0
  0
LINE
  5
44A
100
AcDbEntity
  8
0
  6
CONTINUOUS
 62
               4
100
AcDbLine
 10
15.000000004768367
 20
3.8979763159612446
 30
0.0
 11
10.400000004768373
 21
3.8979763159612446
 31
0.0
  0
LINE
  5
44B
100
AcDbEntity
  8
0
  6
CONTINUOUS
 62
               4
100
AcDbLine
 10
10.400000004768373
 20
5.8979763159612446
 30
0.0
 11
14.60000000476839
 21
5.8979763159612446
 31
0.0
  0
LINE
  5
44C
100
AcDbEntity
  8
0
  6
CONTINUOUS
 62
               4
100
AcDbLine
 10
10.400000004768373
 20
-0.0020236840387469
 30
0.0
 11
10.400000004768373
 21
5.8979763159612446
 31
0.0
  0
LINE
  5
44D
100
AcDbEntity
  8
0
  6
CONTINUOUS
 62
               4
100
AcDbLine
 10
14.60000000476839
 20
4.8979763159612446
 30
0.0
 11
14.60000000476839
 21
5.8979763159612446
 31
0.0
  0
LINE
  5
44E
100
AcDbEntity
  8
0
  6
CONTINUOUS
 62
               4
100
AcDbLine
 10
12.949044341473041
 20
4.8979763159612446
 30
0.0
 11
15.000000004768367
 21
4.8979763159612446
 31
0.0
  0
LINE
  5
44F
100
AcDbEntity
  8
0
  6
CONTINUOUS
 62
               4
100
AcDbLine
 10
12.949044341473041
 20
4.8979763118740749
 30
0.0
 11
12.949044341473041
 21
5.8979763118740749
 31
0.0
  0
LINE
  5
450
100
AcDbEntity
  8
0
  6
CONTINUOUS
 62
               4
100
AcDbLine
 10
12.050955668063693
 20
1.4979762296661931
 30
0.0
 11
12.050955668063693
 21
5.8979763159612446
 31
0.0
  0
LINE
  5
451
100
AcDbEntity
  8
0
  6
CONTINUOUS
 62
               4
100
AcDbLine
 10
10.400000010217923
 20
0.9479762348989311
 30
0.0
 11
12.050955668063693
 21
1.4979762296661931
 31
0.0
  0
LINE
  5
452
100
AcDbEntity
  8
0
  6
CONTINUOUS
 62
             200
100
AcDbLine
 10
10.34000000476837
 20
9.1479763159612446
 30
0.0
 11
14.670000004768355
 21
11.647976315961245
 31
0.0
  0
LINE
  5
453
100
AcDbEntity
  8
0
  6
CONTINUOUS
 62
             200
100
AcDbLine
 10
10.34000000476837
 20
7.6479763159612446
 30
0.0
 11
14.670000004768355
 21
10.147976315961245
 31
0.0
  0
LINE
  5
454
100
AcDbEntity
  8
0
  6
CONTINUOUS
 62
             200
100
AcDbLine
 10
10.34000000476837
 20
18.127976315961234
 30
0.0
 11
14.670000004768355
 21
20.627976315961234
 31
0.0
  0
LINE
  5
455
100
AcDbEntity
  8
0
  6
CONTINUOUS
 62
             200
100
AcDbLine
 10
10.34000000476837
 20
16.627976315961234
 30
0.0
 11
14.670000004768355
 21
19.127976315961234
 31
0.0
  0
LINE
  5
456
100
AcDbEntity
  8
0
  6
CONTINUOUS
 62
               4
100
AcDbLine
 10
13.800000004768378
 20
11.145666847139083
 30
0.0
 11
13.800000004768378
 21
14.397976315961245
 31
0.0
  0
LINE
  5
457
100
AcDbEntity
  8
0
  6
CONTINUOUS
 62
               4
100
AcDbLine
 10
11.200000004768356
 20
9.6445121127279805
 30
0.0
 11
11.200000004768356
 21
14.397976315961245
 31
0.0
  0
ENDBLK
  5
458
100
AcDbEntity
  8
0
100
AcDbBlockEnd
  0
BLOCK
  5
459
100
AcDbEntity
  8
0
100
AcDbBlockBegin
  2
CS-MGA8-18
 70
               0
 10
0.0
 20
0.0
 30
0.0
  3
CS-MGA8-18
  1

  0
LINE
  5
45A
100
AcDbEntity
  8
0
  6
CONTINUOUS
 62
             200
100
AcDbLine
 10
-1.0250000000000057
 20
-0.0000000014444481
 30
0.0
 11
-1.0250000000000057
 21
0.5979763159612475
 31
0.0
  0
LINE
  5
45B
100
AcDbEntity
  8
0
  6
CONTINUOUS
 62
             200
100
AcDbLine
 10
1.0250000000000057
 20
-0.0000000014444481
 30
0.0
 11
1.0250000000000057
 21
0.5979763159612475
 31
0.0
  0
LINE
  5
45C
100
AcDbEntity
  8
0
  6
CONTINUOUS
 62
             200
100
AcDbLine
 10
1.0250000000000057
 20
-4.1241665411816086
 30
0.0
 11
1.0250000000000057
 21
-2.6000000000000085
 31
0.0
  0
LINE
  5
45D
100
AcDbEntity
  8
0
  6
CONTINUOUS
 62
             200
100
AcDbLine
 10
-1.0250000000000057
 20
-4.1241665411816086
 30
0.0
 11
-1.0250000000000057
 21
-2.6000000000000085
 31
0.0
  0
LINE
  5
45E
100
AcDbEntity
  8
0
  6
CENTER
 62
             200
100
AcDbLine
 10
0.0
 20
-5.5464060491292599
 30
0.0
 11
0.0
 21
9.6693480170655448
 31
0.0
  0
LINE
  5
45F
100
AcDbEntity
  8
0
  6
CONTINUOUS
 62
               4
100
AcDbLine
 10
1.2999999999999829
 20
5.8979762296661846
 30
0.0
 11
1.2999999999999829
 21
9.6456667608440085
 31
0.0
  0
LINE
  5
460
100
AcDbEntity
  8
0
  6
CONTINUOUS
 62
               4
100
AcDbLine
 10
-1.3000000000000114
 20
5.8979762296661846
 30
0.0
 11
-1.3000000000000114
 21
8.1445120264329205
 31
0.0
  0
LINE
  5
461
100
AcDbEntity
  8
0
  6
CONTINUOUS
 62
               4
100
AcDbLine
 10
-1.9994048873898294
 20
-2.6000000000000085
 30
0.0
 11
2.0005951126101706
 21
-2.6000000000000085
 31
0.0
  0
LINE
  5
462
100
AcDbEntity
  8
0
  6
CONTINUOUS
 62
               4
100
AcDbLine
 10
-2.0500000000000114
 20
-1.8000000000000114
 30
0.0
 11
2.0499999999999829
 21
-1.8000000000000114
 31
0.0
  0
LINE
  5
463
100
AcDbEntity
  8
0
  6
CONTINUOUS
 62
               4
100
AcDbLine
 10
-1.5000000019615243
 20
0.0
 30
0.0
 11
1.4999999980384757
 21
0.0
 31
0.0
  0
LINE
  5
464
100
AcDbEntity
  8
0
  6
CONTINUOUS
 62
               4
100
AcDbLine
 10
1.5
 20
-0.5500000048504319
 30
0.0
 11
1.5
 21
0.9479762301305641
 31
0.0
  0
LINE
  5
465
100
AcDbEntity
  8
0
  6
CONTINUOUS
 62
               4
100
AcDbLine
 10
-1.5
 20
-0.5511933238986302
 30
0.0
 11
-1.5
 21
0.9479762301305641
 31
0.0
  0
LINE
  5
466
100
AcDbEntity
  8
0
  6
CONTINUOUS
 62
               4
100
AcDbLine
 10
-2.050000005367508
 20
1.4979762335365336
 30
0.0
 11
-1.5
 21
0.9479762281690256
 31
0.0
  0
LINE
  5
467
100
AcDbEntity
  8
0
  6
CONTINUOUS
 62
               4
100
AcDbLine
 10
1.5
 20
0.9479762320920884
 30
0.0
 11
2.0500000014444595
 21
1.4979762335365336
 31
0.0
  0
LINE
  5
468
100
AcDbEntity
  8
0
  6
CONTINUOUS
 62
               4
100
AcDbLine
 10
2.0499999999999829
 20
1.4979762320920855
 30
0.0
 11
2.0499999999999829
 21
5.8979762296661846
 31
0.0
  0
LINE
  5
469
100
AcDbEntity
  8
0
  6
CONTINUOUS
 62
               4
100
AcDbLine
 10
-2.0500000000000114
 20
1.4979762281690228
 30
0.0
 11
-2.0500000000000114
 21
5.8979762296661846
 31
0.0
  0
ARC
  5
46A
100
AcDbEntity
  8
0
  6
CONTINUOUS
 62
               4
100
AcDbCircle
 10
0.0
 20
-2.5500000000000114
 30
0.0
 40
2.0499999999999994
100
AcDbArc
 50
179.99999999999963
 51
0.0
  0
LINE
  5
46B
100
AcDbEntity
  8
0
  6
CONTINUOUS
 62
               4
100
AcDbLine
 10
2.0499999999999829
 20
-2.6411128569469895
 30
0.0
 11
2.0499999999999829
 21
-1.1000000082564156
 31
0.0
  0
LINE
  5
46C
100
AcDbEntity
  8
0
  6
CONTINUOUS
 62
               4
100
AcDbLine
 10
-2.0500000000000114
 20
-2.550595112610182
 30
0.0
 11
-2.0500000000000114
 21
-1.1020236840387554
 31
0.0
  0
LINE
  5
46D
100
AcDbEntity
  8
0
  6
CONTINUOUS
 62
               4
100
AcDbLine
 10
-0.7471428571428476
 20
-4.4020236840387525
 30
0.0
 11
0.7471428571428476
 21
-4.4020236840387525
 31
0.0
  0
LINE
  5
46E
100
AcDbEntity
  8
0
  6
CONTINUOUS
 62
               4
100
AcDbLine
 10
-1.9994048873898294
 20
-1.8000000000000114
 30
0.0
 11
-1.9994048873898294
 21
-2.6020236840387554
 31
0.0
  0
LINE
  5
46F
100
AcDbEntity
  8
0
  6
CONTINUOUS
 62
               4
100
AcDbLine
 10
2.0005951126101706
 20
-1.8000000000000114
 30
0.0
 11
2.0005951126101706
 21
-2.6020236840387554
 31
0.0
  0
LINE
  5
470
100
AcDbEntity
  8
0
  6
CONTINUOUS
 62
               4
100
AcDbLine
 10
-0.7471428571428476
 20
-4.4020236840387525
 30
0.0
 11
-1.25
 21
-3.8991665411816143
 31
0.0
  0
LINE
  5
471
100
AcDbEntity
  8
0
  6
CONTINUOUS
 62
               4
100
AcDbLine
 10
1.25
 20
-3.8991665411816143
 30
0.0
 11
0.7471428571428476
 21
-4.4020236840387525
 31
0.0
  0
LINE
  5
472
100
AcDbEntity
  8
0
  6
CONTINUOUS
 62
               4
100
AcDbLine
 10
-1.25
 20
-3.8991665411816143
 30
0.0
 11
1.25
 21
-3.8991665411816143
 31
0.0
  0
LINE
  5
473
100
AcDbEntity
  8
0
  6
CONTINUOUS
 62
               4
100
AcDbLine
 10
-1.25
 20
-2.6000000000000085
 30
0.0
 11
-1.25
 21
-3.8991665411816143
 31
0.0
  0
LINE
  5
474
100
AcDbEntity
  8
0
  6
CONTINUOUS
 62
               4
100
AcDbLine
 10
1.25
 20
-2.6000000000000085
 30
0.0
 11
1.25
 21
-3.8991665411816143
 31
0.0
  0
LINE
  5
475
100
AcDbEntity
  8
0
  6
CONTINUOUS
 62
               4
100
AcDbLine
 10
2.0499999999999829
 20
-1.1000000000000085
 30
0.0
 11
1.5
 21
-0.5500000000000114
 31
0.0
  0
LINE
  5
476
100
AcDbEntity
  8
0
  6
CONTINUOUS
 62
               4
100
AcDbLine
 10
-2.0479763159612503
 20
-1.1020236840387554
 30
0.0
 11
-1.5
 21
-0.5511933247651939
 31
0.0
  0
LINE
  5
477
100
AcDbEntity
  8
0
  6
CONTINUOUS
 62
               4
100
AcDbLine
 10
-1.25
 20
0.0
 30
0.0
 11
-1.25
 21
0.3979763159612446
 31
0.0
  0
LINE
  5
478
100
AcDbEntity
  8
0
  6
CONTINUOUS
 62
               4
100
AcDbLine
 10
1.25
 20
0.3979763159612446
 30
0.0
 11
1.25
 21
0.0
 31
0.0
  0
LINE
  5
479
100
AcDbEntity
  8
0
  6
CONTINUOUS
 62
               4
100
AcDbLine
 10
-1.25
 20
0.3979763159612446
 30
0.0
 11
1.25
 21
0.3979763159612446
 31
0.0
  0
LINE
  5
47A
100
AcDbEntity
  8
0
  6
CONTINUOUS
 62
               4
100
AcDbLine
 10
1.0499999999999829
 20
0.5979763159612475
 30
0.0
 11
1.25
 21
0.3979763159612446
 31
0.0
  0
LINE
  5
47B
100
AcDbEntity
  8
0
  6
CONTINUOUS
 62
               4
100
AcDbLine
 10
-1.25
 20
0.3979763159612446
 30
0.0
 11
-1.0500000000000114
 21
0.5979763159612475
 31
0.0
  0
LINE
  5
47C
100
AcDbEntity
  8
0
  6
CONTINUOUS
 62
               4
100
AcDbLine
 10
-1.0500000000000114
 20
0.5979763159612475
 30
0.0
 11
1.0499999999999829
 21
0.5979763159612475
 31
0.0
  0
LINE
  5
47D
100
AcDbEntity
  8
0
  6
CONTINUOUS
 62
               4
100
AcDbLine
 10
-2.0500000000000114
 20
3.8979762296661846
 30
0.0
 11
2.0499999999999829
 21
3.8979762296661846
 31
0.0
  0
LINE
  5
47E
100
AcDbEntity
  8
0
  6
CONTINUOUS
 62
               4
100
AcDbLine
 10
-2.0500000000000114
 20
5.8979762296661846
 30
0.0
 11
2.0499999999999829
 21
5.8979762296661846
 31
0.0
  0
LINE
  5
47F
100
AcDbEntity
  8
0
  6
CONTINUOUS
 62
             200
100
AcDbLine
 10
-2.1599999999999966
 20
7.6479762296661846
 30
0.0
 11
2.1699999999999875
 21
10.147976229666185
 31
0.0
  0
ENDBLK
  5
480
100
AcDbEntity
  8
0
100
AcDbBlockEnd
  0
BLOCK
  5
481
100
AcDbEntity
  8
0
100
AcDbBlockBegin
  2
CS-MGA8-19
 70
               0
 10
0.0
 20
0.0
 30
0.0
  3
CS-MGA8-19
  1

  0
CIRCLE
  5
482
100
AcDbEntity
  8
0
  6
CONTINUOUS
 62
               4
100
AcDbCircle
 10
11.849999997275233
 20
0.0
 30
0.0
 40
0.29
  0
CIRCLE
  5
483
100
AcDbEntity
  8
0
  6
CONTINUOUS
 62
               4
100
AcDbCircle
 10
13.150000002724795
 20
0.0
 30
0.0
 40
0.29
  0
CIRCLE
  5
484
100
AcDbEntity
  8
0
  6
CONTINUOUS
 62
               4
100
AcDbCircle
 10
11.849999997275233
 20
0.0
 30
0.0
 40
0.5
  0
CIRCLE
  5
485
100
AcDbEntity
  8
0
  6
CONTINUOUS
 62
               4
100
AcDbCircle
 10
13.150000002724795
 20
0.0
 30
0.0
 40
0.5
  0
LINE
  5
486
100
AcDbEntity
  8
0
  6
CENTER
 62
             200
100
AcDbLine
 10
13.150000002724795
 20
-0.8054622970305871
 30
0.0
 11
13.150000002724795
 21
0.8557856223879981
 31
0.0
  0
LINE
  5
487
100
AcDbEntity
  8
0
  6
CENTER
 62
             200
100
AcDbLine
 10
11.849999997275233
 20
-0.8054622970305871
 30
0.0
 11
11.849999997275233
 21
0.8557856223879981
 31
0.0
  0
CIRCLE
  5
488
100
AcDbEntity
  8
0
  6
CONTINUOUS
 62
               4
100
AcDbCircle
 10
2.0
 20
0.0
 30
0.0
 40
1.25
  0
CIRCLE
  5
489
100
AcDbEntity
  8
0
  6
CONTINUOUS
 62
             200
100
AcDbCircle
 10
2.0
 20
0.0
 30
0.0
 40
1.05
  0
CIRCLE
  5
48A
100
AcDbEntity
  8
0
  6
CONTINUOUS
 62
               4
100
AcDbCircle
 10
2.0
 20
0.0
 30
0.0
 40
1.3999999999999997
  0
LINE
  5
48B
100
AcDbEntity
  8
0
  6
CONTINUOUS
 62
               4
100
AcDbLine
 10
0.0
 20
-1.5
 30
0.0
 11
11.030306154330106
 21
-1.5
 31
0.0
  0
LINE
  5
48C
100
AcDbEntity
  8
0
  6
CONTINUOUS
 62
               4
100
AcDbLine
 10
0.0
 20
-2.0499999999999972
 30
0.0
 11
15.0
 21
-2.0499999999999972
 31
0.0
  0
LINE
  5
48D
100
AcDbEntity
  8
0
  6
CONTINUOUS
 62
               4
100
AcDbLine
 10
0.0
 20
2.0499999999999972
 30
0.0
 11
15.0
 21
2.0499999999999972
 31
0.0
  0
LINE
  5
48E
100
AcDbEntity
  8
0
  6
CONTINUOUS
 62
               4
100
AcDbLine
 10
8.0
 20
-0.7000000000000028
 30
0.0
 11
9.6000000000000227
 21
-0.7000000000000028
 31
0.0
  0
LINE
  5
48F
100
AcDbEntity
  8
0
  6
CONTINUOUS
 62
               4
100
AcDbLine
 10
8.0
 20
0.9000000000000057
 30
0.0
 11
9.6000000000000227
 21
0.9000000000000057
 31
0.0
  0
LINE
  5
490
100
AcDbEntity
  8
0
  6
CONTINUOUS
 62
               4
100
AcDbLine
 10
9.6000000000000227
 20
-0.7000000068119476
 30
0.0
 11
9.6000000000000227
 21
0.9000000000000057
 31
0.0
  0
LINE
  5
491
100
AcDbEntity
  8
0
  6
CONTINUOUS
 62
               4
100
AcDbLine
 10
8.0
 20
-0.7000000068119476
 30
0.0
 11
8.0
 21
0.9000000000000057
 31
0.0
  0
LINE
  5
492
100
AcDbEntity
  8
0
  6
CONTINUOUS
 62
               4
100
AcDbLine
 10
10.400000000000006
 20
-1.5028571503502945
 30
0.0
 11
10.400000000000006
 21
1.500000006811959
 31
0.0
  0
LINE
  5
493
100
AcDbEntity
  8
0
  6
CONTINUOUS
 62
               4
100
AcDbLine
 10
3.9000000000000057
 20
-1.5028571503502945
 30
0.0
 11
3.9000000000000057
 21
1.500000006811959
 31
0.0
  0
LINE
  5
494
100
AcDbEntity
  8
0
  6
CONTINUOUS
 62
               4
100
AcDbLine
 10
1.3085714285714403
 20
-1.068571428571417
 30
0.0
 11
3.0519930369714814
 21
0.6748501798286242
 31
0.0
  0
LINE
  5
495
100
AcDbEntity
  8
0
  6
CONTINUOUS
 62
               4
100
AcDbLine
 10
0.9571428571428555
 20
-0.7142857142857082
 30
0.0
 11
2.6885714285714357
 21
1.019999999999996
 31
0.0
  0
LINE
  5
496
100
AcDbEntity
  8
0
  6
CENTER
 62
             200
100
AcDbLine
 10
2.0
 20
2.8342857142857127
 30
0.0
 11
2.0
 21
-3.3514132448520257
 31
0.0
  0
LINE
  5
497
100
AcDbEntity
  8
0
  6
CONTINUOUS
 62
               4
100
AcDbLine
 10
15.0
 20
2.0499999999999972
 30
0.0
 11
15.0
 21
-2.0499999999999972
 31
0.0
  0
LINE
  5
498
100
AcDbEntity
  8
0
  6
CONTINUOUS
 62
               4
100
AcDbLine
 10
0.0
 20
2.0499999999999972
 30
0.0
 11
0.0
 21
-2.0499999999999972
 31
0.0
  0
LINE
  5
499
100
AcDbEntity
  8
0
  6
CONTINUOUS
 62
               4
100
AcDbLine
 10
0.0
 20
1.5
 30
0.0
 11
11.030306154330106
 21
1.5
 31
0.0
  0
LINE
  5
49A
100
AcDbEntity
  8
0
  6
CENTER
 62
             200
100
AcDbLine
 10
-1.3247205773654969
 20
0.0
 30
0.0
 11
16.237619114850219
 21
0.0
 31
0.0
  0
ARC
  5
49B
100
AcDbEntity
  8
0
  6
CONTINUOUS
 62
               4
100
AcDbCircle
 10
12.5
 20
0.0
 30
0.0
 40
2.1000000000000001
100
AcDbArc
 50
102.7063418384293
 51
257.65306763258661
  0
ARC
  5
49C
100
AcDbEntity
  8
0
  6
CONTINUOUS
 62
               4
100
AcDbCircle
 10
12.5
 20
0.0
 30
0.0
 40
2.1000000000000001
100
AcDbArc
 50
282.34693236741299
 51
77.293658161570335
  0
LINE
  5
49D
100
AcDbEntity
  8
0
  6
CENTER
 62
             200
100
AcDbLine
 10
12.5
 20
-2.442956204414358
 30
0.0
 11
12.5
 21
2.4456261784689701
 31
0.0
  0
CIRCLE
  5
49E
100
AcDbEntity
  8
0
  6
CONTINUOUS
 62
               4
100
AcDbCircle
 10
12.5
 20
0.0
 30
0.0
 40
1.3
  0
ENDBLK
  5
49F
100
AcDbEntity
  8
0
100
AcDbBlockEnd
  0
BLOCK
  5
4A0
100
AcDbEntity
  8
0
100
AcDbBlockBegin
  2
CS-MGA8-20
 70
               0
 10
0.0
 20
0.0
 30
0.0
  3
CS-MGA8-20
  1

  0
LINE
  5
4A1
100
AcDbEntity
  8
0
  6
CONTINUOUS
 62
               7
100
AcDbLine
 10
-9.0
 20
12.0
 30
0.0
 11
-9.0
 21
5.4000000000000057
 31
0.0
  0
ARC
  5
4A2
100
AcDbEntity
  8
0
  6
CONTINUOUS
 62
               7
100
AcDbCircle
 10
-10.0
 20
5.1999999999999886
 30
0.0
 40
0.5
100
AcDbArc
 50
191.53695903281371
 51
348.46304096718507
  0
ARC
  5
4A3
100
AcDbEntity
  8
0
  6
CONTINUOUS
 62
               7
100
AcDbCircle
 10
-9.9299999999999784
 20
5.2700000000000102
 30
0.0
 40
0.6000000000000001
100
AcDbArc
 50
206.74368395040295
 51
249.51268488527668
  0
ARC
  5
4A4
100
AcDbEntity
  8
0
  6
CONTINUOUS
 62
               7
100
AcDbCircle
 10
-10.069999999999993
 20
5.2700000000000102
 30
0.0
 40
0.6000000000000001
100
AcDbArc
 50
290.48731511472209
 51
333.25631604959585
  0
ARC
  5
4A5
100
AcDbEntity
  8
0
  6
CONTINUOUS
 62
               7
100
AcDbCircle
 10
-10.0
 20
5.0826500600480529
 30
0.0
 40
0.4
100
AcDbArc
 50
249.51268488527668
 51
290.48731511472209
  0
LINE
  5
4A6
100
AcDbEntity
  8
0
  6
CONTINUOUS
 62
               7
100
AcDbLine
 10
-9.5341828670152324
 20
5.0
 30
0.0
 11
-8.5
 21
5.0
 31
0.0
  0
LINE
  5
4A7
100
AcDbEntity
  8
0
  6
CONTINUOUS
 62
               7
100
AcDbLine
 10
-10.799999999999983
 20
5.0
 30
0.0
 11
-10.465817132984739
 21
5.0
 31
0.0
  0
LINE
  5
4A8
100
AcDbEntity
  8
0
  6
CONTINUOUS
 62
               7
100
AcDbLine
 10
-0.3000000000000114
 20
-3.4000000000000057
 30
0.0
 11
-0.3000000000000114
 21
3.4000000000000057
 31
0.0
  0
LINE
  5
4A9
100
AcDbEntity
  8
0
  6
CONTINUOUS
 62
               7
100
AcDbLine
 10
-0.3000000000000114
 20
3.4000000000000057
 30
0.0
 11
0.0
 21
3.7000000000000171
 31
0.0
  0
LINE
  5
4AA
100
AcDbEntity
  8
0
  6
CONTINUOUS
 62
               7
100
AcDbLine
 10
-0.3000000000000114
 20
-3.4000000000000057
 30
0.0
 11
0.0
 21
-3.7000000000000171
 31
0.0
  0
CIRCLE
  5
4AB
100
AcDbEntity
  8
0
  6
CONTINUOUS
 62
               7
100
AcDbCircle
 10
-5.5
 20
0.0
 30
0.0
 40
3.4000000000000057
  0
CIRCLE
  5
4AC
100
AcDbEntity
  8
0
  6
CONTINUOUS
 62
               7
100
AcDbCircle
 10
-5.5
 20
0.0
 30
0.0
 40
4.1499999999999915
  0
CIRCLE
  5
4AD
100
AcDbEntity
  8
0
  6
CONTINUOUS
 62
               7
100
AcDbCircle
 10
-5.5
 20
0.0
 30
0.0
 40
4.3500000000000085
  0
LINE
  5
4AE
100
AcDbEntity
  8
0
  6
CONTINUOUS
 62
               7
100
AcDbLine
 10
-10.799999999999983
 20
5.0
 30
0.0
 11
-10.800000000000011
 21
-5.0
 31
0.0
  0
LINE
  5
4AF
100
AcDbEntity
  8
0
  6
CONTINUOUS
 62
               7
100
AcDbLine
 10
-9.5341828670152324
 20
-5.0
 30
0.0
 11
-8.5
 21
-5.0
 31
0.0
  0
ARC
  5
4B0
100
AcDbEntity
  8
0
  6
CONTINUOUS
 62
               7
100
AcDbCircle
 10
-10.0
 20
-5.0826500600480529
 30
0.0
 40
0.4
100
AcDbArc
 50
69.512684885277096
 51
110.48731511472251
  0
ARC
  5
4B1
100
AcDbEntity
  8
0
  6
CONTINUOUS
 62
               7
100
AcDbCircle
 10
-10.070000000000022
 20
-5.2700000000000102
 30
0.0
 40
0.6000000000000001
100
AcDbArc
 50
26.743683950403316
 51
69.512684885277096
  0
ARC
  5
4B2
100
AcDbEntity
  8
0
  6
CONTINUOUS
 62
               7
100
AcDbCircle
 10
-9.9299999999999784
 20
-5.2700000000000102
 30
0.0
 40
0.6000000000000001
100
AcDbArc
 50
110.48731511472248
 51
153.25631604959631
  0
LINE
  5
4B3
100
AcDbEntity
  8
0
  6
CONTINUOUS
 62
               7
100
AcDbLine
 10
-10.800000000000011
 20
-5.0
 30
0.0
 11
-10.465817132984768
 21
-5.0
 31
0.0
  0
ARC
  5
4B4
100
AcDbEntity
  8
0
  6
CONTINUOUS
 62
               7
100
AcDbCircle
 10
-10.0
 20
-5.1999999999999886
 30
0.0
 40
0.5
100
AcDbArc
 50
11.536959032814121
 51
168.46304096718549
  0
LINE
  5
4B5
100
AcDbEntity
  8
0
  6
CONTINUOUS
 62
               7
100
AcDbLine
 10
0.0
 20
-11.5
 30
0.0
 11
0.0
 21
-3.7000000000000171
 31
0.0
  0
LINE
  5
4B6
100
AcDbEntity
  8
0
  6
CONTINUOUS
 62
               7
100
AcDbLine
 10
0.0
 20
3.7000000000000171
 30
0.0
 11
0.0
 21
11.5
 31
0.0
  0
LINE
  5
4B7
100
AcDbEntity
  8
0
  6
CONTINUOUS
 62
               7
100
AcDbLine
 10
-8.5
 20
11.5
 30
0.0
 11
-8.5
 21
5.0
 31
0.0
  0
CIRCLE
  5
4B8
100
AcDbEntity
  8
0
  6
CONTINUOUS
 62
               7
100
AcDbCircle
 10
-11.0
 20
7.5
 30
0.0
 40
1.0
  0
LINE
  5
4B9
100
AcDbEntity
  8
0
  6
CONTINUOUS
 62
               7
100
AcDbLine
 10
-10.434314575050735
 20
8.0656854249492369
 30
0.0
 11
-11.565685424949237
 21
6.9343145750507631
 31
0.0
  0
LINE
  5
4BA
100
AcDbEntity
  8
0
  6
CONTINUOUS
 62
               7
100
AcDbLine
 10
-10.434314575050735
 20
6.9343145750507631
 30
0.0
 11
-11.565685424949237
 21
8.0656854249492369
 31
0.0
  0
CIRCLE
  5
4BB
100
AcDbEntity
  8
0
  6
CONTINUOUS
 62
               7
100
AcDbCircle
 10
-11.0
 20
-7.5
 30
0.0
 40
1.0
  0
LINE
  5
4BC
100
AcDbEntity
  8
0
  6
CONTINUOUS
 62
               7
100
AcDbLine
 10
-8.5
 20
-5.0
 30
0.0
 11
-8.5
 21
-11.5
 31
0.0
  0
LINE
  5
4BD
100
AcDbEntity
  8
0
  6
CONTINUOUS
 62
               7
100
AcDbLine
 10
-9.0
 20
-12.0
 30
0.0
 11
-9.0
 21
-5.4000000000000057
 31
0.0
  0
LINE
  5
4BE
100
AcDbEntity
  8
0
  6
CONTINUOUS
 62
               7
100
AcDbLine
 10
-10.434314575050763
 20
-6.9343145750507631
 30
0.0
 11
-11.565685424949265
 21
-8.0656854249492369
 31
0.0
  0
LINE
  5
4BF
100
AcDbEntity
  8
0
  6
CONTINUOUS
 62
               7
100
AcDbLine
 10
-10.434314575050763
 20
-8.0656854249492369
 30
0.0
 11
-11.565685424949265
 21
-6.9343145750507631
 31
0.0
  0
LINE
  5
4C0
100
AcDbEntity
  8
0
  6
CONTINUOUS
 62
               7
100
AcDbLine
 10
-14.0
 20
11.5
 30
0.0
 11
-13.5
 21
12.0
 31
0.0
  0
LINE
  5
4C1
100
AcDbEntity
  8
0
  6
CONTINUOUS
 62
               7
100
AcDbLine
 10
-14.0
 20
-11.5
 30
0.0
 11
-13.5
 21
-12.0
 31
0.0
  0
LINE
  5
4C2
100
AcDbEntity
  8
0
  6
CONTINUOUS
 62
               7
100
AcDbLine
 10
-1.5
 20
12.0
 30
0.0
 11
-13.5
 21
12.0
 31
0.0
  0
LINE
  5
4C3
100
AcDbEntity
  8
0
  6
CONTINUOUS
 62
               7
100
AcDbLine
 10
-1.5
 20
-12.0
 30
0.0
 11
-13.5
 21
-12.0
 31
0.0
  0
LINE
  5
4C4
100
AcDbEntity
  8
0
  6
CONTINUOUS
 62
               7
100
AcDbLine
 10
0.0000000136905953
 20
-11.5
 30
0.0
 11
-8.5
 21
-11.5
 31
0.0
  0
LINE
  5
4C5
100
AcDbEntity
  8
0
  6
CONTINUOUS
 62
               7
100
AcDbLine
 10
0.0000000136905953
 20
11.5
 30
0.0
 11
-8.5
 21
11.5
 31
0.0
  0
LINE
  5
4C6
100
AcDbEntity
  8
0
  6
CONTINUOUS
 62
               7
100
AcDbLine
 10
-14.0
 20
11.5
 30
0.0
 11
-14.0
 21
-11.5
 31
0.0
  0
LINE
  5
4C7
100
AcDbEntity
  8
0
  6
CENTER
 62
               2
100
AcDbLine
 10
-5.5
 20
5.3500000000000085
 30
0.0
 11
-5.5
 21
-5.3500000000000085
 31
0.0
  0
LINE
  5
4C8
100
AcDbEntity
  8
0
  6
CENTER
 62
               2
100
AcDbLine
 10
1.9560299056583688
 20
0.0
 30
0.0
 11
-16.119979084208666
 21
0.0
 31
0.0
  0
LINE
  5
4C9
100
AcDbEntity
  8
0
  6
CONTINUOUS
 62
               7
100
AcDbLine
 10
-13.700000000000017
 20
-9.2999999999999972
 30
0.0
 11
-13.700000000000017
 21
9.2999999999999972
 31
0.0
  0
LINE
  5
4CA
100
AcDbEntity
  8
0
  6
CONTINUOUS
 62
               7
100
AcDbLine
 10
-9.1999999999999886
 20
9.2999999999999972
 30
0.0
 11
-13.700000000000017
 21
9.2999999999999972
 31
0.0
  0
LINE
  5
4CB
100
AcDbEntity
  8
0
  6
CONTINUOUS
 62
               7
100
AcDbLine
 10
-9.1999999999999886
 20
-9.2999999999999972
 30
0.0
 11
-13.700000000000017
 21
-9.2999999999999972
 31
0.0
  0
LINE
  5
4CC
100
AcDbEntity
  8
0
  6
CONTINUOUS
 62
               7
100
AcDbLine
 10
-9.1999999999999886
 20
-9.2999999999999972
 30
0.0
 11
-9.1999999999999886
 21
-5.0999999999999943
 31
0.0
  0
LINE
  5
4CD
100
AcDbEntity
  8
0
  6
CONTINUOUS
 62
               7
100
AcDbLine
 10
-9.1999999999999886
 20
-5.0999999999999943
 30
0.0
 11
-11.199999999999989
 21
-5.0999999999999943
 31
0.0
  0
LINE
  5
4CE
100
AcDbEntity
  8
0
  6
CONTINUOUS
 62
               7
100
AcDbLine
 10
-9.1999999999999886
 20
9.2999999999999972
 30
0.0
 11
-9.1999999999999886
 21
5.0999999999999943
 31
0.0
  0
LINE
  5
4CF
100
AcDbEntity
  8
0
  6
CONTINUOUS
 62
               7
100
AcDbLine
 10
-9.1999999999999886
 20
5.0999999999999943
 30
0.0
 11
-11.199999999999989
 21
5.0999999999999943
 31
0.0
  0
LINE
  5
4D0
100
AcDbEntity
  8
0
  6
CONTINUOUS
 62
               7
100
AcDbLine
 10
-11.199999999999989
 20
5.0999999999999943
 30
0.0
 11
-11.199999999999989
 21
-5.0999999999999943
 31
0.0
  0
LINE
  5
4D1
100
AcDbEntity
  8
0
  6
CONTINUOUS
 62
               7
100
AcDbLine
 10
-9.1999999999999886
 20
5.4000000000000057
 30
0.0
 11
-9.0
 21
5.4000000000000057
 31
0.0
  0
LINE
  5
4D2
100
AcDbEntity
  8
0
  6
CONTINUOUS
 62
               7
100
AcDbLine
 10
-9.1999999999999886
 20
-5.4000000000000057
 30
0.0
 11
-9.0
 21
-5.4000000000000057
 31
0.0
  0
CIRCLE
  5
4D3
100
AcDbEntity
  8
0
  6
CONTINUOUS
 62
               2
100
AcDbCircle
 10
-4.0
 20
-7.0
 30
0.0
 40
1.5
  0
CIRCLE
  5
4D4
100
AcDbEntity
  8
0
  6
CONTINUOUS
 62
               7
100
AcDbCircle
 10
-4.0
 20
-7.0
 30
0.0
 40
1.2
  0
LINE
  5
4D5
100
AcDbEntity
  8
0
  6
CENTER
 62
               2
100
AcDbLine
 10
-4.0
 20
-9.5
 30
0.0
 11
-4.0
 21
-4.5
 31
0.0
  0
LINE
  5
4D6
100
AcDbEntity
  8
0
  6
CENTER
 62
               2
100
AcDbLine
 10
-6.5
 20
-7.0
 30
0.0
 11
-1.5000000000000284
 21
-7.0
 31
0.0
  0
CIRCLE
  5
4D7
100
AcDbEntity
  8
0
  6
CONTINUOUS
 62
               2
100
AcDbCircle
 10
-4.0
 20
7.0
 30
0.0
 40
1.5
  0
CIRCLE
  5
4D8
100
AcDbEntity
  8
0
  6
CONTINUOUS
 62
               7
100
AcDbCircle
 10
-4.0
 20
7.0
 30
0.0
 40
1.2
  0
LINE
  5
4D9
100
AcDbEntity
  8
0
  6
CENTER
 62
               2
100
AcDbLine
 10
-4.0
 20
9.5
 30
0.0
 11
-4.0
 21
4.5
 31
0.0
  0
LINE
  5
4DA
100
AcDbEntity
  8
0
  6
CENTER
 62
               2
100
AcDbLine
 10
-6.5
 20
7.0
 30
0.0
 11
-1.5000000000000284
 21
7.0
 31
0.0
  0
LINE
  5
4DB
100
AcDbEntity
  8
0
  6
CONTINUOUS
 62
               7
100
AcDbLine
 10
-1.5
 20
12.0
 30
0.0
 11
-1.5
 21
11.5
 31
0.0
  0
LINE
  5
4DC
100
AcDbEntity
  8
0
  6
CONTINUOUS
 62
               7
100
AcDbLine
 10
-1.5
 20
-11.5
 30
0.0
 11
-1.5
 21
-12.0
 31
0.0
  0
ENDBLK
  5
4DD
100
AcDbEntity
  8
0
100
AcDbBlockEnd
  0
BLOCK
  5
4DE
100
AcDbEntity
  8
0
100
AcDbBlockBegin
  2
CS-MGA8-21
 70
               0
 10
0.0
 20
0.0
 30
0.0
  3
CS-MGA8-21
  1

  0
LINE
  5
4DF
100
AcDbEntity
  8
0
  6
CONTINUOUS
 62
               2
100
AcDbLine
 10
5.5
 20
-6.6999999999999886
 30
0.0
 11
7.0
 21
-4.3000000000000114
 31
0.0
  0
LINE
  5
4E0
100
AcDbEntity
  8
0
  6
CONTINUOUS
 62
               2
100
AcDbLine
 10
5.5
 20
-4.3000000000000114
 30
0.0
 11
7.0
 21
-6.6999999999999886
 31
0.0
  0
LINE
  5
4E1
100
AcDbEntity
  8
0
  6
CONTINUOUS
 62
               7
100
AcDbLine
 10
7.0
 20
-1.8000000000000114
 30
0.0
 11
7.0
 21
-9.0
 31
0.0
  0
LINE
  5
4E2
100
AcDbEntity
  8
0
  6
CONTINUOUS
 62
               7
100
AcDbLine
 10
7.5
 20
-3.0
 30
0.0
 11
7.0
 21
-3.0
 31
0.0
  0
LINE
  5
4E3
100
AcDbEntity
  8
0
  6
CONTINUOUS
 62
               7
100
AcDbLine
 10
7.5
 20
-8.0
 30
0.0
 11
7.0
 21
-8.0
 31
0.0
  0
LINE
  5
4E4
100
AcDbEntity
  8
0
  6
CONTINUOUS
 62
               7
100
AcDbLine
 10
7.5
 20
-3.0
 30
0.0
 11
7.5
 21
-8.0
 31
0.0
  0
LINE
  5
4E5
100
AcDbEntity
  8
0
  6
CONTINUOUS
 62
               7
100
AcDbLine
 10
7.0
 20
-1.8000000000000114
 30
0.0
 11
5.5
 21
-1.8000000000000114
 31
0.0
  0
LINE
  5
4E6
100
AcDbEntity
  8
0
  6
CONTINUOUS
 62
               7
100
AcDbLine
 10
5.5
 20
-6.6999999999999886
 30
0.0
 11
7.0
 21
-6.6999999999999886
 31
0.0
  0
LINE
  5
4E7
100
AcDbEntity
  8
0
  6
CONTINUOUS
 62
               7
100
AcDbLine
 10
5.5
 20
-4.3000000000000114
 30
0.0
 11
7.0
 21
-4.3000000000000114
 31
0.0
  0
LINE
  5
4E8
100
AcDbEntity
  8
0
  6
CONTINUOUS
 62
               7
100
AcDbLine
 10
0.0
 20
-13.300000000000011
 30
0.0
 11
9.9999999758560705
 21
-13.300000000000011
 31
0.0
  0
LINE
  5
4E9
100
AcDbEntity
  8
0
  6
CONTINUOUS
 62
               7
100
AcDbLine
 10
9.9999999758560705
 20
-13.5
 30
0.0
 11
49.0
 21
-13.5
 31
0.0
  0
LINE
  5
4EA
100
AcDbEntity
  8
0
  6
CONTINUOUS
 62
               7
100
AcDbLine
 10
7.5
 20
-4.0
 30
0.0
 11
9.0
 21
-4.0
 31
0.0
  0
LINE
  5
4EB
100
AcDbEntity
  8
0
  6
CONTINUOUS
 62
               7
100
AcDbLine
 10
7.5
 20
-7.0
 30
0.0
 11
9.0
 21
-7.0
 31
0.0
  0
LINE
  5
4EC
100
AcDbEntity
  8
0
  6
CONTINUOUS
 62
               7
100
AcDbLine
 10
34.599999999999994
 20
-5.5
 30
0.0
 11
39.400000000000006
 21
-5.5
 31
0.0
  0
LINE
  5
4ED
100
AcDbEntity
  8
0
  6
CENTER
 62
               2
100
AcDbLine
 10
37.0
 20
-9.1564210267580961
 30
0.0
 11
37.0
 21
-4.254238994412276
 31
0.0
  0
LINE
  5
4EE
100
AcDbEntity
  8
0
  6
CONTINUOUS
 62
               7
100
AcDbLine
 10
34.599999999999994
 20
-8.5
 30
0.0
 11
34.599999999999994
 21
-5.5
 31
0.0
  0
LINE
  5
4EF
100
AcDbEntity
  8
0
  6
CONTINUOUS
 62
               7
100
AcDbLine
 10
39.400000000000006
 20
-8.5
 30
0.0
 11
39.400000000000006
 21
-5.5
 31
0.0
  0
LINE
  5
4F0
100
AcDbEntity
  8
0
  6
CENTER
 62
               2
100
AcDbLine
 10
21.0
 20
-9.1564210267580961
 30
0.0
 11
21.0
 21
-4.254238994412276
 31
0.0
  0
LINE
  5
4F1
100
AcDbEntity
  8
0
  6
CONTINUOUS
 62
               7
100
AcDbLine
 10
18.599999999999994
 20
-8.5
 30
0.0
 11
18.599999999999994
 21
-5.5
 31
0.0
  0
LINE
  5
4F2
100
AcDbEntity
  8
0
  6
CONTINUOUS
 62
               7
100
AcDbLine
 10
18.599999999999994
 20
-5.5
 30
0.0
 11
23.400000000000006
 21
-5.5
 31
0.0
  0
LINE
  5
4F3
100
AcDbEntity
  8
0
  6
CONTINUOUS
 62
               7
100
AcDbLine
 10
23.400000000000006
 20
-8.5
 30
0.0
 11
23.400000000000006
 21
-5.5
 31
0.0
  0
LINE
  5
4F4
100
AcDbEntity
  8
0
  6
CENTER
 62
               2
100
AcDbLine
 10
42.0
 20
-2.5
 30
0.0
 11
42.0
 21
-7.5
 31
0.0
  0
CIRCLE
  5
4F5
100
AcDbEntity
  8
0
  6
CONTINUOUS
 62
               2
100
AcDbCircle
 10
42.0
 20
-5.0
 30
0.0
 40
1.5
  0
LINE
  5
4F6
100
AcDbEntity
  8
0
  6
CENTER
 62
               2
100
AcDbLine
 10
39.5
 20
-5.0
 30
0.0
 11
44.499999999999972
 21
-5.0
 31
0.0
  0
CIRCLE
  5
4F7
100
AcDbEntity
  8
0
  6
CONTINUOUS
 62
               7
100
AcDbCircle
 10
42.0
 20
-5.0
 30
0.0
 40
1.2
  0
LINE
  5
4F8
100
AcDbEntity
  8
0
  6
CENTER
 62
               2
100
AcDbLine
 10
26.0
 20
-2.5
 30
0.0
 11
26.0
 21
-7.5
 31
0.0
  0
CIRCLE
  5
4F9
100
AcDbEntity
  8
0
  6
CONTINUOUS
 62
               2
100
AcDbCircle
 10
26.0
 20
-5.0
 30
0.0
 40
1.5
  0
LINE
  5
4FA
100
AcDbEntity
  8
0
  6
CENTER
 62
               2
100
AcDbLine
 10
23.5
 20
-5.0
 30
0.0
 11
28.499999999999972
 21
-5.0
 31
0.0
  0
CIRCLE
  5
4FB
100
AcDbEntity
  8
0
  6
CONTINUOUS
 62
               7
100
AcDbCircle
 10
26.0
 20
-5.0
 30
0.0
 40
1.2
  0
LINE
  5
4FC
100
AcDbEntity
  8
0
  6
CENTER
 62
               2
100
AcDbLine
 10
17.0
 20
-2.0
 30
0.0
 11
17.0
 21
-6.0
 31
0.0
  0
LINE
  5
4FD
100
AcDbEntity
  8
0
  6
CENTER
 62
               2
100
AcDbLine
 10
15.0
 20
-4.0
 30
0.0
 11
19.0
 21
-4.0
 31
0.0
  0
CIRCLE
  5
4FE
100
AcDbEntity
  8
0
  6
CONTINUOUS
 62
               2
100
AcDbCircle
 10
17.0
 20
-4.0
 30
0.0
 40
1.0
  0
CIRCLE
  5
4FF
100
AcDbEntity
  8
0
  6
CONTINUOUS
 62
               7
100
AcDbCircle
 10
17.0
 20
-4.0
 30
0.0
 40
0.8
  0
LINE
  5
500
100
AcDbEntity
  8
0
  6
CENTER
 62
               2
100
AcDbLine
 10
30.0
 20
-9.0
 30
0.0
 11
30.0
 21
-13.0
 31
0.0
  0
LINE
  5
501
100
AcDbEntity
  8
0
  6
CENTER
 62
               2
100
AcDbLine
 10
28.0
 20
-11.0
 30
0.0
 11
32.0
 21
-11.0
 31
0.0
  0
CIRCLE
  5
502
100
AcDbEntity
  8
0
  6
CONTINUOUS
 62
               2
100
AcDbCircle
 10
30.0
 20
-11.0
 30
0.0
 40
1.0
  0
CIRCLE
  5
503
100
AcDbEntity
  8
0
  6
CONTINUOUS
 62
               7
100
AcDbCircle
 10
30.0
 20
-11.0
 30
0.0
 40
0.8
  0
LINE
  5
504
100
AcDbEntity
  8
0
  6
CENTER
 62
               2
100
AcDbLine
 10
44.0
 20
-9.0
 30
0.0
 11
44.0
 21
-13.0
 31
0.0
  0
LINE
  5
505
100
AcDbEntity
  8
0
  6
CENTER
 62
               2
100
AcDbLine
 10
42.0
 20
-11.0
 30
0.0
 11
46.0
 21
-11.0
 31
0.0
  0
CIRCLE
  5
506
100
AcDbEntity
  8
0
  6
CONTINUOUS
 62
               2
100
AcDbCircle
 10
44.0
 20
-11.0
 30
0.0
 40
1.0
  0
CIRCLE
  5
507
100
AcDbEntity
  8
0
  6
CONTINUOUS
 62
               7
100
AcDbCircle
 10
44.0
 20
-11.0
 30
0.0
 40
0.8
  0
LINE
  5
508
100
AcDbEntity
  8
0
  6
CENTER
 62
               2
100
AcDbLine
 10
46.0
 20
-2.0
 30
0.0
 11
46.0
 21
-6.0
 31
0.0
  0
LINE
  5
509
100
AcDbEntity
  8
0
  6
CENTER
 62
               2
100
AcDbLine
 10
44.0
 20
-4.0
 30
0.0
 11
48.0
 21
-4.0
 31
0.0
  0
CIRCLE
  5
50A
100
AcDbEntity
  8
0
  6
CONTINUOUS
 62
               2
100
AcDbCircle
 10
46.0
 20
-4.0
 30
0.0
 40
1.0
  0
CIRCLE
  5
50B
100
AcDbEntity
  8
0
  6
CONTINUOUS
 62
               7
100
AcDbCircle
 10
46.0
 20
-4.0
 30
0.0
 40
0.8
  0
LINE
  5
50C
100
AcDbEntity
  8
0
  6
CONTINUOUS
 62
               7
100
AcDbLine
 10
0.0
 20
-13.800000000000011
 30
0.0
 11
0.0
 21
-1.5
 31
0.0
  0
LINE
  5
50D
100
AcDbEntity
  8
0
  6
CONTINUOUS
 62
               7
100
AcDbLine
 10
5.5
 20
-1.5
 30
0.0
 11
5.5
 21
-9.0
 31
0.0
  0
LINE
  5
50E
100
AcDbEntity
  8
0
  6
CONTINUOUS
 62
               7
100
AcDbLine
 10
0.0
 20
-1.5
 30
0.0
 11
5.5
 21
-1.5
 31
0.0
  0
LINE
  5
50F
100
AcDbEntity
  8
0
  6
CONTINUOUS
 62
               7
100
AcDbLine
 10
5.5
 20
-9.0
 30
0.0
 11
49.0
 21
-9.0
 31
0.0
  0
LINE
  5
510
100
AcDbEntity
  8
0
  6
CONTINUOUS
 62
               7
100
AcDbLine
 10
9.9999999758560705
 20
-14.0
 30
0.0
 11
9.9999999758560705
 21
-9.0
 31
0.0
  0
LINE
  5
511
100
AcDbEntity
  8
0
  6
CONTINUOUS
 62
               7
100
AcDbLine
 10
9.9999999758560705
 20
-14.0
 30
0.0
 11
49.0
 21
-14.0
 31
0.0
  0
LINE
  5
512
100
AcDbEntity
  8
0
  6
CONTINUOUS
 62
               7
100
AcDbLine
 10
14.0
 20
0.0
 30
0.0
 11
49.0
 21
0.0
 31
0.0
  0
LINE
  5
513
100
AcDbEntity
  8
0
  6
CENTER
 62
               2
100
AcDbLine
 10
-0.9969874860368861
 20
-5.5
 30
0.0
 11
15.163084581928814
 21
-5.5
 31
0.0
  0
LINE
  5
514
100
AcDbEntity
  8
0
  6
CONTINUOUS
 62
               7
100
AcDbLine
 10
14.0
 20
-9.0
 30
0.0
 11
14.0
 21
0.0
 31
0.0
  0
LINE
  5
515
100
AcDbEntity
  8
0
  6
CONTINUOUS
 62
               7
100
AcDbLine
 10
49.0
 20
-14.0
 30
0.0
 11
49.0
 21
0.0
 31
0.0
  0
LINE
  5
516
100
AcDbEntity
  8
0
  6
CONTINUOUS
 62
               7
100
AcDbLine
 10
0.0
 20
-13.800000000000011
 30
0.0
 11
9.9999999758560705
 21
-13.800000000000011
 31
0.0
  0
LINE
  5
517
100
AcDbEntity
  8
0
  6
CONTINUOUS
 62
               7
100
AcDbLine
 10
14.0
 20
-8.5
 30
0.0
 11
49.0
 21
-8.5
 31
0.0
  0
LINE
  5
518
100
AcDbEntity
  8
0
  6
CENTER
 62
               2
100
AcDbLine
 10
48.027939082946432
 20
-11.0
 30
0.0
 11
50.641499936682166
 21
-11.0
 31
0.0
  0
LINE
  5
519
100
AcDbEntity
  8
0
  6
CONTINUOUS
 62
               7
100
AcDbLine
 10
49.000000023841864
 20
-9.1999999999999886
 30
0.0
 11
49.500000023841864
 21
-9.1999999999999886
 31
0.0
  0
LINE
  5
51A
100
AcDbEntity
  8
0
  6
CONTINUOUS
 62
               7
100
AcDbLine
 10
49.000000023841864
 20
-13.699999999999989
 30
0.0
 11
49.500000023841864
 21
-13.699999999999989
 31
0.0
  0
LINE
  5
51B
100
AcDbEntity
  8
0
  6
CONTINUOUS
 62
               7
100
AcDbLine
 10
49.5
 20
-9.1999999999999886
 30
0.0
 11
49.5
 21
-13.699999999999989
 31
0.0
  0
LINE
  5
51C
100
AcDbEntity
  8
0
  6
CONTINUOUS
 62
               7
100
AcDbLine
 10
50.0
 20
-11.699999999999989
 30
0.0
 11
50.0
 21
-10.300000000000011
 31
0.0
  0
ARC
  5
51D
100
AcDbEntity
  8
0
  6
CONTINUOUS
 62
               7
100
AcDbCircle
 10
49.700000000000003
 20
-10.300000000000011
 30
0.0
 40
0.3
100
AcDbArc
 50
0.0
 51
89.999999999999815
  0
ARC
  5
51E
100
AcDbEntity
  8
0
  6
CONTINUOUS
 62
               7
100
AcDbCircle
 10
49.700000000000003
 20
-11.699999999999989
 30
0.0
 40
0.3
100
AcDbArc
 50
270.00000000000023
 51
0.0
  0
LINE
  5
51F
100
AcDbEntity
  8
0
  6
CONTINUOUS
 62
               7
100
AcDbLine
 10
49.5
 20
-12.0
 30
0.0
 11
49.700000000000003
 21
-12.0
 31
0.0
  0
LINE
  5
520
100
AcDbEntity
  8
0
  6
CONTINUOUS
 62
               7
100
AcDbLine
 10
49.5
 20
-10.0
 30
0.0
 11
49.700000000000003
 21
-10.0
 31
0.0
  0
LINE
  5
521
100
AcDbEntity
  8
0
  6
CONTINUOUS
 62
               7
100
AcDbLine
 10
9.0
 20
-8.5
 30
0.0
 11
9.0
 21
-0.1999999999999886
 31
0.0
  0
LINE
  5
522
100
AcDbEntity
  8
0
  6
CENTER
 62
               2
100
AcDbLine
 10
11.5
 20
-3.0
 30
0.0
 11
11.5
 21
-8.0
 31
0.0
  0
CIRCLE
  5
523
100
AcDbEntity
  8
0
  6
CONTINUOUS
 62
               7
100
AcDbCircle
 10
11.5
 20
-5.5
 30
0.0
 40
1.2
  0
CIRCLE
  5
524
100
AcDbEntity
  8
0
  6
CONTINUOUS
 62
               2
100
AcDbCircle
 10
11.5
 20
-5.5
 30
0.0
 40
1.5
  0
LINE
  5
525
100
AcDbEntity
  8
0
  6
CONTINUOUS
 62
               7
100
AcDbLine
 10
9.0
 20
-0.1999999999999886
 30
0.0
 11
14.0
 21
-0.1999999999999886
 31
0.0
  0
LINE
  5
526
100
AcDbEntity
  8
0
  6
CONTINUOUS
 62
               7
100
AcDbLine
 10
9.0
 20
-8.5
 30
0.0
 11
14.0
 21
-8.5
 31
0.0
  0
LINE
  5
527
100
AcDbEntity
  8
0
  6
PHANTOM
 62
               3
100
AcDbLine
 10
27.0
 20
-7.3100000000000005
 30
0.0
 11
27.0
 21
-22.051155957217247
 31
0.0
  0
LINE
  5
528
100
AcDbEntity
  8
0
  6
PHANTOM
 62
               3
100
AcDbLine
 10
31.550000000000001
 20
8.1888256941589077
 30
0.0
 11
31.550000000000001
 21
-7.3100000000000005
 31
0.0
  0
LINE
  5
529
100
AcDbEntity
  8
0
  6
PHANTOM
 62
               3
100
AcDbLine
 10
27.0
 20
-7.3100000000000005
 30
0.0
 11
31.550000000000001
 21
-7.3100000000000005
 31
0.0
  0
ENDBLK
  5
52A
100
AcDbEntity
  8
0
100
AcDbBlockEnd
  0
BLOCK
  5
52B
100
AcDbEntity
  8
0
100
AcDbBlockBegin
  2
CS-MGA8-22
 70
               0
 10
0.0
 20
0.0
 30
0.0
  3
CS-MGA8-22
  1

  0
LINE
  5
52C
100
AcDbEntity
  8
0
  6
CONTINUOUS
 62
               7
100
AcDbLine
 10
14.0
 20
8.5
 30
0.0
 11
49.0
 21
8.5
 31
0.0
  0
LINE
  5
52D
100
AcDbEntity
  8
0
  6
CONTINUOUS
 62
               7
100
AcDbLine
 10
0.0
 20
13.799999999999997
 30
0.0
 11
9.9999999758560705
 21
13.799999999999997
 31
0.0
  0
LINE
  5
52E
100
AcDbEntity
  8
0
  6
CONTINUOUS
 62
               7
100
AcDbLine
 10
49.0
 20
14.0
 30
0.0
 11
49.0
 21
0.0
 31
0.0
  0
LINE
  5
52F
100
AcDbEntity
  8
0
  6
CONTINUOUS
 62
               7
100
AcDbLine
 10
14.0
 20
9.0
 30
0.0
 11
14.0
 21
0.0
 31
0.0
  0
LINE
  5
530
100
AcDbEntity
  8
0
  6
CENTER
 62
               2
100
AcDbLine
 10
-0.9969874860368861
 20
5.5
 30
0.0
 11
15.163084581928814
 21
5.5
 31
0.0
  0
LINE
  5
531
100
AcDbEntity
  8
0
  6
CONTINUOUS
 62
               7
100
AcDbLine
 10
14.0
 20
0.0
 30
0.0
 11
49.0
 21
0.0
 31
0.0
  0
LINE
  5
532
100
AcDbEntity
  8
0
  6
CONTINUOUS
 62
               7
100
AcDbLine
 10
9.9999999758560705
 20
14.0
 30
0.0
 11
49.0
 21
14.0
 31
0.0
  0
LINE
  5
533
100
AcDbEntity
  8
0
  6
CONTINUOUS
 62
               7
100
AcDbLine
 10
9.9999999758560705
 20
14.0
 30
0.0
 11
9.9999999758560705
 21
9.0
 31
0.0
  0
LINE
  5
534
100
AcDbEntity
  8
0
  6
CONTINUOUS
 62
               7
100
AcDbLine
 10
5.5
 20
9.0
 30
0.0
 11
49.0
 21
9.0
 31
0.0
  0
LINE
  5
535
100
AcDbEntity
  8
0
  6
CONTINUOUS
 62
               7
100
AcDbLine
 10
0.0
 20
1.5
 30
0.0
 11
5.5
 21
1.5
 31
0.0
  0
LINE
  5
536
100
AcDbEntity
  8
0
  6
CONTINUOUS
 62
               7
100
AcDbLine
 10
5.5
 20
1.5
 30
0.0
 11
5.5
 21
9.0
 31
0.0
  0
LINE
  5
537
100
AcDbEntity
  8
0
  6
CONTINUOUS
 62
               7
100
AcDbLine
 10
0.0
 20
13.799999999999997
 30
0.0
 11
0.0
 21
1.5
 31
0.0
  0
CIRCLE
  5
538
100
AcDbEntity
  8
0
  6
CONTINUOUS
 62
               7
100
AcDbCircle
 10
46.0
 20
3.9999999999999858
 30
0.0
 40
0.8
  0
CIRCLE
  5
539
100
AcDbEntity
  8
0
  6
CONTINUOUS
 62
               2
100
AcDbCircle
 10
46.0
 20
3.9999999999999858
 30
0.0
 40
1.0
  0
LINE
  5
53A
100
AcDbEntity
  8
0
  6
CENTER
 62
               2
100
AcDbLine
 10
44.0
 20
3.9999999999999858
 30
0.0
 11
48.0
 21
3.9999999999999858
 31
0.0
  0
LINE
  5
53B
100
AcDbEntity
  8
0
  6
CENTER
 62
               2
100
AcDbLine
 10
46.0
 20
1.9999999999999858
 30
0.0
 11
46.0
 21
5.9999999999999858
 31
0.0
  0
CIRCLE
  5
53C
100
AcDbEntity
  8
0
  6
CONTINUOUS
 62
               7
100
AcDbCircle
 10
44.0
 20
11.000000000000014
 30
0.0
 40
0.8
  0
CIRCLE
  5
53D
100
AcDbEntity
  8
0
  6
CONTINUOUS
 62
               2
100
AcDbCircle
 10
44.0
 20
11.000000000000014
 30
0.0
 40
1.0
  0
LINE
  5
53E
100
AcDbEntity
  8
0
  6
CENTER
 62
               2
100
AcDbLine
 10
42.0
 20
11.000000000000014
 30
0.0
 11
46.0
 21
11.000000000000014
 31
0.0
  0
LINE
  5
53F
100
AcDbEntity
  8
0
  6
CENTER
 62
               2
100
AcDbLine
 10
44.0
 20
9.0000000000000142
 30
0.0
 11
44.0
 21
13.000000000000014
 31
0.0
  0
CIRCLE
  5
540
100
AcDbEntity
  8
0
  6
CONTINUOUS
 62
               7
100
AcDbCircle
 10
30.0
 20
11.000000000000014
 30
0.0
 40
0.8
  0
CIRCLE
  5
541
100
AcDbEntity
  8
0
  6
CONTINUOUS
 62
               2
100
AcDbCircle
 10
30.0
 20
11.000000000000014
 30
0.0
 40
1.0
  0
LINE
  5
542
100
AcDbEntity
  8
0
  6
CENTER
 62
               2
100
AcDbLine
 10
28.0
 20
11.000000000000014
 30
0.0
 11
32.0
 21
11.000000000000014
 31
0.0
  0
LINE
  5
543
100
AcDbEntity
  8
0
  6
CENTER
 62
               2
100
AcDbLine
 10
30.0
 20
9.0000000000000142
 30
0.0
 11
30.0
 21
13.000000000000014
 31
0.0
  0
CIRCLE
  5
544
100
AcDbEntity
  8
0
  6
CONTINUOUS
 62
               7
100
AcDbCircle
 10
17.0
 20
3.9999999999999858
 30
0.0
 40
0.8
  0
CIRCLE
  5
545
100
AcDbEntity
  8
0
  6
CONTINUOUS
 62
               2
100
AcDbCircle
 10
17.0
 20
3.9999999999999858
 30
0.0
 40
1.0
  0
LINE
  5
546
100
AcDbEntity
  8
0
  6
CENTER
 62
               2
100
AcDbLine
 10
15.0
 20
3.9999999999999858
 30
0.0
 11
19.0
 21
3.9999999999999858
 31
0.0
  0
LINE
  5
547
100
AcDbEntity
  8
0
  6
CENTER
 62
               2
100
AcDbLine
 10
17.0
 20
1.9999999999999858
 30
0.0
 11
17.0
 21
5.9999999999999858
 31
0.0
  0
CIRCLE
  5
548
100
AcDbEntity
  8
0
  6
CONTINUOUS
 62
               7
100
AcDbCircle
 10
26.0
 20
5.0
 30
0.0
 40
1.2
  0
LINE
  5
549
100
AcDbEntity
  8
0
  6
CENTER
 62
               2
100
AcDbLine
 10
23.5
 20
5.0
 30
0.0
 11
28.499999999999972
 21
5.0
 31
0.0
  0
CIRCLE
  5
54A
100
AcDbEntity
  8
0
  6
CONTINUOUS
 62
               2
100
AcDbCircle
 10
26.0
 20
5.0
 30
0.0
 40
1.5
  0
LINE
  5
54B
100
AcDbEntity
  8
0
  6
CENTER
 62
               2
100
AcDbLine
 10
26.0
 20
2.5
 30
0.0
 11
26.0
 21
7.5
 31
0.0
  0
CIRCLE
  5
54C
100
AcDbEntity
  8
0
  6
CONTINUOUS
 62
               7
100
AcDbCircle
 10
42.0
 20
5.0
 30
0.0
 40
1.2
  0
LINE
  5
54D
100
AcDbEntity
  8
0
  6
CENTER
 62
               2
100
AcDbLine
 10
39.5
 20
5.0
 30
0.0
 11
44.499999999999972
 21
5.0
 31
0.0
  0
CIRCLE
  5
54E
100
AcDbEntity
  8
0
  6
CONTINUOUS
 62
               2
100
AcDbCircle
 10
42.0
 20
5.0
 30
0.0
 40
1.5
  0
LINE
  5
54F
100
AcDbEntity
  8
0
  6
CENTER
 62
               2
100
AcDbLine
 10
42.0
 20
2.5
 30
0.0
 11
42.0
 21
7.5
 31
0.0
  0
LINE
  5
550
100
AcDbEntity
  8
0
  6
CONTINUOUS
 62
               7
100
AcDbLine
 10
23.400000000000006
 20
8.5
 30
0.0
 11
23.400000000000006
 21
5.5
 31
0.0
  0
LINE
  5
551
100
AcDbEntity
  8
0
  6
CONTINUOUS
 62
               7
100
AcDbLine
 10
18.599999999999994
 20
5.5
 30
0.0
 11
23.400000000000006
 21
5.5
 31
0.0
  0
LINE
  5
552
100
AcDbEntity
  8
0
  6
CONTINUOUS
 62
               7
100
AcDbLine
 10
18.599999999999994
 20
8.5
 30
0.0
 11
18.599999999999994
 21
5.5
 31
0.0
  0
LINE
  5
553
100
AcDbEntity
  8
0
  6
CENTER
 62
               2
100
AcDbLine
 10
21.0
 20
9.1564210267581103
 30
0.0
 11
21.0
 21
4.2542389944122903
 31
0.0
  0
LINE
  5
554
100
AcDbEntity
  8
0
  6
CONTINUOUS
 62
               7
100
AcDbLine
 10
39.400000000000006
 20
8.5
 30
0.0
 11
39.400000000000006
 21
5.5
 31
0.0
  0
LINE
  5
555
100
AcDbEntity
  8
0
  6
CONTINUOUS
 62
               7
100
AcDbLine
 10
34.599999999999994
 20
8.5
 30
0.0
 11
34.599999999999994
 21
5.5
 31
0.0
  0
LINE
  5
556
100
AcDbEntity
  8
0
  6
CENTER
 62
               2
100
AcDbLine
 10
37.0
 20
9.1564210267581103
 30
0.0
 11
37.0
 21
4.2542389944122903
 31
0.0
  0
LINE
  5
557
100
AcDbEntity
  8
0
  6
CONTINUOUS
 62
               7
100
AcDbLine
 10
34.599999999999994
 20
5.5
 30
0.0
 11
39.400000000000006
 21
5.5
 31
0.0
  0
LINE
  5
558
100
AcDbEntity
  8
0
  6
CONTINUOUS
 62
               7
100
AcDbLine
 10
7.5
 20
7.0
 30
0.0
 11
9.0
 21
7.0
 31
0.0
  0
LINE
  5
559
100
AcDbEntity
  8
0
  6
CONTINUOUS
 62
               7
100
AcDbLine
 10
7.5
 20
4.0
 30
0.0
 11
9.0
 21
4.0
 31
0.0
  0
LINE
  5
55A
100
AcDbEntity
  8
0
  6
CONTINUOUS
 62
               7
100
AcDbLine
 10
9.9999999758560705
 20
13.5
 30
0.0
 11
49.0
 21
13.5
 31
0.0
  0
LINE
  5
55B
100
AcDbEntity
  8
0
  6
CONTINUOUS
 62
               7
100
AcDbLine
 10
0.0
 20
13.299999999999997
 30
0.0
 11
9.9999999758560705
 21
13.299999999999997
 31
0.0
  0
LINE
  5
55C
100
AcDbEntity
  8
0
  6
CONTINUOUS
 62
               7
100
AcDbLine
 10
5.5
 20
4.2999999999999972
 30
0.0
 11
7.0
 21
4.2999999999999972
 31
0.0
  0
LINE
  5
55D
100
AcDbEntity
  8
0
  6
CONTINUOUS
 62
               7
100
AcDbLine
 10
5.5
 20
6.7000000000000028
 30
0.0
 11
7.0
 21
6.7000000000000028
 31
0.0
  0
LINE
  5
55E
100
AcDbEntity
  8
0
  6
CONTINUOUS
 62
               7
100
AcDbLine
 10
7.0
 20
1.7999999999999972
 30
0.0
 11
5.5
 21
1.7999999999999972
 31
0.0
  0
LINE
  5
55F
100
AcDbEntity
  8
0
  6
CONTINUOUS
 62
               7
100
AcDbLine
 10
7.5
 20
3.0
 30
0.0
 11
7.5
 21
8.0
 31
0.0
  0
LINE
  5
560
100
AcDbEntity
  8
0
  6
CONTINUOUS
 62
               7
100
AcDbLine
 10
7.5
 20
8.0
 30
0.0
 11
7.0
 21
8.0
 31
0.0
  0
LINE
  5
561
100
AcDbEntity
  8
0
  6
CONTINUOUS
 62
               7
100
AcDbLine
 10
7.5
 20
3.0
 30
0.0
 11
7.0
 21
3.0
 31
0.0
  0
LINE
  5
562
100
AcDbEntity
  8
0
  6
CONTINUOUS
 62
               7
100
AcDbLine
 10
7.0
 20
1.7999999999999972
 30
0.0
 11
7.0
 21
9.0
 31
0.0
  0
LINE
  5
563
100
AcDbEntity
  8
0
  6
CONTINUOUS
 62
               2
100
AcDbLine
 10
5.5
 20
4.2999999999999972
 30
0.0
 11
7.0
 21
6.7000000000000028
 31
0.0
  0
LINE
  5
564
100
AcDbEntity
  8
0
  6
CONTINUOUS
 62
               2
100
AcDbLine
 10
5.5
 20
6.7000000000000028
 30
0.0
 11
7.0
 21
4.2999999999999972
 31
0.0
  0
LINE
  5
565
100
AcDbEntity
  8
0
  6
CENTER
 62
               2
100
AcDbLine
 10
48.027939082946432
 20
11.0
 30
0.0
 11
50.641499936682166
 21
11.0
 31
0.0
  0
LINE
  5
566
100
AcDbEntity
  8
0
  6
CONTINUOUS
 62
               7
100
AcDbLine
 10
49.000000023841864
 20
9.2000000000000028
 30
0.0
 11
49.500000023841864
 21
9.2000000000000028
 31
0.0
  0
LINE
  5
567
100
AcDbEntity
  8
0
  6
CONTINUOUS
 62
               7
100
AcDbLine
 10
49.000000023841864
 20
13.700000000000003
 30
0.0
 11
49.500000023841864
 21
13.700000000000003
 31
0.0
  0
LINE
  5
568
100
AcDbEntity
  8
0
  6
CONTINUOUS
 62
               7
100
AcDbLine
 10
49.5
 20
9.2000000000000028
 30
0.0
 11
49.5
 21
13.700000000000003
 31
0.0
  0
LINE
  5
569
100
AcDbEntity
  8
0
  6
CONTINUOUS
 62
               7
100
AcDbLine
 10
50.0
 20
10.299999999999997
 30
0.0
 11
50.0
 21
11.700000000000003
 31
0.0
  0
ARC
  5
56A
100
AcDbEntity
  8
0
  6
CONTINUOUS
 62
               7
100
AcDbCircle
 10
49.700000000000003
 20
11.700000000000003
 30
0.0
 40
0.3
100
AcDbArc
 50
0.0
 51
89.999999999999815
  0
ARC
  5
56B
100
AcDbEntity
  8
0
  6
CONTINUOUS
 62
               7
100
AcDbCircle
 10
49.700000000000003
 20
10.299999999999997
 30
0.0
 40
0.3
100
AcDbArc
 50
270.00000000000023
 51
0.0
  0
LINE
  5
56C
100
AcDbEntity
  8
0
  6
CONTINUOUS
 62
               7
100
AcDbLine
 10
49.5
 20
10.0
 30
0.0
 11
49.700000000000003
 21
10.0
 31
0.0
  0
LINE
  5
56D
100
AcDbEntity
  8
0
  6
CONTINUOUS
 62
               7
100
AcDbLine
 10
49.5
 20
12.0
 30
0.0
 11
49.700000000000003
 21
12.0
 31
0.0
  0
LINE
  5
56E
100
AcDbEntity
  8
0
  6
CONTINUOUS
 62
               7
100
AcDbLine
 10
9.0
 20
8.5
 30
0.0
 11
9.0
 21
0.2000000000000028
 31
0.0
  0
CIRCLE
  5
56F
100
AcDbEntity
  8
0
  6
CONTINUOUS
 62
               7
100
AcDbCircle
 10
11.5
 20
5.5
 30
0.0
 40
1.2
  0
CIRCLE
  5
570
100
AcDbEntity
  8
0
  6
CONTINUOUS
 62
               2
100
AcDbCircle
 10
11.5
 20
5.5
 30
0.0
 40
1.5
  0
LINE
  5
571
100
AcDbEntity
  8
0
  6
CENTER
 62
               2
100
AcDbLine
 10
11.5
 20
3.0
 30
0.0
 11
11.5
 21
8.0
 31
0.0
  0
LINE
  5
572
100
AcDbEntity
  8
0
  6
CONTINUOUS
 62
               7
100
AcDbLine
 10
9.0
 20
8.5
 30
0.0
 11
14.0
 21
8.5
 31
0.0
  0
LINE
  5
573
100
AcDbEntity
  8
0
  6
CONTINUOUS
 62
               7
100
AcDbLine
 10
9.0
 20
0.2000000000000028
 30
0.0
 11
14.0
 21
0.2000000000000028
 31
0.0
  0
LINE
  5
574
100
AcDbEntity
  8
0
  6
PHANTOM
 62
               3
100
AcDbLine
 10
31.549999999999983
 20
-6.9335045569223723
 30
0.0
 11
31.549999999999983
 21
7.309016967506949
 31
0.0
  0
LINE
  5
575
100
AcDbEntity
  8
0
  6
PHANTOM
 62
               3
100
AcDbLine
 10
27.0
 20
7.309016967506949
 30
0.0
 11
27.0
 21
24.185619398392532
 31
0.0
  0
LINE
  5
576
100
AcDbEntity
  8
0
  6
PHANTOM
 62
               3
100
AcDbLine
 10
27.000000014158474
 20
7.3090169943749501
 30
0.0
 11
31.549999999999983
 21
7.3090169943749501
 31
0.0
  0
ENDBLK
  5
577
100
AcDbEntity
  8
0
100
AcDbBlockEnd
  0
BLOCK
  5
578
100
AcDbEntity
  8
0
100
AcDbBlockBegin
  2
CS-MGA8-23
 70
               0
 10
0.0
 20
0.0
 30
0.0
  3
CS-MGA8-23
  1

  0
LINE
  5
579
100
AcDbEntity
  8
0
  6
PHANTOM
 62
               3
100
AcDbLine
 10
32.900000000000006
 20
-16.084697043208536
 30
0.0
 11
32.900000000000006
 21
19.950128446452482
 31
0.0
  0
LINE
  5
57A
100
AcDbEntity
  8
0
  6
CONTINUOUS
 62
               7
100
AcDbLine
 10
7.0
 20
3.5
 30
0.0
 11
7.0
 21
-3.5
 31
0.0
  0
LINE
  5
57B
100
AcDbEntity
  8
0
  6
CONTINUOUS
 62
               7
100
AcDbLine
 10
7.5
 20
2.5
 30
0.0
 11
7.0
 21
2.5
 31
0.0
  0
LINE
  5
57C
100
AcDbEntity
  8
0
  6
CONTINUOUS
 62
               7
100
AcDbLine
 10
7.5
 20
-2.5
 30
0.0
 11
7.0
 21
-2.5
 31
0.0
  0
LINE
  5
57D
100
AcDbEntity
  8
0
  6
CONTINUOUS
 62
               7
100
AcDbLine
 10
7.5
 20
2.5
 30
0.0
 11
7.5
 21
-2.5
 31
0.0
  0
LINE
  5
57E
100
AcDbEntity
  8
0
  6
CONTINUOUS
 62
               7
100
AcDbLine
 10
14.0
 20
3.4000000000000057
 30
0.0
 11
49.0
 21
3.4000000000000057
 31
0.0
  0
LINE
  5
57F
100
AcDbEntity
  8
0
  6
CONTINUOUS
 62
               7
100
AcDbLine
 10
14.0
 20
3.7000000000000028
 30
0.0
 11
49.0
 21
3.7000000000000028
 31
0.0
  0
LINE
  5
580
100
AcDbEntity
  8
0
  6
CONTINUOUS
 62
               7
100
AcDbLine
 10
14.0
 20
-3.4000000000000057
 30
0.0
 11
49.0
 21
-3.4000000000000057
 31
0.0
  0
LINE
  5
581
100
AcDbEntity
  8
0
  6
CONTINUOUS
 62
               7
100
AcDbLine
 10
14.0
 20
-3.7000000000000028
 30
0.0
 11
49.0
 21
-3.7000000000000028
 31
0.0
  0
LINE
  5
582
100
AcDbEntity
  8
0
  6
CONTINUOUS
 62
               7
100
AcDbLine
 10
3.0
 20
-2.2000000000000028
 30
0.0
 11
5.5
 21
-2.2000000000000028
 31
0.0
  0
LINE
  5
583
100
AcDbEntity
  8
0
  6
CONTINUOUS
 62
               7
100
AcDbLine
 10
3.0
 20
2.1999999999999886
 30
0.0
 11
5.5
 21
2.1999999999999886
 31
0.0
  0
LINE
  5
584
100
AcDbEntity
  8
0
  6
CONTINUOUS
 62
               7
100
AcDbLine
 10
0.5
 20
-3.7000000000000028
 30
0.0
 11
3.0
 21
-3.7000000000000028
 31
0.0
  0
LINE
  5
585
100
AcDbEntity
  8
0
  6
CONTINUOUS
 62
               7
100
AcDbLine
 10
0.0
 20
-4.0
 30
0.0
 11
3.0
 21
-4.0
 31
0.0
  0
LINE
  5
586
100
AcDbEntity
  8
0
  6
CONTINUOUS
 62
               7
100
AcDbLine
 10
3.0
 20
-2.5000000000000071
 30
0.0
 11
5.5
 21
-2.5000000000000071
 31
0.0
  0
LINE
  5
587
100
AcDbEntity
  8
0
  6
CONTINUOUS
 62
               7
100
AcDbLine
 10
0.5
 20
3.7000000000000028
 30
0.0
 11
3.0
 21
3.7000000000000028
 31
0.0
  0
LINE
  5
588
100
AcDbEntity
  8
0
  6
CONTINUOUS
 62
               7
100
AcDbLine
 10
3.0
 20
-4.0
 30
0.0
 11
3.0
 21
4.0
 31
0.0
  0
LINE
  5
589
100
AcDbEntity
  8
0
  6
CONTINUOUS
 62
               7
100
AcDbLine
 10
0.5
 20
-3.7000000000000028
 30
0.0
 11
0.5
 21
3.7000000000000028
 31
0.0
  0
LINE
  5
58A
100
AcDbEntity
  8
0
  6
CONTINUOUS
 62
               7
100
AcDbLine
 10
0.0
 20
4.0
 30
0.0
 11
3.0
 21
4.0
 31
0.0
  0
LINE
  5
58B
100
AcDbEntity
  8
0
  6
CONTINUOUS
 62
               7
100
AcDbLine
 10
3.0
 20
2.4999999999999929
 30
0.0
 11
5.5
 21
2.4999999999999929
 31
0.0
  0
LINE
  5
58C
100
AcDbEntity
  8
0
  6
CENTER
 62
               2
100
AcDbLine
 10
34.5
 20
9.0
 30
0.0
 11
39.5
 21
9.0
 31
0.0
  0
LINE
  5
58D
100
AcDbEntity
  8
0
  6
CENTER
 62
               2
100
AcDbLine
 10
37.0
 20
11.5
 30
0.0
 11
37.0
 21
6.5
 31
0.0
  0
LINE
  5
58E
100
AcDbEntity
  8
0
  6
CENTER
 62
               2
100
AcDbLine
 10
34.5
 20
-9.0
 30
0.0
 11
39.5
 21
-9.0
 31
0.0
  0
LINE
  5
58F
100
AcDbEntity
  8
0
  6
CENTER
 62
               2
100
AcDbLine
 10
37.0
 20
-6.5
 30
0.0
 11
37.0
 21
-11.5
 31
0.0
  0
LINE
  5
590
100
AcDbEntity
  8
0
  6
CENTER
 62
               2
100
AcDbLine
 10
18.5
 20
-9.0
 30
0.0
 11
23.5
 21
-9.0
 31
0.0
  0
LINE
  5
591
100
AcDbEntity
  8
0
  6
CENTER
 62
               2
100
AcDbLine
 10
21.0
 20
-6.5
 30
0.0
 11
21.0
 21
-11.5
 31
0.0
  0
CIRCLE
  5
592
100
AcDbEntity
  8
0
  6
CONTINUOUS
 62
               7
100
AcDbCircle
 10
29.0
 20
-9.0
 30
0.0
 40
1.5
  0
LINE
  5
593
100
AcDbEntity
  8
0
  6
CENTER
 62
               2
100
AcDbLine
 10
29.0
 20
-6.5
 30
0.0
 11
29.0
 21
-11.5
 31
0.0
  0
LINE
  5
594
100
AcDbEntity
  8
0
  6
CENTER
 62
               2
100
AcDbLine
 10
31.5
 20
-9.0
 30
0.0
 11
26.5
 21
-9.0
 31
0.0
  0
LINE
  5
595
100
AcDbEntity
  8
0
  6
CONTINUOUS
 62
               7
100
AcDbLine
 10
27.5
 20
8.5
 30
0.0
 11
27.5
 21
9.5
 31
0.0
  0
LINE
  5
596
100
AcDbEntity
  8
0
  6
CONTINUOUS
 62
               7
100
AcDbLine
 10
30.5
 20
8.5
 30
0.0
 11
30.5
 21
9.5
 31
0.0
  0
ARC
  5
597
100
AcDbEntity
  8
0
  6
CONTINUOUS
 62
               7
100
AcDbCircle
 10
29.0
 20
8.5
 30
0.0
 40
1.5
100
AcDbArc
 50
180.00000000000037
 51
0.0
  0
LINE
  5
598
100
AcDbEntity
  8
0
  6
CENTER
 62
               2
100
AcDbLine
 10
26.699999999999989
 20
9.0
 30
0.0
 11
31.299999999999997
 21
9.0
 31
0.0
  0
ARC
  5
599
100
AcDbEntity
  8
0
  6
CONTINUOUS
 62
               7
100
AcDbCircle
 10
29.0
 20
9.5
 30
0.0
 40
1.5
100
AcDbArc
 50
0.0
 51
179.99999999999963
  0
LINE
  5
59A
100
AcDbEntity
  8
0
  6
CENTER
 62
               2
100
AcDbLine
 10
29.0
 20
11.800000025611538
 30
0.0
 11
29.0
 21
6.2000000017696806
 31
0.0
  0
CIRCLE
  5
59B
100
AcDbEntity
  8
0
  6
CONTINUOUS
 62
               7
100
AcDbCircle
 10
37.0
 20
-9.0
 30
0.0
 40
1.3
  0
CIRCLE
  5
59C
100
AcDbEntity
  8
0
  6
CONTINUOUS
 62
               2
100
AcDbCircle
 10
37.0
 20
-9.0
 30
0.0
 40
1.5
  0
CIRCLE
  5
59D
100
AcDbEntity
  8
0
  6
CONTINUOUS
 62
               2
100
AcDbCircle
 10
21.0
 20
-9.0
 30
0.0
 40
1.5
  0
CIRCLE
  5
59E
100
AcDbEntity
  8
0
  6
CONTINUOUS
 62
               7
100
AcDbCircle
 10
21.0
 20
-9.0
 30
0.0
 40
1.3
  0
CIRCLE
  5
59F
100
AcDbEntity
  8
0
  6
CONTINUOUS
 62
               7
100
AcDbCircle
 10
21.0
 20
9.0
 30
0.0
 40
1.3
  0
CIRCLE
  5
5A0
100
AcDbEntity
  8
0
  6
CONTINUOUS
 62
               2
100
AcDbCircle
 10
21.0
 20
9.0
 30
0.0
 40
1.5
  0
LINE
  5
5A1
100
AcDbEntity
  8
0
  6
CENTER
 62
               2
100
AcDbLine
 10
18.5
 20
9.0
 30
0.0
 11
23.5
 21
9.0
 31
0.0
  0
LINE
  5
5A2
100
AcDbEntity
  8
0
  6
CENTER
 62
               2
100
AcDbLine
 10
21.0
 20
11.5
 30
0.0
 11
21.0
 21
6.5
 31
0.0
  0
CIRCLE
  5
5A3
100
AcDbEntity
  8
0
  6
CONTINUOUS
 62
               2
100
AcDbCircle
 10
37.0
 20
9.0
 30
0.0
 40
1.5
  0
CIRCLE
  5
5A4
100
AcDbEntity
  8
0
  6
CONTINUOUS
 62
               7
100
AcDbCircle
 10
37.0
 20
9.0
 30
0.0
 40
1.3
  0
LINE
  5
5A5
100
AcDbEntity
  8
0
  6
CONTINUOUS
 62
               7
100
AcDbLine
 10
5.5
 20
-3.5
 30
0.0
 11
7.0
 21
-3.5
 31
0.0
  0
LINE
  5
5A6
100
AcDbEntity
  8
0
  6
CONTINUOUS
 62
               7
100
AcDbLine
 10
5.5
 20
3.5
 30
0.0
 11
7.0
 21
3.5
 31
0.0
  0
LINE
  5
5A7
100
AcDbEntity
  8
0
  6
CONTINUOUS
 62
               7
100
AcDbLine
 10
5.5
 20
-12.0
 30
0.0
 11
5.5
 21
12.0
 31
0.0
  0
LINE
  5
5A8
100
AcDbEntity
  8
0
  6
CONTINUOUS
 62
               7
100
AcDbLine
 10
7.5
 20
-1.5
 30
0.0
 11
9.0
 21
-1.5
 31
0.0
  0
LINE
  5
5A9
100
AcDbEntity
  8
0
  6
CONTINUOUS
 62
               7
100
AcDbLine
 10
7.5
 20
1.5
 30
0.0
 11
9.0
 21
1.5
 31
0.0
  0
LINE
  5
5AA
100
AcDbEntity
  8
0
  6
CONTINUOUS
 62
               7
100
AcDbLine
 10
0.0
 20
-12.0
 30
0.0
 11
49.0
 21
-12.0
 31
0.0
  0
LINE
  5
5AB
100
AcDbEntity
  8
0
  6
CONTINUOUS
 62
               7
100
AcDbLine
 10
0.0
 20
12.0
 30
0.0
 11
49.0
 21
12.0
 31
0.0
  0
LINE
  5
5AC
100
AcDbEntity
  8
0
  6
CONTINUOUS
 62
               7
100
AcDbLine
 10
0.0
 20
12.0
 30
0.0
 11
0.0
 21
-12.0
 31
0.0
  0
LINE
  5
5AD
100
AcDbEntity
  8
0
  6
CONTINUOUS
 62
               7
100
AcDbLine
 10
49.0
 20
12.0
 30
0.0
 11
49.0
 21
-12.0
 31
0.0
  0
LINE
  5
5AE
100
AcDbEntity
  8
0
  6
CONTINUOUS
 62
               7
100
AcDbLine
 10
14.0
 20
-11.499999978616074
 30
0.0
 11
49.0
 21
-11.499999978616074
 31
0.0
  0
LINE
  5
5AF
100
AcDbEntity
  8
0
  6
CONTINUOUS
 62
               7
100
AcDbLine
 10
14.0
 20
11.5
 30
0.0
 11
49.0
 21
11.5
 31
0.0
  0
LINE
  5
5B0
100
AcDbEntity
  8
0
  6
CONTINUOUS
 62
               7
100
AcDbLine
 10
14.0
 20
11.5
 30
0.0
 11
14.0
 21
-11.499999978616074
 31
0.0
  0
LINE
  5
5B1
100
AcDbEntity
  8
0
  6
CENTER
 62
               2
100
AcDbLine
 10
-2.182963049411768
 20
0.0
 30
0.0
 11
50.883758509159094
 21
0.0
 31
0.0
  0
LINE
  5
5B2
100
AcDbEntity
  8
0
  6
CONTINUOUS
 62
               7
100
AcDbLine
 10
49.5
 20
9.2999999999999972
 30
0.0
 11
49.5
 21
-9.2999999999999972
 31
0.0
  0
LINE
  5
5B3
100
AcDbEntity
  8
0
  6
CENTER
 62
               2
100
AcDbLine
 10
48.027939082946432
 20
7.5000000000000071
 30
0.0
 11
50.641499936682152
 21
7.5000000000000071
 31
0.0
  0
LINE
  5
5B4
100
AcDbEntity
  8
0
  6
CONTINUOUS
 62
               7
100
AcDbLine
 10
49.0
 20
9.2999999999999972
 30
0.0
 11
49.5
 21
9.2999999999999972
 31
0.0
  0
LINE
  5
5B5
100
AcDbEntity
  8
0
  6
CONTINUOUS
 62
               7
100
AcDbLine
 10
49.0
 20
5.0999999999999943
 30
0.0
 11
49.5
 21
5.0999999999999943
 31
0.0
  0
LINE
  5
5B6
100
AcDbEntity
  8
0
  6
CONTINUOUS
 62
               7
100
AcDbLine
 10
50.0
 20
8.2000000000000099
 30
0.0
 11
50.0
 21
6.8000000000000043
 31
0.0
  0
ARC
  5
5B7
100
AcDbEntity
  8
0
  6
CONTINUOUS
 62
               7
100
AcDbCircle
 10
49.700000000000017
 20
6.8000000000000043
 30
0.0
 40
0.3
100
AcDbArc
 50
269.99999999999937
 51
0.0
  0
ARC
  5
5B8
100
AcDbEntity
  8
0
  6
CONTINUOUS
 62
               7
100
AcDbCircle
 10
49.700000000000017
 20
8.2000000000000099
 30
0.0
 40
0.3
100
AcDbArc
 50
0.0
 51
89.999999999999815
  0
LINE
  5
5B9
100
AcDbEntity
  8
0
  6
CONTINUOUS
 62
               7
100
AcDbLine
 10
49.5
 20
8.5000000000000071
 30
0.0
 11
49.700000000000017
 21
8.5000000000000071
 31
0.0
  0
LINE
  5
5BA
100
AcDbEntity
  8
0
  6
CONTINUOUS
 62
               7
100
AcDbLine
 10
49.5
 20
6.5000000000000071
 30
0.0
 11
49.700000000000017
 21
6.5000000000000071
 31
0.0
  0
LINE
  5
5BB
100
AcDbEntity
  8
0
  6
CENTER
 62
               2
100
AcDbLine
 10
48.027939082946432
 20
-7.5
 30
0.0
 11
50.641499936682152
 21
-7.5
 31
0.0
  0
LINE
  5
5BC
100
AcDbEntity
  8
0
  6
CONTINUOUS
 62
               7
100
AcDbLine
 10
49.0
 20
-5.0999999999999943
 30
0.0
 11
49.5
 21
-5.0999999999999943
 31
0.0
  0
LINE
  5
5BD
100
AcDbEntity
  8
0
  6
CONTINUOUS
 62
               7
100
AcDbLine
 10
49.0
 20
-9.2999999999999972
 30
0.0
 11
49.5
 21
-9.2999999999999972
 31
0.0
  0
LINE
  5
5BE
100
AcDbEntity
  8
0
  6
CONTINUOUS
 62
               7
100
AcDbLine
 10
50.0
 20
-6.7999999999999972
 30
0.0
 11
50.0
 21
-8.2000000000000028
 31
0.0
  0
ARC
  5
5BF
100
AcDbEntity
  8
0
  6
CONTINUOUS
 62
               7
100
AcDbCircle
 10
49.700000000000017
 20
-8.2000000000000028
 30
0.0
 40
0.3
100
AcDbArc
 50
269.99999999999937
 51
0.0
  0
ARC
  5
5C0
100
AcDbEntity
  8
0
  6
CONTINUOUS
 62
               7
100
AcDbCircle
 10
49.700000000000017
 20
-6.7999999999999972
 30
0.0
 40
0.3
100
AcDbArc
 50
0.0
 51
89.999999999999815
  0
LINE
  5
5C1
100
AcDbEntity
  8
0
  6
CONTINUOUS
 62
               7
100
AcDbLine
 10
49.5
 20
-6.5
 30
0.0
 11
49.700000000000017
 21
-6.5
 31
0.0
  0
LINE
  5
5C2
100
AcDbEntity
  8
0
  6
CONTINUOUS
 62
               7
100
AcDbLine
 10
49.5
 20
-8.4999999999999858
 30
0.0
 11
49.700000000000017
 21
-8.4999999999999858
 31
0.0
  0
LINE
  5
5C3
100
AcDbEntity
  8
0
  6
CONTINUOUS
 62
               7
100
AcDbLine
 10
9.0
 20
11.5
 30
0.0
 11
9.0
 21
-11.499999978616074
 31
0.0
  0
LINE
  5
5C4
100
AcDbEntity
  8
0
  6
CONTINUOUS
 62
               7
100
AcDbLine
 10
9.0
 20
11.5
 30
0.0
 11
14.0
 21
11.5
 31
0.0
  0
LINE
  5
5C5
100
AcDbEntity
  8
0
  6
CONTINUOUS
 62
               7
100
AcDbLine
 10
9.0
 20
-11.499999978616074
 30
0.0
 11
14.0
 21
-11.499999978616074
 31
0.0
  0
ENDBLK
  5
5C6
100
AcDbEntity
  8
0
100
AcDbBlockEnd
  0
BLOCK
  5
5C7
100
AcDbEntity
  8
0
100
AcDbBlockBegin
  2
CS-MGA8-24
 70
               0
 10
0.0
 20
0.0
 30
0.0
  3
CS-MGA8-24
  1

  0
LINE
  5
5C8
100
AcDbEntity
  8
0
  6
PHANTOM
 62
               3
100
AcDbLine
 10
26.50000000253732
 20
-22.049411212710794
 30
0.0
 11
26.50000000253732
 21
30.303087437840048
 31
0.0
  0
LINE
  5
5C9
100
AcDbEntity
  8
0
  6
CONTINUOUS
 62
               4
100
AcDbLine
 10
28.0
 20
12.99999998630939
 30
0.0
 11
46.0
 21
12.99999998630939
 31
0.0
  0
LINE
  5
5CA
100
AcDbEntity
  8
0
  6
CONTINUOUS
 62
               4
100
AcDbLine
 10
46.0
 20
12.99999998630939
 30
0.0
 11
46.0
 21
12.0
 31
0.0
  0
LINE
  5
5CB
100
AcDbEntity
  8
0
  6
CONTINUOUS
 62
               4
100
AcDbLine
 10
28.0
 20
12.99999998630939
 30
0.0
 11
28.0
 21
12.0
 31
0.0
  0
LINE
  5
5CC
100
AcDbEntity
  8
0
  6
CONTINUOUS
 62
               4
100
AcDbLine
 10
43.000000023841864
 20
15.50000001369061
 30
0.0
 11
43.000000023841864
 21
14.99999998630939
 31
0.0
  0
LINE
  5
5CD
100
AcDbEntity
  8
0
  6
CONTINUOUS
 62
               4
100
AcDbLine
 10
14.000000047381661
 20
15.5
 30
0.0
 11
49.000000023841864
 21
15.5
 31
0.0
  0
LINE
  5
5CE
100
AcDbEntity
  8
0
  6
CONTINUOUS
 62
               4
100
AcDbLine
 10
14.000000023841864
 20
21.500000000000071
 30
0.0
 11
49.000000023841864
 21
21.500000000000071
 31
0.0
  0
LINE
  5
5CF
100
AcDbEntity
  8
0
  6
CONTINUOUS
 62
               4
100
AcDbLine
 10
31.900000000000006
 20
14.699999986309393
 30
0.0
 11
28.100000000000023
 21
14.699999986309393
 31
0.0
  0
LINE
  5
5D0
100
AcDbEntity
  8
0
  6
CONTINUOUS
 62
               4
100
AcDbLine
 10
31.600000000000023
 20
14.99999998630939
 30
0.0
 11
28.400000000000006
 21
14.99999998630939
 31
0.0
  0
LINE
  5
5D1
100
AcDbEntity
  8
0
  6
CONTINUOUS
 62
               4
100
AcDbLine
 10
31.600000000000023
 20
14.99999998630939
 30
0.0
 11
31.900000000000006
 21
14.699999986309393
 31
0.0
  0
LINE
  5
5D2
100
AcDbEntity
  8
0
  6
CONTINUOUS
 62
               4
100
AcDbLine
 10
28.400000000000006
 20
14.99999998630939
 30
0.0
 11
28.100000000000023
 21
14.699999986309393
 31
0.0
  0
LINE
  5
5D3
100
AcDbEntity
  8
0
  6
CONTINUOUS
 62
               4
100
AcDbLine
 10
45.600000000000023
 20
14.99999998630939
 30
0.0
 11
45.900000000000006
 21
14.699999986309393
 31
0.0
  0
LINE
  5
5D4
100
AcDbEntity
  8
0
  6
CONTINUOUS
 62
               4
100
AcDbLine
 10
45.900000000000006
 20
14.699999986309393
 30
0.0
 11
42.100000000000023
 21
14.699999986309393
 31
0.0
  0
LINE
  5
5D5
100
AcDbEntity
  8
0
  6
CONTINUOUS
 62
               4
100
AcDbLine
 10
45.600000000000023
 20
14.99999998630939
 30
0.0
 11
42.400000000000034
 21
14.99999998630939
 31
0.0
  0
LINE
  5
5D6
100
AcDbEntity
  8
0
  6
CONTINUOUS
 62
               4
100
AcDbLine
 10
42.400000000000034
 20
14.99999998630939
 30
0.0
 11
42.100000000000023
 21
14.699999986309393
 31
0.0
  0
LINE
  5
5D7
100
AcDbEntity
  8
0
  6
CONTINUOUS
 62
               4
100
AcDbLine
 10
35.0
 20
14.699999986309393
 30
0.0
 11
39.0
 21
14.699999986309393
 31
0.0
  0
LINE
  5
5D8
100
AcDbEntity
  8
0
  6
CONTINUOUS
 62
               4
100
AcDbLine
 10
39.0
 20
14.699999986309393
 30
0.0
 11
39.0
 21
12.99999998630939
 31
0.0
  0
LINE
  5
5D9
100
AcDbEntity
  8
0
  6
CONTINUOUS
 62
               4
100
AcDbLine
 10
35.0
 20
14.699999986309393
 30
0.0
 11
35.0
 21
12.99999998630939
 31
0.0
  0
LINE
  5
5DA
100
AcDbEntity
  8
0
  6
CONTINUOUS
 62
               4
100
AcDbLine
 10
42.100000000000023
 20
14.699999986309393
 30
0.0
 11
42.100000000000023
 21
12.99999998630939
 31
0.0
  0
LINE
  5
5DB
100
AcDbEntity
  8
0
  6
CONTINUOUS
 62
               4
100
AcDbLine
 10
45.900000000000006
 20
14.699999986309393
 30
0.0
 11
45.900000000000006
 21
12.99999998630939
 31
0.0
  0
LINE
  5
5DC
100
AcDbEntity
  8
0
  6
CENTER
 62
             200
100
AcDbLine
 10
44.0
 20
15.530849309951407
 30
0.0
 11
44.0
 21
10.99561853404532
 31
0.0
  0
LINE
  5
5DD
100
AcDbEntity
  8
0
  6
CONTINUOUS
 62
               4
100
AcDbLine
 10
28.100000000000023
 20
14.699999986309393
 30
0.0
 11
28.100000000000023
 21
12.99999998630939
 31
0.0
  0
LINE
  5
5DE
100
AcDbEntity
  8
0
  6
CONTINUOUS
 62
               4
100
AcDbLine
 10
31.900000000000006
 20
14.699999986309393
 30
0.0
 11
31.900000000000006
 21
12.99999998630939
 31
0.0
  0
LINE
  5
5DF
100
AcDbEntity
  8
0
  6
CENTER
 62
             200
100
AcDbLine
 10
30.0
 20
15.530849309951407
 30
0.0
 11
30.0
 21
10.99561853404532
 31
0.0
  0
LINE
  5
5E0
100
AcDbEntity
  8
0
  6
CONTINUOUS
 62
               4
100
AcDbLine
 10
20.000000023841864
 20
15.50000001369061
 30
0.0
 11
20.000000023841864
 21
12.0
 31
0.0
  0
LINE
  5
5E1
100
AcDbEntity
  8
0
  6
CONTINUOUS
 62
               4
100
AcDbLine
 10
49.000000023841864
 20
21.500000000000071
 30
0.0
 11
49.000000023841864
 21
12.0
 31
0.0
  0
LINE
  5
5E2
100
AcDbEntity
  8
0
  6
CONTINUOUS
 62
               4
100
AcDbLine
 10
14.000000023841864
 20
21.500000000000071
 30
0.0
 11
14.000000023841864
 21
12.0
 31
0.0
  0
LINE
  5
5E3
100
AcDbEntity
  8
0
  6
CENTER
 62
               2
100
AcDbLine
 10
14.500000023841864
 20
9.0
 30
0.0
 11
25.400000000000006
 21
9.0
 31
0.0
  0
LINE
  5
5E4
100
AcDbEntity
  8
0
  6
CENTER
 62
               2
100
AcDbLine
 10
30.500000023841864
 20
-9.0
 30
0.0
 11
40.400000000000006
 21
-9.0
 31
0.0
  0
LINE
  5
5E5
100
AcDbEntity
  8
0
  6
CENTER
 62
               2
100
AcDbLine
 10
30.500000023841864
 20
9.0
 30
0.0
 11
41.400000000000006
 21
9.0
 31
0.0
  0
LINE
  5
5E6
100
AcDbEntity
  8
0
  6
CENTER
 62
               2
100
AcDbLine
 10
14.500000023841864
 20
-9.0
 30
0.0
 11
25.400000000000006
 21
-9.0
 31
0.0
  0
LINE
  5
5E7
100
AcDbEntity
  8
0
  6
CENTER
 62
               2
100
AcDbLine
 10
38.0
 20
-12.400000000000006
 30
0.0
 11
38.0
 21
-5.5999999999999943
 31
0.0
  0
CIRCLE
  5
5E8
100
AcDbEntity
  8
0
  6
CONTINUOUS
 62
               7
100
AcDbCircle
 10
38.0
 20
-9.0
 30
0.0
 40
2.3999999999999999
  0
LINE
  5
5E9
100
AcDbEntity
  8
0
  6
CONTINUOUS
 62
               7
100
AcDbLine
 10
49.5
 20
-8.4999999999999858
 30
0.0
 11
49.700000000000017
 21
-8.4999999999999858
 31
0.0
  0
LINE
  5
5EA
100
AcDbEntity
  8
0
  6
CONTINUOUS
 62
               7
100
AcDbLine
 10
49.5
 20
-6.5
 30
0.0
 11
49.700000000000017
 21
-6.5
 31
0.0
  0
ARC
  5
5EB
100
AcDbEntity
  8
0
  6
CONTINUOUS
 62
               7
100
AcDbCircle
 10
49.700000000000017
 20
-6.7999999999999972
 30
0.0
 40
0.3
100
AcDbArc
 50
0.0
 51
89.999999999999815
  0
ARC
  5
5EC
100
AcDbEntity
  8
0
  6
CONTINUOUS
 62
               7
100
AcDbCircle
 10
49.700000000000017
 20
-8.2000000000000028
 30
0.0
 40
0.3
100
AcDbArc
 50
269.99999999999937
 51
0.0
  0
LINE
  5
5ED
100
AcDbEntity
  8
0
  6
CONTINUOUS
 62
               7
100
AcDbLine
 10
50.0
 20
-6.7999999999999972
 30
0.0
 11
50.0
 21
-8.2000000000000028
 31
0.0
  0
LINE
  5
5EE
100
AcDbEntity
  8
0
  6
CONTINUOUS
 62
               7
100
AcDbLine
 10
49.0
 20
-9.2999999999999972
 30
0.0
 11
49.5
 21
-9.2999999999999972
 31
0.0
  0
LINE
  5
5EF
100
AcDbEntity
  8
0
  6
CENTER
 62
               2
100
AcDbLine
 10
48.027939082946432
 20
-7.5
 30
0.0
 11
50.641499936682152
 21
-7.5
 31
0.0
  0
LINE
  5
5F0
100
AcDbEntity
  8
0
  6
CONTINUOUS
 62
               7
100
AcDbLine
 10
49.5
 20
6.5
 30
0.0
 11
49.700000000000017
 21
6.5
 31
0.0
  0
LINE
  5
5F1
100
AcDbEntity
  8
0
  6
CONTINUOUS
 62
               7
100
AcDbLine
 10
49.5
 20
8.5
 30
0.0
 11
49.700000000000017
 21
8.5
 31
0.0
  0
ARC
  5
5F2
100
AcDbEntity
  8
0
  6
CONTINUOUS
 62
               7
100
AcDbCircle
 10
49.700000000000017
 20
8.2000000000000171
 30
0.0
 40
0.3
100
AcDbArc
 50
0.0
 51
89.999999999999815
  0
ARC
  5
5F3
100
AcDbEntity
  8
0
  6
CONTINUOUS
 62
               7
100
AcDbCircle
 10
49.700000000000017
 20
6.8000000000000114
 30
0.0
 40
0.3
100
AcDbArc
 50
269.99999999999937
 51
0.0
  0
LINE
  5
5F4
100
AcDbEntity
  8
0
  6
CONTINUOUS
 62
               7
100
AcDbLine
 10
50.0
 20
8.2000000000000171
 30
0.0
 11
50.0
 21
6.8000000000000114
 31
0.0
  0
LINE
  5
5F5
100
AcDbEntity
  8
0
  6
CONTINUOUS
 62
               7
100
AcDbLine
 10
49.0
 20
9.2999999999999972
 30
0.0
 11
49.5
 21
9.2999999999999972
 31
0.0
  0
LINE
  5
5F6
100
AcDbEntity
  8
0
  6
CENTER
 62
               2
100
AcDbLine
 10
48.027939082946432
 20
7.5
 30
0.0
 11
50.641499936682152
 21
7.5
 31
0.0
  0
LINE
  5
5F7
100
AcDbEntity
  8
0
  6
CONTINUOUS
 62
               7
100
AcDbLine
 10
49.5
 20
9.2999999999999972
 30
0.0
 11
49.5
 21
-9.2999999999999972
 31
0.0
  0
LINE
  5
5F8
100
AcDbEntity
  8
0
  6
CONTINUOUS
 62
               7
100
AcDbLine
 10
0.0
 20
-12.0
 30
0.0
 11
49.0
 21
-12.0
 31
0.0
  0
CIRCLE
  5
5F9
100
AcDbEntity
  8
0
  6
CONTINUOUS
 62
               7
100
AcDbCircle
 10
21.0
 20
-9.0
 30
0.0
 40
1.3
  0
ARC
  5
5FA
100
AcDbEntity
  8
0
  6
CONTINUOUS
 62
               7
100
AcDbCircle
 10
21.0
 20
-9.0
 30
0.0
 40
2.3999999999999999
100
AcDbArc
 50
0.0
 51
77.975300819433997
  0
LINE
  5
5FB
100
AcDbEntity
  8
0
  6
CONTINUOUS
 62
               7
100
AcDbLine
 10
23.400000000000006
 20
-9.0
 30
0.0
 11
23.400000000000006
 21
-10.949358868961795
 31
0.0
  0
LINE
  5
5FC
100
AcDbEntity
  8
0
  6
CENTER
 62
               2
100
AcDbLine
 10
21.0
 20
-12.399999999999991
 30
0.0
 11
21.0
 21
-5.5999999999999943
 31
0.0
  0
LINE
  5
5FD
100
AcDbEntity
  8
0
  6
CENTER
 62
               2
100
AcDbLine
 10
22.0
 20
-12.400000000000006
 30
0.0
 11
22.0
 21
-5.5999999999999943
 31
0.0
  0
CIRCLE
  5
5FE
100
AcDbEntity
  8
0
  6
CONTINUOUS
 62
               7
100
AcDbCircle
 10
22.0
 20
-9.0
 30
0.0
 40
2.3999999999999999
  0
CIRCLE
  5
5FF
100
AcDbEntity
  8
0
  6
CONTINUOUS
 62
               7
100
AcDbCircle
 10
37.0
 20
9.0
 30
0.0
 40
1.3
  0
ARC
  5
600
100
AcDbEntity
  8
0
  6
CONTINUOUS
 62
               7
100
AcDbCircle
 10
37.0
 20
9.0
 30
0.0
 40
2.3999999999999999
100
AcDbArc
 50
282.02469918056596
 51
0.0
  0
LINE
  5
601
100
AcDbEntity
  8
0
  6
CENTER
 62
               2
100
AcDbLine
 10
37.0
 20
12.399999999999991
 30
0.0
 11
37.0
 21
5.5999999999999943
 31
0.0
  0
LINE
  5
602
100
AcDbEntity
  8
0
  6
CONTINUOUS
 62
               7
100
AcDbLine
 10
39.400000000000006
 20
9.0
 30
0.0
 11
39.400000000000006
 21
10.949358868961795
 31
0.0
  0
LINE
  5
603
100
AcDbEntity
  8
0
  6
CENTER
 62
               2
100
AcDbLine
 10
38.0
 20
12.400000000000006
 30
0.0
 11
38.0
 21
5.5999999999999943
 31
0.0
  0
CIRCLE
  5
604
100
AcDbEntity
  8
0
  6
CONTINUOUS
 62
               7
100
AcDbCircle
 10
38.0
 20
9.0
 30
0.0
 40
2.3999999999999999
  0
ARC
  5
605
100
AcDbEntity
  8
0
  6
CONTINUOUS
 62
               7
100
AcDbCircle
 10
37.0
 20
-9.0
 30
0.0
 40
2.3999999999999999
100
AcDbArc
 50
0.0
 51
77.975300819433997
  0
LINE
  5
606
100
AcDbEntity
  8
0
  6
CENTER
 62
               2
100
AcDbLine
 10
37.0
 20
-12.400000000000006
 30
0.0
 11
37.0
 21
-5.5999999999999943
 31
0.0
  0
CIRCLE
  5
607
100
AcDbEntity
  8
0
  6
CONTINUOUS
 62
               7
100
AcDbCircle
 10
37.0
 20
-9.0
 30
0.0
 40
1.3
  0
LINE
  5
608
100
AcDbEntity
  8
0
  6
CONTINUOUS
 62
               7
100
AcDbLine
 10
39.400000000000006
 20
-9.0
 30
0.0
 11
39.400000000000006
 21
-10.949358868961781
 31
0.0
  0
LINE
  5
609
100
AcDbEntity
  8
0
  6
CENTER
 62
               2
100
AcDbLine
 10
21.0
 20
12.399999999999991
 30
0.0
 11
21.0
 21
5.5999999999999943
 31
0.0
  0
LINE
  5
60A
100
AcDbEntity
  8
0
  6
CONTINUOUS
 62
               7
100
AcDbLine
 10
23.400000000000006
 20
9.0
 30
0.0
 11
23.400000000000006
 21
10.949358868961795
 31
0.0
  0
ARC
  5
60B
100
AcDbEntity
  8
0
  6
CONTINUOUS
 62
               7
100
AcDbCircle
 10
21.0
 20
9.0
 30
0.0
 40
2.3999999999999999
100
AcDbArc
 50
282.02469918056596
 51
0.0
  0
CIRCLE
  5
60C
100
AcDbEntity
  8
0
  6
CONTINUOUS
 62
               7
100
AcDbCircle
 10
21.0
 20
9.0
 30
0.0
 40
1.3
  0
LINE
  5
60D
100
AcDbEntity
  8
0
  6
CONTINUOUS
 62
               7
100
AcDbLine
 10
9.9999999758560705
 20
-12.0
 30
0.0
 11
9.9999999758560705
 21
12.0
 31
0.0
  0
LINE
  5
60E
100
AcDbEntity
  8
0
  6
CONTINUOUS
 62
               7
100
AcDbLine
 10
0.0
 20
-12.0
 30
0.0
 11
0.0
 21
12.0
 31
0.0
  0
LINE
  5
60F
100
AcDbEntity
  8
0
  6
CONTINUOUS
 62
               7
100
AcDbLine
 10
49.0
 20
-12.0
 30
0.0
 11
49.0
 21
12.0
 31
0.0
  0
LINE
  5
610
100
AcDbEntity
  8
0
  6
CENTER
 62
               2
100
AcDbLine
 10
-1.682963049411768
 20
0.0
 30
0.0
 11
51.345010395010434
 21
0.0
 31
0.0
  0
LINE
  5
611
100
AcDbEntity
  8
0
  6
CENTER
 62
               2
100
AcDbLine
 10
-0.5906947681626775
 20
-8.5
 30
0.0
 11
6.3197120448923272
 21
-8.5
 31
0.0
  0
LINE
  5
612
100
AcDbEntity
  8
0
  6
CONTINUOUS
 62
               7
100
AcDbLine
 10
2.8000000000000114
 20
-10.900000000000006
 30
0.0
 11
2.8000000000000114
 21
-6.0999999999999943
 31
0.0
  0
LINE
  5
613
100
AcDbEntity
  8
0
  6
CONTINUOUS
 62
               7
100
AcDbLine
 10
0.600000017860765
 20
-6.25
 30
0.0
 11
2.8000000000000114
 21
-6.25
 31
0.0
  0
LINE
  5
614
100
AcDbEntity
  8
0
  6
CONTINUOUS
 62
               7
100
AcDbLine
 10
0.600000017860765
 20
-10.75
 30
0.0
 11
2.8000000000000114
 21
-10.75
 31
0.0
  0
LINE
  5
615
100
AcDbEntity
  8
0
  6
CONTINUOUS
 62
               7
100
AcDbLine
 10
0.3000000000000114
 20
-10.450000002969574
 30
0.0
 11
0.3000000000000114
 21
-6.550000026811432
 31
0.0
  0
LINE
  5
616
100
AcDbEntity
  8
0
  6
CONTINUOUS
 62
               7
100
AcDbLine
 10
0.600000017860765
 20
-6.25
 30
0.0
 11
0.299999999999983
 21
-6.550000017860782
 31
0.0
  0
LINE
  5
617
100
AcDbEntity
  8
0
  6
CONTINUOUS
 62
               7
100
AcDbLine
 10
0.3000000000000114
 20
-10.450000002969574
 30
0.0
 11
0.5999999970304657
 21
-10.75
 31
0.0
  0
LINE
  5
618
100
AcDbEntity
  8
0
  6
CONTINUOUS
 62
               7
100
AcDbLine
 10
0.600000017860765
 20
-6.25
 30
0.0
 11
0.600000017860765
 21
-10.75
 31
0.0
  0
LINE
  5
619
100
AcDbEntity
  8
0
  6
CONTINUOUS
 62
               7
100
AcDbLine
 10
0.0
 20
-6.0999999999999943
 30
0.0
 11
2.8000000000000114
 21
-6.0999999999999943
 31
0.0
  0
LINE
  5
61A
100
AcDbEntity
  8
0
  6
CONTINUOUS
 62
               7
100
AcDbLine
 10
0.0
 20
-10.900000000000006
 30
0.0
 11
2.8000000000000114
 21
-10.900000000000006
 31
0.0
  0
CIRCLE
  5
61B
100
AcDbEntity
  8
0
  6
CONTINUOUS
 62
               7
100
AcDbCircle
 10
17.000000023841864
 20
-9.0
 30
0.0
 40
1.25
  0
CIRCLE
  5
61C
100
AcDbEntity
  8
0
  6
CONTINUOUS
 62
               2
100
AcDbCircle
 10
17.000000023841864
 20
-9.0
 30
0.0
 40
1.5
  0
LINE
  5
61D
100
AcDbEntity
  8
0
  6
CENTER
 62
               2
100
AcDbLine
 10
17.000000023841864
 20
-6.5
 30
0.0
 11
17.000000023841864
 21
-11.5
 31
0.0
  0
CIRCLE
  5
61E
100
AcDbEntity
  8
0
  6
CONTINUOUS
 62
               7
100
AcDbCircle
 10
33.000000023841864
 20
-9.0
 30
0.0
 40
1.25
  0
CIRCLE
  5
61F
100
AcDbEntity
  8
0
  6
CONTINUOUS
 62
               2
100
AcDbCircle
 10
33.000000023841864
 20
-9.0
 30
0.0
 40
1.5
  0
LINE
  5
620
100
AcDbEntity
  8
0
  6
CENTER
 62
               2
100
AcDbLine
 10
33.000000023841864
 20
-6.5
 30
0.0
 11
33.000000023841864
 21
-11.5
 31
0.0
  0
LINE
  5
621
100
AcDbEntity
  8
0
  6
CENTER
 62
               2
100
AcDbLine
 10
17.000000023841864
 20
-2.5
 30
0.0
 11
17.000000023841864
 21
2.5
 31
0.0
  0
CIRCLE
  5
622
100
AcDbEntity
  8
0
  6
CONTINUOUS
 62
               7
100
AcDbCircle
 10
17.000000023841864
 20
0.0
 30
0.0
 40
1.5
  0
LINE
  5
623
100
AcDbEntity
  8
0
  6
CONTINUOUS
 62
               7
100
AcDbLine
 10
33.500000023841864
 20
1.5
 30
0.0
 11
32.500000023841864
 21
1.5
 31
0.0
  0
LINE
  5
624
100
AcDbEntity
  8
0
  6
CONTINUOUS
 62
               7
100
AcDbLine
 10
33.500000023841864
 20
-1.5
 30
0.0
 11
32.500000023841864
 21
-1.5
 31
0.0
  0
ARC
  5
625
100
AcDbEntity
  8
0
  6
CONTINUOUS
 62
               7
100
AcDbCircle
 10
32.500000023841864
 20
0.0
 30
0.0
 40
1.5
100
AcDbArc
 50
89.999999999999815
 51
269.99999999999937
  0
LINE
  5
626
100
AcDbEntity
  8
0
  6
CENTER
 62
               2
100
AcDbLine
 10
33.000000023841864
 20
2.2999999999999972
 30
0.0
 11
33.000000023841864
 21
-2.2999999999999972
 31
0.0
  0
ARC
  5
627
100
AcDbEntity
  8
0
  6
CONTINUOUS
 62
               7
100
AcDbCircle
 10
33.500000023841864
 20
0.0
 30
0.0
 40
1.5
100
AcDbArc
 50
269.99999999999937
 51
89.999999999999801
  0
CIRCLE
  5
628
100
AcDbEntity
  8
0
  6
CONTINUOUS
 62
               7
100
AcDbCircle
 10
33.000000023841864
 20
9.0
 30
0.0
 40
1.25
  0
CIRCLE
  5
629
100
AcDbEntity
  8
0
  6
CONTINUOUS
 62
               2
100
AcDbCircle
 10
33.000000023841864
 20
9.0
 30
0.0
 40
1.5
  0
LINE
  5
62A
100
AcDbEntity
  8
0
  6
CENTER
 62
               2
100
AcDbLine
 10
33.000000023841864
 20
6.5
 30
0.0
 11
33.000000023841864
 21
11.5
 31
0.0
  0
LINE
  5
62B
100
AcDbEntity
  8
0
  6
CENTER
 62
               2
100
AcDbLine
 10
22.0
 20
12.400000000000006
 30
0.0
 11
22.0
 21
5.5999999999999943
 31
0.0
  0
CIRCLE
  5
62C
100
AcDbEntity
  8
0
  6
CONTINUOUS
 62
               7
100
AcDbCircle
 10
22.0
 20
9.0
 30
0.0
 40
2.3999999999999999
  0
CIRCLE
  5
62D
100
AcDbEntity
  8
0
  6
CONTINUOUS
 62
               7
100
AcDbCircle
 10
17.000000023841864
 20
9.0
 30
0.0
 40
1.25
  0
CIRCLE
  5
62E
100
AcDbEntity
  8
0
  6
CONTINUOUS
 62
               2
100
AcDbCircle
 10
17.000000023841864
 20
9.0
 30
0.0
 40
1.5
  0
LINE
  5
62F
100
AcDbEntity
  8
0
  6
CENTER
 62
               2
100
AcDbLine
 10
17.000000023841864
 20
6.5
 30
0.0
 11
17.000000023841864
 21
11.5
 31
0.0
  0
LINE
  5
630
100
AcDbEntity
  8
0
  6
CENTER
 62
               2
100
AcDbLine
 10
-0.5906947681626775
 20
8.5
 30
0.0
 11
6.3197120448923272
 21
8.5
 31
0.0
  0
LINE
  5
631
100
AcDbEntity
  8
0
  6
CONTINUOUS
 62
               7
100
AcDbLine
 10
0.0
 20
12.0
 30
0.0
 11
49.0
 21
12.0
 31
0.0
  0
LINE
  5
632
100
AcDbEntity
  8
0
  6
CONTINUOUS
 62
               7
100
AcDbLine
 10
0.0
 20
10.900000000000006
 30
0.0
 11
2.8000000000000114
 21
10.900000000000006
 31
0.0
  0
LINE
  5
633
100
AcDbEntity
  8
0
  6
CONTINUOUS
 62
               7
100
AcDbLine
 10
0.0
 20
6.0999999999999943
 30
0.0
 11
2.8000000000000114
 21
6.0999999999999943
 31
0.0
  0
LINE
  5
634
100
AcDbEntity
  8
0
  6
CONTINUOUS
 62
               7
100
AcDbLine
 10
0.600000017860765
 20
6.25
 30
0.0
 11
0.600000017860765
 21
10.75
 31
0.0
  0
LINE
  5
635
100
AcDbEntity
  8
0
  6
CONTINUOUS
 62
               7
100
AcDbLine
 10
0.3000000000000114
 20
10.450000002969574
 30
0.0
 11
0.5999999970304657
 21
10.75
 31
0.0
  0
LINE
  5
636
100
AcDbEntity
  8
0
  6
CONTINUOUS
 62
               7
100
AcDbLine
 10
0.600000017860765
 20
6.25
 30
0.0
 11
0.299999999999983
 21
6.550000017860782
 31
0.0
  0
LINE
  5
637
100
AcDbEntity
  8
0
  6
CONTINUOUS
 62
               7
100
AcDbLine
 10
0.3000000000000114
 20
10.450000002969574
 30
0.0
 11
0.3000000000000114
 21
6.550000026811432
 31
0.0
  0
LINE
  5
638
100
AcDbEntity
  8
0
  6
CONTINUOUS
 62
               7
100
AcDbLine
 10
0.600000017860765
 20
10.75
 30
0.0
 11
2.8000000000000114
 21
10.75
 31
0.0
  0
LINE
  5
639
100
AcDbEntity
  8
0
  6
CONTINUOUS
 62
               7
100
AcDbLine
 10
0.600000017860765
 20
6.25
 30
0.0
 11
2.8000000000000114
 21
6.25
 31
0.0
  0
LINE
  5
63A
100
AcDbEntity
  8
0
  6
CONTINUOUS
 62
               7
100
AcDbLine
 10
2.8000000000000114
 20
10.900000000000006
 30
0.0
 11
2.8000000000000114
 21
6.0999999999999943
 31
0.0
  0
LINE
  5
63B
100
AcDbEntity
  8
0
  6
CONTINUOUS
 62
               7
100
AcDbLine
 10
0.0
 20
11.5
 30
0.0
 11
49.0
 21
11.5
 31
0.0
  0
LINE
  5
63C
100
AcDbEntity
  8
0
  6
CONTINUOUS
 62
               7
100
AcDbLine
 10
0.0
 20
-11.5
 30
0.0
 11
49.0
 21
-11.5
 31
0.0
  0
ENDBLK
  5
63D
100
AcDbEntity
  8
0
100
AcDbBlockEnd
  0
BLOCK
  5
63E
100
AcDbEntity
  8
0
100
AcDbBlockBegin
  2
CS-MGA8-25
 70
               0
 10
0.0
 20
0.0
 30
0.0
  3
CS-MGA8-25
  1

  0
LINE
  5
63F
100
AcDbEntity
  8
0
  6
CONTINUOUS
 62
               4
100
AcDbLine
 10
12.900000000000006
 20
13.0
 30
0.0
 11
6.6999999999999886
 21
13.0
 31
0.0
  0
LINE
  5
640
100
AcDbEntity
  8
0
  6
CONTINUOUS
 62
               4
100
AcDbLine
 10
12.599999999999994
 20
15.0
 30
0.0
 11
9.4000000000000057
 21
15.0
 31
0.0
  0
LINE
  5
641
100
AcDbEntity
  8
0
  6
CONTINUOUS
 62
               4
100
AcDbLine
 10
9.0999999999999943
 20
14.700000000000003
 30
0.0
 11
9.0999999999999943
 21
13.0
 31
0.0
  0
LINE
  5
642
100
AcDbEntity
  8
0
  6
CONTINUOUS
 62
               4
100
AcDbLine
 10
12.900000000000006
 20
14.700000000000003
 30
0.0
 11
12.900000000000006
 21
13.0
 31
0.0
  0
LINE
  5
643
100
AcDbEntity
  8
0
  6
CONTINUOUS
 62
               4
100
AcDbLine
 10
9.4000000000000057
 20
15.0
 30
0.0
 11
9.0999999999999943
 21
14.700000000000003
 31
0.0
  0
LINE
  5
644
100
AcDbEntity
  8
0
  6
CONTINUOUS
 62
               4
100
AcDbLine
 10
12.599999999999994
 20
15.0
 30
0.0
 11
12.900000000000006
 21
14.700000000000003
 31
0.0
  0
LINE
  5
645
100
AcDbEntity
  8
0
  6
CONTINUOUS
 62
               4
100
AcDbLine
 10
12.900000000000006
 20
14.700000000000003
 30
0.0
 11
9.0999999999999943
 21
14.700000000000003
 31
0.0
  0
LINE
  5
646
100
AcDbEntity
  8
0
  6
CONTINUOUS
 62
               4
100
AcDbLine
 10
10.300000000000011
 20
15.5
 30
0.0
 11
6.6999999999999886
 21
15.5
 31
0.0
  0
LINE
  5
647
100
AcDbEntity
  8
0
  6
CONTINUOUS
 62
               4
100
AcDbLine
 10
2.1000000000000227
 20
21.500000000000057
 30
0.0
 11
0.9000000000000057
 21
21.500000000000071
 31
0.0
  0
LINE
  5
648
100
AcDbEntity
  8
0
  6
CONTINUOUS
 62
               4
100
AcDbLine
 10
2.4000000000000057
 20
21.20000000000006
 30
0.0
 11
2.4000000000000057
 21
21.000000000000057
 31
0.0
  0
LINE
  5
649
100
AcDbEntity
  8
0
  6
CONTINUOUS
 62
               4
100
AcDbLine
 10
5.5999999999999943
 20
21.20000000000006
 30
0.0
 11
5.5999999999999943
 21
21.000000000000057
 31
0.0
  0
LINE
  5
64A
100
AcDbEntity
  8
0
  6
CONTINUOUS
 62
               4
100
AcDbLine
 10
7.3000000000000114
 20
21.500000000000057
 30
0.0
 11
5.9006993865086201
 21
21.500000000000057
 31
0.0
  0
LINE
  5
64B
100
AcDbEntity
  8
0
  6
CONTINUOUS
 62
               4
100
AcDbLine
 10
6.0999999999999943
 20
20.500000000000057
 30
0.0
 11
6.0999999999999943
 21
18.900000000000063
 31
0.0
  0
LINE
  5
64C
100
AcDbEntity
  8
0
  6
CONTINUOUS
 62
               4
100
AcDbLine
 10
1.9000000000000057
 20
20.500000000000057
 30
0.0
 11
1.9000000000000057
 21
18.900000000000063
 31
0.0
  0
LINE
  5
64D
100
AcDbEntity
  8
0
  6
CONTINUOUS
 62
               4
100
AcDbLine
 10
2.4000000000000057
 20
21.000000000000057
 30
0.0
 11
1.9000000000000057
 21
20.500000000000057
 31
0.0
  0
LINE
  5
64E
100
AcDbEntity
  8
0
  6
CONTINUOUS
 62
               4
100
AcDbLine
 10
6.0999999999999943
 20
20.500000000000057
 30
0.0
 11
5.5999999999999943
 21
21.000000000000057
 31
0.0
  0
ARC
  5
64F
100
AcDbEntity
  8
0
  6
CONTINUOUS
 62
               4
100
AcDbCircle
 10
4.0
 20
18.900000000000063
 30
0.0
 40
2.1000000111152071
100
AcDbArc
 50
179.99999999999955
 51
359.99999999999915
  0
ARC
  5
650
100
AcDbEntity
  8
0
  6
CONTINUOUS
 62
               4
100
AcDbCircle
 10
5.9006993865086201
 20
21.199300613491431
 30
0.0
 40
0.3007001998472195
100
AcDbArc
 50
90.133262070800711
 51
179.86673792919774
  0
ARC
  5
651
100
AcDbEntity
  8
0
  6
CONTINUOUS
 62
               4
100
AcDbCircle
 10
2.1004760263645892
 20
21.200476026364655
 30
0.0
 40
0.2995243519038812
100
AcDbArc
 50
359.90894124989592
 51
90.091058750102832
  0
LINE
  5
652
100
AcDbEntity
  8
0
  6
CONTINUOUS
 62
               4
100
AcDbLine
 10
7.1000000000000227
 20
20.500000000000057
 30
0.0
 11
7.0999999999999943
 21
18.900000000000063
 31
0.0
  0
ARC
  5
653
100
AcDbEntity
  8
0
  6
CONTINUOUS
 62
               4
100
AcDbCircle
 10
7.2993006134913685
 20
21.199300613491431
 30
0.0
 40
0.3007001998472195
100
AcDbArc
 50
0.1332620708018081
 51
89.866737929198834
  0
LINE
  5
654
100
AcDbEntity
  8
0
  6
CONTINUOUS
 62
               4
100
AcDbLine
 10
7.1000000000000227
 20
20.500000000000057
 30
0.0
 11
7.6000000000000227
 21
21.000000000000057
 31
0.0
  0
LINE
  5
655
100
AcDbEntity
  8
0
  6
CONTINUOUS
 62
               4
100
AcDbLine
 10
7.6000000000000227
 20
21.20000000000006
 30
0.0
 11
7.6000000000000227
 21
21.000000000000057
 31
0.0
  0
ARC
  5
656
100
AcDbEntity
  8
0
  6
CONTINUOUS
 62
               4
100
AcDbCircle
 10
9.2000000000000171
 20
18.900000000000063
 30
0.0
 40
2.1000000111152071
100
AcDbArc
 50
179.99999999999963
 51
0.0
  0
LINE
  5
657
100
AcDbEntity
  8
0
  6
CONTINUOUS
 62
               4
100
AcDbLine
 10
11.099999999999994
 20
21.500000000000057
 30
0.0
 11
12.300000000000011
 21
21.500000000000057
 31
0.0
  0
LINE
  5
658
100
AcDbEntity
  8
0
  6
CONTINUOUS
 62
               4
100
AcDbLine
 10
11.300000000000011
 20
20.500000000000057
 30
0.0
 11
11.300000000000011
 21
18.900000000000063
 31
0.0
  0
ARC
  5
659
100
AcDbEntity
  8
0
  6
CONTINUOUS
 62
               4
100
AcDbCircle
 10
11.099523973635428
 20
21.20047602636464
 30
0.0
 40
0.2995243519038812
100
AcDbArc
 50
89.908941249896714
 51
180.0910587501036
  0
LINE
  5
65A
100
AcDbEntity
  8
0
  6
CONTINUOUS
 62
               4
100
AcDbLine
 10
10.800000000000011
 20
21.000000000000057
 30
0.0
 11
11.300000000000011
 21
20.500000000000057
 31
0.0
  0
LINE
  5
65B
100
AcDbEntity
  8
0
  6
CONTINUOUS
 62
               4
100
AcDbLine
 10
10.800000000000011
 20
21.200000000000045
 30
0.0
 11
10.800000000000011
 21
21.000000000000057
 31
0.0
  0
LINE
  5
65C
100
AcDbEntity
  8
0
  6
CONTINUOUS
 62
               4
100
AcDbLine
 10
12.300000000000011
 20
21.500000000000057
 30
0.0
 11
12.300000000000011
 21
17.5
 31
0.0
  0
ARC
  5
65D
100
AcDbEntity
  8
0
  6
CONTINUOUS
 62
               4
100
AcDbCircle
 10
10.300000000000011
 20
17.5
 30
0.0
 40
2.0
100
AcDbArc
 50
269.99999999999932
 51
359.99999999999915
  0
LINE
  5
65E
100
AcDbEntity
  8
0
  6
CONTINUOUS
 62
               4
100
AcDbLine
 10
9.0999999999999943
 20
14.700000000000003
 30
0.0
 11
6.6999999999999886
 21
14.700000000000003
 31
0.0
  0
LINE
  5
65F
100
AcDbEntity
  8
0
  6
CONTINUOUS
 62
               4
100
AcDbLine
 10
0.9000000000000057
 20
21.500000000000071
 30
0.0
 11
0.9000000000000057
 21
11.5
 31
0.0
  0
LINE
  5
660
100
AcDbEntity
  8
0
  6
CENTER
 62
             200
100
AcDbLine
 10
4.0
 20
22.421064405906037
 30
0.0
 11
4.0
 21
15.763361521378542
 31
0.0
  0
LINE
  5
661
100
AcDbEntity
  8
0
  6
CONTINUOUS
 62
               4
100
AcDbLine
 10
6.6999999999999886
 20
15.5
 30
0.0
 11
6.6999999999999886
 21
12.0
 31
0.0
  0
LINE
  5
662
100
AcDbEntity
  8
0
  6
CENTER
 62
             200
100
AcDbLine
 10
9.1999999999999886
 20
22.421064405906037
 30
0.0
 11
9.1999999999999886
 21
15.763361521378542
 31
0.0
  0
LINE
  5
663
100
AcDbEntity
  8
0
  6
CONTINUOUS
 62
               4
100
AcDbLine
 10
9.1999999999999886
 20
12.0
 30
0.0
 11
9.1999999999999886
 21
13.0
 31
0.0
  0
LINE
  5
664
100
AcDbEntity
  8
0
  6
CONTINUOUS
 62
               4
100
AcDbLine
 10
12.800000000000011
 20
13.0
 30
0.0
 11
12.800000000000011
 21
12.0
 31
0.0
  0
LINE
  5
665
100
AcDbEntity
  8
0
  6
CENTER
 62
             200
100
AcDbLine
 10
11.0
 20
15.530849323642016
 30
0.0
 11
11.0
 21
11.103810020426266
 31
0.0
  0
LINE
  5
666
100
AcDbEntity
  8
0
  6
CENTER
 62
               2
100
AcDbLine
 10
-1.9560299056583688
 20
0.0
 30
0.0
 11
15.981661064987264
 21
0.0
 31
0.0
  0
LINE
  5
667
100
AcDbEntity
  8
0
  6
CONTINUOUS
 62
               7
100
AcDbLine
 10
14.0
 20
11.5
 30
0.0
 11
14.0
 21
-11.5
 31
0.0
  0
LINE
  5
668
100
AcDbEntity
  8
0
  6
CONTINUOUS
 62
               7
100
AcDbLine
 10
-0.0000000136905953
 20
11.5
 30
0.0
 11
1.5
 21
11.5
 31
0.0
  0
LINE
  5
669
100
AcDbEntity
  8
0
  6
CONTINUOUS
 62
               7
100
AcDbLine
 10
-0.0000000136905953
 20
-11.5
 30
0.0
 11
1.5
 21
-11.5
 31
0.0
  0
LINE
  5
66A
100
AcDbEntity
  8
0
  6
CONTINUOUS
 62
               7
100
AcDbLine
 10
1.5
 20
-12.0
 30
0.0
 11
13.5
 21
-12.0
 31
0.0
  0
LINE
  5
66B
100
AcDbEntity
  8
0
  6
CONTINUOUS
 62
               7
100
AcDbLine
 10
1.5
 20
12.0
 30
0.0
 11
13.499999999999972
 21
12.0
 31
0.0
  0
LINE
  5
66C
100
AcDbEntity
  8
0
  6
CENTER
 62
               2
100
AcDbLine
 10
11.5
 20
4.75
 30
0.0
 11
11.5
 21
12.25
 31
0.0
  0
LINE
  5
66D
100
AcDbEntity
  8
0
  6
CENTER
 62
               2
100
AcDbLine
 10
7.75
 20
8.5
 30
0.0
 11
15.25
 21
8.5
 31
0.0
  0
CIRCLE
  5
66E
100
AcDbEntity
  8
0
  6
CONTINUOUS
 62
               7
100
AcDbCircle
 10
11.5
 20
8.5
 30
0.0
 40
2.25
  0
LINE
  5
66F
100
AcDbEntity
  8
0
  6
CONTINUOUS
 62
               7
100
AcDbLine
 10
10.922649785865616
 20
7.4999999505413797
 30
0.0
 11
10.345299467433762
 21
8.5000000697506692
 31
0.0
  0
LINE
  5
670
100
AcDbEntity
  8
0
  6
CONTINUOUS
 62
               7
100
AcDbLine
 10
12.077350339549668
 20
7.5000000229499335
 30
0.0
 11
10.922649673311042
 21
7.5000000399095512
 31
0.0
  0
LINE
  5
671
100
AcDbEntity
  8
0
  6
CONTINUOUS
 62
               7
100
AcDbLine
 10
12.654700553684052
 20
8.5000000724085538
 30
0.0
 11
12.077350205877252
 21
7.499999970158882
 31
0.0
  0
LINE
  5
672
100
AcDbEntity
  8
0
  6
CONTINUOUS
 62
               7
100
AcDbLine
 10
12.077350214134384
 20
9.5000000494586203
 30
0.0
 11
12.654700532566238
 21
8.4999999302493308
 31
0.0
  0
LINE
  5
673
100
AcDbEntity
  8
0
  6
CONTINUOUS
 62
               7
100
AcDbLine
 10
10.922649660450332
 20
9.4999999770500665
 30
0.0
 11
12.077350326688958
 21
9.4999999600904488
 31
0.0
  0
LINE
  5
674
100
AcDbEntity
  8
0
  6
CONTINUOUS
 62
               7
100
AcDbLine
 10
10.345299446315948
 20
8.4999999275914462
 30
0.0
 11
10.922649794122748
 21
9.500000029841118
 31
0.0
  0
CIRCLE
  5
675
100
AcDbEntity
  8
0
  6
CONTINUOUS
 62
               7
100
AcDbCircle
 10
11.5
 20
8.5
 30
0.0
 40
1.95
  0
ARC
  5
676
100
AcDbEntity
  8
0
  6
CONTINUOUS
 62
               7
100
AcDbCircle
 10
11.5
 20
8.5
 30
0.0
 40
2.3999999999999999
100
AcDbArc
 50
89.999999999999815
 51
269.99999999999937
  0
LINE
  5
677
100
AcDbEntity
  8
0
  6
CONTINUOUS
 62
               7
100
AcDbLine
 10
13.799999999999983
 20
11.499999999999943
 30
0.0
 11
13.799999999999983
 21
-11.5
 31
0.0
  0
LINE
  5
678
100
AcDbEntity
  8
0
  6
CONTINUOUS
 62
               7
100
AcDbLine
 10
1.5
 20
12.0
 30
0.0
 11
1.5
 21
2.5
 31
0.0
  0
LINE
  5
679
100
AcDbEntity
  8
0
  6
CENTER
 62
               2
100
AcDbLine
 10
11.5
 20
-12.25
 30
0.0
 11
11.5
 21
-4.75
 31
0.0
  0
LINE
  5
67A
100
AcDbEntity
  8
0
  6
CENTER
 62
               2
100
AcDbLine
 10
15.25
 20
-8.5
 30
0.0
 11
7.75
 21
-8.5
 31
0.0
  0
CIRCLE
  5
67B
100
AcDbEntity
  8
0
  6
CONTINUOUS
 62
               7
100
AcDbCircle
 10
11.5
 20
-8.5
 30
0.0
 40
2.25
  0
CIRCLE
  5
67C
100
AcDbEntity
  8
0
  6
CONTINUOUS
 62
               7
100
AcDbCircle
 10
11.5
 20
-8.5
 30
0.0
 40
1.95
  0
ARC
  5
67D
100
AcDbEntity
  8
0
  6
CONTINUOUS
 62
               7
100
AcDbCircle
 10
11.5
 20
-8.5
 30
0.0
 40
2.3999999999999999
100
AcDbArc
 50
89.999999999999815
 51
269.99999999999937
  0
LINE
  5
67E
100
AcDbEntity
  8
0
  6
CONTINUOUS
 62
               7
100
AcDbLine
 10
12.654700553684052
 20
-8.5000000724085538
 30
0.0
 11
12.077350205877252
 21
-7.499999970158882
 31
0.0
  0
LINE
  5
67F
100
AcDbEntity
  8
0
  6
CONTINUOUS
 62
               7
100
AcDbLine
 10
12.077350339549668
 20
-7.5000000229499335
 30
0.0
 11
10.922649673311042
 21
-7.5000000399095512
 31
0.0
  0
LINE
  5
680
100
AcDbEntity
  8
0
  6
CONTINUOUS
 62
               7
100
AcDbLine
 10
10.922649785865616
 20
-7.4999999505413797
 30
0.0
 11
10.345299467433762
 21
-8.5000000697506692
 31
0.0
  0
LINE
  5
681
100
AcDbEntity
  8
0
  6
CONTINUOUS
 62
               7
100
AcDbLine
 10
10.345299446315948
 20
-8.4999999275914462
 30
0.0
 11
10.922649794122748
 21
-9.500000029841118
 31
0.0
  0
LINE
  5
682
100
AcDbEntity
  8
0
  6
CONTINUOUS
 62
               7
100
AcDbLine
 10
10.922649660450332
 20
-9.4999999770500665
 30
0.0
 11
12.077350326688958
 21
-9.4999999600904488
 31
0.0
  0
LINE
  5
683
100
AcDbEntity
  8
0
  6
CONTINUOUS
 62
               7
100
AcDbLine
 10
12.077350214134384
 20
-9.5000000494586203
 30
0.0
 11
12.654700532566238
 21
-8.4999999302493308
 31
0.0
  0
LINE
  5
684
100
AcDbEntity
  8
0
  6
CONTINUOUS
 62
               7
100
AcDbLine
 10
11.5
 20
10.900000000000006
 30
0.0
 11
13.799999999999983
 21
10.900000000000006
 31
0.0
  0
LINE
  5
685
100
AcDbEntity
  8
0
  6
CONTINUOUS
 62
               7
100
AcDbLine
 10
11.5
 20
6.0999999999999943
 30
0.0
 11
13.799999999999983
 21
6.0999999999999943
 31
0.0
  0
LINE
  5
686
100
AcDbEntity
  8
0
  6
CONTINUOUS
 62
               7
100
AcDbLine
 10
11.5
 20
-6.0999999999999943
 30
0.0
 11
13.799999999999983
 21
-6.0999999999999943
 31
0.0
  0
LINE
  5
687
100
AcDbEntity
  8
0
  6
CONTINUOUS
 62
               7
100
AcDbLine
 10
11.5
 20
-10.900000000000006
 30
0.0
 11
13.799999999999983
 21
-10.900000000000006
 31
0.0
  0
CIRCLE
  5
688
100
AcDbEntity
  8
0
  6
CONTINUOUS
 62
               7
100
AcDbCircle
 10
6.0
 20
8.0
 30
0.0
 40
1.25
  0
LINE
  5
689
100
AcDbEntity
  8
0
  6
CENTER
 62
               2
100
AcDbLine
 10
3.5
 20
8.0
 30
0.0
 11
8.4999999999999716
 21
8.0
 31
0.0
  0
CIRCLE
  5
68A
100
AcDbEntity
  8
0
  6
CONTINUOUS
 62
               2
100
AcDbCircle
 10
6.0
 20
8.0
 30
0.0
 40
1.5
  0
LINE
  5
68B
100
AcDbEntity
  8
0
  6
CENTER
 62
               2
100
AcDbLine
 10
6.0
 20
10.5
 30
0.0
 11
6.0
 21
5.5
 31
0.0
  0
CIRCLE
  5
68C
100
AcDbEntity
  8
0
  6
CONTINUOUS
 62
               7
100
AcDbCircle
 10
6.0
 20
-8.0
 30
0.0
 40
1.25
  0
LINE
  5
68D
100
AcDbEntity
  8
0
  6
CENTER
 62
               2
100
AcDbLine
 10
3.5
 20
-8.0
 30
0.0
 11
8.4999999999999716
 21
-8.0
 31
0.0
  0
CIRCLE
  5
68E
100
AcDbEntity
  8
0
  6
CONTINUOUS
 62
               2
100
AcDbCircle
 10
6.0
 20
-8.0
 30
0.0
 40
1.5
  0
LINE
  5
68F
100
AcDbEntity
  8
0
  6
CENTER
 62
               2
100
AcDbLine
 10
6.0
 20
-5.5
 30
0.0
 11
6.0
 21
-10.5
 31
0.0
  0
LINE
  5
690
100
AcDbEntity
  8
0
  6
CONTINUOUS
 62
               7
100
AcDbLine
 10
13.299999999999983
 20
12.0
 30
0.0
 11
13.799999999999983
 21
11.499999999999943
 31
0.0
  0
LINE
  5
691
100
AcDbEntity
  8
0
  6
CONTINUOUS
 62
               7
100
AcDbLine
 10
14.0
 20
11.5
 30
0.0
 11
13.499999999999972
 21
12.0
 31
0.0
  0
LINE
  5
692
100
AcDbEntity
  8
0
  6
CONTINUOUS
 62
               7
100
AcDbLine
 10
13.799999999999983
 20
-11.5
 30
0.0
 11
13.300000000000011
 21
-12.0
 31
0.0
  0
LINE
  5
693
100
AcDbEntity
  8
0
  6
CONTINUOUS
 62
               7
100
AcDbLine
 10
13.5
 20
-12.0
 30
0.0
 11
14.0
 21
-11.5
 31
0.0
  0
CIRCLE
  5
694
100
AcDbEntity
  8
0
  6
CONTINUOUS
 62
               7
100
AcDbCircle
 10
5.5
 20
0.0
 30
0.0
 40
1.5
  0
CIRCLE
  5
695
100
AcDbEntity
  8
0
  6
CONTINUOUS
 62
               2
100
AcDbCircle
 10
5.5
 20
0.0
 30
0.0
 40
1.2
  0
LINE
  5
696
100
AcDbEntity
  8
0
  6
CENTER
 62
               2
100
AcDbLine
 10
5.5
 20
-5.0
 30
0.0
 11
5.5
 21
5.0
 31
0.0
  0
LINE
  5
697
100
AcDbEntity
  8
0
  6
CENTER
 62
               2
100
AcDbLine
 10
4.5
 20
2.5
 30
0.0
 11
6.5
 21
2.5
 31
0.0
  0
CIRCLE
  5
698
100
AcDbEntity
  8
0
  6
CONTINUOUS
 62
               7
100
AcDbCircle
 10
5.5
 20
0.0
 30
0.0
 40
3.7000000000000002
  0
ARC
  5
699
100
AcDbEntity
  8
0
  6
CONTINUOUS
 62
               7
100
AcDbCircle
 10
5.5
 20
0.0
 30
0.0
 40
4.0
100
AcDbArc
 50
269.99999999999937
 51
89.999999999999801
  0
LINE
  5
69A
100
AcDbEntity
  8
0
  6
CONTINUOUS
 62
               7
100
AcDbLine
 10
5.5
 20
4.0
 30
0.0
 11
1.5
 21
4.0
 31
0.0
  0
LINE
  5
69B
100
AcDbEntity
  8
0
  6
CONTINUOUS
 62
               7
100
AcDbLine
 10
5.5
 20
-4.0
 30
0.0
 11
1.5
 21
-4.0
 31
0.0
  0
LINE
  5
69C
100
AcDbEntity
  8
0
  6
CENTER
 62
               2
100
AcDbLine
 10
4.5
 20
-2.5
 30
0.0
 11
6.5
 21
-2.5
 31
0.0
  0
CIRCLE
  5
69D
100
AcDbEntity
  8
0
  6
CONTINUOUS
 62
               7
100
AcDbCircle
 10
5.5
 20
-2.5
 30
0.0
 40
0.5
  0
CIRCLE
  5
69E
100
AcDbEntity
  8
0
  6
CONTINUOUS
 62
               7
100
AcDbCircle
 10
5.5
 20
2.5
 30
0.0
 40
0.5
  0
LINE
  5
69F
100
AcDbEntity
  8
0
  6
CONTINUOUS
 62
               7
100
AcDbLine
 10
2.7723636606028208
 20
2.5
 30
0.0
 11
1.5
 21
2.5
 31
0.0
  0
LINE
  5
6A0
100
AcDbEntity
  8
0
  6
CONTINUOUS
 62
               7
100
AcDbLine
 10
2.7723636606028208
 20
-2.5
 30
0.0
 11
1.5
 21
-2.5
 31
0.0
  0
LINE
  5
6A1
100
AcDbEntity
  8
0
  6
CONTINUOUS
 62
               7
100
AcDbLine
 10
1.5
 20
-2.5
 30
0.0
 11
1.5
 21
-12.0
 31
0.0
  0
LINE
  5
6A2
100
AcDbEntity
  8
0
  6
CONTINUOUS
 62
               7
100
AcDbLine
 10
0.0
 20
-3.7000000000000171
 30
0.0
 11
0.0
 21
-11.5
 31
0.0
  0
LINE
  5
6A3
100
AcDbEntity
  8
0
  6
CONTINUOUS
 62
               7
100
AcDbLine
 10
0.0
 20
11.5
 30
0.0
 11
0.0
 21
3.7000000000000171
 31
0.0
  0
LINE
  5
6A4
100
AcDbEntity
  8
0
  6
CONTINUOUS
 62
               7
100
AcDbLine
 10
0.3000000000000114
 20
3.4000000000000057
 30
0.0
 11
0.0
 21
3.7000000000000171
 31
0.0
  0
LINE
  5
6A5
100
AcDbEntity
  8
0
  6
CONTINUOUS
 62
               7
100
AcDbLine
 10
0.3000000000000114
 20
-3.4000000000000057
 30
0.0
 11
0.0
 21
-3.7000000000000171
 31
0.0
  0
LINE
  5
6A6
100
AcDbEntity
  8
0
  6
CONTINUOUS
 62
               7
100
AcDbLine
 10
0.3000000000000114
 20
3.4000000000000057
 30
0.0
 11
0.3000000000000114
 21
-3.4000000000000057
 31
0.0
  0
ENDBLK
  5
6A7
100
AcDbEntity
  8
0
100
AcDbBlockEnd
  0
BLOCK
  5
6A8
100
AcDbEntity
  8
0
100
AcDbBlockBegin
  2
CS-MGA8-26
 70
               0
 10
0.0
 20
0.0
 30
0.0
  3
CS-MGA8-26
  1

  0
LINE
  5
6A9
100
AcDbEntity
  8
0
  6
CONTINUOUS
 62
               4
100
AcDbLine
 10
-9.099999986309399
 20
14.700000000000003
 30
0.0
 11
-6.6999999863093933
 21
14.700000000000003
 31
0.0
  0
ARC
  5
6AA
100
AcDbEntity
  8
0
  6
CONTINUOUS
 62
               4
100
AcDbCircle
 10
-10.299999986309416
 20
17.5
 30
0.0
 40
2.0
100
AcDbArc
 50
179.99999999999966
 51
269.99999999999943
  0
LINE
  5
6AB
100
AcDbEntity
  8
0
  6
CONTINUOUS
 62
               4
100
AcDbLine
 10
-12.299999986309416
 20
21.500000000000057
 30
0.0
 11
-12.299999986309416
 21
17.5
 31
0.0
  0
LINE
  5
6AC
100
AcDbEntity
  8
0
  6
CONTINUOUS
 62
               4
100
AcDbLine
 10
-10.799999986309416
 20
21.200000000000045
 30
0.0
 11
-10.799999986309416
 21
21.000000000000057
 31
0.0
  0
LINE
  5
6AD
100
AcDbEntity
  8
0
  6
CONTINUOUS
 62
               4
100
AcDbLine
 10
-10.799999986309416
 20
21.000000000000057
 30
0.0
 11
-11.299999986309416
 21
20.500000000000057
 31
0.0
  0
ARC
  5
6AE
100
AcDbEntity
  8
0
  6
CONTINUOUS
 62
               4
100
AcDbCircle
 10
-11.099523959944833
 20
21.20047602636464
 30
0.0
 40
0.2995243519038812
100
AcDbArc
 50
359.90894124989597
 51
90.091058750102889
  0
LINE
  5
6AF
100
AcDbEntity
  8
0
  6
CONTINUOUS
 62
               4
100
AcDbLine
 10
-11.299999986309416
 20
20.500000000000057
 30
0.0
 11
-11.299999986309416
 21
18.900000000000063
 31
0.0
  0
LINE
  5
6B0
100
AcDbEntity
  8
0
  6
CONTINUOUS
 62
               4
100
AcDbLine
 10
-11.099999986309399
 20
21.500000000000057
 30
0.0
 11
-12.299999986309416
 21
21.500000000000057
 31
0.0
  0
ARC
  5
6B1
100
AcDbEntity
  8
0
  6
CONTINUOUS
 62
               4
100
AcDbCircle
 10
-9.1999999863094217
 20
18.900000000000063
 30
0.0
 40
2.1000000111152071
100
AcDbArc
 50
180.00000000000037
 51
0.0
  0
LINE
  5
6B2
100
AcDbEntity
  8
0
  6
CONTINUOUS
 62
               4
100
AcDbLine
 10
-7.5999999863094274
 20
21.20000000000006
 30
0.0
 11
-7.5999999863094274
 21
21.000000000000057
 31
0.0
  0
LINE
  5
6B3
100
AcDbEntity
  8
0
  6
CONTINUOUS
 62
               4
100
AcDbLine
 10
-7.0999999863094274
 20
20.500000000000057
 30
0.0
 11
-7.5999999863094274
 21
21.000000000000057
 31
0.0
  0
ARC
  5
6B4
100
AcDbEntity
  8
0
  6
CONTINUOUS
 62
               4
100
AcDbCircle
 10
-7.2993005998007732
 20
21.199300613491431
 30
0.0
 40
0.3007001998472195
100
AcDbArc
 50
90.133262070800768
 51
179.8667379291978
  0
LINE
  5
6B5
100
AcDbEntity
  8
0
  6
CONTINUOUS
 62
               4
100
AcDbLine
 10
-7.0999999863094274
 20
20.500000000000057
 30
0.0
 11
-7.099999986309399
 21
18.900000000000063
 31
0.0
  0
ARC
  5
6B6
100
AcDbEntity
  8
0
  6
CONTINUOUS
 62
               4
100
AcDbCircle
 10
-2.1004760126739939
 20
21.200476026364655
 30
0.0
 40
0.2995243519038812
100
AcDbArc
 50
89.908941249896756
 51
180.09105875010366
  0
ARC
  5
6B7
100
AcDbEntity
  8
0
  6
CONTINUOUS
 62
               4
100
AcDbCircle
 10
-5.9006993728180248
 20
21.199300613491431
 30
0.0
 40
0.3007001998472195
100
AcDbArc
 50
0.133262070801859
 51
89.866737929198877
  0
ARC
  5
6B8
100
AcDbEntity
  8
0
  6
CONTINUOUS
 62
               4
100
AcDbCircle
 10
-3.9999999863094047
 20
18.900000000000063
 30
0.0
 40
2.1000000111152071
100
AcDbArc
 50
179.99999999999966
 51
0.0000000000000509
  0
LINE
  5
6B9
100
AcDbEntity
  8
0
  6
CONTINUOUS
 62
               4
100
AcDbLine
 10
-6.099999986309399
 20
20.500000000000057
 30
0.0
 11
-5.599999986309399
 21
21.000000000000057
 31
0.0
  0
LINE
  5
6BA
100
AcDbEntity
  8
0
  6
CONTINUOUS
 62
               4
100
AcDbLine
 10
-2.3999999863094104
 20
21.000000000000057
 30
0.0
 11
-1.8999999863094104
 21
20.500000000000057
 31
0.0
  0
LINE
  5
6BB
100
AcDbEntity
  8
0
  6
CONTINUOUS
 62
               4
100
AcDbLine
 10
-1.8999999863094104
 20
20.500000000000057
 30
0.0
 11
-1.8999999863094104
 21
18.900000000000063
 31
0.0
  0
LINE
  5
6BC
100
AcDbEntity
  8
0
  6
CONTINUOUS
 62
               4
100
AcDbLine
 10
-6.099999986309399
 20
20.500000000000057
 30
0.0
 11
-6.099999986309399
 21
18.900000000000063
 31
0.0
  0
LINE
  5
6BD
100
AcDbEntity
  8
0
  6
CONTINUOUS
 62
               4
100
AcDbLine
 10
-7.299999986309416
 20
21.500000000000057
 30
0.0
 11
-5.9006993728180248
 21
21.500000000000057
 31
0.0
  0
LINE
  5
6BE
100
AcDbEntity
  8
0
  6
CONTINUOUS
 62
               4
100
AcDbLine
 10
-5.599999986309399
 20
21.20000000000006
 30
0.0
 11
-5.599999986309399
 21
21.000000000000057
 31
0.0
  0
LINE
  5
6BF
100
AcDbEntity
  8
0
  6
CONTINUOUS
 62
               4
100
AcDbLine
 10
-2.3999999863094104
 20
21.20000000000006
 30
0.0
 11
-2.3999999863094104
 21
21.000000000000057
 31
0.0
  0
LINE
  5
6C0
100
AcDbEntity
  8
0
  6
CONTINUOUS
 62
               4
100
AcDbLine
 10
-2.0999999863094274
 20
21.500000000000057
 30
0.0
 11
-0.8999999863094104
 21
21.500000000000071
 31
0.0
  0
LINE
  5
6C1
100
AcDbEntity
  8
0
  6
CONTINUOUS
 62
               4
100
AcDbLine
 10
-10.299999986309416
 20
15.5
 30
0.0
 11
-6.6999999863093933
 21
15.5
 31
0.0
  0
LINE
  5
6C2
100
AcDbEntity
  8
0
  6
CONTINUOUS
 62
               4
100
AcDbLine
 10
-12.89999998630941
 20
14.700000000000003
 30
0.0
 11
-9.099999986309399
 21
14.700000000000003
 31
0.0
  0
LINE
  5
6C3
100
AcDbEntity
  8
0
  6
CONTINUOUS
 62
               4
100
AcDbLine
 10
-12.599999986309399
 20
15.0
 30
0.0
 11
-12.89999998630941
 21
14.700000000000003
 31
0.0
  0
LINE
  5
6C4
100
AcDbEntity
  8
0
  6
CONTINUOUS
 62
               4
100
AcDbLine
 10
-9.3999999863094104
 20
15.0
 30
0.0
 11
-9.099999986309399
 21
14.700000000000003
 31
0.0
  0
LINE
  5
6C5
100
AcDbEntity
  8
0
  6
CONTINUOUS
 62
               4
100
AcDbLine
 10
-12.89999998630941
 20
14.700000000000003
 30
0.0
 11
-12.89999998630941
 21
13.0
 31
0.0
  0
LINE
  5
6C6
100
AcDbEntity
  8
0
  6
CONTINUOUS
 62
               4
100
AcDbLine
 10
-9.099999986309399
 20
14.700000000000003
 30
0.0
 11
-9.099999986309399
 21
13.0
 31
0.0
  0
LINE
  5
6C7
100
AcDbEntity
  8
0
  6
CONTINUOUS
 62
               4
100
AcDbLine
 10
-12.599999986309399
 20
15.0
 30
0.0
 11
-9.3999999863094104
 21
15.0
 31
0.0
  0
LINE
  5
6C8
100
AcDbEntity
  8
0
  6
CONTINUOUS
 62
               4
100
AcDbLine
 10
-12.89999998630941
 20
13.0
 30
0.0
 11
-6.6999999863093933
 21
13.0
 31
0.0
  0
LINE
  5
6C9
100
AcDbEntity
  8
0
  6
CONTINUOUS
 62
               4
100
AcDbLine
 10
-0.8999999863094104
 20
21.500000000000071
 30
0.0
 11
-0.8999999863094104
 21
11.5
 31
0.0
  0
LINE
  5
6CA
100
AcDbEntity
  8
0
  6
CENTER
 62
             200
100
AcDbLine
 10
-3.9999999863094047
 20
22.421064405906037
 30
0.0
 11
-3.9999999863094047
 21
15.763361521378542
 31
0.0
  0
LINE
  5
6CB
100
AcDbEntity
  8
0
  6
CONTINUOUS
 62
               4
100
AcDbLine
 10
-6.6999999863093933
 20
15.5
 30
0.0
 11
-6.6999999863093933
 21
12.0
 31
0.0
  0
LINE
  5
6CC
100
AcDbEntity
  8
0
  6
CENTER
 62
             200
100
AcDbLine
 10
-9.1999999863093933
 20
22.421064405906037
 30
0.0
 11
-9.1999999863093933
 21
15.763361521378542
 31
0.0
  0
LINE
  5
6CD
100
AcDbEntity
  8
0
  6
CONTINUOUS
 62
               4
100
AcDbLine
 10
-9.1999999863093933
 20
12.0
 30
0.0
 11
-9.1999999863093933
 21
13.0
 31
0.0
  0
LINE
  5
6CE
100
AcDbEntity
  8
0
  6
CONTINUOUS
 62
               4
100
AcDbLine
 10
-12.799999986309416
 20
13.0
 30
0.0
 11
-12.799999986309416
 21
12.0
 31
0.0
  0
LINE
  5
6CF
100
AcDbEntity
  8
0
  6
CENTER
 62
             200
100
AcDbLine
 10
-10.999999986309405
 20
15.530849323642016
 30
0.0
 11
-10.999999986309405
 21
11.103810020426266
 31
0.0
  0
LINE
  5
6D0
100
AcDbEntity
  8
0
  6
CONTINUOUS
 62
               7
100
AcDbLine
 10
-1.5
 20
-11.5
 30
0.0
 11
-1.5
 21
-12.0
 31
0.0
  0
LINE
  5
6D1
100
AcDbEntity
  8
0
  6
CONTINUOUS
 62
               7
100
AcDbLine
 10
-1.5
 20
12.0
 30
0.0
 11
-1.5
 21
11.5
 31
0.0
  0
LINE
  5
6D2
100
AcDbEntity
  8
0
  6
CENTER
 62
               2
100
AcDbLine
 10
-6.5
 20
7.0
 30
0.0
 11
-1.5000000000000284
 21
7.0
 31
0.0
  0
LINE
  5
6D3
100
AcDbEntity
  8
0
  6
CENTER
 62
               2
100
AcDbLine
 10
-4.0
 20
9.5
 30
0.0
 11
-4.0
 21
4.5
 31
0.0
  0
CIRCLE
  5
6D4
100
AcDbEntity
  8
0
  6
CONTINUOUS
 62
               7
100
AcDbCircle
 10
-4.0
 20
7.0
 30
0.0
 40
1.2
  0
CIRCLE
  5
6D5
100
AcDbEntity
  8
0
  6
CONTINUOUS
 62
               2
100
AcDbCircle
 10
-4.0
 20
7.0
 30
0.0
 40
1.5
  0
LINE
  5
6D6
100
AcDbEntity
  8
0
  6
CENTER
 62
               2
100
AcDbLine
 10
-6.5
 20
-7.0
 30
0.0
 11
-1.5000000000000284
 21
-7.0
 31
0.0
  0
LINE
  5
6D7
100
AcDbEntity
  8
0
  6
CENTER
 62
               2
100
AcDbLine
 10
-4.0
 20
-9.5
 30
0.0
 11
-4.0
 21
-4.5
 31
0.0
  0
CIRCLE
  5
6D8
100
AcDbEntity
  8
0
  6
CONTINUOUS
 62
               7
100
AcDbCircle
 10
-4.0
 20
-7.0
 30
0.0
 40
1.2
  0
CIRCLE
  5
6D9
100
AcDbEntity
  8
0
  6
CONTINUOUS
 62
               2
100
AcDbCircle
 10
-4.0
 20
-7.0
 30
0.0
 40
1.5
  0
LINE
  5
6DA
100
AcDbEntity
  8
0
  6
CONTINUOUS
 62
               7
100
AcDbLine
 10
-9.1999999999999886
 20
-5.4000000000000057
 30
0.0
 11
-9.0
 21
-5.4000000000000057
 31
0.0
  0
LINE
  5
6DB
100
AcDbEntity
  8
0
  6
CONTINUOUS
 62
               7
100
AcDbLine
 10
-9.1999999999999886
 20
5.4000000000000057
 30
0.0
 11
-9.0
 21
5.4000000000000057
 31
0.0
  0
LINE
  5
6DC
100
AcDbEntity
  8
0
  6
CONTINUOUS
 62
               7
100
AcDbLine
 10
-11.199999999999989
 20
5.0999999999999943
 30
0.0
 11
-11.199999999999989
 21
-5.0999999999999943
 31
0.0
  0
LINE
  5
6DD
100
AcDbEntity
  8
0
  6
CONTINUOUS
 62
               7
100
AcDbLine
 10
-9.1999999999999886
 20
5.0999999999999943
 30
0.0
 11
-11.199999999999989
 21
5.0999999999999943
 31
0.0
  0
LINE
  5
6DE
100
AcDbEntity
  8
0
  6
CONTINUOUS
 62
               7
100
AcDbLine
 10
-9.1999999999999886
 20
9.2999999999999972
 30
0.0
 11
-9.1999999999999886
 21
5.0999999999999943
 31
0.0
  0
LINE
  5
6DF
100
AcDbEntity
  8
0
  6
CONTINUOUS
 62
               7
100
AcDbLine
 10
-9.1999999999999886
 20
-5.0999999999999943
 30
0.0
 11
-11.199999999999989
 21
-5.0999999999999943
 31
0.0
  0
LINE
  5
6E0
100
AcDbEntity
  8
0
  6
CONTINUOUS
 62
               7
100
AcDbLine
 10
-9.1999999999999886
 20
-9.2999999999999972
 30
0.0
 11
-9.1999999999999886
 21
-5.0999999999999943
 31
0.0
  0
LINE
  5
6E1
100
AcDbEntity
  8
0
  6
CONTINUOUS
 62
               7
100
AcDbLine
 10
-9.1999999999999886
 20
-9.2999999999999972
 30
0.0
 11
-13.700000000000017
 21
-9.2999999999999972
 31
0.0
  0
LINE
  5
6E2
100
AcDbEntity
  8
0
  6
CONTINUOUS
 62
               7
100
AcDbLine
 10
-9.1999999999999886
 20
9.2999999999999972
 30
0.0
 11
-13.700000000000017
 21
9.2999999999999972
 31
0.0
  0
LINE
  5
6E3
100
AcDbEntity
  8
0
  6
CONTINUOUS
 62
               7
100
AcDbLine
 10
-13.700000000000017
 20
-9.2999999999999972
 30
0.0
 11
-13.700000000000017
 21
9.2999999999999972
 31
0.0
  0
LINE
  5
6E4
100
AcDbEntity
  8
0
  6
CENTER
 62
               2
100
AcDbLine
 10
1.9560299056583688
 20
0.0
 30
0.0
 11
-16.119979084208666
 21
0.0
 31
0.0
  0
LINE
  5
6E5
100
AcDbEntity
  8
0
  6
CENTER
 62
               2
100
AcDbLine
 10
-5.5
 20
5.3500000000000085
 30
0.0
 11
-5.5
 21
-5.3500000000000085
 31
0.0
  0
LINE
  5
6E6
100
AcDbEntity
  8
0
  6
CONTINUOUS
 62
               7
100
AcDbLine
 10
-14.0
 20
11.5
 30
0.0
 11
-14.0
 21
-11.5
 31
0.0
  0
LINE
  5
6E7
100
AcDbEntity
  8
0
  6
CONTINUOUS
 62
               7
100
AcDbLine
 10
0.0000000136905953
 20
11.5
 30
0.0
 11
-8.5
 21
11.5
 31
0.0
  0
LINE
  5
6E8
100
AcDbEntity
  8
0
  6
CONTINUOUS
 62
               7
100
AcDbLine
 10
0.0000000136905953
 20
-11.5
 30
0.0
 11
-8.5
 21
-11.5
 31
0.0
  0
LINE
  5
6E9
100
AcDbEntity
  8
0
  6
CONTINUOUS
 62
               7
100
AcDbLine
 10
-1.5
 20
-12.0
 30
0.0
 11
-13.5
 21
-12.0
 31
0.0
  0
LINE
  5
6EA
100
AcDbEntity
  8
0
  6
CONTINUOUS
 62
               7
100
AcDbLine
 10
-1.5
 20
12.0
 30
0.0
 11
-13.5
 21
12.0
 31
0.0
  0
LINE
  5
6EB
100
AcDbEntity
  8
0
  6
CONTINUOUS
 62
               7
100
AcDbLine
 10
-14.0
 20
-11.5
 30
0.0
 11
-13.5
 21
-12.0
 31
0.0
  0
LINE
  5
6EC
100
AcDbEntity
  8
0
  6
CONTINUOUS
 62
               7
100
AcDbLine
 10
-14.0
 20
11.5
 30
0.0
 11
-13.5
 21
12.0
 31
0.0
  0
LINE
  5
6ED
100
AcDbEntity
  8
0
  6
CONTINUOUS
 62
               7
100
AcDbLine
 10
-10.434314575050763
 20
-8.0656854249492369
 30
0.0
 11
-11.565685424949265
 21
-6.9343145750507631
 31
0.0
  0
LINE
  5
6EE
100
AcDbEntity
  8
0
  6
CONTINUOUS
 62
               7
100
AcDbLine
 10
-10.434314575050763
 20
-6.9343145750507631
 30
0.0
 11
-11.565685424949265
 21
-8.0656854249492369
 31
0.0
  0
LINE
  5
6EF
100
AcDbEntity
  8
0
  6
CONTINUOUS
 62
               7
100
AcDbLine
 10
-9.0
 20
-12.0
 30
0.0
 11
-9.0
 21
-5.4000000000000057
 31
0.0
  0
LINE
  5
6F0
100
AcDbEntity
  8
0
  6
CONTINUOUS
 62
               7
100
AcDbLine
 10
-8.5
 20
-5.0
 30
0.0
 11
-8.5
 21
-11.5
 31
0.0
  0
CIRCLE
  5
6F1
100
AcDbEntity
  8
0
  6
CONTINUOUS
 62
               7
100
AcDbCircle
 10
-11.0
 20
-7.5
 30
0.0
 40
1.0
  0
LINE
  5
6F2
100
AcDbEntity
  8
0
  6
CONTINUOUS
 62
               7
100
AcDbLine
 10
-10.434314575050735
 20
6.9343145750507631
 30
0.0
 11
-11.565685424949237
 21
8.0656854249492369
 31
0.0
  0
LINE
  5
6F3
100
AcDbEntity
  8
0
  6
CONTINUOUS
 62
               7
100
AcDbLine
 10
-10.434314575050735
 20
8.0656854249492369
 30
0.0
 11
-11.565685424949237
 21
6.9343145750507631
 31
0.0
  0
CIRCLE
  5
6F4
100
AcDbEntity
  8
0
  6
CONTINUOUS
 62
               7
100
AcDbCircle
 10
-11.0
 20
7.5
 30
0.0
 40
1.0
  0
LINE
  5
6F5
100
AcDbEntity
  8
0
  6
CONTINUOUS
 62
               7
100
AcDbLine
 10
-8.5
 20
11.5
 30
0.0
 11
-8.5
 21
5.0
 31
0.0
  0
LINE
  5
6F6
100
AcDbEntity
  8
0
  6
CONTINUOUS
 62
               7
100
AcDbLine
 10
0.0
 20
3.7000000000000171
 30
0.0
 11
0.0
 21
11.5
 31
0.0
  0
LINE
  5
6F7
100
AcDbEntity
  8
0
  6
CONTINUOUS
 62
               7
100
AcDbLine
 10
0.0
 20
-11.5
 30
0.0
 11
0.0
 21
-3.7000000000000171
 31
0.0
  0
ARC
  5
6F8
100
AcDbEntity
  8
0
  6
CONTINUOUS
 62
               7
100
AcDbCircle
 10
-10.0
 20
-5.1999999999999886
 30
0.0
 40
0.5
100
AcDbArc
 50
11.536959032814121
 51
168.46304096718549
  0
LINE
  5
6F9
100
AcDbEntity
  8
0
  6
CONTINUOUS
 62
               7
100
AcDbLine
 10
-10.800000000000011
 20
-5.0
 30
0.0
 11
-10.465817132984768
 21
-5.0
 31
0.0
  0
ARC
  5
6FA
100
AcDbEntity
  8
0
  6
CONTINUOUS
 62
               7
100
AcDbCircle
 10
-9.9299999999999784
 20
-5.2700000000000102
 30
0.0
 40
0.6000000000000001
100
AcDbArc
 50
110.48731511472248
 51
153.25631604959631
  0
ARC
  5
6FB
100
AcDbEntity
  8
0
  6
CONTINUOUS
 62
               7
100
AcDbCircle
 10
-10.070000000000022
 20
-5.2700000000000102
 30
0.0
 40
0.6000000000000001
100
AcDbArc
 50
26.743683950403316
 51
69.512684885277096
  0
ARC
  5
6FC
100
AcDbEntity
  8
0
  6
CONTINUOUS
 62
               7
100
AcDbCircle
 10
-10.0
 20
-5.0826500600480529
 30
0.0
 40
0.4
100
AcDbArc
 50
69.512684885277096
 51
110.48731511472251
  0
LINE
  5
6FD
100
AcDbEntity
  8
0
  6
CONTINUOUS
 62
               7
100
AcDbLine
 10
-9.5341828670152324
 20
-5.0
 30
0.0
 11
-8.5
 21
-5.0
 31
0.0
  0
LINE
  5
6FE
100
AcDbEntity
  8
0
  6
CONTINUOUS
 62
               7
100
AcDbLine
 10
-10.799999999999983
 20
5.0
 30
0.0
 11
-10.800000000000011
 21
-5.0
 31
0.0
  0
CIRCLE
  5
6FF
100
AcDbEntity
  8
0
  6
CONTINUOUS
 62
               7
100
AcDbCircle
 10
-5.5
 20
0.0
 30
0.0
 40
4.3500000000000085
  0
CIRCLE
  5
700
100
AcDbEntity
  8
0
  6
CONTINUOUS
 62
               7
100
AcDbCircle
 10
-5.5
 20
0.0
 30
0.0
 40
4.1499999999999915
  0
CIRCLE
  5
701
100
AcDbEntity
  8
0
  6
CONTINUOUS
 62
               7
100
AcDbCircle
 10
-5.5
 20
0.0
 30
0.0
 40
3.4000000000000057
  0
LINE
  5
702
100
AcDbEntity
  8
0
  6
CONTINUOUS
 62
               7
100
AcDbLine
 10
-0.3000000000000114
 20
-3.4000000000000057
 30
0.0
 11
0.0
 21
-3.7000000000000171
 31
0.0
  0
LINE
  5
703
100
AcDbEntity
  8
0
  6
CONTINUOUS
 62
               7
100
AcDbLine
 10
-0.3000000000000114
 20
3.4000000000000057
 30
0.0
 11
0.0
 21
3.7000000000000171
 31
0.0
  0
LINE
  5
704
100
AcDbEntity
  8
0
  6
CONTINUOUS
 62
               7
100
AcDbLine
 10
-0.3000000000000114
 20
-3.4000000000000057
 30
0.0
 11
-0.3000000000000114
 21
3.4000000000000057
 31
0.0
  0
LINE
  5
705
100
AcDbEntity
  8
0
  6
CONTINUOUS
 62
               7
100
AcDbLine
 10
-10.799999999999983
 20
5.0
 30
0.0
 11
-10.465817132984739
 21
5.0
 31
0.0
  0
LINE
  5
706
100
AcDbEntity
  8
0
  6
CONTINUOUS
 62
               7
100
AcDbLine
 10
-9.5341828670152324
 20
5.0
 30
0.0
 11
-8.5
 21
5.0
 31
0.0
  0
ARC
  5
707
100
AcDbEntity
  8
0
  6
CONTINUOUS
 62
               7
100
AcDbCircle
 10
-10.0
 20
5.0826500600480529
 30
0.0
 40
0.4
100
AcDbArc
 50
249.51268488527668
 51
290.48731511472209
  0
ARC
  5
708
100
AcDbEntity
  8
0
  6
CONTINUOUS
 62
               7
100
AcDbCircle
 10
-10.069999999999993
 20
5.2700000000000102
 30
0.0
 40
0.6000000000000001
100
AcDbArc
 50
290.48731511472209
 51
333.25631604959585
  0
ARC
  5
709
100
AcDbEntity
  8
0
  6
CONTINUOUS
 62
               7
100
AcDbCircle
 10
-9.9299999999999784
 20
5.2700000000000102
 30
0.0
 40
0.6000000000000001
100
AcDbArc
 50
206.74368395040295
 51
249.51268488527668
  0
ARC
  5
70A
100
AcDbEntity
  8
0
  6
CONTINUOUS
 62
               7
100
AcDbCircle
 10
-10.0
 20
5.1999999999999886
 30
0.0
 40
0.5
100
AcDbArc
 50
191.53695903281371
 51
348.46304096718507
  0
LINE
  5
70B
100
AcDbEntity
  8
0
  6
CONTINUOUS
 62
               7
100
AcDbLine
 10
-9.0
 20
12.0
 30
0.0
 11
-9.0
 21
5.4000000000000057
 31
0.0
  0
ENDBLK
  5
70C
100
AcDbEntity
  8
0
100
AcDbBlockEnd
  0
ENDSEC
  0
SECTION
  2
ENTITIES
  0
INSERT
  5
70D
100
AcDbEntity
  8
0
  6
ByBlock
100
AcDbBlockReference
  2
CS-MGA8-1
 10
-151.2721821392131
 20
71.800921617144496
 30
0.0
  0
INSERT
  5
70E
100
AcDbEntity
  8
0
  6
ByBlock
100
AcDbBlockReference
  2
CS-MGA8-12
 10
-217.27218216059703
 20
71.800921617144496
 30
0.0
  0
INSERT
  5
70F
100
AcDbEntity
  8
0
  6
ByBlock
100
AcDbBlockReference
  2
CS-MGA8-20
 10
-42.772182139213101
 20
71.800921617144496
 30
0.0
  0
INSERT
  5
710
100
AcDbEntity
  8
0
  6
ByBlock
100
AcDbBlockReference
  2
CS-MGA8-21
 10
-151.2721821392131
 20
123.3009216171445
 30
0.0
  0
INSERT
  5
711
100
AcDbEntity
  8
0
  6
ByBlock
100
AcDbBlockReference
  2
CS-MGA8-22
 10
-151.2721821392131
 20
13.300921617144496
 30
0.0
  0
INSERT
  5
712
100
AcDbEntity
  8
0
  6
ByBlock
100
AcDbBlockReference
  2
CS-MGA8-23
 10
-151.2721821392131
 20
-33.199078382855504
 30
0.0
  0
INSERT
  5
713
100
AcDbEntity
  8
0
  6
ByBlock
100
AcDbBlockReference
  2
CS-MGA8-24
 10
114.80253757398657
 20
84.040184359618692
 30
0.0
  0
INSERT
  5
714
100
AcDbEntity
  8
0
  6
ByBlock
100
AcDbBlockReference
  2
CS-MGA8-25
 10
48.802537573986484
 20
84.040184359618692
 30
0.0
  0
INSERT
  5
715
100
AcDbEntity
  8
0
  6
ByBlock
100
AcDbBlockReference
  2
CS-MGA8-26
 10
228.30253757398657
 20
84.040184359618692
 30
0.0
  0
INSERT
  5
716
100
AcDbEntity
  8
0
  6
ByBlock
100
AcDbBlockReference
  2
CS-MGA8-2
 10
114.80253757398657
 20
143.54018435961868
 30
0.0
  0
INSERT
  5
717
100
AcDbEntity
  8
0
  6
ByBlock
100
AcDbBlockReference
  2
CS-MGA8-3
 10
114.80253757398654
 20
-0.4681489737146336
 30
0.0
  0
INSERT
  5
718
100
AcDbEntity
  8
0
  6
ByBlock
100
AcDbBlockReference
  2
CS-MGA8-4
 10
48.802537573986484
 20
-0.4681489737146336
 30
0.0
  0
INSERT
  5
719
100
AcDbEntity
  8
0
  6
ByBlock
100
AcDbBlockReference
  2
CS-MGA8-5
 10
228.30253757398654
 20
-0.4681489737146336
 30
0.0
  0
INSERT
  5
71A
100
AcDbEntity
  8
0
  6
ByBlock
100
AcDbBlockReference
  2
CS-MGA8-6
 10
114.80253757398657
 20
-58.807645456029519
 30
0.0
  0
INSERT
  5
71B
100
AcDbEntity
  8
0
  6
ByBlock
100
AcDbBlockReference
  2
CS-MGA8-7
 10
-198.65114509944516
 20
-148.65718571989959
 30
0.0
  0
INSERT
  5
71C
100
AcDbEntity
  8
0
  6
ByBlock
100
AcDbBlockReference
  2
CS-MGA8-8
 10
-243.19386970882016
 20
-148.65718571989959
 30
0.0
  0
INSERT
  5
71D
100
AcDbEntity
  8
0
  6
ByBlock
100
AcDbBlockReference
  2
CS-MGA8-9
 10
-198.65114509944516
 20
-101.05711858122771
 30
0.0
  0
INSERT
  5
71E
100
AcDbEntity
  8
0
  6
ByBlock
100
AcDbBlockReference
  2
CS-MGA8-10
 10
-57.840201495929534
 20
-148.65718571989959
 30
0.0
  0
INSERT
  5
71F
100
AcDbEntity
  8
0
  6
ByBlock
100
AcDbBlockReference
  2
CS-MGA8-11
 10
-100.88292610530453
 20
-148.65718571989959
 30
0.0
  0
INSERT
  5
720
100
AcDbEntity
  8
0
  6
ByBlock
100
AcDbBlockReference
  2
CS-MGA8-13
 10
-57.840201495929534
 20
-101.05711858122771
 30
0.0
  0
INSERT
  5
721
100
AcDbEntity
  8
0
  6
ByBlock
100
AcDbBlockReference
  2
CS-MGA8-14
 10
82.891219120230332
 20
-148.65714042118594
 30
0.0
  0
INSERT
  5
722
100
AcDbEntity
  8
0
  6
ByBlock
100
AcDbBlockReference
  2
CS-MGA8-15
 10
35.892647691658894
 20
-148.65718620027792
 30
0.0
  0
INSERT
  5
723
100
AcDbEntity
  8
0
  6
ByBlock
100
AcDbBlockReference
  2
CS-MGA8-16
 10
82.891219115461965
 20
-101.05711858122771
 30
0.0
  0
INSERT
  5
724
100
AcDbEntity
  8
0
  6
ByBlock
100
AcDbBlockReference
  2
CS-MGA8-17
 10
226.40017934698244
 20
-148.6571399435324
 30
0.0
  0
INSERT
  5
725
100
AcDbEntity
  8
0
  6
ByBlock
100
AcDbBlockReference
  2
CS-MGA8-18
 10
179.39958423437227
 20
-148.6571399435324
 30
0.0
  0
INSERT
  5
726
100
AcDbEntity
  8
0
  6
ByBlock
100
AcDbBlockReference
  2
CS-MGA8-19
 10
226.40017934698244
 20
-101.05711858122771
 30
0.0
  0
LINE
  5
727
100
AcDbEntity
  8
0
  6
CONTINUOUS
 62
               7
100
AcDbLine
 10
-281.25
 20
-195.0
 30
0.0
 11
282.099853515625
 21
-195.0
 31
0.0
  0
LINE
  5
728
100
AcDbEntity
  8
0
  6
CONTINUOUS
 62
               7
100
AcDbLine
 10
-281.25
 20
195.5
 30
0.0
 11
-281.25
 21
-195.0
 31
0.0
  0
LINE
  5
729
100
AcDbEntity
  8
0
  6
CONTINUOUS
 62
               7
100
AcDbLine
 10
-281.25
 20
195.5
 30
0.0
 11
282.099853515625
 21
195.5
 31
0.0
  0
LINE
  5
72A
100
AcDbEntity
  8
0
  6
CONTINUOUS
 62
               7
100
AcDbLine
 10
282.099853515625
 20
195.5
 30
0.0
 11
282.099853515625
 21
-195.0
 31
0.0
  0
LINE
  5
72B
100
AcDbEntity
  8
0
  6
CONTINUOUS
 62
               7
100
AcDbLine
 10
162.0999755859375
 20
195.5
 30
0.0
 11
162.0999755859375
 21
175.5
 31
0.0
  0
LINE
  5
72C
100
AcDbEntity
  8
0
  6
CONTINUOUS
 62
               7
100
AcDbLine
 10
162.0999755859375
 20
175.5
 30
0.0
 11
282.099853515625
 21
175.5
 31
0.0
  0
MTEXT
  5
72D
100
AcDbEntity
  8
0
  6
CONTINUOUS
 62
               7
100
AcDbMText
 10
198.27702406779611
 20
185.5
 30
0.0
 40
6.3000001907348633
 41
0.0
 71
               4
 72
               1
  1
\W1.311;\A1;Ver. 1.0
  0
MTEXT
  5
72E
100
AcDbEntity
  8
0
  6
CONTINUOUS
 62
               7
100
AcDbMText
 10
170.28101009431273
 20
-185.0
 30
0.0
 40
9.0
 41
0.0
 71
               4
 72
               1
  1
\W1.121;\A1;KOGANEI CORP.
  0
LINE
  5
72F
100
AcDbEntity
  8
0
  6
CONTINUOUS
 62
               7
100
AcDbLine
 10
162.0999755859375
 20
-175.0
 30
0.0
 11
282.099853515625
 21
-175.0
 31
0.0
  0
LINE
  5
730
100
AcDbEntity
  8
0
  6
CONTINUOUS
 62
               7
100
AcDbLine
 10
162.0999755859375
 20
-175.0
 30
0.0
 11
162.0999755859375
 21
-195.0
 31
0.0
  0
LINE
  5
731
100
AcDbEntity
  8
0
  6
CONTINUOUS
 62
               7
100
AcDbLine
 10
-161.25
 20
195.5
 30
0.0
 11
-161.25
 21
175.5
 31
0.0
  0
LINE
  5
732
100
AcDbEntity
  8
0
  6
CONTINUOUS
 62
               7
100
AcDbLine
 10
-281.25
 20
175.5
 30
0.0
 11
-161.25
 21
175.5
 31
0.0
  0
MTEXT
  5
733
100
AcDbEntity
  8
0
  6
CONTINUOUS
 62
               7
100
AcDbMText
 10
-273.5993289470826
 20
185.5
 30
0.0
 40
6.3000001907348633
 41
0.0
 71
               4
 72
               1
  1
\W1.143;\A1;MINI GUIDE SLIDER
  0
MTEXT
  5
734
100
AcDbEntity
  8
0
  6
CONTINUOUS
 62
               7
100
AcDbMText
 10
-268.23692415423284
 20
160.5
 30
0.0
 40
6.3000001907348633
 41
0.0
 71
               4
 72
               1
  1
\W1.108;\A1;MODEL:CS-MGA8*ST(5,10)-R
  0
MTEXT
  5
735
100
AcDbEntity
  8
0
  6
CONTINUOUS
 62
               7
100
AcDbMText
 10
-230.44285603302768
 20
150.5
 30
0.0
 40
6.3000001907348633
 41
0.0
 71
               4
 72
               1
  1
\W1.102;\A1;CS-MGA8*ST(5,10)-L
  0
MTEXT
  5
736
100
AcDbEntity
  8
0
  6
CONTINUOUS
 62
               7
100
AcDbMText
 10
13.433013334175483
 20
170.5
 30
0.0
 40
6.3000001907348633
 41
0.0
 71
               4
 72
               1
  1
\W1.103;\A1;MODEL:CS-MGAS8*ST(5,10)-R
  0
LINE
  5
737
100
AcDbEntity
  8
0
  6
CONTINUOUS
 62
               7
100
AcDbLine
 10
0.4249267578125
 20
195.5
 30
0.0
 11
0.4249267578125
 21
-77.849999999999966
 31
0.0
  0
LINE
  5
739
100
AcDbEntity
  8
0
  6
DASHED
 62
               2
100
AcDbLine
 10
0.4249267578125
 20
-77.849999999999966
 30
0.0
 11
282.099853515625
 21
-77.849999999999966
 31
0.0
  0
LINE
  5
73A
100
AcDbEntity
  8
0
  6
CONTINUOUS
 62
               7
100
AcDbLine
 10
-281.25
 20
-77.849999999999966
 30
0.0
 11
0.4249267578125
 21
-77.849999999999966
 31
0.0
  0
LINE
  5
73B
100
AcDbEntity
  8
0
  6
CONTINUOUS
 62
               7
100
AcDbLine
 10
-271.25
 20
-67.849999981957467
 30
0.0
 11
-181.25
 21
-67.849999981957467
 31
0.0
  0
LINE
  5
73C
100
AcDbEntity
  8
0
  6
CONTINUOUS
 62
               7
100
AcDbLine
 10
-271.25
 20
-59.849999981957467
 30
0.0
 11
-181.25
 21
-59.849999981957467
 31
0.0
  0
LINE
  5
73D
100
AcDbEntity
  8
0
  6
CONTINUOUS
 62
               7
100
AcDbLine
 10
-271.25
 20
-51.849999981957467
 30
0.0
 11
-181.25
 21
-51.849999981957467
 31
0.0
  0
MTEXT
  5
73E
100
AcDbEntity
  8
0
  6
CONTINUOUS
 62
               1
100
AcDbMText
 10
-266.0
 20
-55.849999999999966
 30
0.0
 40
4.5
 41
0.0
 71
               4
 72
               1
  1
\A1;STROKE
  0
MTEXT
  5
73F
100
AcDbEntity
  8
0
  6
CONTINUOUS
 62
               1
100
AcDbMText
 10
-268.25
 20
-63.849999999999966
 30
0.0
 40
4.5
 41
0.0
 71
               4
 72
               1
  1
\A1;STRETCH
  0
LINE
  5
740
100
AcDbEntity
  8
0
  6
CONTINUOUS
 62
               7
100
AcDbLine
 10
-271.25
 20
-67.849999999999966
 30
0.0
 11
-271.25
 21
-51.849999999999966
 31
0.0
  0
LINE
  5
741
100
AcDbEntity
  8
0
  6
CONTINUOUS
 62
               7
100
AcDbLine
 10
-235.25
 20
-67.849999999999966
 30
0.0
 11
-235.25
 21
-51.849999999999966
 31
0.0
  0
LINE
  5
742
100
AcDbEntity
  8
0
  6
CONTINUOUS
 62
               7
100
AcDbLine
 10
-221.75
 20
-67.849999999999966
 30
0.0
 11
-221.75
 21
-51.849999999999966
 31
0.0
  0
LINE
  5
743
100
AcDbEntity
  8
0
  6
CONTINUOUS
 62
               7
100
AcDbLine
 10
-208.25
 20
-67.849999981957467
 30
0.0
 11
-208.25
 21
-51.849999981957467
 31
0.0
  0
LINE
  5
744
100
AcDbEntity
  8
0
  6
CONTINUOUS
 62
               7
100
AcDbLine
 10
-194.75
 20
-67.849999963914968
 30
0.0
 11
-194.75
 21
-51.849999963914968
 31
0.0
  0
LINE
  5
745
100
AcDbEntity
  8
0
  6
CONTINUOUS
 62
               7
100
AcDbLine
 10
-181.25
 20
-67.849999945872469
 30
0.0
 11
-181.25
 21
-51.849999945872469
 31
0.0
  0
MTEXT
  5
746
100
AcDbEntity
  8
0
  6
CONTINUOUS
 62
               7
100
AcDbMText
 10
-252.4511834411183
 20
-47.849999981957467
 30
0.0
 40
4.5
 41
0.0
 71
               4
 72
               1
  1
\W1.065;\A1;STRETCH LIST
  0
MTEXT
  5
747
100
AcDbEntity
  8
0
  6
CONTINUOUS
 62
               7
100
AcDbMText
 10
13.433013334175483
 20
38.825000000000017
 30
0.0
 40
6.3000001907348633
 41
0.0
 71
               4
 72
               1
  1
\W1.103;\A1;MODEL:CS-MGAS8*ST(5,10)-L
  0
MTEXT
  5
748
100
AcDbEntity
  8
0
  6
CONTINUOUS
 62
               3
100
AcDbMText
 10
-164.40384003346858
 20
139.00392770127922
 30
0.0
 40
6.3000001907348633
 41
0.0
 71
               4
 72
               1
  1
\W1.065;\A1;STRETCH LINE
  0
MTEXT
  5
749
100
AcDbEntity
  8
0
  6
CONTINUOUS
 62
               7
100
AcDbMText
 10
-230.0
 20
-55.849999990978716
 30
0.0
 40
4.5
 41
0.0
 71
               4
 72
               1
  1
\A1;5
  0
MTEXT
  5
74A
100
AcDbEntity
  8
0
  6
CONTINUOUS
 62
               7
100
AcDbMText
 10
-218.50000003311368
 20
-55.849999990978716
 30
0.0
 40
4.5
 41
0.0
 71
               4
 72
               1
  1
\W1.333;\A1;10
  0
MTEXT
  5
74B
100
AcDbEntity
  8
0
  6
CONTINUOUS
 62
               7
100
AcDbMText
 10
-205.10000005722048
 20
-55.849999990978716
 30
0.0
 40
4.5
 41
0.0
 71
               4
 72
               1
  1
\W1.200;\A1;15
  0
MTEXT
  5
74C
100
AcDbEntity
  8
0
  6
CONTINUOUS
 62
               7
100
AcDbMText
 10
-191.68181817221173
 20
-55.849999990978716
 30
0.0
 40
4.5
 41
0.0
 71
               4
 72
               1
  1
\W1.091;\A1;20
  0
MTEXT
  5
74D
100
AcDbEntity
  8
0
  6
CONTINUOUS
 62
               7
100
AcDbMText
 10
-229.84999999284742
 20
-63.849999990978716
 30
0.0
 40
4.5
 41
0.0
 71
               4
 72
               1
  1
\W1.200;\A1;0
  0
MTEXT
  5
74E
100
AcDbEntity
  8
0
  6
CONTINUOUS
 62
               7
100
AcDbMText
 10
-216.34999999284742
 20
-63.849999990978716
 30
0.0
 40
4.5
 41
0.0
 71
               4
 72
               1
  1
\W1.200;\A1;0
  0
MTEXT
  5
74F
100
AcDbEntity
  8
0
  6
CONTINUOUS
 62
               7
100
AcDbMText
 10
-205.00000003311368
 20
-63.849999990978716
 30
0.0
 40
4.5
 41
0.0
 71
               4
 72
               1
  1
\W1.333;\A1;10
  0
MTEXT
  5
750
100
AcDbEntity
  8
0
  6
CONTINUOUS
 62
               7
100
AcDbMText
 10
-191.50000003311368
 20
-63.849999990978716
 30
0.0
 40
4.5
 41
0.0
 71
               4
 72
               1
  1
\W1.333;\A1;10
  0
MTEXT
  5
751
100
AcDbEntity
  8
0
  6
CONTINUOUS
 62
               3
100
AcDbMText
 10
101.57087967909668
 20
158.42394282420477
 30
0.0
 40
6.3000001907348633
 41
0.0
 71
               4
 72
               1
  1
\W1.065;\A1;STRETCH LINE
  0
MTEXT
  5
752
100
AcDbEntity
  8
0
  6
CONTINUOUS
 62
               3
100
AcDbMText
 10
101.57087967909668
 20
26.748942824204789
 30
0.0
 40
6.3000001907348633
 41
0.0
 71
               4
 72
               1
  1
\W1.065;\A1;STRETCH LINE
  0
MTEXT
  5
753
100
AcDbEntity
  8
0
  6
CONTINUOUS
 62
               7
100
AcDbMText
 10
18.978498183800401
 20
-85.600000089406933
 30
0.0
 40
4.5
 41
0.0
 71
               1
 72
               1
  1
\W1.071;\A1;ZE135
  0
MTEXT
  5
754
100
AcDbEntity
  8
0
  6
CONTINUOUS
 62
               7
100
AcDbMText
 10
159.76239013671875
 20
-85.600000089406933
 30
0.0
 40
4.5
 41
0.0
 71
               1
 72
               1
  1
\A1;ZE235
  0
MTEXT
  5
755
100
AcDbEntity
  8
0
  6
CONTINUOUS
 62
               7
100
AcDbMText
 10
-121.829203268996
 20
-85.600000089406933
 30
0.0
 40
4.5
 41
0.0
 71
               1
 72
               1
  1
\W1.111;\A1;ZE201
  0
MTEXT
  5
756
100
AcDbEntity
  8
0
  6
CONTINUOUS
 62
               7
100
AcDbMText
 10
-262.60000004434585
 20
-85.600000089406933
 30
0.0
 40
4.5
 41
0.0
 71
               1
 72
               1
  1
\W1.200;\A1;ZE101
  0
MTEXT
  5
757
100
AcDbEntity
  8
0
  6
CONTINUOUS
 62
               7
100
AcDbMText
 10
-262.66666664790228
 20
-92.54306279095502
 30
0.0
 40
4.5
 41
0.0
 71
               1
 72
               1
  1
\W1.111;\A1;ZE102
  0
MTEXT
  5
758
100
AcDbEntity
  8
0
  6
CONTINUOUS
 62
               7
100
AcDbMText
 10
-121.8866745734981
 20
-92.54306279095502
 30
0.0
 40
4.5
 41
0.0
 71
               1
 72
               1
  1
\W1.034;\A1;ZE202
  0
MTEXT
  5
759
100
AcDbEntity
  8
0
  6
CONTINUOUS
 62
               7
100
AcDbMText
 10
159.76239013671875
 20
-92.54306279095502
 30
0.0
 40
4.5
 41
0.0
 71
               1
 72
               1
  1
\A1;ZE255
  0
MTEXT
  5
75A
100
AcDbEntity
  8
0
  6
CONTINUOUS
 62
               7
100
AcDbMText
 10
18.978498183800401
 20
-92.54306279095502
 30
0.0
 40
4.5
 41
0.0
 71
               1
 72
               1
  1
\W1.071;\A1;ZE155
  0
LINE
  5
75B
100
AcDbEntity
  8
0
  6
DASHED
 62
               2
100
AcDbLine
 10
0.4249267578125
 20
48.825000000000017
 30
0.0
 11
282.099853515625
 21
48.825000000000017
 31
0.0
  0
ENDSEC
  0
SECTION
  2
OBJECTS
  0
DICTIONARY
  5
19
100
AcDbDictionary
  3
ACAD_GROUP
350
1A
  3
ACAD_MLINESTYLE
350
1B
  0
DICTIONARY
  5
1A
102
{ACAD_REACTORS
330
19
102
}
100
AcDbDictionary
  0
DICTIONARY
  5
1B
102
{ACAD_REACTORS
330
19
102
}
100
AcDbDictionary
  3
STANDARD
350
1C
  0
MLINESTYLE
  5
1C
102
{ACAD_REACTORS
330
1B
102
}
100
AcDbMlineStyle
  2
Standard
 70
               0
  3

 62
               0
 51
90.0
 52
90.0
 71
               2
 49
0.5
 62
             256
  6
ByLayer
 49
-0.5
 62
             256
  6
ByLayer
  0
ENDSEC
  0
EOF
