  0
SECTION
  2
HEADER
  9
$ACADVER
  1
AC1012
  9
$DWGCODEPAGE
  3
dos932
  9
$INSBASE
 10
0.0
 20
0.0
 30
0.0
  9
$EXTMIN
 10
-281.25
 20
-195.0
 30
0.0
  9
$EXTMAX
 10
285.59998798370361
 20
195.5
 30
0.0
  9
$LIMMIN
 10
-281.25
 20
-195.0
  9
$LIMMAX
 10
285.59998798370361
 20
195.5
  9
$ORTHOMODE
 70
               0
  9
$REGENMODE
 70
               1
  9
$FILLMODE
 70
               1
  9
$QTEXTMODE
 70
               0
  9
$MIRRTEXT
 70
               1
  9
$DRAGMODE
 70
               2
  9
$LTSCALE
 40
1.0
  9
$OSMODE
 70
               0
  9
$ATTMODE
 70
               1
  9
$TEXTSIZE
 40
3.2000000476837158
  9
$TRACEWID
 40
0.05
  9
$TEXTSTYLE
  7
MX_NOTE_STANDARD
  9
$CLAYER
  8
0
  9
$CELTYPE
  6
CONTINUOUS
  9
$CECOLOR
 62
             256
  9
$CELTSCALE
 40
1.0
  9
$DELOBJ
 70
               1
  9
$DISPSILH
 70
               0
  9
$DIMSCALE
 40
1.0
  9
$DIMASZ
 40
2.5
  9
$DIMEXO
 40
1.5
  9
$DIMDLI
 40
3.75
  9
$DIMRND
 40
0.0
  9
$DIMDLE
 40
0.0
  9
$DIMEXE
 40
1.5
  9
$DIMTP
 40
0.0
  9
$DIMTM
 40
0.0
  9
$DIMTXT
 40
3.2000000476837158
  9
$DIMCEN
 40
2.5
  9
$DIMTSZ
 40
0.0
  9
$DIMTOL
 70
               0
  9
$DIMLIM
 70
               0
  9
$DIMTIH
 70
               0
  9
$DIMTOH
 70
               0
  9
$DIMSE1
 70
               0
  9
$DIMSE2
 70
               0
  9
$DIMTAD
 70
               1
  9
$DIMZIN
 70
               8
  9
$DIMBLK
  1

  9
$DIMASO
 70
               1
  9
$DIMSHO
 70
               1
  9
$DIMPOST
  1

  9
$DIMAPOST
  1

  9
$DIMALT
 70
               0
  9
$DIMALTD
 70
               4
  9
$DIMALTF
 40
0.0394
  9
$DIMLFAC
 40
1.0
  9
$DIMTOFL
 70
               1
  9
$DIMTVP
 40
0.0
  9
$DIMTIX
 70
               0
  9
$DIMSOXD
 70
               0
  9
$DIMSAH
 70
               0
  9
$DIMBLK1
  1

  9
$DIMBLK2
  1

  9
$DIMSTYLE
  2
MXDIMSTYLE
  9
$DIMCLRD
 70
               0
  9
$DIMCLRE
 70
               0
  9
$DIMCLRT
 70
               0
  9
$DIMTFAC
 40
1.0
  9
$DIMGAP
 40
1.0
  9
$DIMJUST
 70
               0
  9
$DIMSD1
 70
               0
  9
$DIMSD2
 70
               0
  9
$DIMTOLJ
 70
               1
  9
$DIMTZIN
 70
               0
  9
$DIMALTZ
 70
               0
  9
$DIMALTTZ
 70
               0
  9
$DIMFIT
 70
               3
  9
$DIMUPT
 70
               1
  9
$DIMUNIT
 70
               2
  9
$DIMDEC
 70
               4
  9
$DIMTDEC
 70
               4
  9
$DIMALTU
 70
               8
  9
$DIMALTTD
 70
               4
  9
$DIMTXSTY
  7
MX_NOTE_STANDARD
  9
$DIMAUNIT
 70
               0
  9
$LUNITS
 70
               2
  9
$LUPREC
 70
               4
  9
$SKETCHINC
 40
0.1
  9
$FILLETRAD
 40
0.0
  9
$AUNITS
 70
               0
  9
$AUPREC
 70
               0
  9
$MENU
  1
acad
  9
$ELEVATION
 40
0.0
  9
$PELEVATION
 40
0.0
  9
$THICKNESS
 40
0.0
  9
$LIMCHECK
 70
               0
  9
$BLIPMODE
 70
               1
  9
$CHAMFERA
 40
0.0
  9
$CHAMFERB
 40
0.0
  9
$CHAMFERC
 40
0.0
  9
$CHAMFERD
 40
0.0
  9
$SKPOLY
 70
               0
  9
$TDCREATE
 40
2452220.697349537
  9
$TDUPDATE
 40
2452220.697349537
  9
$TDINDWG
 40
0.0000000000
  9
$TDUSRTIMER
 40
0.0000000000
  9
$USRTIMER
 70
               1
  9
$ANGBASE
 50
0.0
  9
$ANGDIR
 70
               0
  9
$PDMODE
 70
               0
  9
$PDSIZE
 40
0.0
  9
$PLINEWID
 40
0.0
  9
$COORDS
 70
               1
  9
$SPLFRAME
 70
               0
  9
$SPLINETYPE
 70
               6
  9
$SPLINESEGS
 70
               8
  9
$ATTDIA
 70
               0
  9
$ATTREQ
 70
               1
  9
$HANDLING
 70
               1
  9
$HANDSEED
  5
286
  9
$SURFTAB1
 70
               6
  9
$SURFTAB2
 70
               6
  9
$SURFTYPE
 70
               6
  9
$SURFU
 70
               6
  9
$SURFV
 70
               6
  9
$UCSNAME
  2

  9
$UCSORG
 10
0.0
 20
0.0
 30
0.0
  9
$UCSXDIR
 10
1.0
 20
0.0
 30
0.0
  9
$UCSYDIR
 10
0.0
 20
1.0
 30
0.0
  9
$PUCSNAME
  2

  9
$PUCSORG
 10
0.0
 20
0.0
 30
0.0
  9
$PUCSXDIR
 10
1.0
 20
0.0
 30
0.0
  9
$PUCSYDIR
 10
0.0
 20
1.0
 30
0.0
  9
$USERI1
 70
               0
  9
$USERI2
 70
               0
  9
$USERI3
 70
               0
  9
$USERI4
 70
               0
  9
$USERI5
 70
               0
  9
$USERR1
 40
0.0
  9
$USERR2
 40
0.0
  9
$USERR3
 40
0.0
  9
$USERR4
 40
0.0
  9
$USERR5
 40
0.0
  9
$WORLDVIEW
 70
               1
  9
$SHADEDGE
 70
               3
  9
$SHADEDIF
 70
              70
  9
$TILEMODE
 70
               1
  9
$MAXACTVP
 70
              16
  9
$PINSBASE
 10
0.0
 20
0.0
 30
0.0
  9
$PLIMCHECK
 70
               0
  9
$PEXTMIN
 10
1.0000000000000000E+20
 20
1.0000000000000000E+20
 30
1.0000000000000000E+20
  9
$PEXTMAX
 10
-1.0000000000000000E+20
 20
-1.0000000000000000E+20
 30
-1.0000000000000000E+20
  9
$PLIMMIN
 10
0.0
 20
0.0
  9
$PLIMMAX
 10
12.0
 20
9.0
  9
$UNITMODE
 70
               0
  9
$VISRETAIN
 70
               0
  9
$PLINEGEN
 70
               1
  9
$PSLTSCALE
 70
               0
  9
$TREEDEPTH
 70
            3020
  9
$PICKSTYLE
 70
               1
  9
$CMLSTYLE
  2
Standard
  9
$CMLJUST
 70
               0
  9
$CMLSCALE
 40
1.0
  9
$SAVEIMAGES
 70
               0
  0
ENDSEC
  0
SECTION
  2
CLASSES
  0
CLASS
  1
LWPOLYLINE
  2
AcDbPolyline
  3
"AutoCAD"
 90
        0
280
               0
281
               1
  0
CLASS
  1
IMAGE
  2
AcDbRasterImage
  3
ISM
 90
      127
280
               0
281
               1
  0
CLASS
  1
OLE2FRAME
  2
AcDbOle2Frame
  3
""
 90
        0
280
               0
281
               1
  0
CLASS
  1
HATCH
  2
AcDbHatch
  3
"ACAD_SEDONA"
 90
        0
280
               0
281
               1
  0
CLASS
  1
DICTIONARYVAR
  2
AcDbDictionaryVar
  3
"AutoCAD"
 90
        0
280
               0
281
               0
  0
CLASS
  1
RASTERVARIABLES
  2
AcDbRasterVariables
  3
ISM
 90
        0
280
               0
281
               0
  0
CLASS
  1
IMAGEDEF
  2
AcDbRasterImageDef
  3
ISM
 90
        0
280
               0
281
               0
  0
CLASS
  1
IMAGEDEF_REACTOR
  2
AcDbRasterImageDefReactor
  3
ISM
 90
        1
280
               0
281
               0
  0
CLASS
  1
IDBUFFER
  2
AcDbIdBuffer
  3
"Acad"
 90
        0
280
               0
281
               0
  0
CLASS
  1
SPATIAL_FILTER
  2
AcDbSpatialFilter
  3
"Acad"
 90
        0
280
               0
281
               0
  0
CLASS
  1
XRECORD
  2
AcDbXrecord
  3
"<Built In>"
 90
        0
280
               0
281
               0
  0
CLASS
  1
SORTENTSTABLE
  2
AcDbSortentsTable
  3
"AutoCAD"
 90
        0
280
               0
281
               0
  0
CLASS
  1
LAYER_INDEX
  2
AcDbLayerIndex
  3
"Acad"
 90
        0
280
               0
281
               0
  0
CLASS
  1
SPATIAL_INDEX
  2
AcDbSpatialIndex
  3
"Acad"
 90
        0
280
               0
281
               0
  0
CLASS
  1
OBJECT_PTR
  2
CAseDLPNTableRecord
  3
"ASE-LPNTableRecord"
 90
        1
280
               0
281
               0
  0
CLASS
  1
LAYOUT
  2
AcDbLayout
  3
"AutoCAD 2000"
 90
        1
280
               0
281
               0
  0
CLASS
  1
PLOTSETTINGS
  2
AcDbPlotSettings
  3
"AutoCAD 2000"
 90
        1
280
               0
281
               0
  0
CLASS
  1
ACDBDICTIONARYWDFLT
  2
AcDbDictionaryWithDefault
  3
"AutoCAD 2000"
 90
        1
280
               0
281
               0
  0
CLASS
  1
ACDBPLACEHOLDER
  2
AcDbPlaceHolder
  3
"AutoCAD 2000"
 90
        1
280
               0
281
               0
  0
CLASS
  1
VBA_PROJECT
  2
AcDbVbaProject
  3
"acadvba"
 90
        1
280
               0
281
               0
  0
CLASS
  1
WIPEOUT
  2
AcDbWipeout
  3
WipeOut|AutoCAD Express Tool|expresstools@autodesk.com
 90
      127
280
               0
281
               1
  0
CLASS
  1
WIPEOUTVARIABLES
  2
AcDbWipeoutVariables
  3
WipeOut|AutoCAD Express Tool|expresstools@autodesk.com
 90
        0
280
               0
281
               0
  0
CLASS
  1
RTEXT
  2
RText
  3
RText|AutoCAD Express Tool|expresstools@autodesk.com
 90
        0
280
               0
281
               1
  0
CLASS
  1
ARCALIGNEDTEXT
  2
AcDbArcAlignedText
  3
ATEXT|AutoCAD Express Tool|expresstools@autodesk.com
 90
        0
280
               0
281
               1
  0
ENDSEC
  0
SECTION
  2
TABLES
  0
TABLE
  2
VPORT
  5
7
100
AcDbSymbolTable
 70
               1
  0
VPORT
  5
15
100
AcDbSymbolTableRecord
100
AcDbViewportTableRecord
  2
*ACTIVE
 70
               0
 10
0.0
 20
0.0
 11
1.0
 21
1.0
 12
2.1749939918518066
 22
0.25
 13
0.0
 23
0.0
 14
1.0
 24
1.0
 15
0.0
 25
0.0
 16
0.0
 26
0.0
 36
1.0
 17
0.0
 27
0.0
 37
0.0
 40
394.40500000000003
 41
1.7320508075688772
 42
50.0
 43
0.0
 44
0.0
 50
0.0
 51
0.0
 71
               0
 72
             100
 73
               1
 74
               1
 75
               0
 76
               0
 77
               0
 78
               0
  0
ENDTAB
  0
TABLE
  2
LTYPE
  5
4
100
AcDbSymbolTable
 70
               4
  0
LTYPE
  5
11
100
AcDbSymbolTableRecord
100
AcDbLinetypeTableRecord
  2
BYBLOCK
 70
              64
  3

 72
              65
 73
               0
 40
0.0
  0
LTYPE
  5
12
100
AcDbSymbolTableRecord
100
AcDbLinetypeTableRecord
  2
BYLAYER
 70
              64
  3

 72
              65
 73
               0
 40
0.0
  0
LTYPE
  5
13
100
AcDbSymbolTableRecord
100
AcDbLinetypeTableRecord
  2
CONTINUOUS
 70
              64
  3
Solid line
 72
              65
 73
               0
 40
0.0
  0
LTYPE
  5
23
100
AcDbSymbolTableRecord
100
AcDbLinetypeTableRecord
  2
CENTER
 70
              64
  3
Center ____ _ ____ _ ____ _ ____ _ ____ _ ____
 72
              65
 73
               4
 40
50.800000000000004
 49
31.75
 74
               0
 49
-6.3499999999999996
 74
               0
 49
6.3499999999999996
 74
               0
 49
-6.3499999999999996
 74
               0
  0
ENDTAB
  0
TABLE
  2
LAYER
  5
2
100
AcDbSymbolTable
 70
               2
  0
LAYER
  5
14
100
AcDbSymbolTableRecord
100
AcDbLayerTableRecord
  2
0
 70
               0
 62
               7
  6
CONTINUOUS
  0
LAYER
  5
1D
100
AcDbSymbolTableRecord
100
AcDbLayerTableRecord
  2
DEFPOINTS
 70
               0
 62
               7
  6
CONTINUOUS
  0
ENDTAB
  0
TABLE
  2
STYLE
  5
3
100
AcDbSymbolTable
 70
               1
  0
STYLE
  5
17
100
AcDbSymbolTableRecord
100
AcDbTextStyleTableRecord
  2
MX_NOTE_STANDARD
 70
               0
 40
3.2000000476837158
 41
1.0
 50
0.0
 71
               0
 42
3.2000000476837158
  3
txt.shx
  4
extfont.shx
  0
ENDTAB
  0
TABLE
  2
VIEW
  5
5
100
AcDbSymbolTable
 70
               0
  0
ENDTAB
  0
TABLE
  2
UCS
  5
6
100
AcDbSymbolTable
 70
               0
  0
ENDTAB
  0
TABLE
  2
APPID
  5
8
100
AcDbSymbolTable
 70
               1
  0
APPID
  5
16
100
AcDbSymbolTableRecord
100
AcDbRegAppTableRecord
  2
ACAD
 70
               0
  0
ENDTAB
  0
TABLE
  2
DIMSTYLE
  5
9
100
AcDbSymbolTable
 70
               1
  0
DIMSTYLE
105
18
100
AcDbSymbolTableRecord
100
AcDbDimStyleTableRecord
  2
MXDIMSTYLE
 70
               0
  3

  4

  5

  6

  7

 40
1.0
 41
2.5
 42
1.5
 43
3.75
 44
1.5
 45
0.0
 46
0.0
 47
0.0
 48
0.0
 71
               0
 72
               0
 73
               0
 74
               0
 75
               0
 76
               0
 77
               1
 78
               8
140
3.2000000476837158
141
2.5
142
0.0
143
0.0394
144
1.0
145
0.0
146
1.0
147
1.0
170
               0
171
               4
172
               1
173
               0
174
               0
175
               0
176
               0
177
               0
178
               0
270
               2
271
               4
272
               4
273
               8
274
               4
275
               0
280
               0
281
               0
282
               0
283
               1
284
               0
285
               0
286
               0
287
               3
288
               1
340
17
  0
ENDTAB
  0
TABLE
  2
BLOCK_RECORD
  5
1
100
AcDbSymbolTable
 70
               4
  0
BLOCK_RECORD
  5
A
100
AcDbSymbolTableRecord
100
AcDbBlockTableRecord
  2
*MODEL_SPACE
  0
BLOCK_RECORD
  5
B
100
AcDbSymbolTableRecord
100
AcDbBlockTableRecord
  2
*PAPER_SPACE
  0
BLOCK_RECORD
  5
1E
100
AcDbSymbolTableRecord
100
AcDbBlockTableRecord
  2
MS_1
  0
BLOCK_RECORD
  5
1F
100
AcDbSymbolTableRecord
100
AcDbBlockTableRecord
  2
MS_2
  0
BLOCK_RECORD
  5
20
100
AcDbSymbolTableRecord
100
AcDbBlockTableRecord
  2
MS_3
  0
BLOCK_RECORD
  5
21
100
AcDbSymbolTableRecord
100
AcDbBlockTableRecord
  2
MS_4
  0
ENDTAB
  0
ENDSEC
  0
SECTION
  2
BLOCKS
  0
BLOCK
  5
D
100
AcDbEntity
  8
0
100
AcDbBlockBegin
  2
*MODEL_SPACE
 70
               0
 10
0.0
 20
0.0
 30
0.0
  3
*MODEL_SPACE
  1

  0
ENDBLK
  5
E
100
AcDbEntity
  8
0
100
AcDbBlockEnd
  0
BLOCK
  5
F
100
AcDbEntity
 67
               1
  8
0
100
AcDbBlockBegin
  2
*PAPER_SPACE
 70
               0
 10
0.0
 20
0.0
 30
0.0
  3
*PAPER_SPACE
  1

  0
ENDBLK
  5
10
100
AcDbEntity
 67
               1
  8
0
100
AcDbBlockEnd
  0
BLOCK
  5
22
100
AcDbEntity
  8
0
100
AcDbBlockBegin
  2
MS_1
 70
               0
 10
0.0
 20
0.0
 30
0.0
  3
MS_1
  1

  0
LINE
  5
24
100
AcDbEntity
  8
0
  6
CENTER
 62
               2
100
AcDbLine
 10
40.000000000000014
 20
19.29999999999999
 30
0.0
 11
39.999999999999957
 21
-154.74000000000004
 31
0.0
  0
LINE
  5
25
100
AcDbEntity
  8
0
  6
CONTINUOUS
 62
               7
100
AcDbLine
 10
15.0
 20
-10.000000000000005
 30
0.0
 11
14.289999999999999
 21
-9.2900000000000027
 31
0.0
  0
LINE
  5
26
100
AcDbEntity
  8
0
  6
CONTINUOUS
 62
               7
100
AcDbLine
 10
5.0
 20
-10.000000000000002
 30
0.0
 11
5.7000000000000028
 21
-9.2900000000000009
 31
0.0
  0
LINE
  5
27
100
AcDbEntity
  8
0
  6
CONTINUOUS
 62
               7
100
AcDbLine
 10
5.0000000000000071
 20
9.9999999999999982
 30
0.0
 11
5.6999999999999957
 21
9.2899999999999974
 31
0.0
  0
LINE
  5
28
100
AcDbEntity
  8
0
  6
CONTINUOUS
 62
               7
100
AcDbLine
 10
15.0
 20
9.9999999999999964
 30
0.0
 11
14.290000000000006
 21
9.2899999999999956
 31
0.0
  0
LINE
  5
29
100
AcDbEntity
  8
0
  6
CONTINUOUS
 62
               7
100
AcDbLine
 10
14.289999999999999
 20
-9.2900000000000027
 30
0.0
 11
5.7000000000000028
 21
-9.2900000000000009
 31
0.0
  0
LINE
  5
2A
100
AcDbEntity
  8
0
  6
CONTINUOUS
 62
               7
100
AcDbLine
 10
14.290000000000006
 20
9.2899999999999956
 30
0.0
 11
14.289999999999999
 21
-9.2900000000000027
 31
0.0
  0
LINE
  5
2B
100
AcDbEntity
  8
0
  6
CONTINUOUS
 62
               7
100
AcDbLine
 10
14.290000000000006
 20
9.2899999999999956
 30
0.0
 11
5.6999999999999957
 21
9.2899999999999974
 31
0.0
  0
LINE
  5
2C
100
AcDbEntity
  8
0
  6
CONTINUOUS
 62
               7
100
AcDbLine
 10
5.6999999999999957
 20
9.2899999999999974
 30
0.0
 11
5.7000000000000028
 21
-9.2900000000000009
 31
0.0
  0
LINE
  5
2D
100
AcDbEntity
  8
0
  6
CONTINUOUS
 62
               7
100
AcDbLine
 10
15.0
 20
-10.000000000000005
 30
0.0
 11
5.0
 21
-10.000000000000002
 31
0.0
  0
LINE
  5
2E
100
AcDbEntity
  8
0
  6
CONTINUOUS
 62
               7
100
AcDbLine
 10
15.0
 20
9.9999999999999964
 30
0.0
 11
5.0000000000000071
 21
9.9999999999999982
 31
0.0
  0
LINE
  5
2F
100
AcDbEntity
  8
0
  6
CONTINUOUS
 62
               7
100
AcDbLine
 10
15.0
 20
9.9999999999999964
 30
0.0
 11
15.0
 21
-10.000000000000005
 31
0.0
  0
LINE
  5
30
100
AcDbEntity
  8
0
  6
CONTINUOUS
 62
               7
100
AcDbLine
 10
5.0000000000000071
 20
9.9999999999999982
 30
0.0
 11
5.0
 21
-10.000000000000002
 31
0.0
  0
LINE
  5
31
100
AcDbEntity
  8
0
  6
CONTINUOUS
 62
               7
100
AcDbLine
 10
65.0
 20
-10.000000000000018
 30
0.0
 11
65.700000000000003
 21
-9.2900000000000151
 31
0.0
  0
LINE
  5
32
100
AcDbEntity
  8
0
  6
CONTINUOUS
 62
               7
100
AcDbLine
 10
75.0
 20
-10.00000000000002
 30
0.0
 11
74.290000000000006
 21
-9.2900000000000169
 31
0.0
  0
LINE
  5
33
100
AcDbEntity
  8
0
  6
CONTINUOUS
 62
               7
100
AcDbLine
 10
75.0
 20
9.9999999999999805
 30
0.0
 11
74.29000000000002
 21
9.2899999999999814
 31
0.0
  0
LINE
  5
34
100
AcDbEntity
  8
0
  6
CONTINUOUS
 62
               7
100
AcDbLine
 10
65.0
 20
9.999999999999984
 30
0.0
 11
65.700000000000017
 21
9.2899999999999832
 31
0.0
  0
LINE
  5
35
100
AcDbEntity
  8
0
  6
CONTINUOUS
 62
               7
100
AcDbLine
 10
65.700000000000003
 20
-9.2900000000000151
 30
0.0
 11
74.290000000000006
 21
-9.2900000000000169
 31
0.0
  0
LINE
  5
36
100
AcDbEntity
  8
0
  6
CONTINUOUS
 62
               7
100
AcDbLine
 10
65.700000000000017
 20
9.2899999999999832
 30
0.0
 11
65.700000000000003
 21
-9.2900000000000151
 31
0.0
  0
LINE
  5
37
100
AcDbEntity
  8
0
  6
CONTINUOUS
 62
               7
100
AcDbLine
 10
65.700000000000017
 20
9.2899999999999832
 30
0.0
 11
74.29000000000002
 21
9.2899999999999814
 31
0.0
  0
LINE
  5
38
100
AcDbEntity
  8
0
  6
CONTINUOUS
 62
               7
100
AcDbLine
 10
74.29000000000002
 20
9.2899999999999814
 30
0.0
 11
74.290000000000006
 21
-9.2900000000000169
 31
0.0
  0
LINE
  5
39
100
AcDbEntity
  8
0
  6
CONTINUOUS
 62
               7
100
AcDbLine
 10
65.0
 20
-10.000000000000018
 30
0.0
 11
75.0
 21
-10.00000000000002
 31
0.0
  0
LINE
  5
3A
100
AcDbEntity
  8
0
  6
CONTINUOUS
 62
               7
100
AcDbLine
 10
65.0
 20
9.999999999999984
 30
0.0
 11
75.0
 21
9.9999999999999805
 31
0.0
  0
LINE
  5
3B
100
AcDbEntity
  8
0
  6
CONTINUOUS
 62
               7
100
AcDbLine
 10
65.0
 20
9.999999999999984
 30
0.0
 11
65.0
 21
-10.000000000000018
 31
0.0
  0
LINE
  5
3C
100
AcDbEntity
  8
0
  6
CONTINUOUS
 62
               7
100
AcDbLine
 10
75.0
 20
9.9999999999999805
 30
0.0
 11
75.0
 21
-10.00000000000002
 31
0.0
  0
LINE
  5
3D
100
AcDbEntity
  8
0
  6
CONTINUOUS
 62
               7
100
AcDbLine
 10
19.690000000000001
 20
11.999999999999995
 30
0.0
 11
20.690000000000005
 21
12.999999999999995
 31
0.0
  0
LINE
  5
3E
100
AcDbEntity
  8
0
  6
CONTINUOUS
 62
               7
100
AcDbLine
 10
59.299999999999997
 20
12.999999999999986
 30
0.0
 11
60.29999999999999
 21
11.999999999999986
 31
0.0
  0
LINE
  5
3F
100
AcDbEntity
  8
0
  6
CONTINUOUS
 62
               7
100
AcDbLine
 10
19.690000000000001
 20
11.999999999999995
 30
0.0
 11
60.29999999999999
 21
11.999999999999986
 31
0.0
  0
LINE
  5
40
100
AcDbEntity
  8
0
  6
CONTINUOUS
 62
               7
100
AcDbLine
 10
79.000000000000014
 20
15.999999999999979
 30
0.0
 11
80.000000000000014
 21
14.999999999999979
 31
0.0
  0
LINE
  5
41
100
AcDbEntity
  8
0
  6
CONTINUOUS
 62
               7
100
AcDbLine
 10
1.0
 20
15.999999999999998
 30
0.0
 11
0.0000000000000071
 21
14.999999999999998
 31
0.0
  0
LINE
  5
42
100
AcDbEntity
  8
0
  6
CONTINUOUS
 62
               7
100
AcDbLine
 10
0.0000000000000071
 20
14.999999999999998
 30
0.0
 11
80.000000000000014
 21
14.999999999999979
 31
0.0
  0
LINE
  5
43
100
AcDbEntity
  8
0
  6
CONTINUOUS
 62
               7
100
AcDbLine
 10
79.000000000000014
 20
15.999999999999979
 30
0.0
 11
79.0
 21
-16.000000000000021
 31
0.0
  0
LINE
  5
44
100
AcDbEntity
  8
0
  6
CONTINUOUS
 62
               7
100
AcDbLine
 10
1.0
 20
15.999999999999998
 30
0.0
 11
0.9999999999999929
 21
-16.0
 31
0.0
  0
LINE
  5
45
100
AcDbEntity
  8
0
  6
CONTINUOUS
 62
               7
100
AcDbLine
 10
20.690000000000005
 20
12.999999999999995
 30
0.0
 11
59.299999999999997
 21
12.999999999999986
 31
0.0
  0
LINE
  5
46
100
AcDbEntity
  8
0
  6
CONTINUOUS
 62
               7
100
AcDbLine
 10
60.29999999999999
 20
11.999999999999986
 30
0.0
 11
60.299999999999983
 21
-15.000000000000011
 31
0.0
  0
LINE
  5
47
100
AcDbEntity
  8
0
  6
CONTINUOUS
 62
               7
100
AcDbLine
 10
19.690000000000001
 20
11.999999999999995
 30
0.0
 11
19.689999999999994
 21
-15.0
 31
0.0
  0
LINE
  5
48
100
AcDbEntity
  8
0
  6
CONTINUOUS
 62
               7
100
AcDbLine
 10
80.000000000000014
 20
14.999999999999979
 30
0.0
 11
80.0
 21
-16.000000000000018
 31
0.0
  0
LINE
  5
49
100
AcDbEntity
  8
0
  6
CONTINUOUS
 62
               7
100
AcDbLine
 10
0.0000000000000071
 20
14.999999999999998
 30
0.0
 11
-0.0000000000000071
 21
-16.0
 31
0.0
  0
LINE
  5
4A
100
AcDbEntity
  8
0
  6
CONTINUOUS
 62
               7
100
AcDbLine
 10
1.0
 20
15.999999999999998
 30
0.0
 11
79.000000000000014
 21
15.999999999999979
 31
0.0
  0
LINE
  5
4B
100
AcDbEntity
  8
0
  6
CONTINUOUS
 62
               7
100
AcDbLine
 10
-0.0000000000000071
 20
-16.0
 30
0.0
 11
80.0
 21
-16.000000000000018
 31
0.0
  0
LINE
  5
4C
100
AcDbEntity
  8
0
  6
CONTINUOUS
 62
               7
100
AcDbLine
 10
74.059999999999988
 20
-16.000000000000018
 30
0.0
 11
73.059999999999988
 21
-15.000000000000018
 31
0.0
  0
LINE
  5
4D
100
AcDbEntity
  8
0
  6
CONTINUOUS
 62
               7
100
AcDbLine
 10
5.9299999999999926
 20
-16.0
 30
0.0
 11
6.9299999999999926
 21
-15.0
 31
0.0
  0
LINE
  5
4E
100
AcDbEntity
  8
0
  6
CONTINUOUS
 62
               7
100
AcDbLine
 10
6.9299999999999926
 20
-15.0
 30
0.0
 11
73.059999999999988
 21
-15.000000000000018
 31
0.0
  0
LINE
  5
4F
100
AcDbEntity
  8
0
  6
CONTINUOUS
 62
               7
100
AcDbLine
 10
0.4999999999999929
 20
-35.0
 30
0.0
 11
79.499999999999986
 21
-35.000000000000014
 31
0.0
  0
LINE
  5
50
100
AcDbEntity
  8
0
  6
CONTINUOUS
 62
               7
100
AcDbLine
 10
79.499999999999986
 20
-35.000000000000014
 30
0.0
 11
78.499999999999972
 21
-36.000000000000021
 31
0.0
  0
LINE
  5
51
100
AcDbEntity
  8
0
  6
CONTINUOUS
 62
               7
100
AcDbLine
 10
0.4999999999999929
 20
-35.0
 30
0.0
 11
1.4999999999999929
 21
-36.0
 31
0.0
  0
LINE
  5
52
100
AcDbEntity
  8
0
  6
CONTINUOUS
 62
               7
100
AcDbLine
 10
79.499999999999986
 20
-16.000000000000021
 30
0.0
 11
79.499999999999986
 21
-35.000000000000014
 31
0.0
  0
LINE
  5
53
100
AcDbEntity
  8
0
  6
CONTINUOUS
 62
               7
100
AcDbLine
 10
0.5
 20
-16.000000000000004
 30
0.0
 11
0.4999999999999929
 21
-35.0
 31
0.0
  0
LINE
  5
54
100
AcDbEntity
  8
0
  6
CONTINUOUS
 62
               7
100
AcDbLine
 10
1.4999999999999929
 20
-36.0
 30
0.0
 11
78.499999999999972
 21
-36.000000000000021
 31
0.0
  0
LINE
  5
55
100
AcDbEntity
  8
0
  6
CONTINUOUS
 62
               7
100
AcDbLine
 10
73.419983917232614
 20
-120.32000637435884
 30
0.0
 11
74.149999999999366
 21
-36.000006513596858
 31
0.0
  0
LINE
  5
56
100
AcDbEntity
  8
0
  6
CONTINUOUS
 62
               7
100
AcDbLine
 10
5.9599976978303673
 20
-48.069993507383799
 30
0.0
 11
5.8500000000006196
 21
-35.999993486403177
 31
0.0
  0
LINE
  5
57
100
AcDbEntity
  8
0
  6
CONTINUOUS
 62
               7
100
AcDbLine
 10
3.54000000000066
 20
-35.99999304580556
 30
0.0
 11
3.5799996204382083
 21
-37.989993053434915
 31
0.0
  0
LINE
  5
58
100
AcDbEntity
  8
0
  6
CONTINUOUS
 62
               7
100
AcDbLine
 10
4.1100000000006531
 20
-35.999993154524454
 30
0.0
 11
4.1599996223455449
 21
-37.979993164061163
 31
0.0
  0
SPLINE
  5
59
100
AcDbEntity
  8
0
  6
CONTINUOUS
 62
               7
100
AcDbSpline
210
0.0
220
0.0
230
1.0
 70
               0
 71
               3
 72
               0
 73
               0
 74
               7
 44
0.000001
 12
0.2877407029851121
 22
-0.9577083521853788
 32
0.0
 13
-0.2684304405196597
 23
-0.9632990701762467
 33
0.0
 11
5.9599976978303673
 21
-48.069993507383799
 31
0.0
 11
6.8732835131423116
 21
-51.939157887947104
 31
0.0
 11
7.2999962043760789
 21
-55.899993762968421
 31
0.0
 11
7.3010050621416251
 21
-58.428512842203972
 31
0.0
 11
7.0964261150989838
 21
-60.95031536410432
 31
0.0
 11
6.6961317358576453
 21
-63.446957028693049
 31
0.0
 11
6.1099942970271002
 21
-65.899993535993715
 31
0.0
  0
ARC
  5
5A
100
AcDbEntity
  8
0
  6
CONTINUOUS
 62
               7
100
AcDbCircle
 10
3.5771470400403445
 20
-61.737174717943574
 30
0.0
 40
0.307419305666818
100
AcDbArc
 50
182.38972017140676
 51
216.49032762833562
  0
ARC
  5
5B
100
AcDbEntity
  8
0
  6
CONTINUOUS
 62
               7
100
AcDbCircle
 10
66.859224366062705
 20
-74.699236870349495
 30
0.0
 40
1.0007685475221786
100
AcDbArc
 50
270.04397290637729
 51
359.95600523701171
  0
ARC
  5
5C
100
AcDbEntity
  8
0
  6
CONTINUOUS
 62
               7
100
AcDbCircle
 10
65.027110130253149
 20
-74.19712218932105
 30
0.0
 40
1.002886726918669
100
AcDbArc
 50
270.16467380931226
 51
359.83530433407668
  0
ARC
  5
5D
100
AcDbEntity
  8
0
  6
CONTINUOUS
 62
               7
100
AcDbCircle
 10
59.965526169155787
 20
-74.694470258582015
 30
0.0
 40
1.0055487752584353
100
AcDbArc
 50
180.3152901714293
 51
269.68468797195953
  0
ARC
  5
5E
100
AcDbEntity
  8
0
  6
CONTINUOUS
 62
               7
100
AcDbCircle
 10
59.965526264523241
 20
-74.194470258582029
 30
0.0
 40
1.0055487752584353
100
AcDbArc
 50
180.3152901714293
 51
269.68468797195953
  0
ARC
  5
5F
100
AcDbEntity
  8
0
  6
CONTINUOUS
 62
               7
100
AcDbCircle
 10
67.72540044705508
 20
-41.694603754987348
 30
0.0
 40
0.9946131341851545
100
AcDbArc
 50
359.68882630221447
 51
90.311151841175828
  0
ARC
  5
60
100
AcDbEntity
  8
0
  6
CONTINUOUS
 62
               7
100
AcDbCircle
 10
67.12674388685997
 20
-42.193260105886594
 30
0.0
 40
0.9932778340562718
100
AcDbArc
 50
359.61090668867064
 51
90.389071454719215
  0
ARC
  5
61
100
AcDbEntity
  8
0
  6
CONTINUOUS
 62
               7
100
AcDbCircle
 10
66.868190594572425
 20
-42.691813253767506
 30
0.0
 40
0.9918419589986338
100
AcDbArc
 50
359.52676351090787
 51
90.47321463248079
  0
ARC
  5
62
100
AcDbEntity
  8
0
  6
CONTINUOUS
 62
               7
100
AcDbCircle
 10
65.03605715662205
 20
-43.193946246491784
 30
0.0
 40
0.9939599358248765
100
AcDbArc
 50
359.65074936401857
 51
90.34922877937089
  0
ARC
  5
63
100
AcDbEntity
  8
0
  6
CONTINUOUS
 62
               7
100
AcDbCircle
 10
59.569888796912949
 20
-41.699893616742138
 30
0.0
 40
0.999889890144662
100
AcDbArc
 50
89.993679199500292
 51
180.00629894388916
  0
ARC
  5
64
100
AcDbEntity
  8
0
  6
CONTINUOUS
 62
               7
100
AcDbCircle
 10
59.569888701545501
 20
-42.199893616742131
 30
0.0
 40
0.999889890144662
100
AcDbArc
 50
89.993679199500292
 51
180.00629894388916
  0
ARC
  5
65
100
AcDbEntity
  8
0
  6
CONTINUOUS
 62
               7
100
AcDbCircle
 10
59.956614937025229
 20
-42.696620020727131
 30
0.0
 40
0.9966219587282553
100
AcDbArc
 50
89.805454915635337
 51
180.19452322775408
  0
ARC
  5
66
100
AcDbEntity
  8
0
  6
CONTINUOUS
 62
               7
100
AcDbCircle
 10
59.956614841657782
 20
-43.196620020727117
 30
0.0
 40
0.9966219587282553
100
AcDbArc
 50
89.805454915635337
 51
180.19452322775408
  0
ARC
  5
67
100
AcDbEntity
  8
0
  6
CONTINUOUS
 62
               7
100
AcDbCircle
 10
66.868186300589286
 20
-82.69180991835519
 30
0.0
 40
0.9918386512538874
100
AcDbArc
 50
359.52656924855614
 51
90.473408894833497
  0
ARC
  5
68
100
AcDbEntity
  8
0
  6
CONTINUOUS
 62
               7
100
AcDbCircle
 10
59.956603988216123
 20
-82.696616701312038
 30
0.0
 40
0.9966186506094725
100
AcDbArc
 50
89.805263435133455
 51
180.1947147082559
  0
ARC
  5
69
100
AcDbEntity
  8
0
  6
CONTINUOUS
 62
               7
100
AcDbCircle
 10
59.956603892848669
 20
-83.196616701312024
 30
0.0
 40
0.9966186506094725
100
AcDbArc
 50
89.805263435133455
 51
180.1947147082559
  0
ARC
  5
6A
100
AcDbEntity
  8
0
  6
CONTINUOUS
 62
               7
100
AcDbCircle
 10
65.036052855531466
 20
-83.193942918186906
 30
0.0
 40
0.9939566278747196
100
AcDbArc
 50
359.65055634086383
 51
90.349421802525299
  0
ARC
  5
6B
100
AcDbEntity
  8
0
  6
CONTINUOUS
 62
               7
100
AcDbCircle
 10
13.145720227947486
 20
-74.694267269657161
 30
0.0
 40
1.0057439174978482
100
AcDbArc
 50
180.32628441406027
 51
269.67369372932927
  0
ARC
  5
6C
100
AcDbEntity
  8
0
  6
CONTINUOUS
 62
               7
100
AcDbCircle
 10
14.977845278179565
 20
-74.192142664647989
 30
0.0
 40
1.0078831534422494
100
AcDbArc
 50
180.44639325516178
 51
269.55358488822736
  0
ARC
  5
6D
100
AcDbEntity
  8
0
  6
CONTINUOUS
 62
               7
100
AcDbCircle
 10
20.039417453508982
 20
-74.699421027660549
 30
0.0
 40
1.0005753304728304
100
AcDbArc
 50
270.03292466087765
 51
359.96705348251118
  0
ARC
  5
6E
100
AcDbEntity
  8
0
  6
CONTINUOUS
 62
               7
100
AcDbCircle
 10
20.039417548876433
 20
-74.199421027660563
 30
0.0
 40
1.0005753304728304
100
AcDbArc
 50
270.03292466087765
 51
359.96705348251118
  0
ARC
  5
6F
100
AcDbEntity
  8
0
  6
CONTINUOUS
 62
               7
100
AcDbCircle
 10
12.279615151556534
 20
-41.699610951427047
 30
0.0
 40
0.9996163123364122
100
AcDbArc
 50
89.97799272698046
 51
180.02198541640894
  0
ARC
  5
70
100
AcDbEntity
  8
0
  6
CONTINUOUS
 62
               7
100
AcDbCircle
 10
12.878264838371059
 20
-42.19826084753489
 30
0.0
 40
0.998267526548658
100
AcDbArc
 50
89.900466900617999
 51
180.09951124277222
  0
ARC
  5
71
100
AcDbEntity
  8
0
  6
CONTINUOUS
 62
               7
100
AcDbCircle
 10
13.136810733854034
 20
-42.696806887421722
 30
0.0
 40
0.9968171090446738
100
AcDbArc
 50
89.81674721633614
 51
180.18323092705407
  0
ARC
  5
72
100
AcDbEntity
  8
0
  6
CONTINUOUS
 62
               7
100
AcDbCircle
 10
14.968954603041368
 20
-43.198951201839265
 30
0.0
 40
0.9989565216954142
100
AcDbArc
 50
89.940108415353194
 51
180.0598697280362
  0
ARC
  5
73
100
AcDbEntity
  8
0
  6
CONTINUOUS
 62
               7
100
AcDbCircle
 10
20.435128154976464
 20
-41.694867027109517
 30
0.0
 40
0.9948839811037549
100
AcDbArc
 50
359.70459264394401
 51
90.29538549944543
  0
ARC
  5
74
100
AcDbEntity
  8
0
  6
CONTINUOUS
 62
               7
100
AcDbCircle
 10
20.435128059609013
 20
-42.19486702710951
 30
0.0
 40
0.9948839811037549
100
AcDbArc
 50
359.70459264394401
 51
90.29538549944543
  0
ARC
  5
75
100
AcDbEntity
  8
0
  6
CONTINUOUS
 62
               7
100
AcDbCircle
 10
20.048385420273842
 20
-42.691609497933236
 30
0.0
 40
0.9916487685487582
100
AcDbArc
 50
359.51541422739029
 51
90.484563915998862
  0
ARC
  5
76
100
AcDbEntity
  8
0
  6
CONTINUOUS
 62
               7
100
AcDbCircle
 10
20.048385324906391
 20
-43.191609497933221
 30
0.0
 40
0.9916487685487582
100
AcDbArc
 50
359.51541422739029
 51
90.484563915998862
  0
ARC
  5
77
100
AcDbEntity
  8
0
  6
CONTINUOUS
 62
               7
100
AcDbCircle
 10
13.136799785694897
 20
-82.696803568656605
 30
0.0
 40
0.9968138009174133
100
AcDbArc
 50
89.816555848279847
 51
180.18342229511018
  0
ARC
  5
78
100
AcDbEntity
  8
0
  6
CONTINUOUS
 62
               7
100
AcDbCircle
 10
20.048381126940495
 20
-82.691606161871121
 30
0.0
 40
0.9916454608259224
100
AcDbArc
 50
359.51521985147906
 51
90.484758291910495
  0
ARC
  5
79
100
AcDbEntity
  8
0
  6
CONTINUOUS
 62
               7
100
AcDbCircle
 10
20.048381031573047
 20
-83.191606161871107
 30
0.0
 40
0.9916454608259224
100
AcDbArc
 50
359.51521985147906
 51
90.484758291910495
  0
ARC
  5
7A
100
AcDbEntity
  8
0
  6
CONTINUOUS
 62
               7
100
AcDbCircle
 10
14.968943661991872
 20
-83.198947890183774
 30
0.0
 40
0.9989532135096508
100
AcDbArc
 50
89.939918274311125
 51
180.06005986907869
  0
ARC
  5
7B
100
AcDbEntity
  8
0
  6
CONTINUOUS
 62
               7
100
AcDbCircle
 10
58.421152074106068
 20
-120.19061359983321
 30
0.0
 40
14.999389959211207
100
AcDbArc
 50
269.99552695390992
 51
359.50572977610466
  0
ARC
  5
7C
100
AcDbEntity
  8
0
  6
CONTINUOUS
 62
               7
100
AcDbCircle
 10
21.588796145361819
 20
-120.19062641088492
 30
0.0
 40
14.999370124488166
100
AcDbArc
 50
180.49417324593364
 51
270.0045263108305
  0
LINE
  5
7D
100
AcDbEntity
  8
0
  6
CONTINUOUS
 62
               7
100
AcDbLine
 10
31.929980890270496
 20
-136.18999846076755
 30
0.0
 11
48.079980890270207
 21
-136.19000154113621
 31
0.0
  0
LINE
  5
7E
100
AcDbEntity
  8
0
  6
CONTINUOUS
 62
               7
100
AcDbLine
 10
33.499977783198936
 20
-152.47999876022104
 30
0.0
 11
46.499977783198702
 21
-152.48000123977474
 31
0.0
  0
LINE
  5
7F
100
AcDbEntity
  8
0
  6
CONTINUOUS
 62
               7
100
AcDbLine
 10
45.999977687831262
 20
-152.98000114440728
 30
0.0
 11
46.499977783198702
 21
-152.48000123977474
 31
0.0
  0
LINE
  5
80
100
AcDbEntity
  8
0
  6
CONTINUOUS
 62
               7
100
AcDbLine
 10
33.499977783198936
 20
-152.47999876022104
 30
0.0
 11
33.999977687831482
 21
-152.97999885558849
 31
0.0
  0
LINE
  5
81
100
AcDbEntity
  8
0
  6
CONTINUOUS
 62
               7
100
AcDbLine
 10
33.499977783198936
 20
-152.47999876022104
 30
0.0
 11
33.499977973933838
 21
-151.47999876022106
 31
0.0
  0
LINE
  5
82
100
AcDbEntity
  8
0
  6
CONTINUOUS
 62
               7
100
AcDbLine
 10
46.499977783198702
 20
-152.48000123977474
 30
0.0
 11
46.499977973933603
 21
-151.48000123977477
 31
0.0
  0
LINE
  5
83
100
AcDbEntity
  8
0
  6
CONTINUOUS
 62
               7
100
AcDbLine
 10
45.999977687831262
 20
-152.98000114440728
 30
0.0
 11
33.999977687831482
 21
-152.97999885558849
 31
0.0
  0
LINE
  5
84
100
AcDbEntity
  8
0
  6
CONTINUOUS
 62
               7
100
AcDbLine
 10
47.749980453487282
 20
-138.48000147819363
 30
0.0
 11
32.249980453487559
 21
-138.47999852180266
 31
0.0
  0
LINE
  5
85
100
AcDbEntity
  8
0
  6
CONTINUOUS
 62
               7
100
AcDbLine
 10
33.739978069301294
 20
-150.97999880599744
 30
0.0
 11
32.989978069301301
 21
-150.97999866294626
 31
0.0
  0
LINE
  5
86
100
AcDbEntity
  8
0
  6
CONTINUOUS
 62
               7
100
AcDbLine
 10
47.009978069301063
 20
-150.98000133704957
 30
0.0
 11
46.25997806930107
 21
-150.98000119399839
 31
0.0
  0
LINE
  5
87
100
AcDbEntity
  8
0
  6
CONTINUOUS
 62
               7
100
AcDbLine
 10
38.159978069301225
 20
-150.97999964904571
 30
0.0
 11
36.339978069301239
 21
-150.97999930190818
 31
0.0
  0
LINE
  5
88
100
AcDbEntity
  8
0
  6
CONTINUOUS
 62
               7
100
AcDbLine
 10
33.559978164668742
 20
-150.47999877166518
 30
0.0
 11
33.739978069301294
 21
-150.97999880599744
 31
0.0
  0
LINE
  5
89
100
AcDbEntity
  8
0
  6
CONTINUOUS
 62
               7
100
AcDbLine
 10
46.439978164668531
 20
-150.48000122833071
 30
0.0
 11
46.25997806930107
 21
-150.98000119399839
 31
0.0
  0
LINE
  5
8A
100
AcDbEntity
  8
0
  6
CONTINUOUS
 62
               7
100
AcDbLine
 10
47.009979921336942
 20
-141.27000133704973
 30
0.0
 11
47.599979976650054
 21
-140.98000144958334
 31
0.0
  0
LINE
  5
8B
100
AcDbEntity
  8
0
  6
CONTINUOUS
 62
               7
100
AcDbLine
 10
43.659979921337005
 20
-141.27000069808781
 30
0.0
 11
44.31997997665011
 21
-140.98000082397289
 31
0.0
  0
LINE
  5
8C
100
AcDbEntity
  8
0
  6
CONTINUOUS
 62
               7
100
AcDbLine
 10
41.839979921337019
 20
-141.27000035095028
 30
0.0
 11
41.499979976650145
 21
-140.98000028610045
 31
0.0
  0
LINE
  5
8D
100
AcDbEntity
  8
0
  6
CONTINUOUS
 62
               7
100
AcDbLine
 10
38.159979921337104
 20
-141.26999964904587
 30
0.0
 11
38.499979976650195
 21
-140.97999971389575
 31
0.0
  0
LINE
  5
8E
100
AcDbEntity
  8
0
  6
CONTINUOUS
 62
               7
100
AcDbLine
 10
36.339979921337118
 20
-141.26999930190834
 30
0.0
 11
35.689979976650278
 21
-140.97999917793069
 31
0.0
  0
LINE
  5
8F
100
AcDbEntity
  8
0
  6
CONTINUOUS
 62
               7
100
AcDbLine
 10
32.989979921337181
 20
-141.26999866294642
 30
0.0
 11
32.399979976650314
 21
-140.97999855041286
 31
0.0
  0
LINE
  5
90
100
AcDbEntity
  8
0
  6
CONTINUOUS
 62
               7
100
AcDbLine
 10
32.989978069301301
 20
-150.97999866294626
 30
0.0
 11
32.399978164668767
 21
-150.47999855041269
 31
0.0
  0
LINE
  5
91
100
AcDbEntity
  8
0
  6
CONTINUOUS
 62
               7
100
AcDbLine
 10
36.339978069301239
 20
-150.97999930190818
 30
0.0
 11
35.68997816466873
 21
-150.47999917793052
 31
0.0
  0
LINE
  5
92
100
AcDbEntity
  8
0
  6
CONTINUOUS
 62
               7
100
AcDbLine
 10
38.499978164668647
 20
-150.47999971389558
 30
0.0
 11
38.159978069301225
 21
-150.97999964904571
 31
0.0
  0
LINE
  5
93
100
AcDbEntity
  8
0
  6
CONTINUOUS
 62
               7
100
AcDbLine
 10
41.839978069301139
 20
-150.98000035095012
 30
0.0
 11
41.499978164668597
 21
-150.48000028610028
 31
0.0
  0
LINE
  5
94
100
AcDbEntity
  8
0
  6
CONTINUOUS
 62
               7
100
AcDbLine
 10
43.659978069301125
 20
-150.98000069808765
 30
0.0
 11
44.319978164668562
 21
-150.48000082397272
 31
0.0
  0
LINE
  5
95
100
AcDbEntity
  8
0
  6
CONTINUOUS
 62
               7
100
AcDbLine
 10
47.009978069301063
 20
-150.98000133704957
 30
0.0
 11
47.599978164668507
 21
-150.48000144958317
 31
0.0
  0
LINE
  5
96
100
AcDbEntity
  8
0
  6
CONTINUOUS
 62
               7
100
AcDbLine
 10
43.659978069301125
 20
-150.98000069808765
 30
0.0
 11
41.839978069301139
 21
-150.98000035095012
 31
0.0
  0
LINE
  5
97
100
AcDbEntity
  8
0
  6
CONTINUOUS
 62
               7
100
AcDbLine
 10
46.439978164668531
 20
-150.48000122833071
 30
0.0
 11
44.319978164668562
 21
-150.48000082397272
 31
0.0
  0
LINE
  5
98
100
AcDbEntity
  8
0
  6
CONTINUOUS
 62
               7
100
AcDbLine
 10
32.399978164668767
 20
-150.47999855041269
 30
0.0
 11
32.249978164668761
 21
-150.47999852180246
 31
0.0
  0
LINE
  5
99
100
AcDbEntity
  8
0
  6
CONTINUOUS
 62
               7
100
AcDbLine
 10
35.68997816466873
 20
-150.47999917793052
 30
0.0
 11
33.559978164668742
 21
-150.47999877166518
 31
0.0
  0
LINE
  5
9A
100
AcDbEntity
  8
0
  6
CONTINUOUS
 62
               7
100
AcDbLine
 10
41.499978164668597
 20
-150.48000028610028
 30
0.0
 11
38.499978164668647
 21
-150.47999971389558
 31
0.0
  0
LINE
  5
9B
100
AcDbEntity
  8
0
  6
CONTINUOUS
 62
               7
100
AcDbLine
 10
33.559979921337167
 20
-141.26999877166531
 30
0.0
 11
32.989979921337181
 21
-141.26999866294642
 31
0.0
  0
LINE
  5
9C
100
AcDbEntity
  8
0
  6
CONTINUOUS
 62
               7
100
AcDbLine
 10
33.55997997665029
 20
-140.97999877166535
 30
0.0
 11
32.399979976650314
 21
-140.97999855041286
 31
0.0
  0
LINE
  5
9D
100
AcDbEntity
  8
0
  6
CONTINUOUS
 62
               7
100
AcDbLine
 10
43.659979921337005
 20
-141.27000069808781
 30
0.0
 11
41.839979921337019
 21
-141.27000035095028
 31
0.0
  0
LINE
  5
9E
100
AcDbEntity
  8
0
  6
CONTINUOUS
 62
               7
100
AcDbLine
 10
44.31997997665011
 20
-140.98000082397289
 30
0.0
 11
41.499979976650145
 21
-140.98000028610045
 31
0.0
  0
LINE
  5
9F
100
AcDbEntity
  8
0
  6
CONTINUOUS
 62
               7
100
AcDbLine
 10
38.159979921337104
 20
-141.26999964904587
 30
0.0
 11
36.339979921337118
 21
-141.26999930190834
 31
0.0
  0
LINE
  5
A0
100
AcDbEntity
  8
0
  6
CONTINUOUS
 62
               7
100
AcDbLine
 10
38.499979976650195
 20
-140.97999971389575
 30
0.0
 11
35.689979976650278
 21
-140.97999917793069
 31
0.0
  0
LINE
  5
A1
100
AcDbEntity
  8
0
  6
CONTINUOUS
 62
               7
100
AcDbLine
 10
47.749978164668484
 20
-150.48000147819343
 30
0.0
 11
47.599978164668507
 21
-150.48000144958317
 31
0.0
  0
LINE
  5
A2
100
AcDbEntity
  8
0
  6
CONTINUOUS
 62
               7
100
AcDbLine
 10
47.009979921336942
 20
-141.27000133704973
 30
0.0
 11
46.439979921336956
 21
-141.27000122833084
 31
0.0
  0
LINE
  5
A3
100
AcDbEntity
  8
0
  6
CONTINUOUS
 62
               7
100
AcDbLine
 10
47.599979976650054
 20
-140.98000144958334
 30
0.0
 11
46.439979976650079
 21
-140.98000122833088
 31
0.0
  0
LINE
  5
A4
100
AcDbEntity
  8
0
  6
CONTINUOUS
 62
               7
100
AcDbLine
 10
47.599979976650054
 20
-140.98000144958334
 30
0.0
 11
47.599978164668507
 21
-150.48000144958317
 31
0.0
  0
LINE
  5
A5
100
AcDbEntity
  8
0
  6
CONTINUOUS
 62
               7
100
AcDbLine
 10
47.009979921336942
 20
-141.27000133704973
 30
0.0
 11
47.009978069301063
 21
-150.98000133704957
 31
0.0
  0
LINE
  5
A6
100
AcDbEntity
  8
0
  6
CONTINUOUS
 62
               7
100
AcDbLine
 10
46.439979976650079
 20
-140.98000122833088
 30
0.0
 11
46.439978164668531
 21
-150.48000122833071
 31
0.0
  0
LINE
  5
A7
100
AcDbEntity
  8
0
  6
CONTINUOUS
 62
               7
100
AcDbLine
 10
44.31997997665011
 20
-140.98000082397289
 30
0.0
 11
44.319978164668562
 21
-150.48000082397272
 31
0.0
  0
LINE
  5
A8
100
AcDbEntity
  8
0
  6
CONTINUOUS
 62
               7
100
AcDbLine
 10
43.659979921337005
 20
-141.27000069808781
 30
0.0
 11
43.659978069301125
 21
-150.98000069808765
 31
0.0
  0
LINE
  5
A9
100
AcDbEntity
  8
0
  6
CONTINUOUS
 62
               7
100
AcDbLine
 10
32.399979976650314
 20
-140.97999855041286
 30
0.0
 11
32.399978164668767
 21
-150.47999855041269
 31
0.0
  0
LINE
  5
AA
100
AcDbEntity
  8
0
  6
CONTINUOUS
 62
               7
100
AcDbLine
 10
32.989979921337181
 20
-141.26999866294642
 30
0.0
 11
32.989978069301301
 21
-150.97999866294626
 31
0.0
  0
LINE
  5
AB
100
AcDbEntity
  8
0
  6
CONTINUOUS
 62
               7
100
AcDbLine
 10
33.55997997665029
 20
-140.97999877166535
 30
0.0
 11
33.559978164668742
 21
-150.47999877166518
 31
0.0
  0
LINE
  5
AC
100
AcDbEntity
  8
0
  6
CONTINUOUS
 62
               7
100
AcDbLine
 10
35.689979976650278
 20
-140.97999917793069
 30
0.0
 11
35.68997816466873
 21
-150.47999917793052
 31
0.0
  0
LINE
  5
AD
100
AcDbEntity
  8
0
  6
CONTINUOUS
 62
               7
100
AcDbLine
 10
36.339979921337118
 20
-141.26999930190834
 30
0.0
 11
36.339978069301239
 21
-150.97999930190818
 31
0.0
  0
LINE
  5
AE
100
AcDbEntity
  8
0
  6
CONTINUOUS
 62
               7
100
AcDbLine
 10
38.159979921337104
 20
-141.26999964904587
 30
0.0
 11
38.159978069301225
 21
-150.97999964904571
 31
0.0
  0
LINE
  5
AF
100
AcDbEntity
  8
0
  6
CONTINUOUS
 62
               7
100
AcDbLine
 10
41.839979921337019
 20
-141.27000035095028
 30
0.0
 11
41.839978069301139
 21
-150.98000035095012
 31
0.0
  0
LINE
  5
B0
100
AcDbEntity
  8
0
  6
CONTINUOUS
 62
               7
100
AcDbLine
 10
41.499979976650145
 20
-140.98000028610045
 30
0.0
 11
41.499978164668597
 21
-150.48000028610028
 31
0.0
  0
LINE
  5
B1
100
AcDbEntity
  8
0
  6
CONTINUOUS
 62
               7
100
AcDbLine
 10
38.499979976650195
 20
-140.97999971389575
 30
0.0
 11
38.499978164668647
 21
-150.47999971389558
 31
0.0
  0
LINE
  5
B2
100
AcDbEntity
  8
0
  6
CONTINUOUS
 62
               2
100
AcDbLine
 10
45.249980794902797
 20
-136.69000100135639
 30
0.0
 11
45.249980548854779
 21
-137.98000100135638
 31
0.0
  0
LINE
  5
B3
100
AcDbEntity
  8
0
  6
CONTINUOUS
 62
               2
100
AcDbLine
 10
34.749980794902989
 20
-136.68999899863996
 30
0.0
 11
34.749980548854971
 21
-137.97999899863996
 31
0.0
  0
LINE
  5
B4
100
AcDbEntity
  8
0
  6
CONTINUOUS
 62
               7
100
AcDbLine
 10
33.999980794903003
 20
-136.68999885558878
 30
0.0
 11
33.999980548854985
 21
-137.97999885558878
 31
0.0
  0
LINE
  5
B5
100
AcDbEntity
  8
0
  6
CONTINUOUS
 62
               7
100
AcDbLine
 10
45.999980794902783
 20
-136.69000114440757
 30
0.0
 11
45.999980548854765
 21
-137.98000114440757
 31
0.0
  0
LINE
  5
B6
100
AcDbEntity
  8
0
  6
CONTINUOUS
 62
               7
100
AcDbLine
 10
32.749980548855007
 20
-137.97999861717014
 30
0.0
 11
32.249980453487559
 21
-138.47999852180266
 31
0.0
  0
LINE
  5
B7
100
AcDbEntity
  8
0
  6
CONTINUOUS
 62
               7
100
AcDbLine
 10
47.249980548854744
 20
-137.9800013828262
 30
0.0
 11
47.749980453487282
 21
-138.48000147819363
 31
0.0
  0
LINE
  5
B8
100
AcDbEntity
  8
0
  6
CONTINUOUS
 62
               7
100
AcDbLine
 10
47.249980548854744
 20
-137.9800013828262
 30
0.0
 11
32.749980548855007
 21
-137.97999861717014
 31
0.0
  0
LINE
  5
B9
100
AcDbEntity
  8
0
  6
CONTINUOUS
 62
               7
100
AcDbLine
 10
33.249977973933845
 20
-151.47999871253734
 30
0.0
 11
32.249978164668761
 21
-150.47999852180246
 31
0.0
  0
LINE
  5
BA
100
AcDbEntity
  8
0
  6
CONTINUOUS
 62
               7
100
AcDbLine
 10
47.749978164668484
 20
-150.48000147819343
 30
0.0
 11
46.749977973933596
 21
-151.48000128745849
 31
0.0
  0
LINE
  5
BB
100
AcDbEntity
  8
0
  6
CONTINUOUS
 62
               7
100
AcDbLine
 10
32.249980453487559
 20
-138.47999852180266
 30
0.0
 11
32.249978164668761
 21
-150.47999852180246
 31
0.0
  0
LINE
  5
BC
100
AcDbEntity
  8
0
  6
CONTINUOUS
 62
               7
100
AcDbLine
 10
47.749980453487282
 20
-138.48000147819363
 30
0.0
 11
47.749978164668484
 21
-150.48000147819343
 31
0.0
  0
LINE
  5
BD
100
AcDbEntity
  8
0
  6
CONTINUOUS
 62
               7
100
AcDbLine
 10
46.749977973933596
 20
-151.48000128745849
 30
0.0
 11
33.249977973933845
 21
-151.47999871253734
 31
0.0
  0
LINE
  5
BE
100
AcDbEntity
  8
0
  6
CONTINUOUS
 62
               7
100
AcDbLine
 10
32.429980794903038
 20
-136.68999855613498
 30
0.0
 11
31.929980890270496
 21
-136.18999846076755
 31
0.0
  0
LINE
  5
BF
100
AcDbEntity
  8
0
  6
CONTINUOUS
 62
               7
100
AcDbLine
 10
47.579980794902767
 20
-136.69000144576873
 30
0.0
 11
48.079980890270207
 21
-136.19000154113621
 31
0.0
  0
LINE
  5
C0
100
AcDbEntity
  8
0
  6
CONTINUOUS
 62
               7
100
AcDbLine
 10
48.079980890270207
 20
-136.19000154113621
 30
0.0
 11
48.079981081005108
 21
-135.19000154113621
 31
0.0
  0
LINE
  5
C1
100
AcDbEntity
  8
0
  6
CONTINUOUS
 62
               7
100
AcDbLine
 10
31.929980890270496
 20
-136.18999846076755
 30
0.0
 11
31.929981081005394
 21
-135.18999846076755
 31
0.0
  0
LINE
  5
C2
100
AcDbEntity
  8
0
  6
CONTINUOUS
 62
               7
100
AcDbLine
 10
32.429980794903038
 20
-136.68999855613498
 30
0.0
 11
47.579980794902767
 21
-136.69000144576873
 31
0.0
  0
LINE
  5
C3
100
AcDbEntity
  8
0
  6
CONTINUOUS
 62
               7
100
AcDbLine
 10
3.07999961853087
 20
-37.999992958067473
 30
0.0
 11
3.4299969425202121
 21
-52.029993024824435
 31
0.0
  0
LINE
  5
C4
100
AcDbEntity
  8
0
  6
CONTINUOUS
 62
               7
100
AcDbLine
 10
2.599999519348728
 20
-38.519992866514698
 30
0.0
 11
3.07999961853087
 21
-37.999992958067473
 31
0.0
  0
LINE
  5
C5
100
AcDbEntity
  8
0
  6
CONTINUOUS
 62
               7
100
AcDbLine
 10
3.1399953250882717
 20
-60.509992969511153
 30
0.0
 11
3.2599953022000818
 21
-60.629992992399345
 31
0.0
  0
LINE
  5
C6
100
AcDbEntity
  8
0
  6
CONTINUOUS
 62
               7
100
AcDbLine
 10
3.07999961853087
 20
-37.999992958067473
 30
0.0
 11
4.1599996223455449
 21
-37.979993164061163
 31
0.0
  0
LINE
  5
C7
100
AcDbEntity
  8
0
  6
CONTINUOUS
 62
               7
100
AcDbLine
 10
2.599999519348728
 20
-38.519992866514698
 30
0.0
 11
3.1399953250882717
 21
-60.509992969511153
 31
0.0
  0
LINE
  5
C8
100
AcDbEntity
  8
0
  6
CONTINUOUS
 62
               7
100
AcDbLine
 10
5.9599976978303673
 20
-48.069993507383799
 30
0.0
 11
3.1899968719483098
 21
-52.399992979048044
 31
0.0
  0
LINE
  5
C9
100
AcDbEntity
  8
0
  6
CONTINUOUS
 62
               7
100
AcDbLine
 10
3.2699950885769908
 20
-61.749992994306666
 30
0.0
 11
3.1899968719483098
 21
-52.399992979048044
 31
0.0
  0
LINE
  5
CA
100
AcDbEntity
  8
0
  6
CONTINUOUS
 62
               7
100
AcDbLine
 10
6.1099942970271002
 20
-65.899993535993715
 30
0.0
 11
3.3299950561520575
 21
-61.91999300575074
 31
0.0
  0
LINE
  5
CB
100
AcDbEntity
  8
0
  6
CONTINUOUS
 62
               7
100
AcDbLine
 10
67.859998722075659
 20
-42.700005313874215
 30
0.0
 11
67.859992618558863
 21
-74.700005313873618
 31
0.0
  0
LINE
  5
CC
100
AcDbEntity
  8
0
  6
CONTINUOUS
 62
               7
100
AcDbLine
 10
66.02999862670822
 20
-43.200004964829333
 30
0.0
 11
66.029992713926319
 21
-74.200004964828764
 31
0.0
  0
LINE
  5
CD
100
AcDbEntity
  8
0
  6
CONTINUOUS
 62
               7
100
AcDbLine
 10
58.959998722075817
 20
-42.700003616333603
 30
0.0
 11
58.959992618559014
 21
-74.700003616333007
 31
0.0
  0
LINE
  5
CE
100
AcDbEntity
  8
0
  6
CONTINUOUS
 62
               7
100
AcDbLine
 10
67.719999103545447
 20
-40.700005287171358
 30
0.0
 11
59.569999103545619
 21
-40.700003732681928
 31
0.0
  0
LINE
  5
CF
100
AcDbEntity
  8
0
  6
CONTINUOUS
 62
               7
100
AcDbLine
 10
67.119999008178013
 20
-41.200005172730407
 30
0.0
 11
59.569999008178165
 21
-41.200003732681914
 31
0.0
  0
LINE
  5
D0
100
AcDbEntity
  8
0
  6
CONTINUOUS
 62
               7
100
AcDbLine
 10
59.959992523191545
 20
-75.200003807067915
 30
0.0
 11
65.029992523191453
 21
-75.200004774093856
 31
0.0
  0
LINE
  5
D1
100
AcDbEntity
  8
0
  6
CONTINUOUS
 62
               7
100
AcDbLine
 10
59.95999118804724
 20
-82.200003807067787
 30
0.0
 11
65.029991188047148
 21
-82.200004774093728
 31
0.0
  0
LINE
  5
D2
100
AcDbEntity
  8
0
  6
CONTINUOUS
 62
               7
100
AcDbLine
 10
65.029998817443158
 20
-42.200004774094452
 30
0.0
 11
59.95999881744325
 21
-42.200003807068505
 31
0.0
  0
LINE
  5
D3
100
AcDbEntity
  8
0
  6
CONTINUOUS
 62
               7
100
AcDbLine
 10
66.859998912810582
 20
-41.700005123139327
 30
0.0
 11
59.959998912810697
 21
-41.700003807068512
 31
0.0
  0
LINE
  5
D4
100
AcDbEntity
  8
0
  6
CONTINUOUS
 62
               7
100
AcDbLine
 10
59.959992427824091
 20
-75.700003807067901
 30
0.0
 11
66.859992427823968
 21
-75.700005123138709
 31
0.0
  0
LINE
  5
D5
100
AcDbEntity
  8
0
  6
CONTINUOUS
 62
               7
100
AcDbLine
 10
59.959991283414695
 20
-81.700003807067787
 30
0.0
 11
66.859991283414573
 21
-81.700005123138595
 31
0.0
  0
LINE
  5
D6
100
AcDbEntity
  8
0
  6
CONTINUOUS
 62
               7
100
AcDbLine
 10
12.139998722076676
 20
-42.699994686125578
 30
0.0
 11
12.139992618559873
 21
-74.699994686124981
 31
0.0
  0
LINE
  5
D7
100
AcDbEntity
  8
0
  6
CONTINUOUS
 62
               7
100
AcDbLine
 10
13.969998626709192
 20
-43.199995035170431
 30
0.0
 11
13.96999271392729
 21
-74.199995035169863
 31
0.0
  0
LINE
  5
D8
100
AcDbEntity
  8
0
  6
CONTINUOUS
 62
               7
100
AcDbLine
 10
21.039998722076508
 20
-42.699996383666189
 30
0.0
 11
21.039992618559701
 21
-74.699996383665592
 31
0.0
  0
LINE
  5
D9
100
AcDbEntity
  8
0
  6
CONTINUOUS
 62
               7
100
AcDbLine
 10
12.279999103546473
 20
-40.699994712828499
 30
0.0
 11
20.429999103546319
 21
-40.699996267317935
 31
0.0
  0
LINE
  5
DA
100
AcDbEntity
  8
0
  6
CONTINUOUS
 62
               7
100
AcDbLine
 10
12.879999008179013
 20
-41.199994827269421
 30
0.0
 11
20.429999008178868
 21
-41.199996267317921
 31
0.0
  0
LINE
  5
DB
100
AcDbEntity
  8
0
  6
CONTINUOUS
 62
               7
100
AcDbLine
 10
20.039992523192272
 20
-75.199996192930698
 30
0.0
 11
14.969992523192374
 21
-75.199995225904757
 31
0.0
  0
LINE
  5
DC
100
AcDbEntity
  8
0
  6
CONTINUOUS
 62
               7
100
AcDbLine
 10
20.039991188047971
 20
-82.19999619293057
 30
0.0
 11
14.96999118804807
 21
-82.19999522590463
 31
0.0
  0
LINE
  5
DD
100
AcDbEntity
  8
0
  6
CONTINUOUS
 62
               7
100
AcDbLine
 10
14.969998817444079
 20
-42.199995225905354
 30
0.0
 11
20.039998817443973
 21
-42.199996192931295
 31
0.0
  0
LINE
  5
DE
100
AcDbEntity
  8
0
  6
CONTINUOUS
 62
               7
100
AcDbLine
 10
6.5899839172338375
 20
-120.31999362754547
 30
0.0
 11
6.1099942970271002
 21
-65.899993535993715
 31
0.0
  0
LINE
  5
DF
100
AcDbEntity
  8
0
  6
CONTINUOUS
 62
               7
100
AcDbLine
 10
13.139998912811556
 20
-41.699994876860494
 30
0.0
 11
20.039998912811424
 21
-41.699996192931302
 31
0.0
  0
LINE
  5
E0
100
AcDbEntity
  8
0
  6
CONTINUOUS
 62
               7
100
AcDbLine
 10
20.039992427824821
 20
-75.699996192930683
 30
0.0
 11
13.139992427824957
 21
-75.699994876859876
 31
0.0
  0
LINE
  5
E1
100
AcDbEntity
  8
0
  6
CONTINUOUS
 62
               7
100
AcDbLine
 10
20.039991283415418
 20
-81.69999619293057
 30
0.0
 11
13.139991283415554
 21
-81.699994876859762
 31
0.0
  0
LINE
  5
E2
100
AcDbEntity
  8
0
  6
CONTINUOUS
 62
               7
100
AcDbLine
 10
21.589981081005593
 20
-135.18999648856868
 30
0.0
 11
58.41998108100492
 21
-135.19000351333506
 31
0.0
  0
LINE
  5
E3
100
AcDbEntity
  8
0
  6
CONTINUOUS
 62
               7
100
AcDbLine
 10
11.279998912811607
 20
-41.699994522093576
 30
0.0
 11
11.279984418866547
 21
-117.68999452209221
 31
0.0
  0
LINE
  5
E4
100
AcDbEntity
  8
0
  6
CONTINUOUS
 62
               7
100
AcDbLine
 10
11.879998817444111
 20
-42.199994636534512
 30
0.0
 11
11.879984514233954
 21
-117.18999463653316
 31
0.0
  0
LINE
  5
E5
100
AcDbEntity
  8
0
  6
CONTINUOUS
 62
               7
100
AcDbLine
 10
21.429998912811399
 20
-41.699996458052816
 30
0.0
 11
21.42998441886634
 21
-117.68999645805144
 31
0.0
  0
LINE
  5
E6
100
AcDbEntity
  8
0
  6
CONTINUOUS
 62
               7
100
AcDbLine
 10
21.039991092680516
 20
-82.69999638366545
 30
0.0
 11
21.039984609601262
 21
-116.68999638366483
 31
0.0
  0
LINE
  5
E7
100
AcDbEntity
  8
0
  6
CONTINUOUS
 62
               7
100
AcDbLine
 10
13.969990997313204
 20
-83.199995035169692
 30
0.0
 11
13.969984704968851
 21
-116.1899950351691
 31
0.0
  0
LINE
  5
E8
100
AcDbEntity
  8
0
  6
CONTINUOUS
 62
               7
100
AcDbLine
 10
12.139991092680674
 20
-82.699994686124839
 30
0.0
 11
12.13998460960142
 21
-116.68999468612422
 31
0.0
  0
LINE
  5
E9
100
AcDbEntity
  8
0
  6
CONTINUOUS
 62
               7
100
AcDbLine
 10
20.039984418866378
 20
-117.68999619292993
 30
0.0
 11
13.139984418866497
 21
-117.68999487685912
 31
0.0
  0
LINE
  5
EA
100
AcDbEntity
  8
0
  6
CONTINUOUS
 62
               7
100
AcDbLine
 10
20.039984514233829
 20
-117.18999619292994
 30
0.0
 11
14.969984514233929
 21
-117.189995225904
 31
0.0
  0
LINE
  5
EB
100
AcDbEntity
  8
0
  6
CONTINUOUS
 62
               7
100
AcDbLine
 10
20.429984323498907
 20
-118.18999626731653
 30
0.0
 11
12.879984323499031
 21
-118.18999482726804
 31
0.0
  0
LINE
  5
EC
100
AcDbEntity
  8
0
  6
CONTINUOUS
 62
               7
100
AcDbLine
 10
20.429984228131456
 20
-118.68999626731652
 30
0.0
 11
12.279984228131632
 21
-118.68999471282709
 31
0.0
  0
ARC
  5
ED
100
AcDbEntity
  8
0
  6
CONTINUOUS
 62
               7
100
AcDbCircle
 10
20.044434204333182
 20
-116.19444569399175
 30
0.0
 40
0.9955604430058689
100
AcDbArc
 50
269.74391377894483
 51
0.2560643644450464
  0
ARC
  5
EE
100
AcDbEntity
  8
0
  6
CONTINUOUS
 62
               7
100
AcDbCircle
 10
20.044434108965731
 20
-116.69444569399174
 30
0.0
 40
0.9955604430058689
100
AcDbArc
 50
269.74391377894483
 51
0.2560643644450464
  0
ARC
  5
EF
100
AcDbEntity
  8
0
  6
CONTINUOUS
 62
               7
100
AcDbCircle
 10
20.431189337614242
 20
-117.19120109115656
 30
0.0
 40
0.9987959030649976
100
AcDbArc
 50
269.93087452641771
 51
0.0691036169721249
  0
ARC
  5
F0
100
AcDbEntity
  8
0
  6
CONTINUOUS
 62
               7
100
AcDbCircle
 10
20.431189242246791
 20
-117.69120109115654
 30
0.0
 40
0.9987959030649976
100
AcDbArc
 50
269.93087452641771
 51
0.0691036169721249
  0
ARC
  5
F1
100
AcDbEntity
  8
0
  6
CONTINUOUS
 62
               7
100
AcDbCircle
 10
14.972849129502492
 20
-116.187130802463
 30
0.0
 40
1.0028685147237617
100
AcDbArc
 50
180.16363926706069
 51
269.83633887632857
  0
ARC
  5
F2
100
AcDbEntity
  8
0
  6
CONTINUOUS
 62
               7
100
AcDbCircle
 10
13.140713442144502
 20
-116.68926604459404
 30
0.0
 40
1.0007290978089647
100
AcDbArc
 50
180.04171767188282
 51
269.95826047150706
  0
ARC
  5
F3
100
AcDbEntity
  8
0
  6
CONTINUOUS
 62
               7
100
AcDbCircle
 10
12.882161675924337
 20
-117.18781766640821
 30
0.0
 40
1.0021795261392363
100
AcDbArc
 50
180.12446003448019
 51
269.87551810890926
  0
ARC
  5
F4
100
AcDbEntity
  8
0
  6
CONTINUOUS
 62
               7
100
AcDbCircle
 10
12.283506530747815
 20
-117.68647260228937
 30
0.0
 40
1.003528292054471
100
AcDbArc
 50
180.20108207842623
 51
269.79889606496369
  0
LINE
  5
F5
100
AcDbEntity
  8
0
  6
CONTINUOUS
 62
               7
100
AcDbLine
 10
68.719998912810539
 20
-41.700005477906238
 30
0.0
 11
68.719984418865465
 21
-117.69000547790486
 31
0.0
  0
LINE
  5
F6
100
AcDbEntity
  8
0
  6
CONTINUOUS
 62
               7
100
AcDbLine
 10
68.119998817443104
 20
-42.200005363465294
 30
0.0
 11
68.119984514232939
 21
-117.19000536346394
 31
0.0
  0
LINE
  5
F7
100
AcDbEntity
  8
0
  6
CONTINUOUS
 62
               7
100
AcDbLine
 10
58.569998912810739
 20
-41.700003541947005
 30
0.0
 11
58.56998441886568
 21
-117.69000354194563
 31
0.0
  0
LINE
  5
F8
100
AcDbEntity
  8
0
  6
CONTINUOUS
 62
               7
100
AcDbLine
 10
58.959991092679815
 20
-82.700003616332864
 30
0.0
 11
58.959984609600561
 21
-116.69000361633225
 31
0.0
  0
LINE
  5
F9
100
AcDbEntity
  8
0
  6
CONTINUOUS
 62
               7
100
AcDbLine
 10
66.029990997312225
 20
-83.200004964828594
 30
0.0
 11
66.029984704967873
 21
-116.19000496482801
 31
0.0
  0
LINE
  5
FA
100
AcDbEntity
  8
0
  6
CONTINUOUS
 62
               7
100
AcDbLine
 10
67.85999109267965
 20
-82.700005313873476
 30
0.0
 11
67.859984609600403
 21
-116.69000531387286
 31
0.0
  0
LINE
  5
FB
100
AcDbEntity
  8
0
  6
CONTINUOUS
 62
               7
100
AcDbLine
 10
59.959984418865638
 20
-117.69000380706714
 30
0.0
 11
66.859984418865508
 21
-117.69000512313795
 31
0.0
  0
LINE
  5
FC
100
AcDbEntity
  8
0
  6
CONTINUOUS
 62
               7
100
AcDbLine
 10
59.959984514233085
 20
-117.19000380706716
 30
0.0
 11
65.029984514232993
 21
-117.1900047740931
 31
0.0
  0
LINE
  5
FD
100
AcDbEntity
  8
0
  6
CONTINUOUS
 62
               7
100
AcDbLine
 10
59.569984323498211
 20
-118.19000373268052
 30
0.0
 11
67.119984323498059
 21
-118.19000517272902
 31
0.0
  0
LINE
  5
FE
100
AcDbEntity
  8
0
  6
CONTINUOUS
 62
               7
100
AcDbLine
 10
59.569984228130757
 20
-118.69000373268051
 30
0.0
 11
67.719984228130585
 21
-118.69000528716995
 31
0.0
  0
ARC
  5
FF
100
AcDbEntity
  8
0
  6
CONTINUOUS
 62
               7
100
AcDbCircle
 10
59.960518506147665
 20
-116.1894700060911
 30
0.0
 40
1.0005339434736435
100
AcDbArc
 50
180.03055730030096
 51
269.9694208430887
  0
ARC
  5
100
100
AcDbEntity
  8
0
  6
CONTINUOUS
 62
               7
100
AcDbCircle
 10
59.960518410780217
 20
-116.68947000609108
 30
0.0
 40
1.0005339434736435
100
AcDbArc
 50
180.03055730030115
 51
269.9694208430887
  0
ARC
  5
101
100
AcDbEntity
  8
0
  6
CONTINUOUS
 62
               7
100
AcDbCircle
 10
59.573779204699562
 20
-117.18620904366163
 30
0.0
 40
1.003801862334325
100
AcDbArc
 50
180.21658582532635
 51
269.78339231806342
  0
ARC
  5
102
100
AcDbEntity
  8
0
  6
CONTINUOUS
 62
               7
100
AcDbCircle
 10
59.573779109332115
 20
-117.68620904366162
 30
0.0
 40
1.003801862334325
100
AcDbArc
 50
180.21658582532635
 51
269.78339231806342
  0
ARC
  5
103
100
AcDbEntity
  8
0
  6
CONTINUOUS
 62
               7
100
AcDbCircle
 10
65.032115174327799
 20
-116.19213524426573
 30
0.0
 40
0.9978718045271724
100
AcDbArc
 50
269.87766171644807
 51
0.1223164269423326
  0
ARC
  5
104
100
AcDbEntity
  8
0
  6
CONTINUOUS
 62
               7
100
AcDbCircle
 10
66.864240048773496
 20
-116.69426056393436
 30
0.0
 40
0.9957536530535159
100
AcDbArc
 50
269.75512982109439
 51
0.2448483222958539
  0
ARC
  5
105
100
AcDbEntity
  8
0
  6
CONTINUOUS
 62
               7
100
AcDbCircle
 10
67.122798830523735
 20
-117.19281949009338
 30
0.0
 40
0.997189654530819
100
AcDbArc
 50
269.83828593953712
 51
0.1616922038523478
  0
ARC
  5
106
100
AcDbEntity
  8
0
  6
CONTINUOUS
 62
               7
100
AcDbCircle
 10
67.721460467582801
 20
-117.69148133645035
 30
0.0
 40
0.9985250419711891
100
AcDbArc
 50
269.9152927393701
 51
0.08468540402059
  0
LINE
  5
107
100
AcDbEntity
  8
0
  6
CENTER
 62
               2
100
AcDbLine
 10
-10.372148413305261
 20
0.0000000000000027
 30
0.0
 11
90.210931474212387
 21
-0.0000000000000222
 31
0.0
  0
ENDBLK
  5
108
100
AcDbEntity
  8
0
100
AcDbBlockEnd
  0
BLOCK
  5
109
100
AcDbEntity
  8
0
100
AcDbBlockBegin
  2
MS_2
 70
               0
 10
0.0
 20
0.0
 30
0.0
  3
MS_2
  1

  0
ARC
  5
10A
100
AcDbEntity
  8
0
  6
CONTINUOUS
 62
               7
100
AcDbCircle
 10
-22.000106814375613
 20
15.000106814375613
 30
0.0
 40
2.0001068172277883
100
AcDbArc
 50
270.00305984303583
 51
359.99694015696275
  0
CIRCLE
  5
10B
100
AcDbEntity
  8
0
  6
CONTINUOUS
 62
               7
100
AcDbCircle
 10
0.0
 20
0.000213623046875
 30
0.0
 40
13.5
  0
ARC
  5
10C
100
AcDbEntity
  8
0
  6
CONTINUOUS
 62
               7
100
AcDbCircle
 10
-30.000103000362287
 20
-13.499896999637713
 30
0.0
 40
1.5001030038984027
100
AcDbArc
 50
270.00393405388547
 51
359.99606594611311
  0
CIRCLE
  5
10D
100
AcDbEntity
  8
0
  6
CONTINUOUS
 62
               7
100
AcDbCircle
 10
0.0
 20
0.000213623046875
 30
0.0
 40
7.4749994277954102
  0
CIRCLE
  5
10E
100
AcDbEntity
  8
0
  6
CONTINUOUS
 62
               2
100
AcDbCircle
 10
0.0
 20
0.000213623046875
 30
0.0
 40
8.3310003280639648
  0
ARC
  5
10F
100
AcDbEntity
  8
0
  6
CONTINUOUS
 62
               7
100
AcDbCircle
 10
20.98713459128976
 20
14.003594581883696
 30
0.0
 40
2.003635886905351
100
AcDbArc
 50
240.48366708316789
 51
270.36790052075355
  0
ARC
  5
110
100
AcDbEntity
  8
0
  6
CONTINUOUS
 62
               7
100
AcDbCircle
 10
-22.000091554829851
 20
-12.999908445170149
 30
0.0
 40
2.0000915569253266
100
AcDbArc
 50
270.0026227326079
 51
359.99737726739068
  0
ARC
  5
111
100
AcDbEntity
  8
0
  6
CONTINUOUS
 62
               7
100
AcDbCircle
 10
22.000091554829851
 20
-12.999908445170149
 30
0.0
 40
2.0000915569253266
100
AcDbArc
 50
180.0026227326081
 51
269.9973772673909
  0
ARC
  5
112
100
AcDbEntity
  8
0
  6
CONTINUOUS
 62
               7
100
AcDbCircle
 10
30.0001106303001
 20
-13.499889369699908
 30
0.0
 40
1.5001106343794768
100
AcDbArc
 50
180.00422545453736
 51
269.9957745454617
  0
ARC
  5
113
100
AcDbEntity
  8
0
  6
CONTINUOUS
 62
               7
100
AcDbCircle
 10
22.000106814375613
 20
15.000106814375613
 30
0.0
 40
2.0001068172277883
100
AcDbArc
 50
180.00305984303603
 51
269.99694015696292
  0
ARC
  5
114
100
AcDbEntity
  8
0
  6
CONTINUOUS
 62
               7
100
AcDbCircle
 10
-20.987136571234629
 20
14.003602197056248
 30
0.0
 40
2.0036434892086543
100
AcDbArc
 50
269.63215749443265
 51
299.51627490164361
  0
LINE
  5
115
100
AcDbEntity
  8
0
  6
CONTINUOUS
 62
               7
100
AcDbLine
 10
20.0
 20
15.0
 30
0.0
 11
20.0
 21
-16.0
 31
0.0
  0
LINE
  5
116
100
AcDbEntity
  8
0
  6
CONTINUOUS
 62
               7
100
AcDbLine
 10
-20.0
 20
15.0
 30
0.0
 11
-20.0
 21
-16.0
 31
0.0
  0
LINE
  5
117
100
AcDbEntity
  8
0
  6
CONTINUOUS
 62
               7
100
AcDbLine
 10
27.5
 20
13.0
 30
0.0
 11
28.5
 21
12.0
 31
0.0
  0
LINE
  5
118
100
AcDbEntity
  8
0
  6
CONTINUOUS
 62
               7
100
AcDbLine
 10
-28.5
 20
12.0
 30
0.0
 11
-27.5
 21
13.0
 31
0.0
  0
LINE
  5
119
100
AcDbEntity
  8
0
  6
CONTINUOUS
 62
               7
100
AcDbLine
 10
21.0
 20
12.0
 30
0.0
 11
28.5
 21
12.0
 31
0.0
  0
LINE
  5
11A
100
AcDbEntity
  8
0
  6
CONTINUOUS
 62
               7
100
AcDbLine
 10
-28.5
 20
12.0
 30
0.0
 11
-21.0
 21
12.0
 31
0.0
  0
LINE
  5
11B
100
AcDbEntity
  8
0
  6
CONTINUOUS
 62
               7
100
AcDbLine
 10
22.0
 20
13.0
 30
0.0
 11
27.5
 21
13.0
 31
0.0
  0
LINE
  5
11C
100
AcDbEntity
  8
0
  6
CENTER
 62
               2
100
AcDbLine
 10
-31.909999999999997
 20
0.0
 30
0.0
 11
32.629999999999995
 21
0.0
 31
0.0
  0
LINE
  5
11D
100
AcDbEntity
  8
0
  6
CONTINUOUS
 62
               7
100
AcDbLine
 10
19.0
 20
16.0
 30
0.0
 11
20.0
 21
15.0
 31
0.0
  0
LINE
  5
11E
100
AcDbEntity
  8
0
  6
CONTINUOUS
 62
               7
100
AcDbLine
 10
-19.0
 20
16.0
 30
0.0
 11
-20.0
 21
15.0
 31
0.0
  0
LINE
  5
11F
100
AcDbEntity
  8
0
  6
CONTINUOUS
 62
               7
100
AcDbLine
 10
-20.0
 20
15.0
 30
0.0
 11
20.0
 21
15.0
 31
0.0
  0
LINE
  5
120
100
AcDbEntity
  8
0
  6
CONTINUOUS
 62
               7
100
AcDbLine
 10
-19.0
 20
16.0
 30
0.0
 11
-19.0
 21
-16.0
 31
0.0
  0
LINE
  5
121
100
AcDbEntity
  8
0
  6
CONTINUOUS
 62
               7
100
AcDbLine
 10
19.0
 20
16.0
 30
0.0
 11
19.0
 21
-16.0
 31
0.0
  0
LINE
  5
122
100
AcDbEntity
  8
0
  6
CONTINUOUS
 62
               7
100
AcDbLine
 10
-19.0
 20
16.0
 30
0.0
 11
19.0
 21
16.0
 31
0.0
  0
LINE
  5
123
100
AcDbEntity
  8
0
  6
CONTINUOUS
 62
               7
100
AcDbLine
 10
-27.5
 20
13.0
 30
0.0
 11
-22.0
 21
13.0
 31
0.0
  0
LINE
  5
124
100
AcDbEntity
  8
0
  6
CONTINUOUS
 62
               7
100
AcDbLine
 10
28.5
 20
12.0
 30
0.0
 11
28.5
 21
-13.5
 31
0.0
  0
LINE
  5
125
100
AcDbEntity
  8
0
  6
CONTINUOUS
 62
               7
100
AcDbLine
 10
-28.5
 20
12.0
 30
0.0
 11
-28.5
 21
-13.5
 31
0.0
  0
LINE
  5
126
100
AcDbEntity
  8
0
  6
CONTINUOUS
 62
               7
100
AcDbLine
 10
-38.5
 20
-36.0
 30
0.0
 11
38.5
 21
-36.0
 31
0.0
  0
LINE
  5
127
100
AcDbEntity
  8
0
  6
CONTINUOUS
 62
               7
100
AcDbLine
 10
22.0
 20
-15.0
 30
0.0
 11
38.5
 21
-15.0
 31
0.0
  0
LINE
  5
128
100
AcDbEntity
  8
0
  6
CONTINUOUS
 62
               7
100
AcDbLine
 10
-39.5
 20
-16.0
 30
0.0
 11
39.5
 21
-16.0
 31
0.0
  0
LINE
  5
129
100
AcDbEntity
  8
0
  6
CONTINUOUS
 62
               7
100
AcDbLine
 10
39.5
 20
-16.0
 30
0.0
 11
38.5
 21
-15.0
 31
0.0
  0
LINE
  5
12A
100
AcDbEntity
  8
0
  6
CONTINUOUS
 62
               7
100
AcDbLine
 10
-39.5
 20
-16.0
 30
0.0
 11
-38.5
 21
-15.0
 31
0.0
  0
LINE
  5
12B
100
AcDbEntity
  8
0
  6
CONTINUOUS
 62
               7
100
AcDbLine
 10
-39.5
 20
-35.0
 30
0.0
 11
39.5
 21
-35.0
 31
0.0
  0
LINE
  5
12C
100
AcDbEntity
  8
0
  6
CONTINUOUS
 62
               7
100
AcDbLine
 10
39.5
 20
-35.0
 30
0.0
 11
38.5
 21
-36.0
 31
0.0
  0
LINE
  5
12D
100
AcDbEntity
  8
0
  6
CONTINUOUS
 62
               7
100
AcDbLine
 10
-39.5
 20
-35.0
 30
0.0
 11
-38.5
 21
-36.0
 31
0.0
  0
LINE
  5
12E
100
AcDbEntity
  8
0
  6
CONTINUOUS
 62
               7
100
AcDbLine
 10
-38.5
 20
-15.0
 30
0.0
 11
-22.0
 21
-15.0
 31
0.0
  0
LINE
  5
12F
100
AcDbEntity
  8
0
  6
CONTINUOUS
 62
               7
100
AcDbLine
 10
39.5
 20
-16.0
 30
0.0
 11
39.5
 21
-35.0
 31
0.0
  0
LINE
  5
130
100
AcDbEntity
  8
0
  6
CONTINUOUS
 62
               7
100
AcDbLine
 10
-39.5
 20
-16.0
 30
0.0
 11
-39.5
 21
-35.0
 31
0.0
  0
LINE
  5
131
100
AcDbEntity
  8
0
  6
CONTINUOUS
 62
               7
100
AcDbLine
 10
-33.410000000000025
 20
-120.31999999999999
 30
0.0
 11
-34.150000000000006
 21
-35.999999999999993
 31
0.0
  0
LINE
  5
132
100
AcDbEntity
  8
0
  6
CONTINUOUS
 62
               7
100
AcDbLine
 10
33.420000000000016
 20
-120.31999999999999
 30
0.0
 11
34.159999999999968
 21
-35.999999999999993
 31
0.0
  0
ARC
  5
133
100
AcDbEntity
  8
0
  6
CONTINUOUS
 62
               7
100
AcDbCircle
 10
-26.852686870431057
 20
-74.692686870431018
 30
0.0
 40
1.0073396760110862
100
AcDbArc
 50
180.41596211296951
 51
269.58403788703009
  0
ARC
  5
134
100
AcDbEntity
  8
0
  6
CONTINUOUS
 62
               7
100
AcDbCircle
 10
-25.015548590135666
 20
-74.19554859013563
 30
0.0
 40
1.0044612734338108
100
AcDbArc
 50
180.25391504848659
 51
269.74608495151301
  0
ARC
  5
135
100
AcDbEntity
  8
0
  6
CONTINUOUS
 62
               7
100
AcDbCircle
 10
-19.953963010201221
 20
-74.696036989798785
 30
0.0
 40
1.0039708318980822
100
AcDbArc
 50
270.22616628008478
 51
359.77383371991351
  0
ARC
  5
136
100
AcDbEntity
  8
0
  6
CONTINUOUS
 62
               7
100
AcDbCircle
 10
-19.953963010201221
 20
-74.196036989798785
 30
0.0
 40
1.0039708318980822
100
AcDbArc
 50
270.22616628008478
 51
359.77383371991351
  0
ARC
  5
137
100
AcDbEntity
  8
0
  6
CONTINUOUS
 62
               7
100
AcDbCircle
 10
-27.713817595338497
 20
-41.696182404661506
 30
0.0
 40
0.9961897195772367
100
AcDbArc
 50
89.780430743398554
 51
180.21956925660044
  0
ARC
  5
138
100
AcDbEntity
  8
0
  6
CONTINUOUS
 62
               7
100
AcDbCircle
 10
-27.120131973318706
 20
-42.199868026681287
 30
0.0
 40
0.9998680353909246
100
AcDbArc
 50
89.992437487823949
 51
180.00756251217547
  0
ARC
  5
139
100
AcDbEntity
  8
0
  6
CONTINUOUS
 62
               7
100
AcDbCircle
 10
-26.861588279205961
 20
-42.698411720794034
 30
0.0
 40
0.998412984115172
100
AcDbArc
 50
89.908853615668477
 51
180.09114638433132
  0
ARC
  5
13A
100
AcDbEntity
  8
0
  6
CONTINUOUS
 62
               7
100
AcDbCircle
 10
-25.024475623895995
 20
-43.195524376104004
 30
0.0
 40
0.9955344366854152
100
AcDbArc
 50
89.74241451194564
 51
180.25758548805376
  0
ARC
  5
13B
100
AcDbEntity
  8
0
  6
CONTINUOUS
 62
               7
100
AcDbCircle
 10
-19.56327664674177
 20
-41.693276646741744
 30
0.0
 40
0.9932994012087063
100
AcDbArc
 50
359.61217865734596
 51
90.387821342653453
  0
ARC
  5
13C
100
AcDbEntity
  8
0
  6
CONTINUOUS
 62
               7
100
AcDbCircle
 10
-19.56327664674177
 20
-42.193276646741744
 30
0.0
 40
0.9932994012087063
100
AcDbArc
 50
359.61217865734596
 51
90.387821342653453
  0
ARC
  5
13D
100
AcDbEntity
  8
0
  6
CONTINUOUS
 62
               7
100
AcDbCircle
 10
-19.945031595764192
 20
-42.695031595764149
 30
0.0
 40
0.995043999835999
100
AcDbArc
 50
359.71391237316038
 51
90.286087626837826
  0
ARC
  5
13E
100
AcDbEntity
  8
0
  6
CONTINUOUS
 62
               7
100
AcDbCircle
 10
-19.945031595764192
 20
-43.195031595764149
 30
0.0
 40
0.995043999835999
100
AcDbArc
 50
359.71391237316038
 51
90.286087626837826
  0
ARC
  5
13F
100
AcDbEntity
  8
0
  6
CONTINUOUS
 62
               7
100
AcDbCircle
 10
-27.709898311921478
 20
-117.68989831192147
 30
0.0
 40
1.0001016932482389
100
AcDbArc
 50
180.00582570530131
 51
269.9941742946977
  0
ARC
  5
140
100
AcDbEntity
  8
0
  6
CONTINUOUS
 62
               7
100
AcDbCircle
 10
-27.116227082450536
 20
-117.18622708245053
 30
0.0
 40
1.0037800082252031
100
AcDbArc
 50
180.2153587033776
 51
269.78464129662098
  0
ARC
  5
141
100
AcDbEntity
  8
0
  6
CONTINUOUS
 62
               7
100
AcDbCircle
 10
-26.857677707324314
 20
-116.6876777073243
 30
0.0
 40
1.0023249829461227
100
AcDbArc
 50
180.13274904888021
 51
269.86725095111876
  0
ARC
  5
142
100
AcDbEntity
  8
0
  6
CONTINUOUS
 62
               7
100
AcDbCircle
 10
-26.861591119313204
 20
-82.698408880686813
 30
0.0
 40
0.9984101485336506
100
AcDbArc
 50
89.908690371316325
 51
180.09130962868224
  0
ARC
  5
143
100
AcDbEntity
  8
0
  6
CONTINUOUS
 62
               7
100
AcDbCircle
 10
-25.020553765570781
 20
-116.19055376557075
 30
0.0
 40
0.9994463878423354
100
AcDbArc
 50
179.96825399335671
 51
270.03174600664295
  0
ARC
  5
144
100
AcDbEntity
  8
0
  6
CONTINUOUS
 62
               7
100
AcDbCircle
 10
-19.56720731286066
 20
-117.69279268713935
 30
0.0
 40
0.9972112233244311
100
AcDbArc
 50
269.83954312587184
 51
0.1604568741271214
  0
ARC
  5
145
100
AcDbEntity
  8
0
  6
CONTINUOUS
 62
               7
100
AcDbCircle
 10
-19.56720731286066
 20
-117.19279268713935
 30
0.0
 40
0.9972112233244311
100
AcDbArc
 50
269.83954312587184
 51
0.1604568741271214
  0
ARC
  5
146
100
AcDbEntity
  8
0
  6
CONTINUOUS
 62
               7
100
AcDbCircle
 10
-19.94895538343161
 20
-116.6910446165684
 30
0.0
 40
0.9989559296138717
100
AcDbArc
 50
269.94008531336209
 51
0.0599146866376983
  0
ARC
  5
147
100
AcDbEntity
  8
0
  6
CONTINUOUS
 62
               7
100
AcDbCircle
 10
-19.94895538343161
 20
-116.1910446165684
 30
0.0
 40
0.9989559296138717
100
AcDbArc
 50
269.94008531336209
 51
0.0599146866379018
  0
ARC
  5
148
100
AcDbEntity
  8
0
  6
CONTINUOUS
 62
               7
100
AcDbCircle
 10
-19.9450287460391
 20
-82.695028746039071
 30
0.0
 40
0.9950411643796735
100
AcDbArc
 50
359.71374746495576
 51
90.286252535043417
  0
ARC
  5
149
100
AcDbEntity
  8
0
  6
CONTINUOUS
 62
               7
100
AcDbCircle
 10
-19.9450287460391
 20
-83.195028746039071
 30
0.0
 40
0.9950411643796735
100
AcDbArc
 50
359.71374746495576
 51
90.286252535043417
  0
ARC
  5
14A
100
AcDbEntity
  8
0
  6
CONTINUOUS
 62
               7
100
AcDbCircle
 10
-25.024478472217027
 20
-83.195521527782958
 30
0.0
 40
0.9955316012024624
100
AcDbArc
 50
89.74224984735028
 51
180.25775015264986
  0
ARC
  5
14B
100
AcDbEntity
  8
0
  6
CONTINUOUS
 62
               7
100
AcDbCircle
 10
26.865850831020225
 20
-74.695850831020195
 30
0.0
 40
1.0041577411771687
100
AcDbArc
 50
270.236746218007
 51
359.76325378199073
  0
ARC
  5
14C
100
AcDbEntity
  8
0
  6
CONTINUOUS
 62
               7
100
AcDbCircle
 10
25.028597439519274
 20
-74.19859743951929
 30
0.0
 40
1.0014035426905565
100
AcDbArc
 50
270.08024819056749
 51
359.9197518094312
  0
ARC
  5
14D
100
AcDbEntity
  8
0
  6
CONTINUOUS
 62
               7
100
AcDbCircle
 10
19.967034993635309
 20
-74.692965006364687
 30
0.0
 40
1.0070595660344588
100
AcDbArc
 50
180.40025310934649
 51
269.5997468906512
  0
ARC
  5
14E
100
AcDbEntity
  8
0
  6
CONTINUOUS
 62
               7
100
AcDbCircle
 10
19.967034993635309
 20
-74.192965006364687
 30
0.0
 40
1.0070595660344588
100
AcDbArc
 50
180.40025310934649
 51
269.5997468906512
  0
ARC
  5
14F
100
AcDbEntity
  8
0
  6
CONTINUOUS
 62
               7
100
AcDbCircle
 10
27.726911125499498
 20
-41.693088874500454
 30
0.0
 40
0.9931129222360746
100
AcDbArc
 50
359.60127241312284
 51
90.398727586875808
  0
ARC
  5
150
100
AcDbEntity
  8
0
  6
CONTINUOUS
 62
               7
100
AcDbCircle
 10
27.128328985736459
 20
-42.191671014263562
 30
0.0
 40
0.9917059909741105
100
AcDbArc
 50
359.51878747825504
 51
90.481212521745604
  0
ARC
  5
151
100
AcDbEntity
  8
0
  6
CONTINUOUS
 62
               7
100
AcDbCircle
 10
26.874780575460079
 20
-42.695219424539886
 30
0.0
 40
0.995230906314339
100
AcDbArc
 50
359.72477959726632
 51
90.275220402731065
  0
ARC
  5
152
100
AcDbEntity
  8
0
  6
CONTINUOUS
 62
               7
100
AcDbCircle
 10
25.03755185548539
 20
-43.192448144514593
 30
0.0
 40
0.9924768763410822
100
AcDbArc
 50
359.56402649515792
 51
90.435973504842281
  0
ARC
  5
153
100
AcDbEntity
  8
0
  6
CONTINUOUS
 62
               7
100
AcDbCircle
 10
19.576347745777866
 20
-41.696347745777892
 30
0.0
 40
0.9963544396837998
100
AcDbArc
 50
89.789975120367885
 51
180.21002487963028
  0
ARC
  5
154
100
AcDbEntity
  8
0
  6
CONTINUOUS
 62
               7
100
AcDbCircle
 10
19.576347745777866
 20
-42.196347745777892
 30
0.0
 40
0.9963544396837998
100
AcDbArc
 50
89.789975120367885
 51
180.21002487963028
  0
ARC
  5
155
100
AcDbEntity
  8
0
  6
CONTINUOUS
 62
               7
100
AcDbCircle
 10
19.958131097518503
 20
-42.698131097518491
 30
0.0
 40
0.998132847185172
100
AcDbArc
 50
89.892719403653814
 51
180.10728059634681
  0
ARC
  5
156
100
AcDbEntity
  8
0
  6
CONTINUOUS
 62
               7
100
AcDbCircle
 10
19.958131097518503
 20
-43.198131097518491
 30
0.0
 40
0.998132847185172
100
AcDbArc
 50
89.892719403653814
 51
180.10728059634681
  0
ARC
  5
157
100
AcDbEntity
  8
0
  6
CONTINUOUS
 62
               7
100
AcDbCircle
 10
27.722979722721391
 20
-117.69297972272142
 30
0.0
 40
0.9970247299100173
100
AcDbArc
 50
269.82876473864206
 51
0.1712352613577423
  0
ARC
  5
158
100
AcDbEntity
  8
0
  6
CONTINUOUS
 62
               7
100
AcDbCircle
 10
27.124392016102831
 20
-117.1943920161028
 30
0.0
 40
0.9956176713002197
100
AcDbArc
 50
269.7472475532806
 51
0.2527524467179892
  0
ARC
  5
159
100
AcDbEntity
  8
0
  6
CONTINUOUS
 62
               7
100
AcDbCircle
 10
26.870857523290681
 20
-116.69085752329065
 30
0.0
 40
0.9991428446979391
100
AcDbArc
 50
269.95082537828984
 51
0.0491746217079475
  0
ARC
  5
15A
100
AcDbEntity
  8
0
  6
CONTINUOUS
 62
               7
100
AcDbCircle
 10
26.874783424649934
 20
-82.695216575350059
 30
0.0
 40
0.9952280708475259
100
AcDbArc
 50
359.72461478195794
 51
90.27538521804054
  0
ARC
  5
15B
100
AcDbEntity
  8
0
  6
CONTINUOUS
 62
               7
100
AcDbCircle
 10
25.033617938008319
 20
-116.19361793800833
 30
0.0
 40
0.9963886304721561
100
AcDbArc
 50
269.7919556410107
 51
0.208044358988482
  0
ARC
  5
15C
100
AcDbEntity
  8
0
  6
CONTINUOUS
 62
               7
100
AcDbCircle
 10
19.580266382458149
 20
-117.68973361754183
 30
0.0
 40
1.0002664179285106
100
AcDbArc
 50
180.01525852562352
 51
269.98474147437457
  0
ARC
  5
15D
100
AcDbEntity
  8
0
  6
CONTINUOUS
 62
               7
100
AcDbCircle
 10
19.580266382458149
 20
-117.18973361754183
 30
0.0
 40
1.0002664179285106
100
AcDbArc
 50
180.01525852562352
 51
269.98474147437457
  0
ARC
  5
15E
100
AcDbEntity
  8
0
  6
CONTINUOUS
 62
               7
100
AcDbCircle
 10
19.962042764991111
 20
-116.68795723500884
 30
0.0
 40
1.0020448471799692
100
AcDbArc
 50
180.11680304921259
 51
269.88319695078764
  0
ARC
  5
15F
100
AcDbEntity
  8
0
  6
CONTINUOUS
 62
               7
100
AcDbCircle
 10
19.962042764991111
 20
-116.18795723500884
 30
0.0
 40
1.0020448471799692
100
AcDbArc
 50
180.11680304921279
 51
269.88319695078764
  0
ARC
  5
160
100
AcDbEntity
  8
0
  6
CONTINUOUS
 62
               7
100
AcDbCircle
 10
19.958128256613918
 20
-82.698128256613913
 30
0.0
 40
0.9981300116089387
100
AcDbArc
 50
89.892556021800473
 51
180.1074439781996
  0
ARC
  5
161
100
AcDbEntity
  8
0
  6
CONTINUOUS
 62
               7
100
AcDbCircle
 10
19.958128256613918
 20
-83.198128256613913
 30
0.0
 40
0.9981300116089387
100
AcDbArc
 50
89.892556021800473
 51
180.1074439781996
  0
ARC
  5
162
100
AcDbEntity
  8
0
  6
CONTINUOUS
 62
               7
100
AcDbCircle
 10
25.03755471258188
 20
-83.19244528741811
 30
0.0
 40
0.9924740410714181
100
AcDbArc
 50
359.56386030397243
 51
90.436139696028164
  0
ARC
  5
163
100
AcDbEntity
  8
0
  6
CONTINUOUS
 62
               7
100
AcDbCircle
 10
-18.409604580177756
 20
-120.18903286500779
 30
0.0
 40
15.000967140203761
100
AcDbArc
 50
180.50023170846006
 51
269.9984897049136
  0
ARC
  5
164
100
AcDbEntity
  8
0
  6
CONTINUOUS
 62
               7
100
AcDbCircle
 10
18.422751179202521
 20
-120.19220697296819
 30
0.0
 40
14.997793279368487
100
AcDbArc
 50
269.9894897232582
 51
359.5117888633655
  0
LINE
  5
165
100
AcDbEntity
  8
0
  6
CONTINUOUS
 62
               7
100
AcDbLine
 10
-8.0700000000000216
 20
-136.19
 30
0.0
 11
8.0799999999999841
 21
-136.19
 31
0.0
  0
LINE
  5
166
100
AcDbEntity
  8
0
  6
CONTINUOUS
 62
               7
100
AcDbLine
 10
-28.710000000000008
 20
-41.699999999999989
 30
0.0
 11
-28.710000000000008
 21
-117.69
 31
0.0
  0
LINE
  5
167
100
AcDbEntity
  8
0
  6
CONTINUOUS
 62
               7
100
AcDbLine
 10
-28.120000000000005
 20
-42.199999999999989
 30
0.0
 11
-28.120000000000005
 21
-117.19
 31
0.0
  0
LINE
  5
168
100
AcDbEntity
  8
0
  6
CONTINUOUS
 62
               7
100
AcDbLine
 10
-27.860000000000014
 20
-42.699999999999989
 30
0.0
 11
-27.860000000000014
 21
-74.699999999999989
 31
0.0
  0
LINE
  5
169
100
AcDbEntity
  8
0
  6
CONTINUOUS
 62
               7
100
AcDbLine
 10
-26.02000000000001
 20
-43.199999999999989
 30
0.0
 11
-26.02000000000001
 21
-74.199999999999989
 31
0.0
  0
LINE
  5
16A
100
AcDbEntity
  8
0
  6
CONTINUOUS
 62
               7
100
AcDbLine
 10
-18.950000000000017
 20
-42.699999999999989
 30
0.0
 11
-18.950000000000017
 21
-74.699999999999989
 31
0.0
  0
LINE
  5
16B
100
AcDbEntity
  8
0
  6
CONTINUOUS
 62
               7
100
AcDbLine
 10
-18.570000000000022
 20
-41.699999999999989
 30
0.0
 11
-18.570000000000022
 21
-117.69
 31
0.0
  0
LINE
  5
16C
100
AcDbEntity
  8
0
  6
CONTINUOUS
 62
               7
100
AcDbLine
 10
-27.710000000000008
 20
-40.699999999999989
 30
0.0
 11
-19.570000000000022
 21
-40.699999999999989
 31
0.0
  0
LINE
  5
16D
100
AcDbEntity
  8
0
  6
CONTINUOUS
 62
               7
100
AcDbLine
 10
-27.120000000000005
 20
-41.199999999999989
 30
0.0
 11
-19.570000000000022
 21
-41.199999999999989
 31
0.0
  0
LINE
  5
16E
100
AcDbEntity
  8
0
  6
CONTINUOUS
 62
               7
100
AcDbLine
 10
-19.570000000000022
 20
-118.69
 30
0.0
 11
-27.710000000000008
 21
-118.69
 31
0.0
  0
LINE
  5
16F
100
AcDbEntity
  8
0
  6
CONTINUOUS
 62
               7
100
AcDbLine
 10
-19.570000000000022
 20
-118.19
 30
0.0
 11
-27.120000000000005
 21
-118.19
 31
0.0
  0
LINE
  5
170
100
AcDbEntity
  8
0
  6
CONTINUOUS
 62
               7
100
AcDbLine
 10
-18.950000000000017
 20
-82.699999999999989
 30
0.0
 11
-18.950000000000017
 21
-116.69
 31
0.0
  0
LINE
  5
171
100
AcDbEntity
  8
0
  6
CONTINUOUS
 62
               7
100
AcDbLine
 10
-26.02000000000001
 20
-83.199999999999989
 30
0.0
 11
-26.02000000000001
 21
-116.19
 31
0.0
  0
LINE
  5
172
100
AcDbEntity
  8
0
  6
CONTINUOUS
 62
               7
100
AcDbLine
 10
-27.860000000000014
 20
-82.699999999999989
 30
0.0
 11
-27.860000000000014
 21
-116.69
 31
0.0
  0
LINE
  5
173
100
AcDbEntity
  8
0
  6
CONTINUOUS
 62
               7
100
AcDbLine
 10
-19.950000000000017
 20
-117.19
 30
0.0
 11
-25.02000000000001
 21
-117.19
 31
0.0
  0
LINE
  5
174
100
AcDbEntity
  8
0
  6
CONTINUOUS
 62
               7
100
AcDbLine
 10
-19.950000000000017
 20
-75.199999999999989
 30
0.0
 11
-25.02000000000001
 21
-75.199999999999989
 31
0.0
  0
LINE
  5
175
100
AcDbEntity
  8
0
  6
CONTINUOUS
 62
               7
100
AcDbLine
 10
-19.950000000000017
 20
-82.199999999999989
 30
0.0
 11
-25.02000000000001
 21
-82.199999999999989
 31
0.0
  0
LINE
  5
176
100
AcDbEntity
  8
0
  6
CONTINUOUS
 62
               7
100
AcDbLine
 10
-25.02000000000001
 20
-42.199999999999989
 30
0.0
 11
-19.950000000000017
 21
-42.199999999999989
 31
0.0
  0
LINE
  5
177
100
AcDbEntity
  8
0
  6
CONTINUOUS
 62
               7
100
AcDbLine
 10
-26.860000000000014
 20
-41.699999999999989
 30
0.0
 11
-19.950000000000017
 21
-41.699999999999989
 31
0.0
  0
LINE
  5
178
100
AcDbEntity
  8
0
  6
CONTINUOUS
 62
               7
100
AcDbLine
 10
-19.950000000000017
 20
-75.699999999999989
 30
0.0
 11
-26.860000000000014
 21
-75.699999999999989
 31
0.0
  0
LINE
  5
179
100
AcDbEntity
  8
0
  6
CONTINUOUS
 62
               7
100
AcDbLine
 10
-19.950000000000017
 20
-81.699999999999989
 30
0.0
 11
-26.860000000000014
 21
-81.699999999999989
 31
0.0
  0
LINE
  5
17A
100
AcDbEntity
  8
0
  6
CONTINUOUS
 62
               7
100
AcDbLine
 10
-19.950000000000017
 20
-117.69
 30
0.0
 11
-26.860000000000014
 21
-117.69
 31
0.0
  0
LINE
  5
17B
100
AcDbEntity
  8
0
  6
CONTINUOUS
 62
               7
100
AcDbLine
 10
28.71999999999997
 20
-41.699999999999989
 30
0.0
 11
28.71999999999997
 21
-117.69
 31
0.0
  0
LINE
  5
17C
100
AcDbEntity
  8
0
  6
CONTINUOUS
 62
               7
100
AcDbLine
 10
28.120000000000005
 20
-42.199999999999989
 30
0.0
 11
28.120000000000005
 21
-117.19
 31
0.0
  0
LINE
  5
17D
100
AcDbEntity
  8
0
  6
CONTINUOUS
 62
               7
100
AcDbLine
 10
27.870000000000005
 20
-42.699999999999989
 30
0.0
 11
27.870000000000005
 21
-74.699999999999989
 31
0.0
  0
LINE
  5
17E
100
AcDbEntity
  8
0
  6
CONTINUOUS
 62
               7
100
AcDbLine
 10
26.029999999999973
 20
-43.199999999999989
 30
0.0
 11
26.029999999999973
 21
-74.199999999999989
 31
0.0
  0
LINE
  5
17F
100
AcDbEntity
  8
0
  6
CONTINUOUS
 62
               7
100
AcDbLine
 10
18.95999999999998
 20
-42.699999999999989
 30
0.0
 11
18.95999999999998
 21
-74.699999999999989
 31
0.0
  0
LINE
  5
180
100
AcDbEntity
  8
0
  6
CONTINUOUS
 62
               7
100
AcDbLine
 10
18.579999999999984
 20
-41.699999999999989
 30
0.0
 11
18.579999999999984
 21
-117.69
 31
0.0
  0
LINE
  5
181
100
AcDbEntity
  8
0
  6
CONTINUOUS
 62
               7
100
AcDbLine
 10
27.71999999999997
 20
-40.699999999999989
 30
0.0
 11
19.579999999999984
 21
-40.699999999999989
 31
0.0
  0
LINE
  5
182
100
AcDbEntity
  8
0
  6
CONTINUOUS
 62
               7
100
AcDbLine
 10
27.120000000000005
 20
-41.199999999999989
 30
0.0
 11
19.579999999999984
 21
-41.199999999999989
 31
0.0
  0
LINE
  5
183
100
AcDbEntity
  8
0
  6
CONTINUOUS
 62
               7
100
AcDbLine
 10
19.579999999999984
 20
-118.69
 30
0.0
 11
27.71999999999997
 21
-118.69
 31
0.0
  0
LINE
  5
184
100
AcDbEntity
  8
0
  6
CONTINUOUS
 62
               7
100
AcDbLine
 10
19.579999999999984
 20
-118.19
 30
0.0
 11
27.120000000000005
 21
-118.19
 31
0.0
  0
LINE
  5
185
100
AcDbEntity
  8
0
  6
CONTINUOUS
 62
               7
100
AcDbLine
 10
18.95999999999998
 20
-82.699999999999989
 30
0.0
 11
18.95999999999998
 21
-116.69
 31
0.0
  0
LINE
  5
186
100
AcDbEntity
  8
0
  6
CONTINUOUS
 62
               7
100
AcDbLine
 10
26.029999999999973
 20
-83.199999999999989
 30
0.0
 11
26.029999999999973
 21
-116.19
 31
0.0
  0
LINE
  5
187
100
AcDbEntity
  8
0
  6
CONTINUOUS
 62
               7
100
AcDbLine
 10
27.870000000000005
 20
-82.699999999999989
 30
0.0
 11
27.870000000000005
 21
-116.69
 31
0.0
  0
LINE
  5
188
100
AcDbEntity
  8
0
  6
CONTINUOUS
 62
               7
100
AcDbLine
 10
19.95999999999998
 20
-117.19
 30
0.0
 11
25.029999999999973
 21
-117.19
 31
0.0
  0
LINE
  5
189
100
AcDbEntity
  8
0
  6
CONTINUOUS
 62
               7
100
AcDbLine
 10
19.95999999999998
 20
-75.199999999999989
 30
0.0
 11
25.029999999999973
 21
-75.199999999999989
 31
0.0
  0
LINE
  5
18A
100
AcDbEntity
  8
0
  6
CONTINUOUS
 62
               7
100
AcDbLine
 10
19.95999999999998
 20
-82.199999999999989
 30
0.0
 11
25.029999999999973
 21
-82.199999999999989
 31
0.0
  0
LINE
  5
18B
100
AcDbEntity
  8
0
  6
CONTINUOUS
 62
               7
100
AcDbLine
 10
25.029999999999973
 20
-42.199999999999989
 30
0.0
 11
19.95999999999998
 21
-42.199999999999989
 31
0.0
  0
LINE
  5
18C
100
AcDbEntity
  8
0
  6
CONTINUOUS
 62
               7
100
AcDbLine
 10
26.870000000000005
 20
-41.699999999999989
 30
0.0
 11
19.95999999999998
 21
-41.699999999999989
 31
0.0
  0
LINE
  5
18D
100
AcDbEntity
  8
0
  6
CONTINUOUS
 62
               7
100
AcDbLine
 10
19.95999999999998
 20
-75.699999999999989
 30
0.0
 11
26.870000000000005
 21
-75.699999999999989
 31
0.0
  0
LINE
  5
18E
100
AcDbEntity
  8
0
  6
CONTINUOUS
 62
               7
100
AcDbLine
 10
19.95999999999998
 20
-81.699999999999989
 30
0.0
 11
26.870000000000005
 21
-81.699999999999989
 31
0.0
  0
LINE
  5
18F
100
AcDbEntity
  8
0
  6
CONTINUOUS
 62
               7
100
AcDbLine
 10
19.95999999999998
 20
-117.69
 30
0.0
 11
26.870000000000005
 21
-117.69
 31
0.0
  0
LINE
  5
190
100
AcDbEntity
  8
0
  6
CONTINUOUS
 62
               7
100
AcDbLine
 10
18.419999999999987
 20
-135.19
 30
0.0
 11
-18.410000000000025
 21
-135.19
 31
0.0
  0
LINE
  5
191
100
AcDbEntity
  8
0
  6
CONTINUOUS
 62
               7
100
AcDbLine
 10
-6.5
 20
-152.47999999999999
 30
0.0
 11
6.5
 21
-152.47999999999999
 31
0.0
  0
LINE
  5
192
100
AcDbEntity
  8
0
  6
CONTINUOUS
 62
               7
100
AcDbLine
 10
6.0
 20
-152.97999999999999
 30
0.0
 11
6.5
 21
-152.47999999999999
 31
0.0
  0
LINE
  5
193
100
AcDbEntity
  8
0
  6
CONTINUOUS
 62
               7
100
AcDbLine
 10
-6.5
 20
-152.47999999999999
 30
0.0
 11
-6.0
 21
-152.97999999999999
 31
0.0
  0
LINE
  5
194
100
AcDbEntity
  8
0
  6
CONTINUOUS
 62
               7
100
AcDbLine
 10
-6.5
 20
-152.47999999999999
 30
0.0
 11
-6.5
 21
-151.47999999999999
 31
0.0
  0
LINE
  5
195
100
AcDbEntity
  8
0
  6
CONTINUOUS
 62
               7
100
AcDbLine
 10
6.5
 20
-152.47999999999999
 30
0.0
 11
6.5
 21
-151.47999999999999
 31
0.0
  0
LINE
  5
196
100
AcDbEntity
  8
0
  6
CONTINUOUS
 62
               7
100
AcDbLine
 10
6.0
 20
-152.97999999999999
 30
0.0
 11
-6.0
 21
-152.97999999999999
 31
0.0
  0
LINE
  5
197
100
AcDbEntity
  8
0
  6
CONTINUOUS
 62
               7
100
AcDbLine
 10
7.75
 20
-138.47999999999999
 30
0.0
 11
-7.75
 21
-138.47999999999999
 31
0.0
  0
LINE
  5
198
100
AcDbEntity
  8
0
  6
CONTINUOUS
 62
               7
100
AcDbLine
 10
-6.2600000000000193
 20
-150.97999999999999
 30
0.0
 11
-7.0100000000000193
 21
-150.97999999999999
 31
0.0
  0
LINE
  5
199
100
AcDbEntity
  8
0
  6
CONTINUOUS
 62
               7
100
AcDbLine
 10
7.0199999999999818
 20
-150.97999999999999
 30
0.0
 11
6.2599999999999909
 21
-150.97999999999999
 31
0.0
  0
LINE
  5
19A
100
AcDbEntity
  8
0
  6
CONTINUOUS
 62
               7
100
AcDbLine
 10
-1.8400000000000034
 20
-150.97999999999999
 30
0.0
 11
-3.6500000000000057
 21
-150.97999999999999
 31
0.0
  0
LINE
  5
19B
100
AcDbEntity
  8
0
  6
CONTINUOUS
 62
               7
100
AcDbLine
 10
-6.4300000000000068
 20
-150.47999999999999
 30
0.0
 11
-6.2600000000000193
 21
-150.97999999999999
 31
0.0
  0
LINE
  5
19C
100
AcDbEntity
  8
0
  6
CONTINUOUS
 62
               7
100
AcDbLine
 10
6.4399999999999977
 20
-150.47999999999999
 30
0.0
 11
6.2599999999999909
 21
-150.97999999999999
 31
0.0
  0
LINE
  5
19D
100
AcDbEntity
  8
0
  6
CONTINUOUS
 62
               7
100
AcDbLine
 10
7.0199999999999818
 20
-141.26999999999998
 30
0.0
 11
7.6099999999999852
 21
-140.97999999999999
 31
0.0
  0
LINE
  5
19E
100
AcDbEntity
  8
0
  6
CONTINUOUS
 62
               7
100
AcDbLine
 10
3.6599999999999966
 20
-141.26999999999998
 30
0.0
 11
4.3199999999999932
 21
-140.97999999999999
 31
0.0
  0
LINE
  5
19F
100
AcDbEntity
  8
0
  6
CONTINUOUS
 62
               7
100
AcDbLine
 10
1.8499999999999943
 20
-141.26999999999998
 30
0.0
 11
1.5
 21
-140.97999999999999
 31
0.0
  0
LINE
  5
1A0
100
AcDbEntity
  8
0
  6
CONTINUOUS
 62
               7
100
AcDbLine
 10
-1.8400000000000034
 20
-141.26999999999998
 30
0.0
 11
-1.5
 21
-140.97999999999999
 31
0.0
  0
LINE
  5
1A1
100
AcDbEntity
  8
0
  6
CONTINUOUS
 62
               7
100
AcDbLine
 10
-3.6500000000000057
 20
-141.26999999999998
 30
0.0
 11
-4.3100000000000023
 21
-140.97999999999999
 31
0.0
  0
LINE
  5
1A2
100
AcDbEntity
  8
0
  6
CONTINUOUS
 62
               7
100
AcDbLine
 10
-7.0100000000000193
 20
-141.26999999999998
 30
0.0
 11
-7.6000000000000227
 21
-140.97999999999999
 31
0.0
  0
LINE
  5
1A3
100
AcDbEntity
  8
0
  6
CONTINUOUS
 62
               7
100
AcDbLine
 10
-7.0100000000000193
 20
-150.97999999999999
 30
0.0
 11
-7.6000000000000227
 21
-150.47999999999999
 31
0.0
  0
LINE
  5
1A4
100
AcDbEntity
  8
0
  6
CONTINUOUS
 62
               7
100
AcDbLine
 10
-3.6500000000000057
 20
-150.97999999999999
 30
0.0
 11
-4.3100000000000023
 21
-150.47999999999999
 31
0.0
  0
LINE
  5
1A5
100
AcDbEntity
  8
0
  6
CONTINUOUS
 62
               7
100
AcDbLine
 10
-1.5
 20
-150.47999999999999
 30
0.0
 11
-1.8400000000000034
 21
-150.97999999999999
 31
0.0
  0
LINE
  5
1A6
100
AcDbEntity
  8
0
  6
CONTINUOUS
 62
               7
100
AcDbLine
 10
1.8499999999999943
 20
-150.97999999999999
 30
0.0
 11
1.5
 21
-150.47999999999999
 31
0.0
  0
LINE
  5
1A7
100
AcDbEntity
  8
0
  6
CONTINUOUS
 62
               7
100
AcDbLine
 10
3.6599999999999966
 20
-150.97999999999999
 30
0.0
 11
4.3199999999999932
 21
-150.47999999999999
 31
0.0
  0
LINE
  5
1A8
100
AcDbEntity
  8
0
  6
CONTINUOUS
 62
               7
100
AcDbLine
 10
7.0199999999999818
 20
-150.97999999999999
 30
0.0
 11
7.6099999999999852
 21
-150.47999999999999
 31
0.0
  0
LINE
  5
1A9
100
AcDbEntity
  8
0
  6
CONTINUOUS
 62
               7
100
AcDbLine
 10
3.6599999999999966
 20
-150.97999999999999
 30
0.0
 11
1.8499999999999943
 21
-150.97999999999999
 31
0.0
  0
LINE
  5
1AA
100
AcDbEntity
  8
0
  6
CONTINUOUS
 62
               7
100
AcDbLine
 10
6.4399999999999977
 20
-150.47999999999999
 30
0.0
 11
4.3199999999999932
 21
-150.47999999999999
 31
0.0
  0
LINE
  5
1AB
100
AcDbEntity
  8
0
  6
CONTINUOUS
 62
               7
100
AcDbLine
 10
-7.6000000000000227
 20
-150.47999999999999
 30
0.0
 11
-7.75
 21
-150.47999999999999
 31
0.0
  0
LINE
  5
1AC
100
AcDbEntity
  8
0
  6
CONTINUOUS
 62
               7
100
AcDbLine
 10
-4.3100000000000023
 20
-150.47999999999999
 30
0.0
 11
-6.4300000000000068
 21
-150.47999999999999
 31
0.0
  0
LINE
  5
1AD
100
AcDbEntity
  8
0
  6
CONTINUOUS
 62
               7
100
AcDbLine
 10
1.5
 20
-150.47999999999999
 30
0.0
 11
-1.5
 21
-150.47999999999999
 31
0.0
  0
LINE
  5
1AE
100
AcDbEntity
  8
0
  6
CONTINUOUS
 62
               7
100
AcDbLine
 10
-6.4300000000000068
 20
-141.26999999999998
 30
0.0
 11
-7.0100000000000193
 21
-141.26999999999998
 31
0.0
  0
LINE
  5
1AF
100
AcDbEntity
  8
0
  6
CONTINUOUS
 62
               7
100
AcDbLine
 10
-6.4300000000000068
 20
-140.97999999999999
 30
0.0
 11
-7.6000000000000227
 21
-140.97999999999999
 31
0.0
  0
LINE
  5
1B0
100
AcDbEntity
  8
0
  6
CONTINUOUS
 62
               7
100
AcDbLine
 10
3.6599999999999966
 20
-141.26999999999998
 30
0.0
 11
1.8499999999999943
 21
-141.26999999999998
 31
0.0
  0
LINE
  5
1B1
100
AcDbEntity
  8
0
  6
CONTINUOUS
 62
               7
100
AcDbLine
 10
4.3199999999999932
 20
-140.97999999999999
 30
0.0
 11
1.5
 21
-140.97999999999999
 31
0.0
  0
LINE
  5
1B2
100
AcDbEntity
  8
0
  6
CONTINUOUS
 62
               7
100
AcDbLine
 10
-1.8400000000000034
 20
-141.26999999999998
 30
0.0
 11
-3.6500000000000057
 21
-141.26999999999998
 31
0.0
  0
LINE
  5
1B3
100
AcDbEntity
  8
0
  6
CONTINUOUS
 62
               7
100
AcDbLine
 10
-1.5
 20
-140.97999999999999
 30
0.0
 11
-4.3100000000000023
 21
-140.97999999999999
 31
0.0
  0
LINE
  5
1B4
100
AcDbEntity
  8
0
  6
CONTINUOUS
 62
               7
100
AcDbLine
 10
7.75
 20
-150.47999999999999
 30
0.0
 11
7.6099999999999852
 21
-150.47999999999999
 31
0.0
  0
LINE
  5
1B5
100
AcDbEntity
  8
0
  6
CONTINUOUS
 62
               7
100
AcDbLine
 10
7.0199999999999818
 20
-141.26999999999998
 30
0.0
 11
6.4399999999999977
 21
-141.26999999999998
 31
0.0
  0
LINE
  5
1B6
100
AcDbEntity
  8
0
  6
CONTINUOUS
 62
               7
100
AcDbLine
 10
7.6099999999999852
 20
-140.97999999999999
 30
0.0
 11
6.4399999999999977
 21
-140.97999999999999
 31
0.0
  0
LINE
  5
1B7
100
AcDbEntity
  8
0
  6
CONTINUOUS
 62
               7
100
AcDbLine
 10
7.6099999999999852
 20
-140.97999999999999
 30
0.0
 11
7.6099999999999852
 21
-150.47999999999999
 31
0.0
  0
LINE
  5
1B8
100
AcDbEntity
  8
0
  6
CONTINUOUS
 62
               7
100
AcDbLine
 10
7.0199999999999818
 20
-141.26999999999998
 30
0.0
 11
7.0199999999999818
 21
-150.97999999999999
 31
0.0
  0
LINE
  5
1B9
100
AcDbEntity
  8
0
  6
CONTINUOUS
 62
               7
100
AcDbLine
 10
6.4399999999999977
 20
-140.97999999999999
 30
0.0
 11
6.4399999999999977
 21
-150.47999999999999
 31
0.0
  0
LINE
  5
1BA
100
AcDbEntity
  8
0
  6
CONTINUOUS
 62
               7
100
AcDbLine
 10
4.3199999999999932
 20
-140.97999999999999
 30
0.0
 11
4.3199999999999932
 21
-150.47999999999999
 31
0.0
  0
LINE
  5
1BB
100
AcDbEntity
  8
0
  6
CONTINUOUS
 62
               7
100
AcDbLine
 10
3.6599999999999966
 20
-141.26999999999998
 30
0.0
 11
3.6599999999999966
 21
-150.97999999999999
 31
0.0
  0
LINE
  5
1BC
100
AcDbEntity
  8
0
  6
CONTINUOUS
 62
               7
100
AcDbLine
 10
-7.6000000000000227
 20
-140.97999999999999
 30
0.0
 11
-7.6000000000000227
 21
-150.47999999999999
 31
0.0
  0
LINE
  5
1BD
100
AcDbEntity
  8
0
  6
CONTINUOUS
 62
               7
100
AcDbLine
 10
-7.0100000000000193
 20
-141.26999999999998
 30
0.0
 11
-7.0100000000000193
 21
-150.97999999999999
 31
0.0
  0
LINE
  5
1BE
100
AcDbEntity
  8
0
  6
CONTINUOUS
 62
               7
100
AcDbLine
 10
-6.4300000000000068
 20
-140.97999999999999
 30
0.0
 11
-6.4300000000000068
 21
-150.47999999999999
 31
0.0
  0
LINE
  5
1BF
100
AcDbEntity
  8
0
  6
CONTINUOUS
 62
               7
100
AcDbLine
 10
-4.3100000000000023
 20
-140.97999999999999
 30
0.0
 11
-4.3100000000000023
 21
-150.47999999999999
 31
0.0
  0
LINE
  5
1C0
100
AcDbEntity
  8
0
  6
CONTINUOUS
 62
               7
100
AcDbLine
 10
-3.6500000000000057
 20
-141.26999999999998
 30
0.0
 11
-3.6500000000000057
 21
-150.97999999999999
 31
0.0
  0
LINE
  5
1C1
100
AcDbEntity
  8
0
  6
CONTINUOUS
 62
               7
100
AcDbLine
 10
-1.8400000000000034
 20
-141.26999999999998
 30
0.0
 11
-1.8400000000000034
 21
-150.97999999999999
 31
0.0
  0
LINE
  5
1C2
100
AcDbEntity
  8
0
  6
CONTINUOUS
 62
               7
100
AcDbLine
 10
1.8499999999999943
 20
-141.26999999999998
 30
0.0
 11
1.8499999999999943
 21
-150.97999999999999
 31
0.0
  0
LINE
  5
1C3
100
AcDbEntity
  8
0
  6
CONTINUOUS
 62
               7
100
AcDbLine
 10
1.5
 20
-140.97999999999999
 30
0.0
 11
1.5
 21
-150.47999999999999
 31
0.0
  0
LINE
  5
1C4
100
AcDbEntity
  8
0
  6
CONTINUOUS
 62
               7
100
AcDbLine
 10
-1.5
 20
-140.97999999999999
 30
0.0
 11
-1.5
 21
-150.47999999999999
 31
0.0
  0
LINE
  5
1C5
100
AcDbEntity
  8
0
  6
CONTINUOUS
 62
               2
100
AcDbLine
 10
5.25
 20
-136.69
 30
0.0
 11
5.25
 21
-137.97999999999999
 31
0.0
  0
LINE
  5
1C6
100
AcDbEntity
  8
0
  6
CONTINUOUS
 62
               2
100
AcDbLine
 10
-5.25
 20
-136.69
 30
0.0
 11
-5.25
 21
-137.97999999999999
 31
0.0
  0
LINE
  5
1C7
100
AcDbEntity
  8
0
  6
CONTINUOUS
 62
               7
100
AcDbLine
 10
-6.0
 20
-136.69
 30
0.0
 11
-6.0
 21
-137.97999999999999
 31
0.0
  0
LINE
  5
1C8
100
AcDbEntity
  8
0
  6
CONTINUOUS
 62
               7
100
AcDbLine
 10
6.0
 20
-136.69
 30
0.0
 11
6.0
 21
-137.97999999999999
 31
0.0
  0
LINE
  5
1C9
100
AcDbEntity
  8
0
  6
CONTINUOUS
 62
               7
100
AcDbLine
 10
-7.25
 20
-137.97999999999999
 30
0.0
 11
-7.75
 21
-138.47999999999999
 31
0.0
  0
LINE
  5
1CA
100
AcDbEntity
  8
0
  6
CONTINUOUS
 62
               7
100
AcDbLine
 10
7.25
 20
-137.97999999999999
 30
0.0
 11
7.75
 21
-138.47999999999999
 31
0.0
  0
LINE
  5
1CB
100
AcDbEntity
  8
0
  6
CONTINUOUS
 62
               7
100
AcDbLine
 10
7.25
 20
-137.97999999999999
 30
0.0
 11
-7.25
 21
-137.97999999999999
 31
0.0
  0
LINE
  5
1CC
100
AcDbEntity
  8
0
  6
CONTINUOUS
 62
               7
100
AcDbLine
 10
-6.75
 20
-151.47999999999999
 30
0.0
 11
-7.75
 21
-150.47999999999999
 31
0.0
  0
LINE
  5
1CD
100
AcDbEntity
  8
0
  6
CONTINUOUS
 62
               7
100
AcDbLine
 10
7.75
 20
-150.47999999999999
 30
0.0
 11
6.75
 21
-151.47999999999999
 31
0.0
  0
LINE
  5
1CE
100
AcDbEntity
  8
0
  6
CONTINUOUS
 62
               7
100
AcDbLine
 10
-7.75
 20
-138.47999999999999
 30
0.0
 11
-7.75
 21
-150.47999999999999
 31
0.0
  0
LINE
  5
1CF
100
AcDbEntity
  8
0
  6
CONTINUOUS
 62
               7
100
AcDbLine
 10
7.75
 20
-138.47999999999999
 30
0.0
 11
7.75
 21
-150.47999999999999
 31
0.0
  0
LINE
  5
1D0
100
AcDbEntity
  8
0
  6
CONTINUOUS
 62
               7
100
AcDbLine
 10
6.75
 20
-151.47999999999999
 30
0.0
 11
-6.75
 21
-151.47999999999999
 31
0.0
  0
LINE
  5
1D1
100
AcDbEntity
  8
0
  6
CONTINUOUS
 62
               7
100
AcDbLine
 10
-7.5700000000000216
 20
-136.69
 30
0.0
 11
-8.0700000000000216
 21
-136.19
 31
0.0
  0
LINE
  5
1D2
100
AcDbEntity
  8
0
  6
CONTINUOUS
 62
               7
100
AcDbLine
 10
7.5799999999999841
 20
-136.69
 30
0.0
 11
8.0799999999999841
 21
-136.19
 31
0.0
  0
LINE
  5
1D3
100
AcDbEntity
  8
0
  6
CONTINUOUS
 62
               7
100
AcDbLine
 10
8.0799999999999841
 20
-136.19
 30
0.0
 11
8.0799999999999841
 21
-135.19
 31
0.0
  0
LINE
  5
1D4
100
AcDbEntity
  8
0
  6
CONTINUOUS
 62
               7
100
AcDbLine
 10
-8.0700000000000216
 20
-136.19
 30
0.0
 11
-8.0700000000000216
 21
-135.19
 31
0.0
  0
LINE
  5
1D5
100
AcDbEntity
  8
0
  6
CONTINUOUS
 62
               7
100
AcDbLine
 10
-7.5700000000000216
 20
-136.69
 30
0.0
 11
7.5799999999999841
 21
-136.69
 31
0.0
  0
LINE
  5
1D6
100
AcDbEntity
  8
0
  6
CENTER
 62
               2
100
AcDbLine
 10
0.0
 20
18.829999999999998
 30
0.0
 11
0.0
 21
-155.61000000000001
 31
0.0
  0
ENDBLK
  5
1D7
100
AcDbEntity
  8
0
100
AcDbBlockEnd
  0
BLOCK
  5
1D8
100
AcDbEntity
  8
0
100
AcDbBlockBegin
  2
MS_3
 70
               0
 10
0.0
 20
0.0
 30
0.0
  3
MS_3
  1

  0
ARC
  5
1D9
100
AcDbEntity
  8
0
  6
CONTINUOUS
 62
               7
100
AcDbCircle
 10
39.994999999999997
 20
0.0000003058950853
 30
0.0
 40
28.500755029223413
100
AcDbArc
 50
224.56643439925858
 51
315.43356560074022
  0
ARC
  5
1DA
100
AcDbEntity
  8
0
  6
CONTINUOUS
 62
               7
100
AcDbCircle
 10
39.994999999999997
 20
0.0000003215761808
 30
0.0
 40
27.797176796628953
100
AcDbArc
 50
226.01301197094233
 51
313.98698802905648
  0
ARC
  5
1DB
100
AcDbEntity
  8
0
  6
CONTINUOUS
 62
               7
100
AcDbCircle
 10
39.994999999999997
 20
-0.0000003058950853
 30
0.0
 40
28.500755029223413
100
AcDbArc
 50
44.566434399258995
 51
135.43356560074059
  0
ARC
  5
1DC
100
AcDbEntity
  8
0
  6
CONTINUOUS
 62
               7
100
AcDbCircle
 10
39.994999999999997
 20
-0.0000003215761808
 30
0.0
 40
27.797176796628953
100
AcDbArc
 50
46.013011970942742
 51
133.98698802905685
  0
ARC
  5
1DD
100
AcDbEntity
  8
0
  6
CONTINUOUS
 62
               7
100
AcDbCircle
 10
39.995000000000005
 20
0.0000001592364782
 30
0.0
 40
39.502205398806012
100
AcDbArc
 50
210.41774379783143
 51
329.58225620216734
  0
ARC
  5
1DE
100
AcDbEntity
  8
0
  6
CONTINUOUS
 62
               7
100
AcDbCircle
 10
39.994999999999997
 20
0.0000001676537522
 30
0.0
 40
38.497805544032644
100
AcDbArc
 50
211.29939807818928
 51
328.70060192180955
  0
ARC
  5
1DF
100
AcDbEntity
  8
0
  6
CONTINUOUS
 62
               7
100
AcDbCircle
 10
39.995000000000005
 20
-0.0000001592364782
 30
0.0
 40
39.502205398806012
100
AcDbArc
 50
30.417743797831836
 51
149.58225620216774
  0
ARC
  5
1E0
100
AcDbEntity
  8
0
  6
CONTINUOUS
 62
               7
100
AcDbCircle
 10
39.994999999999997
 20
-0.0000001676537522
 30
0.0
 40
38.497805544032644
100
AcDbArc
 50
31.299398078189693
 51
148.70060192180989
  0
LINE
  5
1E1
100
AcDbEntity
  8
0
  6
CONTINUOUS
 62
               7
100
AcDbLine
 10
0.0
 20
19.0
 30
0.0
 11
0.0
 21
-19.0
 31
0.0
  0
LINE
  5
1E2
100
AcDbEntity
  8
0
  6
CONTINUOUS
 62
               7
100
AcDbLine
 10
1.0
 20
20.0
 30
0.0
 11
1.0
 21
-20.0
 31
0.0
  0
LINE
  5
1E3
100
AcDbEntity
  8
0
  6
CENTER
 62
               2
100
AcDbLine
 10
40.0
 20
46.310000000000002
 30
0.0
 11
40.0
 21
-44.460000000000008
 31
0.0
  0
LINE
  5
1E4
100
AcDbEntity
  8
0
  6
CONTINUOUS
 62
               7
100
AcDbLine
 10
1.0
 20
20.0
 30
0.0
 11
79.0
 21
20.0
 31
0.0
  0
LINE
  5
1E5
100
AcDbEntity
  8
0
  6
CONTINUOUS
 62
               7
100
AcDbLine
 10
1.0
 20
-20.0
 30
0.0
 11
79.0
 21
-20.0
 31
0.0
  0
LINE
  5
1E6
100
AcDbEntity
  8
0
  6
CONTINUOUS
 62
               7
100
AcDbLine
 10
0.0
 20
19.0
 30
0.0
 11
80.0
 21
19.0
 31
0.0
  0
LINE
  5
1E7
100
AcDbEntity
  8
0
  6
CONTINUOUS
 62
               7
100
AcDbLine
 10
0.0
 20
-19.0
 30
0.0
 11
80.0
 21
-19.0
 31
0.0
  0
LINE
  5
1E8
100
AcDbEntity
  8
0
  6
CONTINUOUS
 62
               7
100
AcDbLine
 10
80.0
 20
-19.0
 30
0.0
 11
79.0
 21
-20.0
 31
0.0
  0
LINE
  5
1E9
100
AcDbEntity
  8
0
  6
CONTINUOUS
 62
               7
100
AcDbLine
 10
79.0
 20
20.0
 30
0.0
 11
80.0
 21
19.0
 31
0.0
  0
LINE
  5
1EA
100
AcDbEntity
  8
0
  6
CONTINUOUS
 62
               7
100
AcDbLine
 10
1.0
 20
20.0
 30
0.0
 11
0.0
 21
19.0
 31
0.0
  0
LINE
  5
1EB
100
AcDbEntity
  8
0
  6
CONTINUOUS
 62
               7
100
AcDbLine
 10
0.0
 20
-19.0
 30
0.0
 11
1.0
 21
-20.0
 31
0.0
  0
LINE
  5
1EC
100
AcDbEntity
  8
0
  6
CONTINUOUS
 62
               7
100
AcDbLine
 10
79.0
 20
20.0
 30
0.0
 11
79.0
 21
-20.0
 31
0.0
  0
LINE
  5
1ED
100
AcDbEntity
  8
0
  6
CONTINUOUS
 62
               7
100
AcDbLine
 10
80.0
 20
19.0
 30
0.0
 11
80.0
 21
-19.0
 31
0.0
  0
LINE
  5
1EE
100
AcDbEntity
  8
0
  6
CENTER
 62
               2
100
AcDbLine
 10
-9.3199999999999932
 20
0.0
 30
0.0
 11
89.819999999999993
 21
0.0
 31
0.0
  0
ENDBLK
  5
1EF
100
AcDbEntity
  8
0
100
AcDbBlockEnd
  0
BLOCK
  5
1F0
100
AcDbEntity
  8
0
100
AcDbBlockBegin
  2
MS_4
 70
               0
 10
0.0
 20
0.0
 30
0.0
  3
MS_4
  1

  0
LINE
  5
1F1
100
AcDbEntity
  8
0
  6
CENTER
 62
             200
100
AcDbLine
 10
0.0
 20
0.0
 30
0.0
 11
0.0
 21
-27.969999999999999
 31
0.0
  0
LINE
  5
1F2
100
AcDbEntity
  8
0
  6
CONTINUOUS
 62
               4
100
AcDbLine
 10
-3.2537792968749955
 20
-22.900000000000006
 30
0.0
 11
-2.8237792968749886
 21
-25.300000000000011
 31
0.0
  0
LINE
  5
1F3
100
AcDbEntity
  8
0
  6
CONTINUOUS
 62
               4
100
AcDbLine
 10
-3.2537792968749955
 20
-20.300000000000011
 30
0.0
 11
-2.8237792968749886
 21
-22.699999999999989
 31
0.0
  0
LINE
  5
1F4
100
AcDbEntity
  8
0
  6
CONTINUOUS
 62
               4
100
AcDbLine
 10
3.2462207031250045
 20
-22.900000000000006
 30
0.0
 11
2.8162207031249977
 21
-25.300000000000011
 31
0.0
  0
LINE
  5
1F5
100
AcDbEntity
  8
0
  6
CONTINUOUS
 62
               4
100
AcDbLine
 10
3.2462207031250045
 20
-20.300000000000011
 30
0.0
 11
2.8162207031249977
 21
-22.699999999999989
 31
0.0
  0
LINE
  5
1F6
100
AcDbEntity
  8
0
  6
CONTINUOUS
 62
               4
100
AcDbLine
 10
3.2462207031250045
 20
-22.699999999999989
 30
0.0
 11
3.2462207031250045
 21
-22.900000000000006
 31
0.0
  0
LINE
  5
1F7
100
AcDbEntity
  8
0
  6
CONTINUOUS
 62
               4
100
AcDbLine
 10
-3.2537792968749955
 20
-22.699999999999989
 30
0.0
 11
-3.2537792968749955
 21
-22.900000000000006
 31
0.0
  0
LINE
  5
1F8
100
AcDbEntity
  8
0
  6
CONTINUOUS
 62
               4
100
AcDbLine
 10
3.2462207031250045
 20
-20.099999999999994
 30
0.0
 11
3.2462207031250045
 21
-20.300000000000011
 31
0.0
  0
LINE
  5
1F9
100
AcDbEntity
  8
0
  6
CONTINUOUS
 62
               4
100
AcDbLine
 10
-3.2537792968749955
 20
-20.099999999999994
 30
0.0
 11
-3.2537792968749955
 21
-20.300000000000011
 31
0.0
  0
LINE
  5
1FA
100
AcDbEntity
  8
0
  6
CONTINUOUS
 62
               4
100
AcDbLine
 10
-3.2537792968749955
 20
-22.900000000000006
 30
0.0
 11
3.2462207031250045
 21
-22.900000000000006
 31
0.0
  0
LINE
  5
1FB
100
AcDbEntity
  8
0
  6
CONTINUOUS
 62
               4
100
AcDbLine
 10
-3.2537792968749955
 20
-20.300000000000011
 30
0.0
 11
3.2462207031250045
 21
-20.300000000000011
 31
0.0
  0
LINE
  5
1FC
100
AcDbEntity
  8
0
  6
CONTINUOUS
 62
               4
100
AcDbLine
 10
7.5962207031249989
 20
-15.699999999999989
 30
0.0
 11
7.0062207031249955
 21
-16.199999999999989
 31
0.0
  0
LINE
  5
1FD
100
AcDbEntity
  8
0
  6
CONTINUOUS
 62
               4
100
AcDbLine
 10
-7.6037792968749898
 20
-15.699999999999989
 30
0.0
 11
-7.0137792968749864
 21
-16.199999999999989
 31
0.0
  0
LINE
  5
1FE
100
AcDbEntity
  8
0
  6
CONTINUOUS
 62
               4
100
AcDbLine
 10
6.4262207031250114
 20
-6.2599999999999909
 30
0.0
 11
7.0062207031249955
 21
-6.4799999999999898
 31
0.0
  0
LINE
  5
1FF
100
AcDbEntity
  8
0
  6
CONTINUOUS
 62
               4
100
AcDbLine
 10
-7.0137792968749864
 20
-6.4799999999999898
 30
0.0
 11
-6.4337792968750023
 21
-6.2599999999999909
 31
0.0
  0
LINE
  5
200
100
AcDbEntity
  8
0
  6
CONTINUOUS
 62
               4
100
AcDbLine
 10
-4.3137792968749977
 20
-15.699999999999989
 30
0.0
 11
-3.6537792968750011
 21
-16.199999999999989
 31
0.0
  0
LINE
  5
201
100
AcDbEntity
  8
0
  6
CONTINUOUS
 62
               4
100
AcDbLine
 10
4.3062207031250068
 20
-15.699999999999989
 30
0.0
 11
3.6462207031250102
 21
-16.199999999999989
 31
0.0
  0
LINE
  5
202
100
AcDbEntity
  8
0
  6
CONTINUOUS
 62
               4
100
AcDbLine
 10
3.6462207031250102
 20
-6.4799999999999898
 30
0.0
 11
4.3062207031250068
 21
-6.1999999999999886
 31
0.0
  0
LINE
  5
203
100
AcDbEntity
  8
0
  6
CONTINUOUS
 62
               4
100
AcDbLine
 10
-4.3137792968749977
 20
-6.1999999999999886
 30
0.0
 11
-3.6537792968750011
 21
-6.4799999999999898
 31
0.0
  0
LINE
  5
204
100
AcDbEntity
  8
0
  6
CONTINUOUS
 62
               4
100
AcDbLine
 10
-1.5037792968749955
 20
-15.699999999999989
 30
0.0
 11
-1.8437792968749989
 21
-16.199999999999989
 31
0.0
  0
LINE
  5
205
100
AcDbEntity
  8
0
  6
CONTINUOUS
 62
               4
100
AcDbLine
 10
1.4962207031250045
 20
-15.699999999999989
 30
0.0
 11
1.836220703125008
 21
-16.199999999999989
 31
0.0
  0
LINE
  5
206
100
AcDbEntity
  8
0
  6
CONTINUOUS
 62
               4
100
AcDbLine
 10
1.4962207031250045
 20
-6.1999999999999886
 30
0.0
 11
1.836220703125008
 21
-6.4799999999999898
 31
0.0
  0
LINE
  5
207
100
AcDbEntity
  8
0
  6
CONTINUOUS
 62
               4
100
AcDbLine
 10
-1.8437792968749989
 20
-6.4799999999999898
 30
0.0
 11
-1.5037792968749955
 21
-6.1999999999999886
 31
0.0
  0
LINE
  5
208
100
AcDbEntity
  8
0
  6
CONTINUOUS
 62
               4
100
AcDbLine
 10
7.5962207031249989
 20
-6.1999999999999886
 30
0.0
 11
7.5962207031249989
 21
-15.699999999999989
 31
0.0
  0
LINE
  5
209
100
AcDbEntity
  8
0
  6
CONTINUOUS
 62
               4
100
AcDbLine
 10
-7.6037792968749898
 20
-6.1999999999999886
 30
0.0
 11
-7.6037792968749898
 21
-15.699999999999989
 31
0.0
  0
LINE
  5
20A
100
AcDbEntity
  8
0
  6
CONTINUOUS
 62
               4
100
AcDbLine
 10
7.0062207031249955
 20
-6.4799999999999898
 30
0.0
 11
7.0062207031249955
 21
-16.199999999999989
 31
0.0
  0
LINE
  5
20B
100
AcDbEntity
  8
0
  6
CONTINUOUS
 62
               4
100
AcDbLine
 10
-7.0137792968749864
 20
-6.4799999999999898
 30
0.0
 11
-7.0137792968749864
 21
-16.199999999999989
 31
0.0
  0
LINE
  5
20C
100
AcDbEntity
  8
0
  6
CONTINUOUS
 62
               4
100
AcDbLine
 10
6.4262207031250114
 20
-6.1999999999999886
 30
0.0
 11
6.4262207031250114
 21
-16.199999999999989
 31
0.0
  0
LINE
  5
20D
100
AcDbEntity
  8
0
  6
CONTINUOUS
 62
               4
100
AcDbLine
 10
-6.4337792968750023
 20
-6.1999999999999886
 30
0.0
 11
-6.4337792968750023
 21
-16.199999999999989
 31
0.0
  0
LINE
  5
20E
100
AcDbEntity
  8
0
  6
CONTINUOUS
 62
               4
100
AcDbLine
 10
7.0062207031249955
 20
-16.199999999999989
 30
0.0
 11
7.2462207031250045
 21
-16.199999999999989
 31
0.0
  0
LINE
  5
20F
100
AcDbEntity
  8
0
  6
CONTINUOUS
 62
               4
100
AcDbLine
 10
7.5962207031249989
 20
-15.699999999999989
 30
0.0
 11
7.7462207031250045
 21
-15.699999999999989
 31
0.0
  0
LINE
  5
210
100
AcDbEntity
  8
0
  6
CONTINUOUS
 62
               4
100
AcDbLine
 10
-6.4337792968750023
 20
-16.199999999999989
 30
0.0
 11
-3.6537792968750011
 21
-16.199999999999989
 31
0.0
  0
LINE
  5
211
100
AcDbEntity
  8
0
  6
CONTINUOUS
 62
               4
100
AcDbLine
 10
-6.4337792968750023
 20
-15.699999999999989
 30
0.0
 11
-4.3137792968749977
 21
-15.699999999999989
 31
0.0
  0
LINE
  5
212
100
AcDbEntity
  8
0
  6
CONTINUOUS
 62
               4
100
AcDbLine
 10
-3.6537792968750011
 20
-6.4799999999999898
 30
0.0
 11
-1.8437792968749989
 21
-6.4799999999999898
 31
0.0
  0
LINE
  5
213
100
AcDbEntity
  8
0
  6
CONTINUOUS
 62
               4
100
AcDbLine
 10
-4.3137792968749977
 20
-6.1999999999999886
 30
0.0
 11
-1.5037792968749955
 21
-6.1999999999999886
 31
0.0
  0
LINE
  5
214
100
AcDbEntity
  8
0
  6
CONTINUOUS
 62
               4
100
AcDbLine
 10
7.0062207031249955
 20
-6.4799999999999898
 30
0.0
 11
7.5962207031249989
 21
-6.4799999999999898
 31
0.0
  0
LINE
  5
215
100
AcDbEntity
  8
0
  6
CONTINUOUS
 62
               4
100
AcDbLine
 10
6.4262207031250114
 20
-6.1999999999999886
 30
0.0
 11
7.5962207031249989
 21
-6.1999999999999886
 31
0.0
  0
LINE
  5
216
100
AcDbEntity
  8
0
  6
CONTINUOUS
 62
               4
100
AcDbLine
 10
4.3062207031250068
 20
-6.1999999999999886
 30
0.0
 11
4.3062207031250068
 21
-15.699999999999989
 31
0.0
  0
LINE
  5
217
100
AcDbEntity
  8
0
  6
CONTINUOUS
 62
               4
100
AcDbLine
 10
-4.3137792968749977
 20
-6.1999999999999886
 30
0.0
 11
-4.3137792968749977
 21
-15.699999999999989
 31
0.0
  0
LINE
  5
218
100
AcDbEntity
  8
0
  6
CONTINUOUS
 62
               4
100
AcDbLine
 10
-3.6537792968750011
 20
-6.4799999999999898
 30
0.0
 11
-3.6537792968750011
 21
-16.199999999999989
 31
0.0
  0
LINE
  5
219
100
AcDbEntity
  8
0
  6
CONTINUOUS
 62
               4
100
AcDbLine
 10
3.6462207031250102
 20
-6.4799999999999898
 30
0.0
 11
3.6462207031250102
 21
-16.199999999999989
 31
0.0
  0
LINE
  5
21A
100
AcDbEntity
  8
0
  6
CONTINUOUS
 62
               4
100
AcDbLine
 10
3.6462207031250102
 20
-16.199999999999989
 30
0.0
 11
6.4262207031250114
 21
-16.199999999999989
 31
0.0
  0
LINE
  5
21B
100
AcDbEntity
  8
0
  6
CONTINUOUS
 62
               4
100
AcDbLine
 10
-1.8437792968749989
 20
-16.199999999999989
 30
0.0
 11
1.836220703125008
 21
-16.199999999999989
 31
0.0
  0
LINE
  5
21C
100
AcDbEntity
  8
0
  6
CONTINUOUS
 62
               4
100
AcDbLine
 10
-1.8437792968749989
 20
-6.4799999999999898
 30
0.0
 11
-1.8437792968749989
 21
-16.199999999999989
 31
0.0
  0
LINE
  5
21D
100
AcDbEntity
  8
0
  6
CONTINUOUS
 62
               4
100
AcDbLine
 10
1.836220703125008
 20
-6.4799999999999898
 30
0.0
 11
1.836220703125008
 21
-16.199999999999989
 31
0.0
  0
LINE
  5
21E
100
AcDbEntity
  8
0
  6
CONTINUOUS
 62
               4
100
AcDbLine
 10
-7.2537792968749955
 20
-16.199999999999989
 30
0.0
 11
-7.0137792968749864
 21
-16.199999999999989
 31
0.0
  0
LINE
  5
21F
100
AcDbEntity
  8
0
  6
CONTINUOUS
 62
               4
100
AcDbLine
 10
4.3062207031250068
 20
-15.699999999999989
 30
0.0
 11
6.4262207031250114
 21
-15.699999999999989
 31
0.0
  0
LINE
  5
220
100
AcDbEntity
  8
0
  6
CONTINUOUS
 62
               4
100
AcDbLine
 10
-1.5037792968749955
 20
-15.699999999999989
 30
0.0
 11
1.4962207031250045
 21
-15.699999999999989
 31
0.0
  0
LINE
  5
221
100
AcDbEntity
  8
0
  6
CONTINUOUS
 62
               4
100
AcDbLine
 10
1.836220703125008
 20
-6.4799999999999898
 30
0.0
 11
3.6462207031250102
 21
-6.4799999999999898
 31
0.0
  0
LINE
  5
222
100
AcDbEntity
  8
0
  6
CONTINUOUS
 62
               4
100
AcDbLine
 10
1.4962207031250045
 20
-6.1999999999999886
 30
0.0
 11
4.3062207031250068
 21
-6.1999999999999886
 31
0.0
  0
LINE
  5
223
100
AcDbEntity
  8
0
  6
CONTINUOUS
 62
               4
100
AcDbLine
 10
1.4962207031250045
 20
-6.1999999999999886
 30
0.0
 11
1.4962207031250045
 21
-15.699999999999989
 31
0.0
  0
LINE
  5
224
100
AcDbEntity
  8
0
  6
CONTINUOUS
 62
               4
100
AcDbLine
 10
-1.5037792968749955
 20
-6.1999999999999886
 30
0.0
 11
-1.5037792968749955
 21
-15.699999999999989
 31
0.0
  0
LINE
  5
225
100
AcDbEntity
  8
0
  6
CONTINUOUS
 62
               4
100
AcDbLine
 10
-7.7537792968749955
 20
-15.699999999999989
 30
0.0
 11
-7.6037792968749898
 21
-15.699999999999989
 31
0.0
  0
LINE
  5
226
100
AcDbEntity
  8
0
  6
CONTINUOUS
 62
               4
100
AcDbLine
 10
-7.6037792968749898
 20
-6.4799999999999898
 30
0.0
 11
-7.0137792968749864
 21
-6.4799999999999898
 31
0.0
  0
LINE
  5
227
100
AcDbEntity
  8
0
  6
CONTINUOUS
 62
               4
100
AcDbLine
 10
-2.8537792968749898
 20
-18.199999999999989
 30
0.0
 11
-2.8537792968749898
 21
-20.099999999999994
 31
0.0
  0
LINE
  5
228
100
AcDbEntity
  8
0
  6
CONTINUOUS
 62
               4
100
AcDbLine
 10
2.8462207031249989
 20
-18.199999999999989
 30
0.0
 11
2.8462207031249989
 21
-20.099999999999994
 31
0.0
  0
LINE
  5
229
100
AcDbEntity
  8
0
  6
CONTINUOUS
 62
               4
100
AcDbLine
 10
-3.2537792968749955
 20
-20.099999999999994
 30
0.0
 11
3.2462207031250045
 21
-20.099999999999994
 31
0.0
  0
LINE
  5
22A
100
AcDbEntity
  8
0
  6
CONTINUOUS
 62
               4
100
AcDbLine
 10
-3.2537792968749955
 20
-22.699999999999989
 30
0.0
 11
3.2462207031250045
 21
-22.699999999999989
 31
0.0
  0
LINE
  5
22B
100
AcDbEntity
  8
0
  6
CONTINUOUS
 62
               4
100
AcDbLine
 10
-2.8237792968749886
 20
-25.300000000000011
 30
0.0
 11
2.8162207031249977
 21
-25.300000000000011
 31
0.0
  0
LINE
  5
22C
100
AcDbEntity
  8
0
  6
CONTINUOUS
 62
               4
100
AcDbLine
 10
-6.5037792968749955
 20
-17.699999999999989
 30
0.0
 11
6.4962207031250045
 21
-17.699999999999989
 31
0.0
  0
LINE
  5
22D
100
AcDbEntity
  8
0
  6
CONTINUOUS
 62
               4
100
AcDbLine
 10
6.4962207031250045
 20
-17.699999999999989
 30
0.0
 11
5.9962207031250045
 21
-18.199999999999989
 31
0.0
  0
LINE
  5
22E
100
AcDbEntity
  8
0
  6
CONTINUOUS
 62
               4
100
AcDbLine
 10
-6.5037792968749955
 20
-17.699999999999989
 30
0.0
 11
-6.0037792968749955
 21
-18.199999999999989
 31
0.0
  0
LINE
  5
22F
100
AcDbEntity
  8
0
  6
CONTINUOUS
 62
               4
100
AcDbLine
 10
6.4962207031250045
 20
-16.699999999999989
 30
0.0
 11
6.4962207031250045
 21
-17.699999999999989
 31
0.0
  0
LINE
  5
230
100
AcDbEntity
  8
0
  6
CONTINUOUS
 62
               4
100
AcDbLine
 10
-6.5037792968749955
 20
-16.699999999999989
 30
0.0
 11
-6.5037792968749955
 21
-17.699999999999989
 31
0.0
  0
LINE
  5
231
100
AcDbEntity
  8
0
  6
CONTINUOUS
 62
               4
100
AcDbLine
 10
-6.0037792968749955
 20
-18.199999999999989
 30
0.0
 11
5.9962207031250045
 21
-18.199999999999989
 31
0.0
  0
LINE
  5
232
100
AcDbEntity
  8
0
  6
CONTINUOUS
 62
               4
100
AcDbLine
 10
-7.7537792968749955
 20
-3.6999999999999886
 30
0.0
 11
7.7462207031250045
 21
-3.6999999999999886
 31
0.0
  0
LINE
  5
233
100
AcDbEntity
  8
0
  6
CONTINUOUS
 62
               4
100
AcDbLine
 10
-8.0737792968749886
 20
-1.5
 30
0.0
 11
8.0662207031249977
 21
-1.5
 31
0.0
  0
LINE
  5
234
100
AcDbEntity
  8
0
  6
CONTINUOUS
 62
               4
100
AcDbLine
 10
8.0662207031249977
 20
-1.5
 30
0.0
 11
7.5662207031249977
 21
-2.0
 31
0.0
  0
LINE
  5
235
100
AcDbEntity
  8
0
  6
CONTINUOUS
 62
               4
100
AcDbLine
 10
-8.0737792968749886
 20
-1.5
 30
0.0
 11
-7.5737792968749886
 21
-2.0
 31
0.0
  0
LINE
  5
236
100
AcDbEntity
  8
0
  6
CONTINUOUS
 62
               4
100
AcDbLine
 10
5.9962207031250045
 20
-2.0
 30
0.0
 11
5.9962207031250045
 21
-3.1999999999999886
 31
0.0
  0
LINE
  5
237
100
AcDbEntity
  8
0
  6
CONTINUOUS
 62
               4
100
AcDbLine
 10
-6.0037792968749955
 20
-2.0
 30
0.0
 11
-6.0037792968749955
 21
-3.1999999999999886
 31
0.0
  0
LINE
  5
238
100
AcDbEntity
  8
0
  6
CONTINUOUS
 62
               4
100
AcDbLine
 10
7.2462207031250045
 20
-3.1999999999999886
 30
0.0
 11
7.7462207031250045
 21
-3.6999999999999886
 31
0.0
  0
LINE
  5
239
100
AcDbEntity
  8
0
  6
CONTINUOUS
 62
               4
100
AcDbLine
 10
-7.7537792968749955
 20
-3.6999999999999886
 30
0.0
 11
-7.2537792968749955
 21
-3.1999999999999886
 31
0.0
  0
LINE
  5
23A
100
AcDbEntity
  8
0
  6
CONTINUOUS
 62
               4
100
AcDbLine
 10
-7.2537792968749955
 20
-3.1999999999999886
 30
0.0
 11
7.2462207031250045
 21
-3.1999999999999886
 31
0.0
  0
LINE
  5
23B
100
AcDbEntity
  8
0
  6
CONTINUOUS
 62
               4
100
AcDbLine
 10
-7.6037792968749898
 20
-6.1999999999999886
 30
0.0
 11
-6.4337792968750023
 21
-6.1999999999999886
 31
0.0
  0
LINE
  5
23C
100
AcDbEntity
  8
0
  6
CONTINUOUS
 62
               4
100
AcDbLine
 10
6.7462207031250045
 20
-16.699999999999989
 30
0.0
 11
7.7462207031250045
 21
-15.699999999999989
 31
0.0
  0
LINE
  5
23D
100
AcDbEntity
  8
0
  6
CONTINUOUS
 62
               4
100
AcDbLine
 10
-7.7537792968749955
 20
-15.699999999999989
 30
0.0
 11
-6.7537792968749955
 21
-16.699999999999989
 31
0.0
  0
LINE
  5
23E
100
AcDbEntity
  8
0
  6
CONTINUOUS
 62
               4
100
AcDbLine
 10
7.7462207031250045
 20
-3.6999999999999886
 30
0.0
 11
7.7462207031250045
 21
-15.699999999999989
 31
0.0
  0
LINE
  5
23F
100
AcDbEntity
  8
0
  6
CONTINUOUS
 62
               4
100
AcDbLine
 10
-7.7537792968749955
 20
-3.6999999999999886
 30
0.0
 11
-7.7537792968749955
 21
-15.699999999999989
 31
0.0
  0
LINE
  5
240
100
AcDbEntity
  8
0
  6
CONTINUOUS
 62
               4
100
AcDbLine
 10
-6.7537792968749955
 20
-16.699999999999989
 30
0.0
 11
6.7462207031250045
 21
-16.699999999999989
 31
0.0
  0
LINE
  5
241
100
AcDbEntity
  8
0
  6
CONTINUOUS
 62
               4
100
AcDbLine
 10
-7.5737792968749886
 20
-2.0
 30
0.0
 11
7.5662207031249977
 21
-2.0
 31
0.0
  0
LINE
  5
242
100
AcDbEntity
  8
0
  6
CONTINUOUS
 62
               4
100
AcDbLine
 10
8.0662207031249977
 20
0.0
 30
0.0
 11
8.0662207031249977
 21
-1.5
 31
0.0
  0
LINE
  5
243
100
AcDbEntity
  8
0
  6
CONTINUOUS
 62
               4
100
AcDbLine
 10
-8.0737792968749886
 20
0.0
 30
0.0
 11
-8.0737792968749886
 21
-1.5
 31
0.0
  0
ENDBLK
  5
244
100
AcDbEntity
  8
0
100
AcDbBlockEnd
  0
ENDSEC
  0
SECTION
  2
ENTITIES
  0
INSERT
  5
245
100
AcDbEntity
  8
0
100
AcDbBlockReference
  2
MS_4
 10
-173.62
 20
-137.97999999999999
 30
0.0
  0
INSERT
  5
246
100
AcDbEntity
  8
0
100
AcDbBlockReference
  2
MS_3
 10
-48.623870849609375
 20
110.99998474121094
 30
0.0
  0
INSERT
  5
247
100
AcDbEntity
  8
0
100
AcDbBlockReference
  2
MS_2
 10
153.3760986328125
 20
-3.2833890914916992
 30
0.0
  0
INSERT
  5
248
100
AcDbEntity
  8
0
100
AcDbBlockReference
  2
MS_1
 10
-48.623870849609375
 20
-3.2833843231201172
 30
0.0
  0
LINE
  5
249
100
AcDbEntity
  8
0
  6
CENTER
 62
               2
100
AcDbLine
 10
-173.62
 20
-97.980000000000004
 30
0.0
 11
-173.62
 21
-137.97999999999999
 31
0.0
  0
MTEXT
  5
24A
100
AcDbEntity
  8
0
  6
CONTINUOUS
 62
               7
100
AcDbMText
 10
201.38633858070557
 20
185.5
 30
0.0
 40
6.3000001907348633
 41
0.0
 71
               4
 72
               1
  1
\W1.273;\A1;Ver.1.0
  7
MX_NOTE_STANDARD
  0
MTEXT
  5
24B
100
AcDbEntity
  8
0
  6
CONTINUOUS
 62
               7
100
AcDbMText
 10
-248.50961621241015
 20
185.5
 30
0.0
 40
6.3000001907348633
 41
0.0
 71
               4
 72
               1
  1
\W1.038;\A1;CS-FILTER
  7
MX_NOTE_STANDARD
  0
LINE
  5
24C
100
AcDbEntity
  8
0
  6
CONTINUOUS
 62
               7
100
AcDbLine
 10
-192.41999999999999
 20
-137.97999999999999
 30
0.0
 11
-154.81999999999999
 21
-137.97999999999999
 31
0.0
  0
LINE
  5
24D
100
AcDbEntity
  8
0
  6
CONTINUOUS
 62
               7
100
AcDbLine
 10
-207.41999999999999
 20
-98.920000000000002
 30
0.0
 11
-207.41999999999999
 21
-122.98
 31
0.0
  0
LINE
  5
24E
100
AcDbEntity
  8
0
  6
CONTINUOUS
 62
               7
100
AcDbLine
 10
-139.81999999999999
 20
-117.04000000000001
 30
0.0
 11
-139.81999999999999
 21
-122.98
 31
0.0
  0
ARC
  5
24F
100
AcDbEntity
  8
0
  6
CONTINUOUS
 62
               7
100
AcDbCircle
 10
-192.42363616800233
 20
-122.98363616800233
 30
0.0
 40
14.996364272828435
100
AcDbArc
 50
179.98610749389712
 51
270.01389250610197
  0
ARC
  5
250
100
AcDbEntity
  8
0
  6
CONTINUOUS
 62
               7
100
AcDbCircle
 10
-154.82021223382682
 20
-122.97978776617315
 30
0.0
 40
15.000212235328258
100
AcDbArc
 50
270.00081066203251
 51
359.99918933796596
  0
MTEXT
  5
251
100
AcDbEntity
  8
0
  6
CONTINUOUS
 62
               7
100
AcDbMText
 10
-255.12263154127922
 20
160.5
 30
0.0
 40
6.3000001907348633
 41
0.0
 71
               4
 72
               1
  1
\W1.074;\A1;MODEL:CS-MF400-03
  7
MX_NOTE_STANDARD
  0
MTEXT
  5
252
100
AcDbEntity
  8
0
  6
CONTINUOUS
 62
               7
100
AcDbMText
 10
-205.16976434228246
 20
-75.400588989257813
 30
0.0
 40
6.3000001907348633
 41
0.0
 71
               4
 72
               1
  1
\W1.154;\A1;OPTION:-F1
  7
MX_NOTE_STANDARD
  0
MTEXT
  5
253
100
AcDbEntity
  8
0
  6
CONTINUOUS
 62
               7
100
AcDbMText
 10
44.216656525929771
 20
-1.7084088325500488
 30
0.0
 40
6.3000001907348633
 41
0.0
 71
               7
 72
               1
  1
\A1;OUT
  7
MX_NOTE_STANDARD
  0
MTEXT
  5
254
100
AcDbEntity
  8
0
  6
CONTINUOUS
 62
               7
100
AcDbMText
 10
-74.906656471014017
 20
-1.7083754539489746
 30
0.0
 40
6.3000001907348633
 41
0.0
 71
               7
 72
               1
  1
\W1.200;\A1;IN
  7
MX_NOTE_STANDARD
  0
ARC
  5
255
100
AcDbEntity
  8
0
  6
CONTINUOUS
 62
               7
100
AcDbCircle
 10
-145.89854286999588
 20
-120.48147604899884
 30
0.0
 40
0.9985250419711891
100
AcDbArc
 50
269.91530366767483
 51
0.0846963323253586
  0
ARC
  5
256
100
AcDbEntity
  8
0
  6
CONTINUOUS
 62
               7
100
AcDbCircle
 10
-146.49720460216716
 20
-119.98281431682754
 30
0.0
 40
0.997189654530819
100
AcDbArc
 50
269.83829686784185
 51
0.1617031321571165
  0
ARC
  5
257
100
AcDbEntity
  8
0
  6
CONTINUOUS
 62
               7
100
AcDbCircle
 10
-146.75576347900997
 20
-119.48425543998474
 30
0.0
 40
0.9957536530535159
100
AcDbArc
 50
269.75514074939917
 51
0.2448592506006225
  0
ARC
  5
258
100
AcDbEntity
  8
0
  6
CONTINUOUS
 62
               7
100
AcDbCircle
 10
-148.58788844922847
 20
-118.98213046976625
 30
0.0
 40
0.9978718045271724
100
AcDbArc
 50
269.87767264475286
 51
0.1223273552471013
  0
ARC
  5
259
100
AcDbEntity
  8
0
  6
CONTINUOUS
 62
               7
100
AcDbCircle
 10
-154.04622422925203
 20
-120.4762053102573
 30
0.0
 40
1.003801862334325
100
AcDbArc
 50
180.21659675363117
 51
269.78340324636821
  0
ARC
  5
25A
100
AcDbEntity
  8
0
  6
CONTINUOUS
 62
               7
100
AcDbCircle
 10
-154.04622422925203
 20
-119.9762053102573
 30
0.0
 40
1.003801862334325
100
AcDbArc
 50
180.21659675363117
 51
269.78340324636821
  0
ARC
  5
25B
100
AcDbEntity
  8
0
  6
CONTINUOUS
 62
               7
100
AcDbCircle
 10
-153.65948511791686
 20
-119.47946619892211
 30
0.0
 40
1.0005339434736435
100
AcDbArc
 50
180.03056822860592
 51
269.96943177139349
  0
ARC
  5
25C
100
AcDbEntity
  8
0
  6
CONTINUOUS
 62
               7
100
AcDbCircle
 10
-153.65948511791686
 20
-118.97946619892211
 30
0.0
 40
1.0005339434736435
100
AcDbArc
 50
180.03056822860572
 51
269.96943177139349
  0
ARC
  5
25D
100
AcDbEntity
  8
0
  6
CONTINUOUS
 62
               7
100
AcDbCircle
 10
-201.33649680778521
 20
-120.47647788879047
 30
0.0
 40
1.003528292054471
100
AcDbArc
 50
180.20109300673093
 51
269.79890699326842
  0
ARC
  5
25E
100
AcDbEntity
  8
0
  6
CONTINUOUS
 62
               7
100
AcDbCircle
 10
-200.73784175771959
 20
-119.97782283872488
 30
0.0
 40
1.0021795261392363
100
AcDbArc
 50
180.12447096278495
 51
269.87552903721405
  0
ARC
  5
25F
100
AcDbEntity
  8
0
  6
CONTINUOUS
 62
               7
100
AcDbCircle
 10
-200.47929008659062
 20
-119.47927116759588
 30
0.0
 40
1.0007290978089647
100
AcDbArc
 50
180.04172860018758
 51
269.95827139981185
  0
ARC
  5
260
100
AcDbEntity
  8
0
  6
CONTINUOUS
 62
               7
100
AcDbCircle
 10
-198.64715449500738
 20
-118.97713557601264
 30
0.0
 40
1.0028685147237617
100
AcDbArc
 50
180.16365019536548
 51
269.8363498046333
  0
ARC
  5
261
100
AcDbEntity
  8
0
  6
CONTINUOUS
 62
               7
100
AcDbCircle
 10
-193.18881409538449
 20
-120.4812048236102
 30
0.0
 40
0.9987959030649976
100
AcDbArc
 50
269.9308854547225
 51
0.0691145452768935
  0
ARC
  5
262
100
AcDbEntity
  8
0
  6
CONTINUOUS
 62
               7
100
AcDbCircle
 10
-193.18881409538449
 20
-119.9812048236102
 30
0.0
 40
0.9987959030649976
100
AcDbArc
 50
269.9308854547225
 51
0.0691145452768935
  0
ARC
  5
263
100
AcDbEntity
  8
0
  6
CONTINUOUS
 62
               7
100
AcDbCircle
 10
-193.57556941878158
 20
-119.48444950021312
 30
0.0
 40
0.9955604430058689
100
AcDbArc
 50
269.74392470724956
 51
0.256075292749815
  0
ARC
  5
264
100
AcDbEntity
  8
0
  6
CONTINUOUS
 62
               7
100
AcDbCircle
 10
-193.57556941878158
 20
-118.98444950021312
 30
0.0
 40
0.9955604430058689
100
AcDbArc
 50
269.74392470724956
 51
0.256075292749815
  0
LINE
  5
265
100
AcDbEntity
  8
0
  6
CONTINUOUS
 62
               7
100
AcDbLine
 10
-144.90001891899473
 20
-115.67831445544107
 30
0.0
 11
-144.90001891899473
 21
-120.47999999999999
 31
0.0
  0
LINE
  5
266
100
AcDbEntity
  8
0
  6
CONTINUOUS
 62
               7
100
AcDbLine
 10
-145.50001891899473
 20
-115.51748605307421
 30
0.0
 11
-145.50001891899473
 21
-119.97999999999999
 31
0.0
  0
LINE
  5
267
100
AcDbEntity
  8
0
  6
CONTINUOUS
 62
               7
100
AcDbLine
 10
-155.05001891899471
 20
-112.95763398206829
 30
0.0
 11
-155.05001891899471
 21
-120.47999999999999
 31
0.0
  0
LINE
  5
268
100
AcDbEntity
  8
0
  6
CONTINUOUS
 62
               7
100
AcDbLine
 10
-154.05001891899471
 20
-121.47999999999999
 30
0.0
 11
-145.90001891899473
 21
-121.47999999999999
 31
0.0
  0
LINE
  5
269
100
AcDbEntity
  8
0
  6
CONTINUOUS
 62
               7
100
AcDbLine
 10
-154.05001891899471
 20
-120.97999999999999
 30
0.0
 11
-146.50001891899473
 21
-120.97999999999999
 31
0.0
  0
LINE
  5
26A
100
AcDbEntity
  8
0
  6
CONTINUOUS
 62
               7
100
AcDbLine
 10
-154.66001891899472
 20
-113.06217244360674
 30
0.0
 11
-154.66001891899472
 21
-119.47999999999999
 31
0.0
  0
LINE
  5
26B
100
AcDbEntity
  8
0
  6
CONTINUOUS
 62
               7
100
AcDbLine
 10
-147.59001891899473
 20
-114.95726711816295
 30
0.0
 11
-147.59001891899473
 21
-118.97999999999999
 31
0.0
  0
LINE
  5
26C
100
AcDbEntity
  8
0
  6
CONTINUOUS
 62
               7
100
AcDbLine
 10
-145.76001891899472
 20
-115.44779374538189
 30
0.0
 11
-145.76001891899472
 21
-119.47999999999999
 31
0.0
  0
LINE
  5
26D
100
AcDbEntity
  8
0
  6
CONTINUOUS
 62
               7
100
AcDbLine
 10
-153.66001891899472
 20
-119.97999999999999
 30
0.0
 11
-148.59001891899473
 21
-119.97999999999999
 31
0.0
  0
LINE
  5
26E
100
AcDbEntity
  8
0
  6
CONTINUOUS
 62
               7
100
AcDbLine
 10
-153.66001891899472
 20
-120.47999999999999
 30
0.0
 11
-146.76001891899472
 21
-120.47999999999999
 31
0.0
  0
LINE
  5
26F
100
AcDbEntity
  8
0
  6
CONTINUOUS
 62
               7
100
AcDbLine
 10
-202.3400189189947
 20
-100.28167540218662
 30
0.0
 11
-202.3400189189947
 21
-120.47999999999999
 31
0.0
  0
LINE
  5
270
100
AcDbEntity
  8
0
  6
CONTINUOUS
 62
               7
100
AcDbLine
 10
-201.74001891899474
 20
-100.44250380455348
 30
0.0
 11
-201.74001891899474
 21
-119.97999999999999
 31
0.0
  0
LINE
  5
271
100
AcDbEntity
  8
0
  6
CONTINUOUS
 62
               7
100
AcDbLine
 10
-192.19001891899472
 20
-103.0023558755594
 30
0.0
 11
-192.19001891899472
 21
-120.47999999999999
 31
0.0
  0
LINE
  5
272
100
AcDbEntity
  8
0
  6
CONTINUOUS
 62
               7
100
AcDbLine
 10
-193.19001891899472
 20
-121.47999999999999
 30
0.0
 11
-201.3400189189947
 21
-121.47999999999999
 31
0.0
  0
LINE
  5
273
100
AcDbEntity
  8
0
  6
CONTINUOUS
 62
               7
100
AcDbLine
 10
-193.19001891899472
 20
-120.97999999999999
 30
0.0
 11
-200.74001891899474
 21
-120.97999999999999
 31
0.0
  0
LINE
  5
274
100
AcDbEntity
  8
0
  6
CONTINUOUS
 62
               7
100
AcDbLine
 10
-192.58001891899471
 20
-102.89781741402095
 30
0.0
 11
-192.58001891899471
 21
-119.47999999999999
 31
0.0
  0
LINE
  5
275
100
AcDbEntity
  8
0
  6
CONTINUOUS
 62
               7
100
AcDbLine
 10
-199.6500189189947
 20
-101.00272273946473
 30
0.0
 11
-199.6500189189947
 21
-118.97999999999999
 31
0.0
  0
LINE
  5
276
100
AcDbEntity
  8
0
  6
CONTINUOUS
 62
               7
100
AcDbLine
 10
-201.48001891899472
 20
-100.51219611224579
 30
0.0
 11
-201.48001891899472
 21
-119.47999999999999
 31
0.0
  0
LINE
  5
277
100
AcDbEntity
  8
0
  6
CONTINUOUS
 62
               7
100
AcDbLine
 10
-193.58001891899471
 20
-119.97999999999999
 30
0.0
 11
-198.6500189189947
 21
-119.97999999999999
 31
0.0
  0
LINE
  5
278
100
AcDbEntity
  8
0
  6
CONTINUOUS
 62
               7
100
AcDbLine
 10
-193.58001891899471
 20
-120.47999999999999
 30
0.0
 11
-200.48001891899472
 21
-120.47999999999999
 31
0.0
  0
LINE
  5
279
100
AcDbEntity
  8
0
  6
CONTINUOUS
 62
               7
100
AcDbLine
 10
-281.25
 20
195.5
 30
0.0
 11
282.099853515625
 21
195.5
 31
0.0
  0
LINE
  5
27A
100
AcDbEntity
  8
0
  6
CONTINUOUS
 62
               7
100
AcDbLine
 10
-281.25
 20
195.5
 30
0.0
 11
-281.25
 21
-195.0
 31
0.0
  0
LINE
  5
27B
100
AcDbEntity
  8
0
  6
CONTINUOUS
 62
               7
100
AcDbLine
 10
282.099853515625
 20
195.5
 30
0.0
 11
282.099853515625
 21
-195.0
 31
0.0
  0
LINE
  5
27C
100
AcDbEntity
  8
0
  6
CONTINUOUS
 62
               7
100
AcDbLine
 10
-281.25
 20
-195.0
 30
0.0
 11
282.099853515625
 21
-195.0
 31
0.0
  0
LINE
  5
27D
100
AcDbEntity
  8
0
  6
CONTINUOUS
 62
               7
100
AcDbLine
 10
162.0999755859375
 20
-175.0
 30
0.0
 11
162.0999755859375
 21
-195.0
 31
0.0
  0
LINE
  5
27E
100
AcDbEntity
  8
0
  6
CONTINUOUS
 62
               7
100
AcDbLine
 10
162.0999755859375
 20
-175.0
 30
0.0
 11
282.099853515625
 21
-175.0
 31
0.0
  0
LINE
  5
27F
100
AcDbEntity
  8
0
  6
CONTINUOUS
 62
               7
100
AcDbLine
 10
162.0999755859375
 20
175.5
 30
0.0
 11
282.099853515625
 21
175.5
 31
0.0
  0
LINE
  5
280
100
AcDbEntity
  8
0
  6
CONTINUOUS
 62
               7
100
AcDbLine
 10
-281.25
 20
175.5
 30
0.0
 11
-161.25
 21
175.5
 31
0.0
  0
LINE
  5
281
100
AcDbEntity
  8
0
  6
CONTINUOUS
 62
               7
100
AcDbLine
 10
162.0999755859375
 20
195.5
 30
0.0
 11
162.0999755859375
 21
175.5
 31
0.0
  0
LINE
  5
282
100
AcDbEntity
  8
0
  6
CONTINUOUS
 62
               7
100
AcDbLine
 10
-161.25
 20
195.5
 30
0.0
 11
-161.25
 21
175.5
 31
0.0
  0
MTEXT
  5
283
100
AcDbEntity
  8
0
  6
CONTINUOUS
 62
               7
100
AcDbMText
 10
170.2809980228688
 20
-185.0
 30
0.0
 40
9.0
 41
0.0
 71
               4
 72
               1
  1
\W1.121;\A1;KOGANEI CORP.
  7
MX_NOTE_STANDARD
  0
ENDSEC
  0
SECTION
  2
OBJECTS
  0
DICTIONARY
  5
19
100
AcDbDictionary
  3
ACAD_GROUP
350
1A
  3
ACAD_MLINESTYLE
350
1B
  0
DICTIONARY
  5
1A
102
{ACAD_REACTORS
330
19
102
}
100
AcDbDictionary
  0
DICTIONARY
  5
1B
102
{ACAD_REACTORS
330
19
102
}
100
AcDbDictionary
  3
STANDARD
350
1C
  0
MLINESTYLE
  5
1C
102
{ACAD_REACTORS
330
1B
102
}
100
AcDbMlineStyle
  2
Standard
 70
               0
  3

 62
               0
 51
90.0
 52
90.0
 71
               2
 49
0.5
 62
             256
  6
ByLayer
 49
-0.5
 62
             256
  6
ByLayer
  0
ENDSEC
  0
EOF
