  0
SECTION
  2
HEADER
  9
$ACADVER
  1
AC1012
  9
$DWGCODEPAGE
  3
dos932
  9
$INSBASE
 10
0.0
 20
0.0
 30
0.0
  9
$EXTMIN
 10
-138.39999389648437
 20
-94.800003051757812
 30
0.0
  9
$EXTMAX
 10
138.35000610351562
 20
94.5
 30
0.0
  9
$LIMMIN
 10
-138.39999389648437
 20
-94.800003051757812
  9
$LIMMAX
 10
138.35000610351562
 20
94.5
  9
$ORTHOMODE
 70
               0
  9
$REGENMODE
 70
               1
  9
$FILLMODE
 70
               1
  9
$QTEXTMODE
 70
               0
  9
$MIRRTEXT
 70
               1
  9
$DRAGMODE
 70
               2
  9
$LTSCALE
 40
1.0
  9
$OSMODE
 70
               0
  9
$ATTMODE
 70
               1
  9
$TEXTSIZE
 40
3.2000000476837158
  9
$TRACEWID
 40
0.05
  9
$TEXTSTYLE
  7
MX_NOTE_STANDARD
  9
$CLAYER
  8
0
  9
$CELTYPE
  6
CONTINUOUS
  9
$CECOLOR
 62
             256
  9
$CELTSCALE
 40
1.0
  9
$DELOBJ
 70
               1
  9
$DISPSILH
 70
               0
  9
$DIMSCALE
 40
1.0
  9
$DIMASZ
 40
2.5
  9
$DIMEXO
 40
1.5
  9
$DIMDLI
 40
3.75
  9
$DIMRND
 40
0.0
  9
$DIMDLE
 40
0.0
  9
$DIMEXE
 40
1.5
  9
$DIMTP
 40
0.0
  9
$DIMTM
 40
0.0
  9
$DIMTXT
 40
3.2000000476837158
  9
$DIMCEN
 40
2.5
  9
$DIMTSZ
 40
0.0
  9
$DIMTOL
 70
               0
  9
$DIMLIM
 70
               0
  9
$DIMTIH
 70
               0
  9
$DIMTOH
 70
               0
  9
$DIMSE1
 70
               0
  9
$DIMSE2
 70
               0
  9
$DIMTAD
 70
               1
  9
$DIMZIN
 70
               8
  9
$DIMBLK
  1

  9
$DIMASO
 70
               1
  9
$DIMSHO
 70
               1
  9
$DIMPOST
  1

  9
$DIMAPOST
  1

  9
$DIMALT
 70
               0
  9
$DIMALTD
 70
               4
  9
$DIMALTF
 40
0.0394
  9
$DIMLFAC
 40
1.0
  9
$DIMTOFL
 70
               1
  9
$DIMTVP
 40
0.0
  9
$DIMTIX
 70
               0
  9
$DIMSOXD
 70
               0
  9
$DIMSAH
 70
               0
  9
$DIMBLK1
  1

  9
$DIMBLK2
  1

  9
$DIMSTYLE
  2
MXDIMSTYLE
  9
$DIMCLRD
 70
               0
  9
$DIMCLRE
 70
               0
  9
$DIMCLRT
 70
               0
  9
$DIMTFAC
 40
1.0
  9
$DIMGAP
 40
1.0
  9
$DIMJUST
 70
               0
  9
$DIMSD1
 70
               0
  9
$DIMSD2
 70
               0
  9
$DIMTOLJ
 70
               1
  9
$DIMTZIN
 70
               0
  9
$DIMALTZ
 70
               0
  9
$DIMALTTZ
 70
               0
  9
$DIMFIT
 70
               3
  9
$DIMUPT
 70
               1
  9
$DIMUNIT
 70
               2
  9
$DIMDEC
 70
               4
  9
$DIMTDEC
 70
               4
  9
$DIMALTU
 70
               8
  9
$DIMALTTD
 70
               4
  9
$DIMTXSTY
  7
MX_NOTE_STANDARD
  9
$DIMAUNIT
 70
               0
  9
$LUNITS
 70
               2
  9
$LUPREC
 70
               4
  9
$SKETCHINC
 40
0.1
  9
$FILLETRAD
 40
0.0
  9
$AUNITS
 70
               0
  9
$AUPREC
 70
               0
  9
$MENU
  1
acad
  9
$ELEVATION
 40
0.0
  9
$PELEVATION
 40
0.0
  9
$THICKNESS
 40
0.0
  9
$LIMCHECK
 70
               0
  9
$BLIPMODE
 70
               1
  9
$CHAMFERA
 40
0.0
  9
$CHAMFERB
 40
0.0
  9
$CHAMFERC
 40
0.0
  9
$CHAMFERD
 40
0.0
  9
$SKPOLY
 70
               0
  9
$TDCREATE
 40
2452209.493217593
  9
$TDUPDATE
 40
2452209.493217593
  9
$TDINDWG
 40
0.0000000000
  9
$TDUSRTIMER
 40
0.0000000000
  9
$USRTIMER
 70
               1
  9
$ANGBASE
 50
0.0
  9
$ANGDIR
 70
               0
  9
$PDMODE
 70
               0
  9
$PDSIZE
 40
0.0
  9
$PLINEWID
 40
0.0
  9
$COORDS
 70
               1
  9
$SPLFRAME
 70
               0
  9
$SPLINETYPE
 70
               6
  9
$SPLINESEGS
 70
               8
  9
$ATTDIA
 70
               0
  9
$ATTREQ
 70
               1
  9
$HANDLING
 70
               1
  9
$HANDSEED
  5
342
  9
$SURFTAB1
 70
               6
  9
$SURFTAB2
 70
               6
  9
$SURFTYPE
 70
               6
  9
$SURFU
 70
               6
  9
$SURFV
 70
               6
  9
$UCSNAME
  2

  9
$UCSORG
 10
0.0
 20
0.0
 30
0.0
  9
$UCSXDIR
 10
1.0
 20
0.0
 30
0.0
  9
$UCSYDIR
 10
0.0
 20
1.0
 30
0.0
  9
$PUCSNAME
  2

  9
$PUCSORG
 10
0.0
 20
0.0
 30
0.0
  9
$PUCSXDIR
 10
1.0
 20
0.0
 30
0.0
  9
$PUCSYDIR
 10
0.0
 20
1.0
 30
0.0
  9
$USERI1
 70
               0
  9
$USERI2
 70
               0
  9
$USERI3
 70
               0
  9
$USERI4
 70
               0
  9
$USERI5
 70
               0
  9
$USERR1
 40
0.0
  9
$USERR2
 40
0.0
  9
$USERR3
 40
0.0
  9
$USERR4
 40
0.0
  9
$USERR5
 40
0.0
  9
$WORLDVIEW
 70
               1
  9
$SHADEDGE
 70
               3
  9
$SHADEDIF
 70
              70
  9
$TILEMODE
 70
               1
  9
$MAXACTVP
 70
              16
  9
$PINSBASE
 10
0.0
 20
0.0
 30
0.0
  9
$PLIMCHECK
 70
               0
  9
$PEXTMIN
 10
1.0000000000000000E+20
 20
1.0000000000000000E+20
 30
1.0000000000000000E+20
  9
$PEXTMAX
 10
-1.0000000000000000E+20
 20
-1.0000000000000000E+20
 30
-1.0000000000000000E+20
  9
$PLIMMIN
 10
0.0
 20
0.0
  9
$PLIMMAX
 10
12.0
 20
9.0
  9
$UNITMODE
 70
               0
  9
$VISRETAIN
 70
               0
  9
$PLINEGEN
 70
               1
  9
$PSLTSCALE
 70
               0
  9
$TREEDEPTH
 70
            3020
  9
$PICKSTYLE
 70
               1
  9
$CMLSTYLE
  2
Standard
  9
$CMLJUST
 70
               0
  9
$CMLSCALE
 40
1.0
  9
$SAVEIMAGES
 70
               0
  0
ENDSEC
  0
SECTION
  2
CLASSES
  0
CLASS
  1
LWPOLYLINE
  2
AcDbPolyline
  3
"AutoCAD"
 90
        0
280
               0
281
               1
  0
CLASS
  1
IMAGE
  2
AcDbRasterImage
  3
ISM
 90
      127
280
               0
281
               1
  0
CLASS
  1
OLE2FRAME
  2
AcDbOle2Frame
  3
""
 90
        0
280
               0
281
               1
  0
CLASS
  1
HATCH
  2
AcDbHatch
  3
"ACAD_SEDONA"
 90
        0
280
               0
281
               1
  0
CLASS
  1
DICTIONARYVAR
  2
AcDbDictionaryVar
  3
"AutoCAD"
 90
        0
280
               0
281
               0
  0
CLASS
  1
RASTERVARIABLES
  2
AcDbRasterVariables
  3
ISM
 90
        0
280
               0
281
               0
  0
CLASS
  1
IMAGEDEF
  2
AcDbRasterImageDef
  3
ISM
 90
        0
280
               0
281
               0
  0
CLASS
  1
IMAGEDEF_REACTOR
  2
AcDbRasterImageDefReactor
  3
ISM
 90
        1
280
               0
281
               0
  0
CLASS
  1
IDBUFFER
  2
AcDbIdBuffer
  3
"Acad"
 90
        0
280
               0
281
               0
  0
CLASS
  1
SPATIAL_FILTER
  2
AcDbSpatialFilter
  3
"Acad"
 90
        0
280
               0
281
               0
  0
CLASS
  1
XRECORD
  2
AcDbXrecord
  3
"<Built In>"
 90
        0
280
               0
281
               0
  0
CLASS
  1
SORTENTSTABLE
  2
AcDbSortentsTable
  3
"AutoCAD"
 90
        0
280
               0
281
               0
  0
CLASS
  1
LAYER_INDEX
  2
AcDbLayerIndex
  3
"Acad"
 90
        0
280
               0
281
               0
  0
CLASS
  1
SPATIAL_INDEX
  2
AcDbSpatialIndex
  3
"Acad"
 90
        0
280
               0
281
               0
  0
CLASS
  1
OBJECT_PTR
  2
CAseDLPNTableRecord
  3
"ASE-LPNTableRecord"
 90
        1
280
               0
281
               0
  0
CLASS
  1
LAYOUT
  2
AcDbLayout
  3
"AutoCAD 2000"
 90
        1
280
               0
281
               0
  0
CLASS
  1
PLOTSETTINGS
  2
AcDbPlotSettings
  3
"AutoCAD 2000"
 90
        1
280
               0
281
               0
  0
CLASS
  1
ACDBDICTIONARYWDFLT
  2
AcDbDictionaryWithDefault
  3
"AutoCAD 2000"
 90
        1
280
               0
281
               0
  0
CLASS
  1
ACDBPLACEHOLDER
  2
AcDbPlaceHolder
  3
"AutoCAD 2000"
 90
        1
280
               0
281
               0
  0
CLASS
  1
VBA_PROJECT
  2
AcDbVbaProject
  3
"acadvba"
 90
        1
280
               0
281
               0
  0
CLASS
  1
WIPEOUT
  2
AcDbWipeout
  3
WipeOut|AutoCAD Express Tool|expresstools@autodesk.com
 90
      127
280
               0
281
               1
  0
CLASS
  1
WIPEOUTVARIABLES
  2
AcDbWipeoutVariables
  3
WipeOut|AutoCAD Express Tool|expresstools@autodesk.com
 90
        0
280
               0
281
               0
  0
CLASS
  1
RTEXT
  2
RText
  3
RText|AutoCAD Express Tool|expresstools@autodesk.com
 90
        0
280
               0
281
               1
  0
CLASS
  1
ARCALIGNEDTEXT
  2
AcDbArcAlignedText
  3
ATEXT|AutoCAD Express Tool|expresstools@autodesk.com
 90
        0
280
               0
281
               1
  0
ENDSEC
  0
SECTION
  2
TABLES
  0
TABLE
  2
VPORT
  5
7
100
AcDbSymbolTable
 70
               1
  0
VPORT
  5
15
100
AcDbSymbolTableRecord
100
AcDbViewportTableRecord
  2
*ACTIVE
 70
               0
 10
0.0
 20
0.0
 11
1.0
 21
1.0
 12
-0.024993896484375
 22
-0.1500015258789063
 13
0.0
 23
0.0
 14
1.0
 24
1.0
 15
0.0
 25
0.0
 16
0.0
 26
0.0
 36
1.0
 17
0.0
 27
0.0
 37
0.0
 40
191.1930030822754
 41
1.7320508075688772
 42
50.0
 43
0.0
 44
0.0
 50
0.0
 51
0.0
 71
               0
 72
             100
 73
               1
 74
               1
 75
               0
 76
               0
 77
               0
 78
               0
  0
ENDTAB
  0
TABLE
  2
LTYPE
  5
4
100
AcDbSymbolTable
 70
               6
  0
LTYPE
  5
11
100
AcDbSymbolTableRecord
100
AcDbLinetypeTableRecord
  2
BYBLOCK
 70
              64
  3

 72
              65
 73
               0
 40
0.0
  0
LTYPE
  5
12
100
AcDbSymbolTableRecord
100
AcDbLinetypeTableRecord
  2
BYLAYER
 70
              64
  3

 72
              65
 73
               0
 40
0.0
  0
LTYPE
  5
13
100
AcDbSymbolTableRecord
100
AcDbLinetypeTableRecord
  2
CONTINUOUS
 70
              64
  3
Solid line
 72
              65
 73
               0
 40
0.0
  0
LTYPE
  5
27
100
AcDbSymbolTableRecord
100
AcDbLinetypeTableRecord
  2
PHANTOM
 70
              64
  3
Phantom ______  __  __  ______  __  __  ______
 72
              65
 73
               6
 40
63.500000000000007
 49
31.75
 74
               0
 49
-6.3499999999999996
 74
               0
 49
6.3499999999999996
 74
               0
 49
-6.3499999999999996
 74
               0
 49
6.3499999999999996
 74
               0
 49
-6.3499999999999996
 74
               0
  0
LTYPE
  5
42
100
AcDbSymbolTableRecord
100
AcDbLinetypeTableRecord
  2
CENTER
 70
              64
  3
Center ____ _ ____ _ ____ _ ____ _ ____ _ ____
 72
              65
 73
               4
 40
50.800000000000004
 49
31.75
 74
               0
 49
-6.3499999999999996
 74
               0
 49
6.3499999999999996
 74
               0
 49
-6.3499999999999996
 74
               0
  0
LTYPE
  5
F1
100
AcDbSymbolTableRecord
100
AcDbLinetypeTableRecord
  2
DASHED
 70
              64
  3
Dashed __ __ __ __ __ __ __ __ __ __ __ __ __ _
 72
              65
 73
               2
 40
19.049999999999997
 49
12.699999999999999
 74
               0
 49
-6.3499999999999996
 74
               0
  0
ENDTAB
  0
TABLE
  2
LAYER
  5
2
100
AcDbSymbolTable
 70
               2
  0
LAYER
  5
14
100
AcDbSymbolTableRecord
100
AcDbLayerTableRecord
  2
0
 70
               0
 62
               7
  6
CONTINUOUS
  0
LAYER
  5
1D
100
AcDbSymbolTableRecord
100
AcDbLayerTableRecord
  2
DEFPOINTS
 70
               0
 62
               7
  6
CONTINUOUS
  0
ENDTAB
  0
TABLE
  2
STYLE
  5
3
100
AcDbSymbolTable
 70
               1
  0
STYLE
  5
17
100
AcDbSymbolTableRecord
100
AcDbTextStyleTableRecord
  2
MX_NOTE_STANDARD
 70
               0
 40
3.2000000476837158
 41
1.0
 50
0.0
 71
               0
 42
3.2000000476837158
  3
txt.shx
  4
extfont.shx
  0
ENDTAB
  0
TABLE
  2
VIEW
  5
5
100
AcDbSymbolTable
 70
               0
  0
ENDTAB
  0
TABLE
  2
UCS
  5
6
100
AcDbSymbolTable
 70
               0
  0
ENDTAB
  0
TABLE
  2
APPID
  5
8
100
AcDbSymbolTable
 70
               1
  0
APPID
  5
16
100
AcDbSymbolTableRecord
100
AcDbRegAppTableRecord
  2
ACAD
 70
               0
  0
ENDTAB
  0
TABLE
  2
DIMSTYLE
  5
9
100
AcDbSymbolTable
 70
               1
  0
DIMSTYLE
105
18
100
AcDbSymbolTableRecord
100
AcDbDimStyleTableRecord
  2
MXDIMSTYLE
 70
               0
  3

  4

  5

  6

  7

 40
1.0
 41
2.5
 42
1.5
 43
3.75
 44
1.5
 45
0.0
 46
0.0
 47
0.0
 48
0.0
 71
               0
 72
               0
 73
               0
 74
               0
 75
               0
 76
               0
 77
               1
 78
               8
140
3.2000000476837158
141
2.5
142
0.0
143
0.0394
144
1.0
145
0.0
146
1.0
147
1.0
170
               0
171
               4
172
               1
173
               0
174
               0
175
               0
176
               0
177
               0
178
               0
270
               2
271
               4
272
               4
273
               8
274
               4
275
               0
280
               0
281
               0
282
               0
283
               1
284
               0
285
               0
286
               0
287
               3
288
               1
340
17
  0
ENDTAB
  0
TABLE
  2
BLOCK_RECORD
  5
1
100
AcDbSymbolTable
 70
               9
  0
BLOCK_RECORD
  5
A
100
AcDbSymbolTableRecord
100
AcDbBlockTableRecord
  2
*MODEL_SPACE
  0
BLOCK_RECORD
  5
B
100
AcDbSymbolTableRecord
100
AcDbBlockTableRecord
  2
*PAPER_SPACE
  0
BLOCK_RECORD
  5
1E
100
AcDbSymbolTableRecord
100
AcDbBlockTableRecord
  2
MS_1
  0
BLOCK_RECORD
  5
1F
100
AcDbSymbolTableRecord
100
AcDbBlockTableRecord
  2
MS_2
  0
BLOCK_RECORD
  5
20
100
AcDbSymbolTableRecord
100
AcDbBlockTableRecord
  2
MS_3
  0
BLOCK_RECORD
  5
21
100
AcDbSymbolTableRecord
100
AcDbBlockTableRecord
  2
MS_4
  0
BLOCK_RECORD
  5
22
100
AcDbSymbolTableRecord
100
AcDbBlockTableRecord
  2
MS_5
  0
BLOCK_RECORD
  5
23
100
AcDbSymbolTableRecord
100
AcDbBlockTableRecord
  2
MS_6
  0
BLOCK_RECORD
  5
24
100
AcDbSymbolTableRecord
100
AcDbBlockTableRecord
  2
MS_7
  0
BLOCK_RECORD
  5
25
100
AcDbSymbolTableRecord
100
AcDbBlockTableRecord
  2
MS_8
  0
BLOCK_RECORD
  5
302
100
AcDbSymbolTableRecord
100
AcDbBlockTableRecord
  2
_OPEN30
  0
ENDTAB
  0
ENDSEC
  0
SECTION
  2
BLOCKS
  0
BLOCK
  5
D
100
AcDbEntity
  8
0
100
AcDbBlockBegin
  2
*MODEL_SPACE
 70
               0
 10
0.0
 20
0.0
 30
0.0
  3
*MODEL_SPACE
  1

  0
ENDBLK
  5
E
100
AcDbEntity
  8
0
100
AcDbBlockEnd
  0
BLOCK
  5
F
100
AcDbEntity
 67
               1
  8
0
100
AcDbBlockBegin
  2
*PAPER_SPACE
 70
               0
 10
0.0
 20
0.0
 30
0.0
  3
*PAPER_SPACE
  1

  0
ENDBLK
  5
10
100
AcDbEntity
 67
               1
  8
0
100
AcDbBlockEnd
  0
BLOCK
  5
26
100
AcDbEntity
  8
0
100
AcDbBlockBegin
  2
MS_1
 70
               0
 10
0.0
 20
0.0
 30
0.0
  3
MS_1
  1

  0
LINE
  5
28
100
AcDbEntity
  8
0
  6
PHANTOM
 62
               3
100
AcDbLine
 10
26.426618736345375
 20
2.5332462856383025
 30
0.0
 11
17.770078195804828
 21
2.5332462856383025
 31
0.0
  0
LINE
  5
29
100
AcDbEntity
  8
0
  6
PHANTOM
 62
               3
100
AcDbLine
 10
26.426618736345375
 20
36.0
 30
0.0
 11
26.426618736345375
 21
2.5332462856383025
 31
0.0
  0
LINE
  5
2A
100
AcDbEntity
  8
0
  6
PHANTOM
 62
               3
100
AcDbLine
 10
17.770078195804828
 20
2.5332462856383025
 30
0.0
 11
17.770078195804828
 21
-36.0
 31
0.0
  0
LINE
  5
2B
100
AcDbEntity
  8
0
  6
CONTINUOUS
 62
               4
100
AcDbLine
 10
8.9999999915627029
 20
9.0857864239006787
 30
0.0
 11
8.9999999915627029
 21
5.0999999999999996
 31
0.0
  0
LINE
  5
2C
100
AcDbEntity
  8
0
  6
CONTINUOUS
 62
               4
100
AcDbLine
 10
24.499999991562703
 20
9.0857864239006787
 30
0.0
 11
24.499999991562703
 21
6.7696888883552724
 31
0.0
  0
LINE
  5
2D
100
AcDbEntity
  8
0
  6
CONTINUOUS
 62
               4
100
AcDbLine
 10
35.0
 20
-4.0866486099206298
 30
0.0
 11
35.0
 21
-9.0857864239007
 31
0.0
  0
LINE
  5
2E
100
AcDbEntity
  8
0
  6
CONTINUOUS
 62
               4
100
AcDbLine
 10
19.499999999999773
 20
-6.7696888883552724
 30
0.0
 11
19.499999999999773
 21
-9.0857864239007
 31
0.0
  0
LINE
  5
2F
100
AcDbEntity
  8
0
  6
CONTINUOUS
 62
               4
100
AcDbLine
 10
33.5
 20
-4.0866486099206298
 30
0.0
 11
35.000000019764684
 21
-4.0866486099206298
 31
0.0
  0
LINE
  5
30
100
AcDbEntity
  8
0
  6
CONTINUOUS
 62
               4
100
AcDbLine
 10
33.5
 20
-5.8330952304425665
 30
0.0
 11
35.0
 21
-5.8330952304425665
 31
0.0
  0
LINE
  5
31
100
AcDbEntity
  8
0
  6
CONTINUOUS
 62
               4
100
AcDbLine
 10
8.9999999915627029
 20
5.833095230442602
 30
0.0
 11
10.726681351386759
 21
5.833095230442602
 31
0.0
  0
ELLIPSE
  5
32
100
AcDbEntity
  8
0
  6
CONTINUOUS
 62
               4
100
AcDbEllipse
 10
10.999999991562703
 20
8.0251262521208773
 30
0.0
 11
-1.25
 21
0.0000000000000002
 31
0.0
210
0.0
220
0.0
230
1.0
 40
0.7071067811865476
 41
0.0
 42
6.2831853071795862
  0
LINE
  5
33
100
AcDbEntity
  8
0
  6
CONTINUOUS
 62
               4
100
AcDbLine
 10
11.249999991562703
 20
8.8911516559053254
 30
0.0
 11
11.249999991562703
 21
7.1591008483364291
 31
0.0
  0
LINE
  5
34
100
AcDbEntity
  8
0
  6
CONTINUOUS
 62
               4
100
AcDbLine
 10
10.749999991562703
 20
8.8911516559053254
 30
0.0
 11
10.749999991562703
 21
7.1591008483364291
 31
0.0
  0
ELLIPSE
  5
35
100
AcDbEntity
  8
0
  6
CONTINUOUS
 62
               4
100
AcDbEllipse
 10
21.499999999999773
 20
-8.0251262521208702
 30
0.0
 11
-1.25
 21
0.0000000000000002
 31
0.0
210
0.0
220
0.0
230
1.0
 40
0.7071067811865476
 41
0.0
 42
6.2831853071795862
  0
LINE
  5
36
100
AcDbEntity
  8
0
  6
CONTINUOUS
 62
               4
100
AcDbLine
 10
21.749999999999773
 20
-8.8911516559053183
 30
0.0
 11
21.749999999999773
 21
-7.159100848336422
 31
0.0
  0
LINE
  5
37
100
AcDbEntity
  8
0
  6
CONTINUOUS
 62
               4
100
AcDbLine
 10
21.249999999999773
 20
-8.8911516559053183
 30
0.0
 11
21.249999999999773
 21
-7.159100848336422
 31
0.0
  0
LINE
  5
38
100
AcDbEntity
  8
0
  6
CONTINUOUS
 62
             200
100
AcDbLine
 10
42.331127753164317
 20
3.873226040444635
 30
0.0
 11
43.740096639542578
 21
9.1315695689866558
 31
0.0
  0
LINE
  5
39
100
AcDbEntity
  8
0
  6
CONTINUOUS
 62
             200
100
AcDbLine
 10
42.331127753164324
 20
-9.0657566215435423
 30
0.0
 11
43.740096639542585
 21
-3.8074130930015286
 31
0.0
  0
LINE
  5
3A
100
AcDbEntity
  8
0
  6
CONTINUOUS
 62
               4
100
AcDbLine
 10
24.500000011327387
 20
7.8194913309941043
 30
0.0
 11
43.388526339163725
 21
7.8194913309941043
 31
0.0
  0
LINE
  5
3B
100
AcDbEntity
  8
0
  6
CONTINUOUS
 62
               4
100
AcDbLine
 10
33.5
 20
5.1194913309941157
 30
0.0
 11
42.665063527619857
 21
5.1194913309941157
 31
0.0
  0
LINE
  5
3C
100
AcDbEntity
  8
0
  6
CONTINUOUS
 62
               4
100
AcDbLine
 10
35.0
 20
-5.1194913309941086
 30
0.0
 11
43.388526339163732
 21
-5.1194913309941086
 31
0.0
  0
LINE
  5
3D
100
AcDbEntity
  8
0
  6
CONTINUOUS
 62
               4
100
AcDbLine
 10
35.0
 20
-7.8194913309940972
 30
0.0
 11
42.665063527619864
 21
-7.8194913309940972
 31
0.0
  0
LINE
  5
3E
100
AcDbEntity
  8
0
  6
CONTINUOUS
 62
               4
100
AcDbLine
 10
9.0000000084373255
 20
9.0857864239006787
 30
0.0
 11
24.499999991562703
 21
9.0857864239006787
 31
0.0
  0
LINE
  5
3F
100
AcDbEntity
  8
0
  6
CONTINUOUS
 62
               4
100
AcDbLine
 10
9.0000000084373255
 20
6.9644660803410758
 30
0.0
 11
24.500000008437326
 21
6.9644660803410758
 31
0.0
  0
LINE
  5
40
100
AcDbEntity
  8
0
  6
CONTINUOUS
 62
               4
100
AcDbLine
 10
19.500000016874395
 20
-6.9644660803410403
 30
0.0
 11
35.0
 21
-6.9644660803410403
 31
0.0
  0
LINE
  5
41
100
AcDbEntity
  8
0
  6
CONTINUOUS
 62
               4
100
AcDbLine
 10
19.500000016874395
 20
-9.0857864239007
 30
0.0
 11
35.0
 21
-9.0857864239007
 31
0.0
  0
LINE
  5
43
100
AcDbEntity
  8
0
  6
CENTER
 62
               2
100
AcDbLine
 10
-9.0969874860368805
 20
0.0
 30
0.0
 11
34.640571163080665
 21
0.0
 31
0.0
  0
LINE
  5
44
100
AcDbEntity
  8
0
  6
CONTINUOUS
 62
               7
100
AcDbLine
 10
-0.0000000147648791
 20
10.5
 30
0.0
 11
33.5
 21
10.5
 31
0.0
  0
LINE
  5
45
100
AcDbEntity
  8
0
  6
CONTINUOUS
 62
               7
100
AcDbLine
 10
0.0
 20
10.5
 30
0.0
 11
0.0
 21
-10.5
 31
0.0
  0
LINE
  5
46
100
AcDbEntity
  8
0
  6
CONTINUOUS
 62
               7
100
AcDbLine
 10
33.5
 20
10.5
 30
0.0
 11
33.5
 21
7.8194913309941043
 31
0.0
  0
LINE
  5
47
100
AcDbEntity
  8
0
  6
CENTER
 62
               2
100
AcDbLine
 10
5.5999999999999943
 20
7.5
 30
0.0
 11
12.400000000000006
 21
7.5
 31
0.0
  0
LINE
  5
48
100
AcDbEntity
  8
0
  6
CENTER
 62
               2
100
AcDbLine
 10
9.0
 20
10.899999999999999
 30
0.0
 11
9.0
 21
4.1000000000000014
 31
0.0
  0
ARC
  5
49
100
AcDbEntity
  8
0
  6
CONTINUOUS
 62
               7
100
AcDbCircle
 10
9.0
 20
7.5
 30
0.0
 40
1.3499999999999996
100
AcDbArc
 50
90.000000358089807
 51
269.99999999999937
  0
ARC
  5
4A
100
AcDbEntity
  8
0
  6
CONTINUOUS
 62
               7
100
AcDbCircle
 10
9.0
 20
7.5
 30
0.0
 40
2.4000000000000004
100
AcDbArc
 50
41.356665373641981
 51
342.28416756207855
  0
LINE
  5
4B
100
AcDbEntity
  8
0
  6
CONTINUOUS
 62
               7
100
AcDbLine
 10
-8.0
 20
-1.2000000000000028
 30
0.0
 11
-8.0
 21
1.2000000000000028
 31
0.0
  0
LINE
  5
4C
100
AcDbEntity
  8
0
  6
CONTINUOUS
 62
               7
100
AcDbLine
 10
-1.0
 20
-1.5
 30
0.0
 11
-1.0
 21
1.5
 31
0.0
  0
LINE
  5
4D
100
AcDbEntity
  8
0
  6
CONTINUOUS
 62
               7
100
AcDbLine
 10
-7.7000000000000171
 20
-1.5
 30
0.0
 11
-7.7000000000000171
 21
1.5
 31
0.0
  0
LINE
  5
4E
100
AcDbEntity
  8
0
  6
CONTINUOUS
 62
               2
100
AcDbLine
 10
-1.0
 20
1.2000000000000028
 30
0.0
 11
-0.4803847577293539
 21
1.5
 31
0.0
  0
LINE
  5
4F
100
AcDbEntity
  8
0
  6
CONTINUOUS
 62
               7
100
AcDbLine
 10
-7.7000000000000171
 20
1.5
 30
0.0
 11
-8.0
 21
1.2000000000000028
 31
0.0
  0
LINE
  5
50
100
AcDbEntity
  8
0
  6
CONTINUOUS
 62
               2
100
AcDbLine
 10
-8.0
 20
1.2000000000000028
 30
0.0
 11
-5.5999999999999943
 21
1.2000000000000028
 31
0.0
  0
LINE
  5
51
100
AcDbEntity
  8
0
  6
CONTINUOUS
 62
               7
100
AcDbLine
 10
-7.7000000000000171
 20
-1.5
 30
0.0
 11
-8.0
 21
-1.2000000000000028
 31
0.0
  0
LINE
  5
52
100
AcDbEntity
  8
0
  6
CONTINUOUS
 62
               2
100
AcDbLine
 10
-8.0
 20
-1.2000000000000028
 30
0.0
 11
-5.5999999999999943
 21
-1.2000000000000028
 31
0.0
  0
LINE
  5
53
100
AcDbEntity
  8
0
  6
CONTINUOUS
 62
               2
100
AcDbLine
 10
-1.0
 20
-1.2000000000000028
 30
0.0
 11
-0.4803847577293539
 21
-1.5
 31
0.0
  0
LINE
  5
54
100
AcDbEntity
  8
0
  6
CONTINUOUS
 62
               7
100
AcDbLine
 10
-0.0000000147648791
 20
-10.5
 30
0.0
 11
33.5
 21
-10.5
 31
0.0
  0
LINE
  5
55
100
AcDbEntity
  8
0
  6
CENTER
 62
               2
100
AcDbLine
 10
9.0
 20
-10.899999999999999
 30
0.0
 11
9.0
 21
-4.1000000000000014
 31
0.0
  0
CIRCLE
  5
56
100
AcDbEntity
  8
0
  6
CONTINUOUS
 62
               7
100
AcDbCircle
 10
9.0
 20
-7.5
 30
0.0
 40
2.4000000000000004
  0
CIRCLE
  5
57
100
AcDbEntity
  8
0
  6
CONTINUOUS
 62
               7
100
AcDbCircle
 10
9.0
 20
-7.5
 30
0.0
 40
1.3499999999999996
  0
LINE
  5
58
100
AcDbEntity
  8
0
  6
CENTER
 62
               2
100
AcDbLine
 10
5.5999999999999943
 20
-7.5
 30
0.0
 11
12.400000000000006
 21
-7.5
 31
0.0
  0
LINE
  5
59
100
AcDbEntity
  8
0
  6
CONTINUOUS
 62
               7
100
AcDbLine
 10
-7.7000000000000171
 20
1.5
 30
0.0
 11
-5.5999999999999943
 21
1.5
 31
0.0
  0
LINE
  5
5A
100
AcDbEntity
  8
0
  6
CONTINUOUS
 62
               7
100
AcDbLine
 10
-7.7000000000000171
 20
-1.5
 30
0.0
 11
-5.5999999999999943
 21
-1.5
 31
0.0
  0
LINE
  5
5B
100
AcDbEntity
  8
0
  6
CONTINUOUS
 62
               7
100
AcDbLine
 10
0.0
 20
8.8029437114261384
 30
0.0
 11
6.9844758287594004
 21
8.8029437114261384
 31
0.0
  0
LINE
  5
5C
100
AcDbEntity
  8
0
  6
CONTINUOUS
 62
               7
100
AcDbLine
 10
0.0
 20
6.7696888883552724
 30
0.0
 11
6.7138141632386379
 21
6.7696888883552724
 31
0.0
  0
LINE
  5
5D
100
AcDbEntity
  8
0
  6
CONTINUOUS
 62
               7
100
AcDbLine
 10
0.0
 20
5.4999999300493236
 30
0.0
 11
7.6733501893124583
 21
5.4999999300493236
 31
0.0
  0
LINE
  5
5E
100
AcDbEntity
  8
0
  6
CONTINUOUS
 62
               7
100
AcDbLine
 10
0.0
 20
9.1564971020193937
 30
0.0
 11
7.2633315368207576
 21
9.1564971020193937
 31
0.0
  0
LINE
  5
5F
100
AcDbEntity
  8
0
  6
CONTINUOUS
 62
               7
100
AcDbLine
 10
24.499999991562703
 20
8.8029437114261384
 30
0.0
 11
33.5
 21
8.8029437114261384
 31
0.0
  0
LINE
  5
60
100
AcDbEntity
  8
0
  6
CONTINUOUS
 62
               7
100
AcDbLine
 10
11.286185836761362
 20
6.7696888883552724
 30
0.0
 11
33.5
 21
6.7696888883552724
 31
0.0
  0
LINE
  5
61
100
AcDbEntity
  8
0
  6
CONTINUOUS
 62
               7
100
AcDbLine
 10
10.326649810687542
 20
5.4999999300493236
 30
0.0
 11
33.5
 21
5.4999999300493236
 31
0.0
  0
LINE
  5
62
100
AcDbEntity
  8
0
  6
CONTINUOUS
 62
               7
100
AcDbLine
 10
10.736668463179242
 20
9.1564971020193937
 30
0.0
 11
33.5
 21
9.1564971020193937
 31
0.0
  0
LINE
  5
63
100
AcDbEntity
  8
0
  6
CONTINUOUS
 62
               7
100
AcDbLine
 10
11.0155241712406
 20
-8.8029437114261384
 30
0.0
 11
19.499999999999773
 21
-8.8029437114261384
 31
0.0
  0
LINE
  5
64
100
AcDbEntity
  8
0
  6
CONTINUOUS
 62
               7
100
AcDbLine
 10
11.286185836761362
 20
-6.7696888883552724
 30
0.0
 11
33.5
 21
-6.7696888883552724
 31
0.0
  0
LINE
  5
65
100
AcDbEntity
  8
0
  6
CONTINUOUS
 62
               7
100
AcDbLine
 10
10.326649810687542
 20
-5.4999999300493236
 30
0.0
 11
33.5
 21
-5.4999999300493236
 31
0.0
  0
LINE
  5
66
100
AcDbEntity
  8
0
  6
CONTINUOUS
 62
               7
100
AcDbLine
 10
10.736668463179242
 20
-9.1564971020193919
 30
0.0
 11
33.5
 21
-9.1564971020193919
 31
0.0
  0
LINE
  5
67
100
AcDbEntity
  8
0
  6
CONTINUOUS
 62
               7
100
AcDbLine
 10
0.0
 20
-8.8029437114261384
 30
0.0
 11
6.9844758287594004
 21
-8.8029437114261384
 31
0.0
  0
LINE
  5
68
100
AcDbEntity
  8
0
  6
CONTINUOUS
 62
               7
100
AcDbLine
 10
0.0
 20
-6.7696888883552724
 30
0.0
 11
6.7138141632386379
 21
-6.7696888883552724
 31
0.0
  0
LINE
  5
69
100
AcDbEntity
  8
0
  6
CONTINUOUS
 62
               7
100
AcDbLine
 10
0.0
 20
-5.4999999300493236
 30
0.0
 11
7.6733501893124583
 21
-5.4999999300493236
 31
0.0
  0
LINE
  5
6A
100
AcDbEntity
  8
0
  6
CONTINUOUS
 62
               7
100
AcDbLine
 10
0.0
 20
-9.1564971020193919
 30
0.0
 11
7.2633315368207576
 21
-9.1564971020193919
 31
0.0
  0
LINE
  5
6B
100
AcDbEntity
  8
0
  6
CENTER
 62
               2
100
AcDbLine
 10
14.0
 20
1.9547775518886965
 30
0.0
 11
14.0
 21
-1.9760956580291094
 31
0.0
  0
CIRCLE
  5
6C
100
AcDbEntity
  8
0
  6
CONTINUOUS
 62
               2
100
AcDbCircle
 10
14.0
 20
0.0000000000000142
 30
0.0
 40
1.5
  0
CIRCLE
  5
6D
100
AcDbEntity
  8
0
  6
CONTINUOUS
 62
               7
100
AcDbCircle
 10
14.0
 20
0.0000000000000142
 30
0.0
 40
1.1999999999999886
  0
LINE
  5
6E
100
AcDbEntity
  8
0
  6
CENTER
 62
               2
100
AcDbLine
 10
30.5
 20
1.9547775518886965
 30
0.0
 11
30.5
 21
-1.9760956580291094
 31
0.0
  0
CIRCLE
  5
6F
100
AcDbEntity
  8
0
  6
CONTINUOUS
 62
               2
100
AcDbCircle
 10
30.5
 20
0.0000000000000142
 30
0.0
 40
1.5
  0
CIRCLE
  5
70
100
AcDbEntity
  8
0
  6
CONTINUOUS
 62
               7
100
AcDbCircle
 10
30.5
 20
0.0000000000000142
 30
0.0
 40
1.1999999999999886
  0
LINE
  5
71
100
AcDbEntity
  8
0
  6
CONTINUOUS
 62
               2
100
AcDbLine
 10
-2.0
 20
1.2000000000000028
 30
0.0
 11
-1.0
 21
1.2000000000000028
 31
0.0
  0
LINE
  5
72
100
AcDbEntity
  8
0
  6
CONTINUOUS
 62
               7
100
AcDbLine
 10
-2.0
 20
1.5
 30
0.0
 11
0.0
 21
1.5
 31
0.0
  0
LINE
  5
73
100
AcDbEntity
  8
0
  6
CONTINUOUS
 62
               2
100
AcDbLine
 10
-2.0
 20
-1.2000000000000028
 30
0.0
 11
-1.0
 21
-1.2000000000000028
 31
0.0
  0
LINE
  5
74
100
AcDbEntity
  8
0
  6
CONTINUOUS
 62
               7
100
AcDbLine
 10
-2.0
 20
-1.5
 30
0.0
 11
0.0
 21
-1.5
 31
0.0
  0
SPLINE
  5
75
100
AcDbEntity
  8
0
  6
CONTINUOUS
 62
               7
100
AcDbSpline
210
0.0
220
0.0
230
1.0
 70
               0
 71
               3
 72
               0
 73
               0
 74
               5
 44
0.000001
 12
-0.5262037598477771
 22
0.8503585144643775
 32
0.0
 13
0.5262037751704171
 23
0.8503585049826933
 33
0.0
 11
-5.3543798819169268
 21
-3.1754265238809296
 31
0.0
 11
-5.5318484367291694
 21
-2.794852077955797
 31
0.0
 11
-5.5999999999999943
 21
-2.3815698774887011
 31
0.0
 11
-5.5318484162285797
 21
-1.9682877574118116
 31
0.0
 11
-5.3543798798272775
 21
-1.5877133879722152
 31
0.0
  0
SPLINE
  5
76
100
AcDbEntity
  8
0
  6
CONTINUOUS
 62
               7
100
AcDbSpline
210
0.0
220
0.0
230
1.0
 70
               0
 71
               3
 72
               0
 73
               0
 74
               5
 44
0.000001
 12
0.526203759847777
 22
0.8503585144643776
 32
0.0
 13
-0.5262037751704169
 23
0.8503585049826934
 33
0.0
 11
-2.2456201180830675
 21
-3.1754265238809296
 31
0.0
 11
-2.0681515632708249
 21
-2.794852077955797
 31
0.0
 11
-2.0
 21
-2.3815698774887011
 31
0.0
 11
-2.0681515837714151
 21
-1.9682877574118116
 31
0.0
 11
-2.2456201201727168
 21
-1.5877133879722152
 31
0.0
  0
SPLINE
  5
77
100
AcDbEntity
  8
0
  6
CONTINUOUS
 62
               7
100
AcDbSpline
210
0.0
220
0.0
230
1.0
 70
               0
 71
               3
 72
               0
 73
               0
 74
               5
 44
0.000001
 12
-0.5262037598477771
 22
0.8503585144643775
 32
0.0
 13
0.5262037751704171
 23
0.8503585049826933
 33
0.0
 11
-3.5543798819169297
 21
-3.1754265238809296
 31
0.0
 11
-3.7318484367291722
 21
-2.794852077955797
 31
0.0
 11
-3.7999999999999972
 21
-2.3815698774887011
 31
0.0
 11
-3.7318484162285821
 21
-1.9682877574118116
 31
0.0
 11
-3.5543798798272803
 21
-1.5877133879722152
 31
0.0
  0
SPLINE
  5
78
100
AcDbEntity
  8
0
  6
CONTINUOUS
 62
               7
100
AcDbSpline
210
0.0
220
0.0
230
1.0
 70
               0
 71
               3
 72
               0
 73
               0
 74
               5
 44
0.000001
 12
0.526203759847777
 22
0.8503585144643776
 32
0.0
 13
-0.5262037751704169
 23
0.8503585049826934
 33
0.0
 11
-4.0456201180830647
 21
-3.1754265238809296
 31
0.0
 11
-3.8681515632708221
 21
-2.794852077955797
 31
0.0
 11
-3.7999999999999972
 21
-2.3815698774887011
 31
0.0
 11
-3.8681515837714122
 21
-1.9682877574118116
 31
0.0
 11
-4.045620120172714
 21
-1.5877133879722152
 31
0.0
  0
SPLINE
  5
79
100
AcDbEntity
  8
0
  6
CONTINUOUS
 62
               7
100
AcDbSpline
210
0.0
220
0.0
230
1.0
 70
               0
 71
               3
 72
               0
 73
               0
 74
               5
 44
0.000001
 12
-0.2955767328958228
 22
-0.9553190016798742
 32
0.0
 13
0.2955767328958229
 23
-0.9553190016798742
 33
0.0
 11
-5.3543798798272775
 21
1.5877133879722152
 31
0.0
 11
-5.5365491313846613
 21
0.803775075127956
 31
0.0
 11
-5.5999999999999943
 21
0.0
 31
0.0
 11
-5.5365491313846613
 21
-0.8037750751279561
 31
0.0
 11
-5.3543798798272775
 21
-1.5877133879722152
 31
0.0
  0
SPLINE
  5
7A
100
AcDbEntity
  8
0
  6
CONTINUOUS
 62
               7
100
AcDbSpline
210
0.0
220
0.0
230
1.0
 70
               0
 71
               3
 72
               0
 73
               0
 74
               5
 44
0.000001
 12
0.2955767328958229
 22
-0.9553190016798742
 32
0.0
 13
-0.2955767328958228
 23
-0.9553190016798742
 33
0.0
 11
-2.2456201201727168
 21
1.5877133879722152
 31
0.0
 11
-2.063450868615333
 21
0.803775075127956
 31
0.0
 11
-2.0
 21
0.0
 31
0.0
 11
-2.063450868615333
 21
-0.8037750751279561
 31
0.0
 11
-2.2456201201727168
 21
-1.5877133879722152
 31
0.0
  0
SPLINE
  5
7B
100
AcDbEntity
  8
0
  6
CONTINUOUS
 62
               7
100
AcDbSpline
210
0.0
220
0.0
230
1.0
 70
               0
 71
               3
 72
               0
 73
               0
 74
               5
 44
0.000001
 12
0.2955767328958229
 22
-0.9553190016798742
 32
0.0
 13
-0.2955767328958228
 23
-0.9553190016798742
 33
0.0
 11
-4.045620120172714
 21
1.5877133879722152
 31
0.0
 11
-3.8634508686153302
 21
0.803775075127956
 31
0.0
 11
-3.7999999999999972
 21
0.0
 31
0.0
 11
-3.8634508686153302
 21
-0.8037750751279561
 31
0.0
 11
-4.045620120172714
 21
-1.5877133879722152
 31
0.0
  0
SPLINE
  5
7C
100
AcDbEntity
  8
0
  6
CONTINUOUS
 62
               7
100
AcDbSpline
210
0.0
220
0.0
230
1.0
 70
               0
 71
               3
 72
               0
 73
               0
 74
               5
 44
0.000001
 12
-0.2955767328958228
 22
-0.9553190016798742
 32
0.0
 13
0.2955767328958229
 23
-0.9553190016798742
 33
0.0
 11
-3.5543798798272803
 21
1.5877133879722152
 31
0.0
 11
-3.7365491313846642
 21
0.803775075127956
 31
0.0
 11
-3.7999999999999972
 21
0.0
 31
0.0
 11
-3.7365491313846642
 21
-0.8037750751279561
 31
0.0
 11
-3.5543798798272803
 21
-1.5877133879722152
 31
0.0
  0
SPLINE
  5
7D
100
AcDbEntity
  8
0
  6
CONTINUOUS
 62
               7
100
AcDbSpline
210
0.0
220
0.0
230
1.0
 70
               0
 71
               3
 72
               0
 73
               0
 74
               5
 44
0.000001
 12
0.526203759847777
 22
-0.8503585144643776
 32
0.0
 13
-0.5262037751704169
 23
-0.8503585049826934
 33
0.0
 11
-4.0456201180830647
 21
3.1754265238809296
 31
0.0
 11
-3.8681515632708221
 21
2.794852077955797
 31
0.0
 11
-3.7999999999999972
 21
2.3815698774887011
 31
0.0
 11
-3.8681515837714122
 21
1.9682877574118116
 31
0.0
 11
-4.045620120172714
 21
1.5877133879722152
 31
0.0
  0
SPLINE
  5
7E
100
AcDbEntity
  8
0
  6
CONTINUOUS
 62
               7
100
AcDbSpline
210
0.0
220
0.0
230
1.0
 70
               0
 71
               3
 72
               0
 73
               0
 74
               5
 44
0.000001
 12
-0.5262037598477771
 22
-0.8503585144643775
 32
0.0
 13
0.5262037751704171
 23
-0.8503585049826933
 33
0.0
 11
-5.3543798819169268
 21
3.1754265238809296
 31
0.0
 11
-5.5318484367291694
 21
2.794852077955797
 31
0.0
 11
-5.5999999999999943
 21
2.3815698774887011
 31
0.0
 11
-5.5318484162285797
 21
1.9682877574118116
 31
0.0
 11
-5.3543798798272775
 21
1.5877133879722152
 31
0.0
  0
SPLINE
  5
7F
100
AcDbEntity
  8
0
  6
CONTINUOUS
 62
               7
100
AcDbSpline
210
0.0
220
0.0
230
1.0
 70
               0
 71
               3
 72
               0
 73
               0
 74
               5
 44
0.000001
 12
0.526203759847777
 22
-0.8503585144643776
 32
0.0
 13
-0.5262037751704169
 23
-0.8503585049826934
 33
0.0
 11
-2.2456201180830675
 21
3.1754265238809296
 31
0.0
 11
-2.0681515632708249
 21
2.794852077955797
 31
0.0
 11
-2.0
 21
2.3815698774887011
 31
0.0
 11
-2.0681515837714151
 21
1.9682877574118116
 31
0.0
 11
-2.2456201201727168
 21
1.5877133879722152
 31
0.0
  0
SPLINE
  5
80
100
AcDbEntity
  8
0
  6
CONTINUOUS
 62
               7
100
AcDbSpline
210
0.0
220
0.0
230
1.0
 70
               0
 71
               3
 72
               0
 73
               0
 74
               5
 44
0.000001
 12
-0.5262037598477771
 22
-0.8503585144643775
 32
0.0
 13
0.5262037751704171
 23
-0.8503585049826933
 33
0.0
 11
-3.5543798819169297
 21
3.1754265238809296
 31
0.0
 11
-3.7318484367291722
 21
2.794852077955797
 31
0.0
 11
-3.7999999999999972
 21
2.3815698774887011
 31
0.0
 11
-3.7318484162285821
 21
1.9682877574118116
 31
0.0
 11
-3.5543798798272803
 21
1.5877133879722152
 31
0.0
  0
LINE
  5
81
100
AcDbEntity
  8
0
  6
CONTINUOUS
 62
               7
100
AcDbLine
 10
-2.0
 20
-2.75
 30
0.0
 11
-2.2456201180830675
 21
-3.1754265238809296
 31
0.0
  0
LINE
  5
82
100
AcDbEntity
  8
0
  6
CONTINUOUS
 62
               7
100
AcDbLine
 10
-5.5999999999999943
 20
-2.75
 30
0.0
 11
-5.3543798819169268
 21
-3.1754265238809296
 31
0.0
  0
LINE
  5
83
100
AcDbEntity
  8
0
  6
CONTINUOUS
 62
               7
100
AcDbLine
 10
-3.7999999999999972
 20
-2.75
 30
0.0
 11
-3.5543798819169297
 21
-3.1754265238809296
 31
0.0
  0
LINE
  5
84
100
AcDbEntity
  8
0
  6
CONTINUOUS
 62
               7
100
AcDbLine
 10
-3.7999999999999972
 20
-2.75
 30
0.0
 11
-4.0456201180830647
 21
-3.1754265238809296
 31
0.0
  0
LINE
  5
85
100
AcDbEntity
  8
0
  6
CONTINUOUS
 62
               7
100
AcDbLine
 10
-4.045620120172714
 20
-3.1754265238809296
 30
0.0
 11
-5.3543798691084135
 21
-3.1754265238809296
 31
0.0
  0
LINE
  5
86
100
AcDbEntity
  8
0
  6
CONTINUOUS
 62
               7
100
AcDbLine
 10
-4.045620120172714
 20
-1.5877133879722152
 30
0.0
 11
-5.3543798798272775
 21
-1.5877133879722152
 31
0.0
  0
LINE
  5
87
100
AcDbEntity
  8
0
  6
CONTINUOUS
 62
               7
100
AcDbLine
 10
-3.5543798798272803
 20
-1.5877133879722152
 30
0.0
 11
-2.2456201201727168
 21
-1.5877133879722152
 31
0.0
  0
LINE
  5
88
100
AcDbEntity
  8
0
  6
CONTINUOUS
 62
               7
100
AcDbLine
 10
-3.5543798798272803
 20
-3.1754265238809296
 30
0.0
 11
-2.2456201308915809
 21
-3.1754265238809296
 31
0.0
  0
LINE
  5
89
100
AcDbEntity
  8
0
  6
CONTINUOUS
 62
               7
100
AcDbLine
 10
-4.045620120172714
 20
1.5877133879722152
 30
0.0
 11
-5.3543798798272775
 21
1.5877133879722152
 31
0.0
  0
LINE
  5
8A
100
AcDbEntity
  8
0
  6
CONTINUOUS
 62
               7
100
AcDbLine
 10
-3.5543798798272803
 20
1.5877133879722152
 30
0.0
 11
-2.2456201201727168
 21
1.5877133879722152
 31
0.0
  0
LINE
  5
8B
100
AcDbEntity
  8
0
  6
CONTINUOUS
 62
               7
100
AcDbLine
 10
-3.5543798798272803
 20
3.1754265238809296
 30
0.0
 11
-2.2456201308915809
 21
3.1754265238809296
 31
0.0
  0
LINE
  5
8C
100
AcDbEntity
  8
0
  6
CONTINUOUS
 62
               7
100
AcDbLine
 10
-3.7999999999999972
 20
2.75
 30
0.0
 11
-3.5543798819169297
 21
3.1754265238809296
 31
0.0
  0
LINE
  5
8D
100
AcDbEntity
  8
0
  6
CONTINUOUS
 62
               7
100
AcDbLine
 10
-2.0
 20
2.75
 30
0.0
 11
-2.2456201180830675
 21
3.1754265238809296
 31
0.0
  0
LINE
  5
8E
100
AcDbEntity
  8
0
  6
CONTINUOUS
 62
               7
100
AcDbLine
 10
-5.5999999999999943
 20
2.75
 30
0.0
 11
-5.3543798819169268
 21
3.1754265238809296
 31
0.0
  0
LINE
  5
8F
100
AcDbEntity
  8
0
  6
CONTINUOUS
 62
               7
100
AcDbLine
 10
-3.7999999999999972
 20
2.75
 30
0.0
 11
-4.0456201180830647
 21
3.1754265238809296
 31
0.0
  0
LINE
  5
90
100
AcDbEntity
  8
0
  6
CONTINUOUS
 62
               7
100
AcDbLine
 10
-4.045620120172714
 20
3.1754265238809296
 30
0.0
 11
-5.3543798691084135
 21
3.1754265238809296
 31
0.0
  0
LINE
  5
91
100
AcDbEntity
  8
0
  6
CONTINUOUS
 62
               7
100
AcDbLine
 10
-5.5999999999999943
 20
-2.750000018878012
 30
0.0
 11
-5.5999999999999943
 21
2.749999981121988
 31
0.0
  0
LINE
  5
92
100
AcDbEntity
  8
0
  6
CONTINUOUS
 62
               7
100
AcDbLine
 10
-2.0
 20
-2.750000018878012
 30
0.0
 11
-2.0
 21
2.749999981121988
 31
0.0
  0
LINE
  5
93
100
AcDbEntity
  8
0
  6
CONTINUOUS
 62
               7
100
AcDbLine
 10
-3.7999999999999972
 20
-2.750000018878012
 30
0.0
 11
-3.7999999999999972
 21
2.749999981121988
 31
0.0
  0
LINE
  5
94
100
AcDbEntity
  8
0
  6
CENTER
 62
               2
100
AcDbLine
 10
3.5
 20
-1.9547775518886823
 30
0.0
 11
3.5
 21
1.9760956580291236
 31
0.0
  0
CIRCLE
  5
95
100
AcDbEntity
  8
0
  6
CONTINUOUS
 62
               2
100
AcDbCircle
 10
3.5
 20
0.0
 30
0.0
 40
1.5
  0
CIRCLE
  5
96
100
AcDbEntity
  8
0
  6
CONTINUOUS
 62
               7
100
AcDbCircle
 10
3.5
 20
0.0
 30
0.0
 40
1.1999999999999886
  0
LINE
  5
97
100
AcDbEntity
  8
0
  6
CONTINUOUS
 62
               7
100
AcDbLine
 10
33.5
 20
6.7696888883552724
 30
0.0
 11
33.5
 21
-6.7696888883552724
 31
0.0
  0
LINE
  5
98
100
AcDbEntity
  8
0
  6
CONTINUOUS
 62
               7
100
AcDbLine
 10
33.5
 20
-9.0857864239007
 30
0.0
 11
33.5
 21
-10.5
 31
0.0
  0
ENDBLK
  5
99
100
AcDbEntity
  8
0
100
AcDbBlockEnd
  0
BLOCK
  5
9A
100
AcDbEntity
  8
0
100
AcDbBlockBegin
  2
MS_2
 70
               0
 10
0.0
 20
0.0
 30
0.0
  3
MS_2
  1

  0
LINE
  5
9B
100
AcDbEntity
  8
0
  6
CONTINUOUS
 62
             200
100
AcDbLine
 10
10.380878472178182
 20
5.4462068058790649
 30
0.0
 11
9.3212284529429041
 21
4.3865567866438155
 31
0.0
  0
LINE
  5
9C
100
AcDbEntity
  8
0
  6
CONTINUOUS
 62
               4
100
AcDbLine
 10
12.216325645629666
 20
5.8694607220464619
 30
0.0
 11
11.12132028733501
 21
4.7744553637518621
 31
0.0
  0
LINE
  5
9D
100
AcDbEntity
  8
0
  6
CONTINUOUS
 62
               4
100
AcDbLine
 10
10.521289675870975
 20
5.3057956021863006
 30
0.0
 11
9.6020508603284895
 21
4.3865567866438155
 31
0.0
  0
LINE
  5
9E
100
AcDbEntity
  8
0
  6
CONTINUOUS
 62
               4
100
AcDbLine
 10
8.8949440791418226
 20
4.3865567866438155
 30
0.0
 11
9.6020508603284895
 21
4.3865567866438155
 31
0.0
  0
ARC
  5
9F
100
AcDbEntity
  8
0
  6
CONTINUOUS
 62
               4
100
AcDbCircle
 10
9.6707405806948543
 20
6.2239506842460415
 30
0.0
 40
2.0506628609917015
100
AcDbArc
 50
225.05843089091513
 51
315.02142384112307
  0
LINE
  5
A0
100
AcDbEntity
  8
0
  6
CONTINUOUS
 62
               4
100
AcDbLine
 10
12.216325645629666
 20
5.8694607220464619
 30
0.0
 11
12.218345950718657
 21
6.647278181351659
 31
0.0
  0
LINE
  5
A1
100
AcDbEntity
  8
0
  6
CONTINUOUS
 62
             200
100
AcDbLine
 10
8.8959542316865452
 20
6.9311310463708153
 30
0.0
 11
7.8342839073620496
 21
5.8694607220464619
 31
0.0
  0
LINE
  5
A2
100
AcDbEntity
  8
0
  6
CONTINUOUS
 62
               4
100
AcDbLine
 10
9.3171878427646959
 20
8.7685985249112903
 30
0.0
 11
8.2221824844702667
 21
7.6735931666166906
 31
0.0
  0
LINE
  5
A3
100
AcDbEntity
  8
0
  6
CONTINUOUS
 62
               4
100
AcDbLine
 10
8.7535227229045347
 20
7.0735625551526837
 30
0.0
 11
7.8342839073620496
 21
6.1543237396101702
 31
0.0
  0
LINE
  5
A4
100
AcDbEntity
  8
0
  6
CONTINUOUS
 62
               4
100
AcDbLine
 10
7.8342839073620496
 20
6.1543237396101702
 30
0.0
 11
7.8342839073620496
 21
5.447216958423617
 31
0.0
  0
ARC
  5
A5
100
AcDbEntity
  8
0
  6
CONTINUOUS
 62
               4
100
AcDbCircle
 10
9.6736031547715982
 20
6.2230141126397385
 30
0.0
 40
2.0520237703338058
100
AcDbArc
 50
135.01661649434493
 51
224.98338350565427
  0
LINE
  5
A6
100
AcDbEntity
  8
0
  6
CONTINUOUS
 62
               4
100
AcDbLine
 10
9.6020508603284895
 20
4.3865567866438155
 30
0.0
 11
7.8342839073620496
 21
6.1543237396101702
 31
0.0
  0
LINE
  5
A7
100
AcDbEntity
  8
0
  6
CONTINUOUS
 62
               4
100
AcDbLine
 10
11.086975100820126
 20
4.7401101772370922
 30
0.0
 11
8.1878372979553831
 21
7.6392479801019206
 31
0.0
  0
LINE
  5
A8
100
AcDbEntity
  8
0
  6
CONTINUOUS
 62
               4
100
AcDbLine
 10
8.8949440791418226
 20
4.3865567866438155
 30
0.0
 11
7.8342839073620496
 21
5.447216958423617
 31
0.0
  0
LINE
  5
A9
100
AcDbEntity
  8
0
  6
CONTINUOUS
 62
               4
100
AcDbLine
 10
12.535533849708116
 20
6.9644660803410616
 30
0.0
 11
10.414213506148343
 21
9.0857864239006929
 31
0.0
  0
LINE
  5
AA
100
AcDbEntity
  8
0
  6
CONTINUOUS
 62
               4
100
AcDbLine
 10
10.414213506148343
 20
9.0857864239006645
 30
0.0
 11
10.097025607159111
 21
8.7685985249112903
 31
0.0
  0
LINE
  5
AB
100
AcDbEntity
  8
0
  6
CENTER
 62
             200
100
AcDbLine
 10
12.493371208969137
 20
9.0436237831617987
 30
0.0
 11
7.5799329346168349
 21
4.1301855088093475
 31
0.0
  0
LINE
  5
AC
100
AcDbEntity
  8
0
  6
CONTINUOUS
 62
               4
100
AcDbLine
 10
11.650640220680287
 20
5.3037752970971965
 30
0.0
 11
8.7515024178155443
 21
8.2029130999620534
 31
0.0
  0
LINE
  5
AD
100
AcDbEntity
  8
0
  6
CONTINUOUS
 62
               4
100
AcDbLine
 10
9.3171878427646959
 20
8.7685985249112903
 30
0.0
 11
10.097025607159111
 21
8.7685985249112903
 31
0.0
  0
LINE
  5
AE
100
AcDbEntity
  8
0
  6
CONTINUOUS
 62
               4
100
AcDbLine
 10
12.535533849708116
 20
6.9644660803410048
 30
0.0
 11
12.218345950718657
 21
6.647278181351659
 31
0.0
  0
ARC
  5
AF
100
AcDbEntity
  8
0
  6
CONTINUOUS
 62
               4
100
AcDbCircle
 10
9.6707405806948543
 20
-6.2239506842460628
 30
0.0
 40
2.0506628609917015
100
AcDbArc
 50
44.978576158876109
 51
134.94156910908407
  0
ARC
  5
B0
100
AcDbEntity
  8
0
  6
CONTINUOUS
 62
               4
100
AcDbCircle
 10
9.6736031547715982
 20
-6.2230141126397314
 30
0.0
 40
2.0520237703338058
100
AcDbArc
 50
135.01661649434493
 51
224.98338350565427
  0
LINE
  5
B1
100
AcDbEntity
  8
0
  6
CONTINUOUS
 62
               4
100
AcDbLine
 10
11.086975100820126
 20
-4.7401101772370851
 30
0.0
 11
8.1878372979553831
 21
-7.6392479801019419
 31
0.0
  0
LINE
  5
B2
100
AcDbEntity
  8
0
  6
CENTER
 62
             200
100
AcDbLine
 10
12.493371208969137
 20
-9.0436237831617916
 30
0.0
 11
7.5799329346168349
 21
-4.130185508809376
 31
0.0
  0
LINE
  5
B3
100
AcDbEntity
  8
0
  6
CONTINUOUS
 62
               4
100
AcDbLine
 10
11.650640220680287
 20
-5.3037752970972463
 30
0.0
 11
8.7515024178155443
 21
-8.2029130999620747
 31
0.0
  0
LINE
  5
B4
100
AcDbEntity
  8
0
  6
CONTINUOUS
 62
               4
100
AcDbLine
 10
8.8949440791418226
 20
-4.3865567866438084
 30
0.0
 11
7.8342839073620496
 21
-5.4472169584236383
 31
0.0
  0
LINE
  5
B5
100
AcDbEntity
  8
0
  6
CONTINUOUS
 62
               4
100
AcDbLine
 10
9.6020508603284895
 20
-4.3865567866438084
 30
0.0
 11
7.8342839073620496
 21
-6.1543237396101915
 31
0.0
  0
LINE
  5
B6
100
AcDbEntity
  8
0
  6
CONTINUOUS
 62
               4
100
AcDbLine
 10
7.8342839073620496
 20
-6.1543237396101915
 30
0.0
 11
7.8342839073620496
 21
-5.4472169584236383
 31
0.0
  0
LINE
  5
B7
100
AcDbEntity
  8
0
  6
CONTINUOUS
 62
               4
100
AcDbLine
 10
8.7535227229045347
 20
-7.073562555152705
 30
0.0
 11
7.8342839073620496
 21
-6.1543237396101915
 31
0.0
  0
LINE
  5
B8
100
AcDbEntity
  8
0
  6
CONTINUOUS
 62
             200
100
AcDbLine
 10
8.8959542316865452
 20
-6.9311310463708367
 30
0.0
 11
7.8342839073620496
 21
-5.8694607220464547
 31
0.0
  0
LINE
  5
B9
100
AcDbEntity
  8
0
  6
CONTINUOUS
 62
               4
100
AcDbLine
 10
8.8949440791418226
 20
-4.3865567866438084
 30
0.0
 11
9.6020508603284895
 21
-4.3865567866438084
 31
0.0
  0
LINE
  5
BA
100
AcDbEntity
  8
0
  6
CONTINUOUS
 62
               4
100
AcDbLine
 10
10.521289675870975
 20
-5.3057956021863504
 30
0.0
 11
9.6020508603284895
 21
-4.3865567866438084
 31
0.0
  0
LINE
  5
BB
100
AcDbEntity
  8
0
  6
CONTINUOUS
 62
             200
100
AcDbLine
 10
10.380878472178182
 20
-5.4462068058790862
 30
0.0
 11
9.3212284529429041
 21
-4.3865567866438084
 31
0.0
  0
LINE
  5
BC
100
AcDbEntity
  8
0
  6
CONTINUOUS
 62
               4
100
AcDbLine
 10
9.3171878427646959
 20
-8.7685985249113116
 30
0.0
 11
8.2221824844702667
 21
-7.6735931666167119
 31
0.0
  0
LINE
  5
BD
100
AcDbEntity
  8
0
  6
CONTINUOUS
 62
               4
100
AcDbLine
 10
12.535533849708116
 20
-6.9644660803410545
 30
0.0
 11
12.218345950718657
 21
-6.6472781813516804
 31
0.0
  0
LINE
  5
BE
100
AcDbEntity
  8
0
  6
CONTINUOUS
 62
               4
100
AcDbLine
 10
9.3171878427646959
 20
-8.7685985249113116
 30
0.0
 11
10.097025607159111
 21
-8.7685985249113116
 31
0.0
  0
LINE
  5
BF
100
AcDbEntity
  8
0
  6
CONTINUOUS
 62
               4
100
AcDbLine
 10
10.414213506148343
 20
-9.0857864239007142
 30
0.0
 11
10.097025607159111
 21
-8.7685985249113116
 31
0.0
  0
LINE
  5
C0
100
AcDbEntity
  8
0
  6
CONTINUOUS
 62
               4
100
AcDbLine
 10
12.535533849708116
 20
-6.9644660803410545
 30
0.0
 11
10.414213506148343
 21
-9.0857864239007142
 31
0.0
  0
LINE
  5
C1
100
AcDbEntity
  8
0
  6
CONTINUOUS
 62
               4
100
AcDbLine
 10
12.216325645629666
 20
-5.8694607220464547
 30
0.0
 11
12.218345950718657
 21
-6.6472781813516804
 31
0.0
  0
LINE
  5
C2
100
AcDbEntity
  8
0
  6
CONTINUOUS
 62
               4
100
AcDbLine
 10
12.216325645629666
 20
-5.8694607220464547
 30
0.0
 11
11.12132028733501
 21
-4.774455363751855
 31
0.0
  0
LINE
  5
C3
100
AcDbEntity
  8
0
  6
CONTINUOUS
 62
               7
100
AcDbLine
 10
12.818376562182721
 20
-6.6816233678664929
 30
0.0
 11
14.0
 21
-5.4999999300493236
 31
0.0
  0
LINE
  5
C4
100
AcDbEntity
  8
0
  6
CONTINUOUS
 62
               7
100
AcDbLine
 10
12.3941124934708
 20
-6.6816233678664929
 30
0.0
 11
12.252691137233484
 21
-6.5402020116291766
 31
0.0
  0
LINE
  5
C5
100
AcDbEntity
  8
0
  6
CONTINUOUS
 62
               7
100
AcDbLine
 10
12.252691137233484
 20
-6.5402020116291766
 30
0.0
 11
12.252691137233484
 21
-5.8330952304426376
 31
0.0
  0
LINE
  5
C6
100
AcDbEntity
  8
0
  6
CONTINUOUS
 62
               7
100
AcDbLine
 10
10.131370793673852
 20
-8.9443650676634405
 30
0.0
 11
9.9899494374365361
 21
-8.8029437114261384
 31
0.0
  0
ARC
  5
C7
100
AcDbEntity
  8
0
  6
CONTINUOUS
 62
               7
100
AcDbCircle
 10
9.9182496774320441
 20
-9.1564971020194008
 30
0.0
 40
0.3007001998472195
100
AcDbArc
 50
-44.866737929198983
 51
44.866737929198038
  0
LINE
  5
C8
100
AcDbEntity
  8
0
  6
CONTINUOUS
 62
               7
100
AcDbLine
 10
9.2828426562499828
 20
-8.8029437114261384
 30
0.0
 11
9.9899494374365361
 21
-8.8029437114261384
 31
0.0
  0
LINE
  5
C9
100
AcDbEntity
  8
0
  6
CONTINUOUS
 62
               7
100
AcDbLine
 10
10.164213554651639
 20
-9.3357863753975749
 30
0.0
 11
8.9999999300491993
 21
-10.499999999999993
 31
0.0
  0
LINE
  5
CA
100
AcDbEntity
  8
0
  6
CONTINUOUS
 62
               7
100
AcDbLine
 10
9.2828426562499828
 20
-8.8029437114261384
 30
0.0
 11
8.151471806351509
 21
-7.6715728615276646
 31
0.0
  0
LINE
  5
CB
100
AcDbEntity
  8
0
  6
CONTINUOUS
 62
               7
100
AcDbLine
 10
0.5
 20
-10.5
 30
0.0
 11
8.9999999300491993
 21
-10.5
 31
0.0
  0
ARC
  5
CC
100
AcDbEntity
  8
0
  6
CONTINUOUS
 62
               7
100
AcDbCircle
 10
9.6363960468432595
 20
-6.1866486210359
 30
0.0
 40
2.1000000111152071
100
AcDbArc
 50
44.999999999999901
 51
224.99999999999949
  0
LINE
  5
CD
100
AcDbEntity
  8
0
  6
CONTINUOUS
 62
               7
100
AcDbLine
 10
12.252691137233484
 20
-5.8330952304426376
 30
0.0
 11
11.12132028733501
 21
-4.7017243805441638
 31
0.0
  0
ARC
  5
CE
100
AcDbEntity
  8
0
  6
CONTINUOUS
 62
               7
100
AcDbCircle
 10
12.60624452782676
 20
-6.4701645364513922
 30
0.0
 40
0.2995243519038812
100
AcDbArc
 50
224.90894124989543
 51
315.09105875010232
  0
LINE
  5
CF
100
AcDbEntity
  8
0
  6
CENTER
 62
               2
100
AcDbLine
 10
5.0
 20
-5.8499999999999996
 30
0.0
 11
5.0
 21
5.8500000000000014
 31
0.0
  0
LINE
  5
D0
100
AcDbEntity
  8
0
  6
CONTINUOUS
 62
               7
100
AcDbLine
 10
0.0
 20
10.0
 30
0.0
 11
0.0
 21
-10.0
 31
0.0
  0
LINE
  5
D1
100
AcDbEntity
  8
0
  6
CENTER
 62
               2
100
AcDbLine
 10
-1.0175191479551984
 20
0.0
 30
0.0
 11
14.757204481534416
 21
0.0
 31
0.0
  0
LINE
  5
D2
100
AcDbEntity
  8
0
  6
CONTINUOUS
 62
               7
100
AcDbLine
 10
0.5
 20
10.5
 30
0.0
 11
8.9999999300491993
 21
10.5
 31
0.0
  0
LINE
  5
D3
100
AcDbEntity
  8
0
  6
CONTINUOUS
 62
               7
100
AcDbLine
 10
14.0
 20
5.4999999300493236
 30
0.0
 11
14.0
 21
-5.4999999300493236
 31
0.0
  0
LINE
  5
D4
100
AcDbEntity
  8
0
  6
CONTINUOUS
 62
               7
100
AcDbLine
 10
9.2828426562499828
 20
8.8029437114261384
 30
0.0
 11
8.151471806351509
 21
7.6715728615276646
 31
0.0
  0
LINE
  5
D5
100
AcDbEntity
  8
0
  6
CONTINUOUS
 62
               7
100
AcDbLine
 10
10.164213554651639
 20
9.3357863753975749
 30
0.0
 11
8.9999999300491993
 21
10.499999999999993
 31
0.0
  0
LINE
  5
D6
100
AcDbEntity
  8
0
  6
CONTINUOUS
 62
               7
100
AcDbLine
 10
9.2828426562499828
 20
8.8029437114261384
 30
0.0
 11
9.9899494374365361
 21
8.8029437114261384
 31
0.0
  0
ARC
  5
D7
100
AcDbEntity
  8
0
  6
CONTINUOUS
 62
               7
100
AcDbCircle
 10
9.9182496774320441
 20
9.1564971020194008
 30
0.0
 40
0.3007001998472195
100
AcDbArc
 50
315.13326207080115
 51
44.866737929199004
  0
LINE
  5
D8
100
AcDbEntity
  8
0
  6
CONTINUOUS
 62
               7
100
AcDbLine
 10
10.131370793673852
 20
8.9443650676634405
 30
0.0
 11
9.9899494374365361
 21
8.8029437114261384
 31
0.0
  0
ARC
  5
D9
100
AcDbEntity
  8
0
  6
CONTINUOUS
 62
               7
100
AcDbCircle
 10
9.6363960468432595
 20
6.1866486210359
 30
0.0
 40
2.1000000111152071
100
AcDbArc
 50
134.99999999999969
 51
314.99999999999932
  0
LINE
  5
DA
100
AcDbEntity
  8
0
  6
CONTINUOUS
 62
               7
100
AcDbLine
 10
12.252691137233484
 20
5.8330952304426376
 30
0.0
 11
11.12132028733501
 21
4.7017243805441638
 31
0.0
  0
LINE
  5
DB
100
AcDbEntity
  8
0
  6
CONTINUOUS
 62
               7
100
AcDbLine
 10
12.252691137233484
 20
6.5402020116291766
 30
0.0
 11
12.252691137233484
 21
5.8330952304426376
 31
0.0
  0
ARC
  5
DC
100
AcDbEntity
  8
0
  6
CONTINUOUS
 62
               7
100
AcDbCircle
 10
12.60624452782676
 20
6.4701645364513922
 30
0.0
 40
0.2995243519038812
100
AcDbArc
 50
44.908941249896863
 51
135.09105875010374
  0
LINE
  5
DD
100
AcDbEntity
  8
0
  6
CONTINUOUS
 62
               7
100
AcDbLine
 10
12.3941124934708
 20
6.6816233678664929
 30
0.0
 11
12.252691137233484
 21
6.5402020116291766
 31
0.0
  0
LINE
  5
DE
100
AcDbEntity
  8
0
  6
CONTINUOUS
 62
               7
100
AcDbLine
 10
12.818376562182721
 20
6.6816233678664929
 30
0.0
 11
14.0
 21
5.4999999300493236
 31
0.0
  0
CIRCLE
  5
DF
100
AcDbEntity
  8
0
  6
CONTINUOUS
 62
               7
100
AcDbCircle
 10
5.0
 20
0.0
 30
0.0
 40
4.1500000000000004
  0
CIRCLE
  5
E0
100
AcDbEntity
  8
0
  6
CONTINUOUS
 62
               7
100
AcDbCircle
 10
5.0
 20
0.0
 30
0.0
 40
4.3499999999999996
  0
CIRCLE
  5
E1
100
AcDbEntity
  8
0
  6
CONTINUOUS
 62
               7
100
AcDbCircle
 10
5.0
 20
0.0
 30
0.0
 40
1.5
  0
CIRCLE
  5
E2
100
AcDbEntity
  8
0
  6
CONTINUOUS
 62
               2
100
AcDbCircle
 10
5.0
 20
0.0
 30
0.0
 40
1.2000000000000028
  0
CIRCLE
  5
E3
100
AcDbEntity
  8
0
  6
CONTINUOUS
 62
               7
100
AcDbCircle
 10
5.0
 20
0.0
 30
0.0
 40
2.75
  0
LINE
  5
E4
100
AcDbEntity
  8
0
  6
CONTINUOUS
 62
               7
100
AcDbLine
 10
2.2499999131150616
 20
1.5877132904345181
 30
0.0
 11
5.0000001482424068
 21
3.1754265238809261
 31
0.0
  0
LINE
  5
E5
100
AcDbEntity
  8
0
  6
CONTINUOUS
 62
               7
100
AcDbLine
 10
2.2499999131150616
 20
-1.5877132904345146
 30
0.0
 11
2.2500000365893982
 21
1.5877133903221576
 31
0.0
  0
LINE
  5
E6
100
AcDbEntity
  8
0
  6
CONTINUOUS
 62
               7
100
AcDbLine
 10
5.0
 20
-3.1754265808690292
 30
0.0
 11
2.2499998883469914
 21
-1.5877131335587702
 31
0.0
  0
LINE
  5
E7
100
AcDbEntity
  8
0
  6
CONTINUOUS
 62
               7
100
AcDbLine
 10
7.7500000868849384
 20
-1.5877132904345181
 30
0.0
 11
4.9999998517575932
 21
-3.1754265238809261
 31
0.0
  0
LINE
  5
E8
100
AcDbEntity
  8
0
  6
CONTINUOUS
 62
               7
100
AcDbLine
 10
7.7500000868849668
 20
1.5877132904345146
 30
0.0
 11
7.7499999634106018
 21
-1.5877133903221559
 31
0.0
  0
LINE
  5
E9
100
AcDbEntity
  8
0
  6
CONTINUOUS
 62
               7
100
AcDbLine
 10
5.0
 20
3.1754265808690292
 30
0.0
 11
7.7500001116530086
 21
1.587713133558772
 31
0.0
  0
ARC
  5
EA
100
AcDbEntity
  8
0
  6
CONTINUOUS
 62
               7
100
AcDbCircle
 10
0.5
 20
10.0
 30
0.0
 40
0.5
100
AcDbArc
 50
89.999999999999801
 51
179.9999999999996
  0
ARC
  5
EB
100
AcDbEntity
  8
0
  6
CONTINUOUS
 62
               7
100
AcDbCircle
 10
0.5
 20
-10.0
 30
0.0
 40
0.5
100
AcDbArc
 50
179.9999999999996
 51
269.99999999999937
  0
LINE
  5
EC
100
AcDbEntity
  8
0
  6
CENTER
 62
               2
100
AcDbLine
 10
1.5
 20
7.5
 30
0.0
 11
-1.5
 21
7.5
 31
0.0
  0
LINE
  5
ED
100
AcDbEntity
  8
0
  6
CENTER
 62
               2
100
AcDbLine
 10
1.5
 20
-7.5
 30
0.0
 11
-1.5
 21
-7.5
 31
0.0
  0
ENDBLK
  5
EE
100
AcDbEntity
  8
0
100
AcDbBlockEnd
  0
BLOCK
  5
EF
100
AcDbEntity
  8
0
100
AcDbBlockBegin
  2
MS_3
 70
               0
 10
0.0
 20
0.0
 30
0.0
  3
MS_3
  1

  0
LINE
  5
F0
100
AcDbEntity
  8
0
  6
PHANTOM
 62
               3
100
AcDbLine
 10
26.426618729708593
 20
19.0
 30
0.0
 11
26.426618729708593
 21
-5.0
 31
0.0
  0
CIRCLE
  5
F2
100
AcDbEntity
  8
0
  6
DASHED
 62
               7
100
AcDbCircle
 10
30.5
 20
8.9999999999999858
 30
0.0
 40
1.1999999999999886
  0
CIRCLE
  5
F3
100
AcDbEntity
  8
0
  6
DASHED
 62
               2
100
AcDbCircle
 10
30.5
 20
8.9999999999999858
 30
0.0
 40
1.5
  0
LINE
  5
F4
100
AcDbEntity
  8
0
  6
CENTER
 62
               2
100
AcDbLine
 10
30.5
 20
7.0452224481113035
 30
0.0
 11
30.5
 21
10.976095658029109
 31
0.0
  0
CIRCLE
  5
F5
100
AcDbEntity
  8
0
  6
DASHED
 62
               7
100
AcDbCircle
 10
14.0
 20
8.9999999999999858
 30
0.0
 40
1.1999999999999886
  0
CIRCLE
  5
F6
100
AcDbEntity
  8
0
  6
DASHED
 62
               2
100
AcDbCircle
 10
14.0
 20
8.9999999999999858
 30
0.0
 40
1.5
  0
LINE
  5
F7
100
AcDbEntity
  8
0
  6
CENTER
 62
               2
100
AcDbLine
 10
14.0
 20
7.0452224481113035
 30
0.0
 11
14.0
 21
10.976095658029109
 31
0.0
  0
LINE
  5
F8
100
AcDbEntity
  8
0
  6
CONTINUOUS
 62
               7
100
AcDbLine
 10
0.0
 20
5.0000000699508007
 30
0.0
 11
33.5
 21
5.0000000699508007
 31
0.0
  0
LINE
  5
F9
100
AcDbEntity
  8
0
  6
CONTINUOUS
 62
               7
100
AcDbLine
 10
0.0
 20
3.7810501227207283
 30
0.0
 11
33.5
 21
3.7810501227207283
 31
0.0
  0
LINE
  5
FA
100
AcDbEntity
  8
0
  6
CONTINUOUS
 62
               7
100
AcDbLine
 10
0.0
 20
1.7473088627665163
 30
0.0
 11
9.0
 21
1.7473088627665163
 31
0.0
  0
LINE
  5
FB
100
AcDbEntity
  8
0
  6
CONTINUOUS
 62
               7
100
AcDbLine
 10
0.0
 20
1.3937554721732539
 30
0.0
 11
9.0
 21
1.3937554721732539
 31
0.0
  0
LINE
  5
FC
100
AcDbEntity
  8
0
  6
CONTINUOUS
 62
               7
100
AcDbLine
 10
0.0
 20
0.0
 30
0.0
 11
33.5
 21
0.0
 31
0.0
  0
LINE
  5
FD
100
AcDbEntity
  8
0
  6
CONTINUOUS
 62
               7
100
AcDbLine
 10
-7.7000000000000171
 20
10.5
 30
0.0
 11
-5.5999999999999943
 21
10.5
 31
0.0
  0
LINE
  5
FE
100
AcDbEntity
  8
0
  6
CONTINUOUS
 62
               7
100
AcDbLine
 10
0.0
 20
14.0
 30
0.0
 11
33.5
 21
14.0
 31
0.0
  0
LINE
  5
FF
100
AcDbEntity
  8
0
  6
CONTINUOUS
 62
               7
100
AcDbLine
 10
-7.7000000000000171
 20
10.5
 30
0.0
 11
-8.0
 21
10.200000000000003
 31
0.0
  0
LINE
  5
100
100
AcDbEntity
  8
0
  6
CONTINUOUS
 62
               2
100
AcDbLine
 10
-1.0
 20
10.200000000000003
 30
0.0
 11
-0.4803847577293539
 21
10.5
 31
0.0
  0
LINE
  5
101
100
AcDbEntity
  8
0
  6
CONTINUOUS
 62
               2
100
AcDbLine
 10
-8.0
 20
10.200000000000003
 30
0.0
 11
-5.5999999999999943
 21
10.200000000000003
 31
0.0
  0
LINE
  5
102
100
AcDbEntity
  8
0
  6
CONTINUOUS
 62
               2
100
AcDbLine
 10
-8.0
 20
7.7999999999999972
 30
0.0
 11
-5.5999999999999943
 21
7.7999999999999972
 31
0.0
  0
LINE
  5
103
100
AcDbEntity
  8
0
  6
CONTINUOUS
 62
               7
100
AcDbLine
 10
-7.7000000000000171
 20
7.5
 30
0.0
 11
-8.0
 21
7.7999999999999972
 31
0.0
  0
LINE
  5
104
100
AcDbEntity
  8
0
  6
CONTINUOUS
 62
               2
100
AcDbLine
 10
-1.0
 20
7.7999999999999972
 30
0.0
 11
-0.4803847577293539
 21
7.5
 31
0.0
  0
LINE
  5
105
100
AcDbEntity
  8
0
  6
CONTINUOUS
 62
               7
100
AcDbLine
 10
-7.7000000000000171
 20
10.5
 30
0.0
 11
-7.7000000000000171
 21
7.5
 31
0.0
  0
LINE
  5
106
100
AcDbEntity
  8
0
  6
CONTINUOUS
 62
               7
100
AcDbLine
 10
-1.0
 20
10.5
 30
0.0
 11
-1.0
 21
7.5
 31
0.0
  0
LINE
  5
107
100
AcDbEntity
  8
0
  6
CONTINUOUS
 62
               7
100
AcDbLine
 10
-8.0
 20
10.200000000000003
 30
0.0
 11
-8.0
 21
7.7999999999999972
 31
0.0
  0
LINE
  5
108
100
AcDbEntity
  8
0
  6
CONTINUOUS
 62
               7
100
AcDbLine
 10
-7.7000000000000171
 20
7.5
 30
0.0
 11
-5.5999999999999943
 21
7.5
 31
0.0
  0
LINE
  5
109
100
AcDbEntity
  8
0
  6
CONTINUOUS
 62
               7
100
AcDbLine
 10
0.0
 20
0.0
 30
0.0
 11
0.0
 21
14.0
 31
0.0
  0
LINE
  5
10A
100
AcDbEntity
  8
0
  6
CONTINUOUS
 62
               7
100
AcDbLine
 10
33.5
 20
0.0
 30
0.0
 11
33.5
 21
2.5251263220717775
 31
0.0
  0
LINE
  5
10B
100
AcDbEntity
  8
0
  6
CENTER
 62
               2
100
AcDbLine
 10
-9.0969874860368805
 20
9.0
 30
0.0
 11
34.355882105630116
 21
9.0
 31
0.0
  0
LINE
  5
10C
100
AcDbEntity
  8
0
  6
CONTINUOUS
 62
               7
100
AcDbLine
 10
-2.0
 20
10.5
 30
0.0
 11
0.0
 21
10.5
 31
0.0
  0
LINE
  5
10D
100
AcDbEntity
  8
0
  6
CONTINUOUS
 62
               2
100
AcDbLine
 10
-2.0
 20
10.200000000000003
 30
0.0
 11
-1.0
 21
10.200000000000003
 31
0.0
  0
LINE
  5
10E
100
AcDbEntity
  8
0
  6
CONTINUOUS
 62
               2
100
AcDbLine
 10
-2.0
 20
7.7999999999999972
 30
0.0
 11
-1.0
 21
7.7999999999999972
 31
0.0
  0
LINE
  5
10F
100
AcDbEntity
  8
0
  6
CONTINUOUS
 62
               7
100
AcDbLine
 10
-2.0
 20
7.5
 30
0.0
 11
0.0
 21
7.5
 31
0.0
  0
SPLINE
  5
110
100
AcDbEntity
  8
0
  6
CONTINUOUS
 62
               7
100
AcDbSpline
210
0.0
220
0.0
230
1.0
 70
               0
 71
               3
 72
               0
 73
               0
 74
               5
 44
0.000001
 12
0.3364389337625613
 22
0.9417052850274925
 32
0.0
 13
-0.3364389335092214
 23
0.9417052851180021
 33
0.0
 11
-2.2456201201727168
 21
6.250000018878012
 31
0.0
 11
-2.0640692685897637
 21
6.9263140562489101
 31
0.0
 11
-2.0
 21
7.625
 31
0.0
 11
-2.0640692670398586
 21
8.3236859533231211
 31
0.0
 11
-2.2456201201727168
 21
9.0
 31
0.0
  0
SPLINE
  5
111
100
AcDbEntity
  8
0
  6
CONTINUOUS
 62
               7
100
AcDbSpline
210
0.0
220
0.0
230
1.0
 70
               0
 71
               3
 72
               0
 73
               0
 74
               5
 44
0.000001
 12
-0.3364389337625614
 22
0.9417052850274925
 32
0.0
 13
0.3364389335092213
 23
0.9417052851180021
 33
0.0
 11
-3.5543798798272803
 21
6.250000018878012
 31
0.0
 11
-3.7359307314102335
 21
6.9263140562489101
 31
0.0
 11
-3.7999999999999972
 21
7.625
 31
0.0
 11
-3.7359307329601386
 21
8.3236859533231211
 31
0.0
 11
-3.5543798798272803
 21
9.0
 31
0.0
  0
SPLINE
  5
112
100
AcDbEntity
  8
0
  6
CONTINUOUS
 62
               7
100
AcDbSpline
210
0.0
220
0.0
230
1.0
 70
               0
 71
               3
 72
               0
 73
               0
 74
               5
 44
0.000001
 12
0.3364389337625613
 22
0.9417052850274925
 32
0.0
 13
-0.3364389335092214
 23
0.9417052851180021
 33
0.0
 11
-4.045620120172714
 21
6.250000018878012
 31
0.0
 11
-3.8640692685897609
 21
6.9263140562489101
 31
0.0
 11
-3.7999999999999972
 21
7.625
 31
0.0
 11
-3.8640692670398558
 21
8.3236859533231211
 31
0.0
 11
-4.045620120172714
 21
9.0
 31
0.0
  0
SPLINE
  5
113
100
AcDbEntity
  8
0
  6
CONTINUOUS
 62
               7
100
AcDbSpline
210
0.0
220
0.0
230
1.0
 70
               0
 71
               3
 72
               0
 73
               0
 74
               5
 44
0.000001
 12
-0.3364389337625614
 22
0.9417052850274925
 32
0.0
 13
0.3364389335092213
 23
0.9417052851180021
 33
0.0
 11
-5.3543798798272775
 21
6.250000018878012
 31
0.0
 11
-5.5359307314102306
 21
6.9263140562489101
 31
0.0
 11
-5.5999999999999943
 21
7.625
 31
0.0
 11
-5.5359307329601357
 21
8.3236859533231211
 31
0.0
 11
-5.3543798798272775
 21
9.0
 31
0.0
  0
SPLINE
  5
114
100
AcDbEntity
  8
0
  6
CONTINUOUS
 62
               7
100
AcDbSpline
210
0.0
220
0.0
230
1.0
 70
               0
 71
               3
 72
               0
 73
               0
 74
               5
 44
0.000001
 12
0.3364389337625613
 22
-0.9417052850274925
 32
0.0
 13
-0.3364389335092214
 23
-0.9417052851180021
 33
0.0
 11
-4.045620120172714
 21
11.749999981121988
 31
0.0
 11
-3.8640692685897609
 21
11.073685943751091
 31
0.0
 11
-3.7999999999999972
 21
10.375
 31
0.0
 11
-3.8640692670398558
 21
9.6763140466768789
 31
0.0
 11
-4.045620120172714
 21
9.0
 31
0.0
  0
SPLINE
  5
115
100
AcDbEntity
  8
0
  6
CONTINUOUS
 62
               7
100
AcDbSpline
210
0.0
220
0.0
230
1.0
 70
               0
 71
               3
 72
               0
 73
               0
 74
               5
 44
0.000001
 12
-0.3364389337625614
 22
-0.9417052850274925
 32
0.0
 13
0.3364389335092213
 23
-0.9417052851180021
 33
0.0
 11
-5.3543798798272775
 21
11.749999981121988
 31
0.0
 11
-5.5359307314102306
 21
11.073685943751091
 31
0.0
 11
-5.5999999999999943
 21
10.375
 31
0.0
 11
-5.5359307329601357
 21
9.6763140466768789
 31
0.0
 11
-5.3543798798272775
 21
9.0
 31
0.0
  0
SPLINE
  5
116
100
AcDbEntity
  8
0
  6
CONTINUOUS
 62
               7
100
AcDbSpline
210
0.0
220
0.0
230
1.0
 70
               0
 71
               3
 72
               0
 73
               0
 74
               5
 44
0.000001
 12
0.3364389337625613
 22
-0.9417052850274925
 32
0.0
 13
-0.3364389335092214
 23
-0.9417052851180021
 33
0.0
 11
-2.2456201201727168
 21
11.749999981121988
 31
0.0
 11
-2.0640692685897637
 21
11.073685943751091
 31
0.0
 11
-2.0
 21
10.375
 31
0.0
 11
-2.0640692670398586
 21
9.6763140466768789
 31
0.0
 11
-2.2456201201727168
 21
9.0
 31
0.0
  0
SPLINE
  5
117
100
AcDbEntity
  8
0
  6
CONTINUOUS
 62
               7
100
AcDbSpline
210
0.0
220
0.0
230
1.0
 70
               0
 71
               3
 72
               0
 73
               0
 74
               5
 44
0.000001
 12
-0.3364389337625614
 22
-0.9417052850274925
 32
0.0
 13
0.3364389335092213
 23
-0.9417052851180021
 33
0.0
 11
-3.5543798798272803
 21
11.749999981121988
 31
0.0
 11
-3.7359307314102335
 21
11.073685943751091
 31
0.0
 11
-3.7999999999999972
 21
10.375
 31
0.0
 11
-3.7359307329601386
 21
9.6763140466768789
 31
0.0
 11
-3.5543798798272803
 21
9.0
 31
0.0
  0
LINE
  5
118
100
AcDbEntity
  8
0
  6
CONTINUOUS
 62
               7
100
AcDbLine
 10
-4.045620120172714
 20
9.0
 30
0.0
 11
-5.3543798798272775
 21
9.0
 31
0.0
  0
LINE
  5
119
100
AcDbEntity
  8
0
  6
CONTINUOUS
 62
               7
100
AcDbLine
 10
-3.7999999999999972
 20
6.25
 30
0.0
 11
-5.5999999999999943
 21
6.25
 31
0.0
  0
LINE
  5
11A
100
AcDbEntity
  8
0
  6
CONTINUOUS
 62
               7
100
AcDbLine
 10
-3.7999999999999972
 20
6.25
 30
0.0
 11
-2.0
 21
6.25
 31
0.0
  0
LINE
  5
11B
100
AcDbEntity
  8
0
  6
CONTINUOUS
 62
               7
100
AcDbLine
 10
-3.5543798798272803
 20
9.0
 30
0.0
 11
-2.2456201201727168
 21
9.0
 31
0.0
  0
LINE
  5
11C
100
AcDbEntity
  8
0
  6
CONTINUOUS
 62
               7
100
AcDbLine
 10
-3.7999999999999972
 20
11.749999981121988
 30
0.0
 11
-2.0
 21
11.749999981121988
 31
0.0
  0
LINE
  5
11D
100
AcDbEntity
  8
0
  6
CONTINUOUS
 62
               7
100
AcDbLine
 10
-3.7999999999999972
 20
11.749999981121988
 30
0.0
 11
-5.5999999999999943
 21
11.749999981121988
 31
0.0
  0
LINE
  5
11E
100
AcDbEntity
  8
0
  6
CONTINUOUS
 62
               7
100
AcDbLine
 10
-3.7999999999999972
 20
6.249999981121988
 30
0.0
 11
-3.7999999999999972
 21
11.749999981121988
 31
0.0
  0
LINE
  5
11F
100
AcDbEntity
  8
0
  6
CONTINUOUS
 62
               7
100
AcDbLine
 10
-5.5999999999999943
 20
6.249999981121988
 30
0.0
 11
-5.5999999999999943
 21
11.749999981121988
 31
0.0
  0
LINE
  5
120
100
AcDbEntity
  8
0
  6
CONTINUOUS
 62
               7
100
AcDbLine
 10
-2.0
 20
6.249999981121988
 30
0.0
 11
-2.0
 21
11.749999981121988
 31
0.0
  0
LINE
  5
121
100
AcDbEntity
  8
0
  6
CENTER
 62
               2
100
AcDbLine
 10
3.5
 20
7.0452224481113177
 30
0.0
 11
3.5
 21
10.976095658029124
 31
0.0
  0
CIRCLE
  5
122
100
AcDbEntity
  8
0
  6
DASHED
 62
               2
100
AcDbCircle
 10
3.5
 20
9.0
 30
0.0
 40
1.5
  0
CIRCLE
  5
123
100
AcDbEntity
  8
0
  6
DASHED
 62
               7
100
AcDbCircle
 10
3.5
 20
9.0
 30
0.0
 40
1.1999999999999886
  0
LINE
  5
124
100
AcDbEntity
  8
0
  6
CONTINUOUS
 62
               4
100
AcDbLine
 10
24.500000016874623
 20
1.1588312440662989
 30
0.0
 11
9.0000000168746226
 21
1.1588312440662989
 31
0.0
  0
LINE
  5
125
100
AcDbEntity
  8
0
  6
CONTINUOUS
 62
               4
100
AcDbLine
 10
24.500000016874623
 20
3.2801515876260723
 30
0.0
 11
9.0000000168746226
 21
3.2801515876260723
 31
0.0
  0
LINE
  5
126
100
AcDbEntity
  8
0
  6
CONTINUOUS
 62
               4
100
AcDbLine
 10
24.500000000000227
 20
2.5251263220717775
 30
0.0
 11
42.665063527619935
 21
2.5251263220717775
 31
0.0
  0
LINE
  5
127
100
AcDbEntity
  8
0
  6
CONTINUOUS
 62
               4
100
AcDbLine
 10
33.5
 20
5.0251263220717775
 30
0.0
 11
43.334936501271457
 21
5.0251263220717775
 31
0.0
  0
LINE
  5
128
100
AcDbEntity
  8
0
  6
CONTINUOUS
 62
             200
100
AcDbLine
 10
42.304332834218258
 20
1.1788610315223096
 30
0.0
 11
43.713301720596519
 21
6.4372045600643233
 31
0.0
  0
LINE
  5
129
100
AcDbEntity
  8
0
  6
CONTINUOUS
 62
               4
100
AcDbLine
 10
24.500000000000227
 20
3.7810501227207283
 30
0.0
 11
24.500000000000227
 21
1.1588312440662989
 31
0.0
  0
LINE
  5
12A
100
AcDbEntity
  8
0
  6
CONTINUOUS
 62
               4
100
AcDbLine
 10
9.0
 20
3.7810501227207283
 30
0.0
 11
9.0
 21
1.1588312440662989
 31
0.0
  0
ELLIPSE
  5
12B
100
AcDbEntity
  8
0
  6
CONTINUOUS
 62
               4
100
AcDbEllipse
 10
11.0
 20
2.2194914009450102
 30
0.0
 11
-1.25
 21
0.0000000000000002
 31
0.0
210
0.0
220
0.0
230
1.0
 40
0.7071067811865476
 41
0.0
 42
6.2831853071795862
  0
LINE
  5
12C
100
AcDbEntity
  8
0
  6
CONTINUOUS
 62
               4
100
AcDbLine
 10
11.25
 20
1.353465997160562
 30
0.0
 11
11.25
 21
3.0855168047294583
 31
0.0
  0
LINE
  5
12D
100
AcDbEntity
  8
0
  6
CONTINUOUS
 62
               4
100
AcDbLine
 10
10.75
 20
1.353465997160562
 30
0.0
 11
10.75
 21
3.0855168047294583
 31
0.0
  0
LINE
  5
12E
100
AcDbEntity
  8
0
  6
CONTINUOUS
 62
               7
100
AcDbLine
 10
33.5
 20
3.7810501227207283
 30
0.0
 11
33.5
 21
14.0
 31
0.0
  0
LINE
  5
12F
100
AcDbEntity
  8
0
  6
CONTINUOUS
 62
               7
100
AcDbLine
 10
24.500000000000227
 20
1.7473088627665163
 30
0.0
 11
33.5
 21
1.7473088627665163
 31
0.0
  0
LINE
  5
130
100
AcDbEntity
  8
0
  6
CONTINUOUS
 62
               7
100
AcDbLine
 10
24.500000000000227
 20
1.3937554721732539
 30
0.0
 11
33.5
 21
1.3937554721732539
 31
0.0
  0
LINE
  5
131
100
AcDbEntity
  8
0
  6
CENTER
 62
               2
100
AcDbLine
 10
8.9999999915627029
 20
12.5
 30
0.0
 11
8.9999999915627029
 21
15.5
 31
0.0
  0
ENDBLK
  5
132
100
AcDbEntity
  8
0
100
AcDbBlockEnd
  0
BLOCK
  5
133
100
AcDbEntity
  8
0
100
AcDbBlockBegin
  2
MS_4
 70
               0
 10
0.0
 20
0.0
 30
0.0
  3
MS_4
  1

  0
LINE
  5
134
100
AcDbEntity
  8
0
  6
PHANTOM
 62
               3
100
AcDbLine
 10
17.770078189168046
 20
19.0
 30
0.0
 11
17.770078189168046
 21
-5.0
 31
0.0
  0
LINE
  5
135
100
AcDbEntity
  8
0
  6
CONTINUOUS
 62
               4
100
AcDbLine
 10
21.249999999999773
 20
12.646534002839438
 30
0.0
 11
21.249999999999773
 21
10.914483195270542
 31
0.0
  0
LINE
  5
136
100
AcDbEntity
  8
0
  6
CONTINUOUS
 62
               4
100
AcDbLine
 10
21.749999999999773
 20
12.646534002839438
 30
0.0
 11
21.749999999999773
 21
10.914483195270542
 31
0.0
  0
ELLIPSE
  5
137
100
AcDbEntity
  8
0
  6
CONTINUOUS
 62
               4
100
AcDbEllipse
 10
21.499999999999773
 20
11.78050859905499
 30
0.0
 11
-1.25
 21
0.0000000000000002
 31
0.0
210
0.0
220
0.0
230
1.0
 40
0.7071067811865476
 41
0.0
 42
6.2831853071795862
  0
LINE
  5
138
100
AcDbEntity
  8
0
  6
CONTINUOUS
 62
               4
100
AcDbLine
 10
19.499999999999773
 20
10.218949877279265
 30
0.0
 11
19.499999999999773
 21
12.841168755933701
 31
0.0
  0
LINE
  5
139
100
AcDbEntity
  8
0
  6
CONTINUOUS
 62
               4
100
AcDbLine
 10
35.0
 20
7.8420309568547495
 30
0.0
 11
35.0
 21
12.841168755933701
 31
0.0
  0
LINE
  5
13A
100
AcDbEntity
  8
0
  6
CONTINUOUS
 62
             200
100
AcDbLine
 10
42.304332834218258
 20
7.6286083873787547
 30
0.0
 11
43.713301720596519
 21
12.886951915920768
 31
0.0
  0
LINE
  5
13B
100
AcDbEntity
  8
0
  6
CONTINUOUS
 62
               4
100
AcDbLine
 10
35.0
 20
8.9748736779282225
 30
0.0
 11
42.66506352761985
 21
8.9748736779282225
 31
0.0
  0
LINE
  5
13C
100
AcDbEntity
  8
0
  6
CONTINUOUS
 62
               4
100
AcDbLine
 10
35.0
 20
11.474873677928223
 30
0.0
 11
43.334936501271386
 21
11.474873677928223
 31
0.0
  0
LINE
  5
13D
100
AcDbEntity
  8
0
  6
CONTINUOUS
 62
               4
100
AcDbLine
 10
33.5
 20
9.5884775773767146
 30
0.0
 11
35.0
 21
9.5884775773767146
 31
0.0
  0
LINE
  5
13E
100
AcDbEntity
  8
0
  6
CONTINUOUS
 62
               4
100
AcDbLine
 10
33.5
 20
7.8420309568547495
 30
0.0
 11
35.000000019764684
 21
7.8420309568547495
 31
0.0
  0
LINE
  5
13F
100
AcDbEntity
  8
0
  6
CONTINUOUS
 62
               4
100
AcDbLine
 10
35.000000016874395
 20
10.719848412373928
 30
0.0
 11
19.500000016874395
 21
10.719848412373928
 31
0.0
  0
LINE
  5
140
100
AcDbEntity
  8
0
  6
CONTINUOUS
 62
               4
100
AcDbLine
 10
35.000000016874395
 20
12.841168755933701
 30
0.0
 11
19.500000016874395
 21
12.841168755933701
 31
0.0
  0
LINE
  5
141
100
AcDbEntity
  8
0
  6
CENTER
 62
               2
100
AcDbLine
 10
-9.0969874860368805
 20
5.0
 30
0.0
 11
34.355882105630116
 21
5.0
 31
0.0
  0
LINE
  5
142
100
AcDbEntity
  8
0
  6
CONTINUOUS
 62
               7
100
AcDbLine
 10
33.5
 20
14.0
 30
0.0
 11
33.5
 21
12.841168755933701
 31
0.0
  0
LINE
  5
143
100
AcDbEntity
  8
0
  6
CONTINUOUS
 62
               7
100
AcDbLine
 10
0.0
 20
14.0
 30
0.0
 11
0.0
 21
0.0
 31
0.0
  0
LINE
  5
144
100
AcDbEntity
  8
0
  6
CONTINUOUS
 62
               7
100
AcDbLine
 10
-7.7000000000000171
 20
6.5
 30
0.0
 11
-5.5999999999999943
 21
6.5
 31
0.0
  0
LINE
  5
145
100
AcDbEntity
  8
0
  6
CONTINUOUS
 62
               7
100
AcDbLine
 10
-8.0
 20
3.7999999999999972
 30
0.0
 11
-8.0
 21
6.2000000000000028
 31
0.0
  0
LINE
  5
146
100
AcDbEntity
  8
0
  6
CONTINUOUS
 62
               7
100
AcDbLine
 10
-1.0
 20
3.5
 30
0.0
 11
-1.0
 21
6.5
 31
0.0
  0
LINE
  5
147
100
AcDbEntity
  8
0
  6
CONTINUOUS
 62
               7
100
AcDbLine
 10
-7.7000000000000171
 20
3.5
 30
0.0
 11
-7.7000000000000171
 21
6.5
 31
0.0
  0
LINE
  5
148
100
AcDbEntity
  8
0
  6
CONTINUOUS
 62
               2
100
AcDbLine
 10
-1.0
 20
6.2000000000000028
 30
0.0
 11
-0.4803847577293539
 21
6.5
 31
0.0
  0
LINE
  5
149
100
AcDbEntity
  8
0
  6
CONTINUOUS
 62
               7
100
AcDbLine
 10
-7.7000000000000171
 20
6.5
 30
0.0
 11
-8.0
 21
6.2000000000000028
 31
0.0
  0
LINE
  5
14A
100
AcDbEntity
  8
0
  6
CONTINUOUS
 62
               2
100
AcDbLine
 10
-8.0
 20
6.2000000000000028
 30
0.0
 11
-5.5999999999999943
 21
6.2000000000000028
 31
0.0
  0
LINE
  5
14B
100
AcDbEntity
  8
0
  6
CONTINUOUS
 62
               2
100
AcDbLine
 10
-8.0
 20
3.7999999999999972
 30
0.0
 11
-5.5999999999999943
 21
3.7999999999999972
 31
0.0
  0
LINE
  5
14C
100
AcDbEntity
  8
0
  6
CONTINUOUS
 62
               2
100
AcDbLine
 10
-1.0
 20
3.7999999999999972
 30
0.0
 11
-0.4803847577293539
 21
3.5
 31
0.0
  0
LINE
  5
14D
100
AcDbEntity
  8
0
  6
CONTINUOUS
 62
               7
100
AcDbLine
 10
-7.7000000000000171
 20
3.5
 30
0.0
 11
-8.0
 21
3.7999999999999972
 31
0.0
  0
LINE
  5
14E
100
AcDbEntity
  8
0
  6
CONTINUOUS
 62
               7
100
AcDbLine
 10
0.0
 20
0.0
 30
0.0
 11
33.5
 21
0.0
 31
0.0
  0
LINE
  5
14F
100
AcDbEntity
  8
0
  6
CONTINUOUS
 62
               7
100
AcDbLine
 10
-7.7000000000000171
 20
3.5
 30
0.0
 11
-5.5999999999999943
 21
3.5
 31
0.0
  0
LINE
  5
150
100
AcDbEntity
  8
0
  6
CONTINUOUS
 62
               7
100
AcDbLine
 10
0.0
 20
14.0
 30
0.0
 11
33.5
 21
14.0
 31
0.0
  0
LINE
  5
151
100
AcDbEntity
  8
0
  6
CONTINUOUS
 62
               7
100
AcDbLine
 10
0.0
 20
12.606244527826746
 30
0.0
 11
19.499999999999773
 21
12.606244527826746
 31
0.0
  0
LINE
  5
152
100
AcDbEntity
  8
0
  6
CONTINUOUS
 62
               7
100
AcDbLine
 10
0.0
 20
12.252691137233484
 30
0.0
 11
19.499999999999773
 21
12.252691137233484
 31
0.0
  0
LINE
  5
153
100
AcDbEntity
  8
0
  6
CONTINUOUS
 62
               7
100
AcDbLine
 10
0.0
 20
10.218949877279265
 30
0.0
 11
33.5
 21
10.218949877279265
 31
0.0
  0
LINE
  5
154
100
AcDbEntity
  8
0
  6
CONTINUOUS
 62
               7
100
AcDbLine
 10
0.0
 20
8.9999999300491922
 30
0.0
 11
33.5
 21
8.9999999300491922
 31
0.0
  0
LINE
  5
155
100
AcDbEntity
  8
0
  6
CENTER
 62
               2
100
AcDbLine
 10
14.0
 20
6.9547775518886965
 30
0.0
 11
14.0
 21
3.0239043419708906
 31
0.0
  0
CIRCLE
  5
156
100
AcDbEntity
  8
0
  6
DASHED
 62
               2
100
AcDbCircle
 10
14.0
 20
5.0000000000000142
 30
0.0
 40
1.5
  0
CIRCLE
  5
157
100
AcDbEntity
  8
0
  6
DASHED
 62
               7
100
AcDbCircle
 10
14.0
 20
5.0000000000000142
 30
0.0
 40
1.1999999999999886
  0
LINE
  5
158
100
AcDbEntity
  8
0
  6
CENTER
 62
               2
100
AcDbLine
 10
30.5
 20
6.9547775518886965
 30
0.0
 11
30.5
 21
3.0239043419708906
 31
0.0
  0
CIRCLE
  5
159
100
AcDbEntity
  8
0
  6
DASHED
 62
               2
100
AcDbCircle
 10
30.5
 20
5.0000000000000142
 30
0.0
 40
1.5
  0
CIRCLE
  5
15A
100
AcDbEntity
  8
0
  6
DASHED
 62
               7
100
AcDbCircle
 10
30.5
 20
5.0000000000000142
 30
0.0
 40
1.1999999999999886
  0
LINE
  5
15B
100
AcDbEntity
  8
0
  6
CONTINUOUS
 62
               7
100
AcDbLine
 10
-2.0
 20
6.5
 30
0.0
 11
0.0
 21
6.5
 31
0.0
  0
LINE
  5
15C
100
AcDbEntity
  8
0
  6
CONTINUOUS
 62
               2
100
AcDbLine
 10
-2.0
 20
6.2000000000000028
 30
0.0
 11
-1.0
 21
6.2000000000000028
 31
0.0
  0
LINE
  5
15D
100
AcDbEntity
  8
0
  6
CONTINUOUS
 62
               2
100
AcDbLine
 10
-2.0
 20
3.7999999999999972
 30
0.0
 11
-1.0
 21
3.7999999999999972
 31
0.0
  0
LINE
  5
15E
100
AcDbEntity
  8
0
  6
CONTINUOUS
 62
               7
100
AcDbLine
 10
-2.0
 20
3.5
 30
0.0
 11
0.0
 21
3.5
 31
0.0
  0
SPLINE
  5
15F
100
AcDbEntity
  8
0
  6
CONTINUOUS
 62
               7
100
AcDbSpline
210
0.0
220
0.0
230
1.0
 70
               0
 71
               3
 72
               0
 73
               0
 74
               5
 44
0.000001
 12
0.3364389337625613
 22
0.9417052850274925
 32
0.0
 13
-0.3364389335092214
 23
0.9417052851180021
 33
0.0
 11
-2.2456201201727168
 21
2.250000018878012
 31
0.0
 11
-2.0640692685897637
 21
2.9263140562489101
 31
0.0
 11
-2.0
 21
3.625
 31
0.0
 11
-2.0640692670398586
 21
4.3236859533231211
 31
0.0
 11
-2.2456201201727168
 21
5.0
 31
0.0
  0
SPLINE
  5
160
100
AcDbEntity
  8
0
  6
CONTINUOUS
 62
               7
100
AcDbSpline
210
0.0
220
0.0
230
1.0
 70
               0
 71
               3
 72
               0
 73
               0
 74
               5
 44
0.000001
 12
-0.3364389337625614
 22
0.9417052850274925
 32
0.0
 13
0.3364389335092213
 23
0.9417052851180021
 33
0.0
 11
-3.5543798798272803
 21
2.250000018878012
 31
0.0
 11
-3.7359307314102335
 21
2.9263140562489101
 31
0.0
 11
-3.7999999999999972
 21
3.625
 31
0.0
 11
-3.7359307329601386
 21
4.3236859533231211
 31
0.0
 11
-3.5543798798272803
 21
5.0
 31
0.0
  0
SPLINE
  5
161
100
AcDbEntity
  8
0
  6
CONTINUOUS
 62
               7
100
AcDbSpline
210
0.0
220
0.0
230
1.0
 70
               0
 71
               3
 72
               0
 73
               0
 74
               5
 44
0.000001
 12
0.3364389337625613
 22
0.9417052850274925
 32
0.0
 13
-0.3364389335092214
 23
0.9417052851180021
 33
0.0
 11
-4.045620120172714
 21
2.250000018878012
 31
0.0
 11
-3.8640692685897609
 21
2.9263140562489101
 31
0.0
 11
-3.7999999999999972
 21
3.625
 31
0.0
 11
-3.8640692670398558
 21
4.3236859533231211
 31
0.0
 11
-4.045620120172714
 21
5.0
 31
0.0
  0
SPLINE
  5
162
100
AcDbEntity
  8
0
  6
CONTINUOUS
 62
               7
100
AcDbSpline
210
0.0
220
0.0
230
1.0
 70
               0
 71
               3
 72
               0
 73
               0
 74
               5
 44
0.000001
 12
-0.3364389337625614
 22
0.9417052850274925
 32
0.0
 13
0.3364389335092213
 23
0.9417052851180021
 33
0.0
 11
-5.3543798798272775
 21
2.250000018878012
 31
0.0
 11
-5.5359307314102306
 21
2.9263140562489101
 31
0.0
 11
-5.5999999999999943
 21
3.625
 31
0.0
 11
-5.5359307329601357
 21
4.3236859533231211
 31
0.0
 11
-5.3543798798272775
 21
5.0
 31
0.0
  0
SPLINE
  5
163
100
AcDbEntity
  8
0
  6
CONTINUOUS
 62
               7
100
AcDbSpline
210
0.0
220
0.0
230
1.0
 70
               0
 71
               3
 72
               0
 73
               0
 74
               5
 44
0.000001
 12
0.3364389337625613
 22
-0.9417052850274925
 32
0.0
 13
-0.3364389335092214
 23
-0.9417052851180021
 33
0.0
 11
-4.045620120172714
 21
7.749999981121988
 31
0.0
 11
-3.8640692685897609
 21
7.0736859437510899
 31
0.0
 11
-3.7999999999999972
 21
6.375
 31
0.0
 11
-3.8640692670398558
 21
5.6763140466768789
 31
0.0
 11
-4.045620120172714
 21
5.0
 31
0.0
  0
SPLINE
  5
164
100
AcDbEntity
  8
0
  6
CONTINUOUS
 62
               7
100
AcDbSpline
210
0.0
220
0.0
230
1.0
 70
               0
 71
               3
 72
               0
 73
               0
 74
               5
 44
0.000001
 12
-0.3364389337625614
 22
-0.9417052850274925
 32
0.0
 13
0.3364389335092213
 23
-0.9417052851180021
 33
0.0
 11
-5.3543798798272775
 21
7.749999981121988
 31
0.0
 11
-5.5359307314102306
 21
7.0736859437510899
 31
0.0
 11
-5.5999999999999943
 21
6.375
 31
0.0
 11
-5.5359307329601357
 21
5.6763140466768789
 31
0.0
 11
-5.3543798798272775
 21
5.0
 31
0.0
  0
SPLINE
  5
165
100
AcDbEntity
  8
0
  6
CONTINUOUS
 62
               7
100
AcDbSpline
210
0.0
220
0.0
230
1.0
 70
               0
 71
               3
 72
               0
 73
               0
 74
               5
 44
0.000001
 12
0.3364389337625613
 22
-0.9417052850274925
 32
0.0
 13
-0.3364389335092214
 23
-0.9417052851180021
 33
0.0
 11
-2.2456201201727168
 21
7.749999981121988
 31
0.0
 11
-2.0640692685897637
 21
7.0736859437510899
 31
0.0
 11
-2.0
 21
6.375
 31
0.0
 11
-2.0640692670398586
 21
5.6763140466768789
 31
0.0
 11
-2.2456201201727168
 21
5.0
 31
0.0
  0
SPLINE
  5
166
100
AcDbEntity
  8
0
  6
CONTINUOUS
 62
               7
100
AcDbSpline
210
0.0
220
0.0
230
1.0
 70
               0
 71
               3
 72
               0
 73
               0
 74
               5
 44
0.000001
 12
-0.3364389337625614
 22
-0.9417052850274925
 32
0.0
 13
0.3364389335092213
 23
-0.9417052851180021
 33
0.0
 11
-3.5543798798272803
 21
7.749999981121988
 31
0.0
 11
-3.7359307314102335
 21
7.0736859437510899
 31
0.0
 11
-3.7999999999999972
 21
6.375
 31
0.0
 11
-3.7359307329601386
 21
5.6763140466768789
 31
0.0
 11
-3.5543798798272803
 21
5.0
 31
0.0
  0
LINE
  5
167
100
AcDbEntity
  8
0
  6
CONTINUOUS
 62
               7
100
AcDbLine
 10
-4.045620120172714
 20
5.0
 30
0.0
 11
-5.3543798798272775
 21
5.0
 31
0.0
  0
LINE
  5
168
100
AcDbEntity
  8
0
  6
CONTINUOUS
 62
               7
100
AcDbLine
 10
-3.7999999999999972
 20
2.25
 30
0.0
 11
-5.5999999999999943
 21
2.25
 31
0.0
  0
LINE
  5
169
100
AcDbEntity
  8
0
  6
CONTINUOUS
 62
               7
100
AcDbLine
 10
-3.7999999999999972
 20
2.25
 30
0.0
 11
-2.0
 21
2.25
 31
0.0
  0
LINE
  5
16A
100
AcDbEntity
  8
0
  6
CONTINUOUS
 62
               7
100
AcDbLine
 10
-3.5543798798272803
 20
5.0
 30
0.0
 11
-2.2456201201727168
 21
5.0
 31
0.0
  0
LINE
  5
16B
100
AcDbEntity
  8
0
  6
CONTINUOUS
 62
               7
100
AcDbLine
 10
-3.7999999999999972
 20
7.749999981121988
 30
0.0
 11
-2.0
 21
7.749999981121988
 31
0.0
  0
LINE
  5
16C
100
AcDbEntity
  8
0
  6
CONTINUOUS
 62
               7
100
AcDbLine
 10
-3.7999999999999972
 20
7.749999981121988
 30
0.0
 11
-5.5999999999999943
 21
7.749999981121988
 31
0.0
  0
LINE
  5
16D
100
AcDbEntity
  8
0
  6
CONTINUOUS
 62
               7
100
AcDbLine
 10
-3.7999999999999972
 20
2.249999981121988
 30
0.0
 11
-3.7999999999999972
 21
7.749999981121988
 31
0.0
  0
LINE
  5
16E
100
AcDbEntity
  8
0
  6
CONTINUOUS
 62
               7
100
AcDbLine
 10
-5.5999999999999943
 20
2.249999981121988
 30
0.0
 11
-5.5999999999999943
 21
7.749999981121988
 31
0.0
  0
LINE
  5
16F
100
AcDbEntity
  8
0
  6
CONTINUOUS
 62
               7
100
AcDbLine
 10
-2.0
 20
2.249999981121988
 30
0.0
 11
-2.0
 21
7.749999981121988
 31
0.0
  0
LINE
  5
170
100
AcDbEntity
  8
0
  6
CENTER
 62
               2
100
AcDbLine
 10
3.5
 20
3.0452224481113177
 30
0.0
 11
3.5
 21
6.9760956580291236
 31
0.0
  0
CIRCLE
  5
171
100
AcDbEntity
  8
0
  6
DASHED
 62
               2
100
AcDbCircle
 10
3.5
 20
5.0
 30
0.0
 40
1.5
  0
CIRCLE
  5
172
100
AcDbEntity
  8
0
  6
DASHED
 62
               7
100
AcDbCircle
 10
3.5
 20
5.0
 30
0.0
 40
1.1999999999999886
  0
LINE
  5
173
100
AcDbEntity
  8
0
  6
CONTINUOUS
 62
               7
100
AcDbLine
 10
33.5
 20
10.218949877279265
 30
0.0
 11
33.5
 21
0.0
 31
0.0
  0
LINE
  5
174
100
AcDbEntity
  8
0
  6
CENTER
 62
               2
100
AcDbLine
 10
8.9999999915627029
 20
1.5
 30
0.0
 11
8.9999999915627029
 21
-1.5
 31
0.0
  0
ENDBLK
  5
175
100
AcDbEntity
  8
0
100
AcDbBlockEnd
  0
BLOCK
  5
176
100
AcDbEntity
  8
0
100
AcDbBlockBegin
  2
MS_5
 70
               0
 10
0.0
 20
0.0
 30
0.0
  3
MS_5
  1

  0
LINE
  5
177
100
AcDbEntity
  8
0
  6
PHANTOM
 62
               3
100
AcDbLine
 10
15.970078195804835
 20
2.5332462856383025
 30
0.0
 11
15.970078195804835
 21
-18.831404011461323
 31
0.0
  0
LINE
  5
178
100
AcDbEntity
  8
0
  6
PHANTOM
 62
               3
100
AcDbLine
 10
26.426618736345375
 20
2.5332462856383025
 30
0.0
 11
15.970078195804835
 21
2.5332462856383025
 31
0.0
  0
LINE
  5
179
100
AcDbEntity
  8
0
  6
PHANTOM
 62
               3
100
AcDbLine
 10
26.426618736345375
 20
21.604126074498566
 30
0.0
 11
26.426618736345375
 21
2.5332462856382989
 31
0.0
  0
LINE
  5
17A
100
AcDbEntity
  8
0
  6
CONTINUOUS
 62
               4
100
AcDbLine
 10
10.75
 20
8.8911516559053041
 30
0.0
 11
10.75
 21
7.1591008483364078
 31
0.0
  0
LINE
  5
17B
100
AcDbEntity
  8
0
  6
CONTINUOUS
 62
               4
100
AcDbLine
 10
11.25
 20
8.8911516559053041
 30
0.0
 11
11.25
 21
7.1591008483364078
 31
0.0
  0
ELLIPSE
  5
17C
100
AcDbEntity
  8
0
  6
CONTINUOUS
 62
               4
100
AcDbEllipse
 10
11.0
 20
8.0251262521208844
 30
0.0
 11
-1.25
 21
0.0000000000000002
 31
0.0
210
0.0
220
0.0
230
1.0
 40
0.7071067811865476
 41
0.0
 42
6.2831853071795862
  0
LINE
  5
17D
100
AcDbEntity
  8
0
  6
CONTINUOUS
 62
               4
100
AcDbLine
 10
9.0
 20
5.8330952304425807
 30
0.0
 11
10.726681351386731
 21
5.8330952304425807
 31
0.0
  0
LINE
  5
17E
100
AcDbEntity
  8
0
  6
CONTINUOUS
 62
               4
100
AcDbLine
 10
9.0
 20
9.0857864239006574
 30
0.0
 11
9.0
 21
5.0999999999999996
 31
0.0
  0
LINE
  5
17F
100
AcDbEntity
  8
0
  6
CONTINUOUS
 62
               4
100
AcDbLine
 10
24.0
 20
6.7696888883552724
 30
0.0
 11
24.0
 21
12.939518292948236
 31
0.0
  0
LINE
  5
180
100
AcDbEntity
  8
0
  6
CONTINUOUS
 62
               4
100
AcDbLine
 10
21.5
 20
10.04038049797677
 30
0.0
 11
21.5
 21
10.747487298669256
 31
0.0
  0
LINE
  5
181
100
AcDbEntity
  8
0
  6
CONTINUOUS
 62
               4
100
AcDbLine
 10
23.599999984001897
 20
11.489949418915131
 30
0.0
 11
23.599999984001897
 21
12.197056194349756
 31
0.0
  0
ELLIPSE
  5
182
100
AcDbEntity
  8
0
  6
CONTINUOUS
 62
               4
100
AcDbEllipse
 10
21.5
 20
12.197056200101684
 30
0.0
 11
2.0999999999999943
 21
0.0
 31
0.0
210
0.0
220
0.0
230
1.0
 40
0.690270905444012
 41
2.2690212382307813
 42
0.8725714153590118
  0
LINE
  5
183
100
AcDbEntity
  8
0
  6
CONTINUOUS
 62
               4
100
AcDbLine
 10
21.5
 20
10.040380517482703
 30
0.0
 11
24.000000019764684
 21
10.040380517482703
 31
0.0
  0
LINE
  5
184
100
AcDbEntity
  8
0
  6
CONTINUOUS
 62
               4
100
AcDbLine
 10
23.303625126576208
 20
12.93951832034756
 30
0.0
 11
24.0
 21
12.93951832034756
 31
0.0
  0
LINE
  5
185
100
AcDbEntity
  8
0
  6
CONTINUOUS
 62
               4
100
AcDbLine
 10
19.400000000000091
 20
12.197056200101684
 30
0.0
 11
19.400000000000091
 21
8.0251262521208844
 31
0.0
  0
ELLIPSE
  5
186
100
AcDbEntity
  8
0
  6
CONTINUOUS
 62
               4
100
AcDbEllipse
 10
21.5
 20
11.489949418915131
 30
0.0
 11
2.0999999840018688
 21
0.0
 31
0.0
210
0.0
220
0.0
230
1.0
 40
0.6902709107026028
 41
4.7123889803846897
 42
0.0
  0
LINE
  5
187
100
AcDbEntity
  8
0
  6
CONTINUOUS
 62
               4
100
AcDbLine
 10
20.030306154330219
 20
7.6362174584050706
 30
0.0
 11
24.0
 21
7.6362174584050706
 31
0.0
  0
LINE
  5
188
100
AcDbEntity
  8
0
  6
CONTINUOUS
 62
               4
100
AcDbLine
 10
20.030306154330219
 20
6.9644660803410616
 30
0.0
 11
20.030306154330219
 21
7.6362174354042907
 31
0.0
  0
ELLIPSE
  5
189
100
AcDbEntity
  8
0
  6
CONTINUOUS
 62
               4
100
AcDbEllipse
 10
21.500000019764684
 20
8.0251262521208844
 30
0.0
 11
-2.10000001976465
 21
0.0000000000000003
 31
0.0
210
0.0
220
0.0
230
1.0
 40
0.6902708989473664
 41
0.0
 42
0.7956029495296795
  0
LINE
  5
18A
100
AcDbEntity
  8
0
  6
CONTINUOUS
 62
               4
100
AcDbLine
 10
22.850000000000136
 20
12.197056194349756
 30
0.0
 11
22.850000000000136
 21
15.197056194349756
 31
0.0
  0
LINE
  5
18B
100
AcDbEntity
  8
0
  6
CONTINUOUS
 62
               4
100
AcDbLine
 10
20.150000000000091
 20
12.197056194349756
 30
0.0
 11
20.150000000000091
 21
15.197056194349756
 31
0.0
  0
ELLIPSE
  5
18C
100
AcDbEntity
  8
0
  6
CONTINUOUS
 62
               4
100
AcDbEllipse
 10
21.5
 20
12.197056200101684
 30
0.0
 11
1.3500000000000016
 21
0.0
 31
0.0
210
0.0
220
0.0
230
1.0
 40
0.713092870339449
 41
3.1415926535897931
 42
0.0
  0
ELLIPSE
  5
18D
100
AcDbEntity
  8
0
  6
CONTINUOUS
 62
               4
100
AcDbEllipse
 10
21.5
 20
15.197056200101684
 30
0.0
 11
1.3500000000000016
 21
0.0
 31
0.0
210
0.0
220
0.0
230
1.0
 40
0.713092870339449
 41
0.0
 42
6.2831853071795862
  0
LINE
  5
18E
100
AcDbEntity
  8
0
  6
CONTINUOUS
 62
               4
100
AcDbLine
 10
16.5
 20
-6.7696888883552724
 30
0.0
 11
16.5
 21
-12.939518292948605
 31
0.0
  0
LINE
  5
18F
100
AcDbEntity
  8
0
  6
CONTINUOUS
 62
               4
100
AcDbLine
 10
19.0
 20
-10.040380497977139
 30
0.0
 11
19.0
 21
-10.747487298669569
 31
0.0
  0
LINE
  5
190
100
AcDbEntity
  8
0
  6
CONTINUOUS
 62
               4
100
AcDbLine
 10
21.100000000000136
 20
-12.197056200101997
 30
0.0
 11
21.100000000000136
 21
-8.025126252121197
 31
0.0
  0
ELLIPSE
  5
191
100
AcDbEntity
  8
0
  6
CONTINUOUS
 62
               4
100
AcDbEllipse
 10
19.0
 20
-11.489949418915444
 30
0.0
 11
-2.0999999840018688
 21
0.0000000000000003
 31
0.0
210
0.0
220
0.0
230
1.0
 40
0.6902709107026028
 41
4.7123889803846897
 42
0.0
  0
ELLIPSE
  5
192
100
AcDbEntity
  8
0
  6
CONTINUOUS
 62
               4
100
AcDbEllipse
 10
19.0
 20
-15.197056200101997
 30
0.0
 11
-1.3500000000000016
 21
0.0000000000000002
 31
0.0
210
0.0
220
0.0
230
1.0
 40
0.713092870339449
 41
0.0
 42
6.2831853071795862
  0
ELLIPSE
  5
193
100
AcDbEntity
  8
0
  6
CONTINUOUS
 62
               4
100
AcDbEllipse
 10
19.0
 20
-12.197056200101997
 30
0.0
 11
-1.3500000000000016
 21
0.0000000000000002
 31
0.0
210
0.0
220
0.0
230
1.0
 40
0.713092870339449
 41
3.1415926535897931
 42
0.0
  0
LINE
  5
194
100
AcDbEntity
  8
0
  6
CONTINUOUS
 62
               4
100
AcDbLine
 10
20.350000000000136
 20
-12.197056194350125
 30
0.0
 11
20.350000000000136
 21
-15.197056194350125
 31
0.0
  0
LINE
  5
195
100
AcDbEntity
  8
0
  6
CONTINUOUS
 62
               4
100
AcDbLine
 10
17.650000000000091
 20
-12.197056194350125
 30
0.0
 11
17.650000000000091
 21
-15.197056194350125
 31
0.0
  0
LINE
  5
196
100
AcDbEntity
  8
0
  6
CONTINUOUS
 62
               4
100
AcDbLine
 10
17.19637487342402
 20
-12.939518320347872
 30
0.0
 11
16.5
 21
-12.939518320347872
 31
0.0
  0
ELLIPSE
  5
197
100
AcDbEntity
  8
0
  6
CONTINUOUS
 62
               4
100
AcDbEllipse
 10
19.0
 20
-12.197056200101997
 30
0.0
 11
-2.0999999999999943
 21
0.0000000000000003
 31
0.0
210
0.0
220
0.0
230
1.0
 40
0.690270905444012
 41
2.2690212382307813
 42
0.8725714153590118
  0
LINE
  5
198
100
AcDbEntity
  8
0
  6
CONTINUOUS
 62
               4
100
AcDbLine
 10
16.90000001599833
 20
-11.489949418915444
 30
0.0
 11
16.90000001599833
 21
-12.197056194350125
 31
0.0
  0
LINE
  5
199
100
AcDbEntity
  8
0
  6
CONTINUOUS
 62
               4
100
AcDbLine
 10
19.0
 20
-10.040380517483072
 30
0.0
 11
16.499999980235543
 21
-10.040380517483072
 31
0.0
  0
LINE
  5
19A
100
AcDbEntity
  8
0
  6
CONTINUOUS
 62
               4
100
AcDbLine
 10
20.469693845670008
 20
-7.6362174584053832
 30
0.0
 11
16.5
 21
-7.6362174584053832
 31
0.0
  0
LINE
  5
19B
100
AcDbEntity
  8
0
  6
CONTINUOUS
 62
               4
100
AcDbLine
 10
20.469693845670008
 20
-6.9644660803410119
 30
0.0
 11
20.469693845670008
 21
-7.6362174354046601
 31
0.0
  0
ELLIPSE
  5
19C
100
AcDbEntity
  8
0
  6
CONTINUOUS
 62
               4
100
AcDbEllipse
 10
18.999999980235543
 20
-8.025126252121197
 30
0.0
 11
2.10000001976465
 21
0.0
 31
0.0
210
0.0
220
0.0
230
1.0
 40
0.6902708989473664
 41
0.0
 42
0.7956029495296795
  0
LINE
  5
19D
100
AcDbEntity
  8
0
  6
CONTINUOUS
 62
               4
100
AcDbLine
 10
29.75
 20
-8.8911516559056167
 30
0.0
 11
29.75
 21
-7.1591008483367773
 31
0.0
  0
LINE
  5
19E
100
AcDbEntity
  8
0
  6
CONTINUOUS
 62
               4
100
AcDbLine
 10
29.25
 20
-8.8911516559056167
 30
0.0
 11
29.25
 21
-7.1591008483367773
 31
0.0
  0
ELLIPSE
  5
19F
100
AcDbEntity
  8
0
  6
CONTINUOUS
 62
               4
100
AcDbEllipse
 10
29.5
 20
-8.025126252121197
 30
0.0
 11
1.25
 21
0.0
 31
0.0
210
0.0
220
0.0
230
1.0
 40
0.7071067811865476
 41
0.0
 42
6.2831853071795862
  0
LINE
  5
1A0
100
AcDbEntity
  8
0
  6
CONTINUOUS
 62
               4
100
AcDbLine
 10
31.5
 20
-9.0857864239007142
 30
0.0
 11
31.5
 21
-6.7696888883552724
 31
0.0
  0
LINE
  5
1A1
100
AcDbEntity
  8
0
  6
CONTINUOUS
 62
               4
100
AcDbLine
 10
9.0000000168746226
 20
9.0857864239006574
 30
0.0
 11
19.400000000000091
 21
9.0857864239006574
 31
0.0
  0
LINE
  5
1A2
100
AcDbEntity
  8
0
  6
CONTINUOUS
 62
               4
100
AcDbLine
 10
9.0000000168746226
 20
6.9644660803410616
 30
0.0
 11
24.000000016874623
 21
6.9644660803410616
 31
0.0
  0
LINE
  5
1A3
100
AcDbEntity
  8
0
  6
CONTINUOUS
 62
               4
100
AcDbLine
 10
16.500000016874623
 20
-6.9644660803410119
 30
0.0
 11
31.5
 21
-6.9644660803410119
 31
0.0
  0
LINE
  5
1A4
100
AcDbEntity
  8
0
  6
CONTINUOUS
 62
               4
100
AcDbLine
 10
21.099999981111836
 20
-9.0857864239007142
 30
0.0
 11
31.500000016874623
 21
-9.0857864239007142
 31
0.0
  0
CIRCLE
  5
1A5
100
AcDbEntity
  8
0
  6
CONTINUOUS
 62
               7
100
AcDbCircle
 10
3.5
 20
0.0
 30
0.0
 40
1.1999999999999886
  0
CIRCLE
  5
1A6
100
AcDbEntity
  8
0
  6
CONTINUOUS
 62
               2
100
AcDbCircle
 10
3.5
 20
0.0
 30
0.0
 40
1.5
  0
LINE
  5
1A7
100
AcDbEntity
  8
0
  6
CENTER
 62
               2
100
AcDbLine
 10
3.5
 20
-1.9547775518886823
 30
0.0
 11
3.5
 21
1.9760956580291236
 31
0.0
  0
LINE
  5
1A8
100
AcDbEntity
  8
0
  6
CONTINUOUS
 62
               7
100
AcDbLine
 10
-3.7999999999999972
 20
-2.750000018878012
 30
0.0
 11
-3.7999999999999972
 21
2.749999981121988
 31
0.0
  0
LINE
  5
1A9
100
AcDbEntity
  8
0
  6
CONTINUOUS
 62
               7
100
AcDbLine
 10
-2.0
 20
-2.750000018878012
 30
0.0
 11
-2.0
 21
2.749999981121988
 31
0.0
  0
LINE
  5
1AA
100
AcDbEntity
  8
0
  6
CONTINUOUS
 62
               7
100
AcDbLine
 10
-5.5999999999999943
 20
-2.750000018878012
 30
0.0
 11
-5.5999999999999943
 21
2.749999981121988
 31
0.0
  0
LINE
  5
1AB
100
AcDbEntity
  8
0
  6
CONTINUOUS
 62
               7
100
AcDbLine
 10
-4.045620120172714
 20
3.1754265238809296
 30
0.0
 11
-5.3543798691084135
 21
3.1754265238809296
 31
0.0
  0
LINE
  5
1AC
100
AcDbEntity
  8
0
  6
CONTINUOUS
 62
               7
100
AcDbLine
 10
-3.7999999999999972
 20
2.75
 30
0.0
 11
-4.0456201180830647
 21
3.1754265238809296
 31
0.0
  0
LINE
  5
1AD
100
AcDbEntity
  8
0
  6
CONTINUOUS
 62
               7
100
AcDbLine
 10
-5.5999999999999943
 20
2.75
 30
0.0
 11
-5.3543798819169268
 21
3.1754265238809296
 31
0.0
  0
LINE
  5
1AE
100
AcDbEntity
  8
0
  6
CONTINUOUS
 62
               7
100
AcDbLine
 10
-2.0
 20
2.75
 30
0.0
 11
-2.2456201180830675
 21
3.1754265238809296
 31
0.0
  0
LINE
  5
1AF
100
AcDbEntity
  8
0
  6
CONTINUOUS
 62
               7
100
AcDbLine
 10
-3.7999999999999972
 20
2.75
 30
0.0
 11
-3.5543798819169297
 21
3.1754265238809296
 31
0.0
  0
LINE
  5
1B0
100
AcDbEntity
  8
0
  6
CONTINUOUS
 62
               7
100
AcDbLine
 10
-3.5543798798272803
 20
3.1754265238809296
 30
0.0
 11
-2.2456201308915809
 21
3.1754265238809296
 31
0.0
  0
LINE
  5
1B1
100
AcDbEntity
  8
0
  6
CONTINUOUS
 62
               7
100
AcDbLine
 10
-3.5543798798272803
 20
1.5877133879722152
 30
0.0
 11
-2.2456201201727168
 21
1.5877133879722152
 31
0.0
  0
LINE
  5
1B2
100
AcDbEntity
  8
0
  6
CONTINUOUS
 62
               7
100
AcDbLine
 10
-4.045620120172714
 20
1.5877133879722152
 30
0.0
 11
-5.3543798798272775
 21
1.5877133879722152
 31
0.0
  0
LINE
  5
1B3
100
AcDbEntity
  8
0
  6
CONTINUOUS
 62
               7
100
AcDbLine
 10
-3.5543798798272803
 20
-3.1754265238809296
 30
0.0
 11
-2.2456201308915809
 21
-3.1754265238809296
 31
0.0
  0
LINE
  5
1B4
100
AcDbEntity
  8
0
  6
CONTINUOUS
 62
               7
100
AcDbLine
 10
-3.5543798798272803
 20
-1.5877133879722152
 30
0.0
 11
-2.2456201201727168
 21
-1.5877133879722152
 31
0.0
  0
LINE
  5
1B5
100
AcDbEntity
  8
0
  6
CONTINUOUS
 62
               7
100
AcDbLine
 10
-4.045620120172714
 20
-1.5877133879722152
 30
0.0
 11
-5.3543798798272775
 21
-1.5877133879722152
 31
0.0
  0
LINE
  5
1B6
100
AcDbEntity
  8
0
  6
CONTINUOUS
 62
               7
100
AcDbLine
 10
-4.045620120172714
 20
-3.1754265238809296
 30
0.0
 11
-5.3543798691084135
 21
-3.1754265238809296
 31
0.0
  0
LINE
  5
1B7
100
AcDbEntity
  8
0
  6
CONTINUOUS
 62
               7
100
AcDbLine
 10
-3.7999999999999972
 20
-2.75
 30
0.0
 11
-4.0456201180830647
 21
-3.1754265238809296
 31
0.0
  0
LINE
  5
1B8
100
AcDbEntity
  8
0
  6
CONTINUOUS
 62
               7
100
AcDbLine
 10
-3.7999999999999972
 20
-2.75
 30
0.0
 11
-3.5543798819169297
 21
-3.1754265238809296
 31
0.0
  0
LINE
  5
1B9
100
AcDbEntity
  8
0
  6
CONTINUOUS
 62
               7
100
AcDbLine
 10
-5.5999999999999943
 20
-2.75
 30
0.0
 11
-5.3543798819169268
 21
-3.1754265238809296
 31
0.0
  0
LINE
  5
1BA
100
AcDbEntity
  8
0
  6
CONTINUOUS
 62
               7
100
AcDbLine
 10
-2.0
 20
-2.75
 30
0.0
 11
-2.2456201180830675
 21
-3.1754265238809296
 31
0.0
  0
SPLINE
  5
1BB
100
AcDbEntity
  8
0
  6
CONTINUOUS
 62
               7
100
AcDbSpline
210
0.0
220
0.0
230
1.0
 70
               0
 71
               3
 72
               0
 73
               0
 74
               5
 44
0.000001
 12
-0.5262037598477771
 22
-0.8503585144643775
 32
0.0
 13
0.5262037751704171
 23
-0.8503585049826933
 33
0.0
 11
-3.5543798819169297
 21
3.1754265238809296
 31
0.0
 11
-3.7318484367291722
 21
2.794852077955797
 31
0.0
 11
-3.7999999999999972
 21
2.3815698774887011
 31
0.0
 11
-3.7318484162285821
 21
1.9682877574118116
 31
0.0
 11
-3.5543798798272803
 21
1.5877133879722152
 31
0.0
  0
SPLINE
  5
1BC
100
AcDbEntity
  8
0
  6
CONTINUOUS
 62
               7
100
AcDbSpline
210
0.0
220
0.0
230
1.0
 70
               0
 71
               3
 72
               0
 73
               0
 74
               5
 44
0.000001
 12
0.526203759847777
 22
-0.8503585144643776
 32
0.0
 13
-0.5262037751704169
 23
-0.8503585049826934
 33
0.0
 11
-2.2456201180830675
 21
3.1754265238809296
 31
0.0
 11
-2.0681515632708249
 21
2.794852077955797
 31
0.0
 11
-2.0
 21
2.3815698774887011
 31
0.0
 11
-2.0681515837714151
 21
1.9682877574118116
 31
0.0
 11
-2.2456201201727168
 21
1.5877133879722152
 31
0.0
  0
SPLINE
  5
1BD
100
AcDbEntity
  8
0
  6
CONTINUOUS
 62
               7
100
AcDbSpline
210
0.0
220
0.0
230
1.0
 70
               0
 71
               3
 72
               0
 73
               0
 74
               5
 44
0.000001
 12
-0.5262037598477771
 22
-0.8503585144643775
 32
0.0
 13
0.5262037751704171
 23
-0.8503585049826933
 33
0.0
 11
-5.3543798819169268
 21
3.1754265238809296
 31
0.0
 11
-5.5318484367291694
 21
2.794852077955797
 31
0.0
 11
-5.5999999999999943
 21
2.3815698774887011
 31
0.0
 11
-5.5318484162285797
 21
1.9682877574118116
 31
0.0
 11
-5.3543798798272775
 21
1.5877133879722152
 31
0.0
  0
SPLINE
  5
1BE
100
AcDbEntity
  8
0
  6
CONTINUOUS
 62
               7
100
AcDbSpline
210
0.0
220
0.0
230
1.0
 70
               0
 71
               3
 72
               0
 73
               0
 74
               5
 44
0.000001
 12
0.526203759847777
 22
-0.8503585144643776
 32
0.0
 13
-0.5262037751704169
 23
-0.8503585049826934
 33
0.0
 11
-4.0456201180830647
 21
3.1754265238809296
 31
0.0
 11
-3.8681515632708221
 21
2.794852077955797
 31
0.0
 11
-3.7999999999999972
 21
2.3815698774887011
 31
0.0
 11
-3.8681515837714122
 21
1.9682877574118116
 31
0.0
 11
-4.045620120172714
 21
1.5877133879722152
 31
0.0
  0
SPLINE
  5
1BF
100
AcDbEntity
  8
0
  6
CONTINUOUS
 62
               7
100
AcDbSpline
210
0.0
220
0.0
230
1.0
 70
               0
 71
               3
 72
               0
 73
               0
 74
               5
 44
0.000001
 12
-0.2955767328958228
 22
-0.9553190016798742
 32
0.0
 13
0.2955767328958229
 23
-0.9553190016798742
 33
0.0
 11
-3.5543798798272803
 21
1.5877133879722152
 31
0.0
 11
-3.7365491313846642
 21
0.803775075127956
 31
0.0
 11
-3.7999999999999972
 21
0.0
 31
0.0
 11
-3.7365491313846642
 21
-0.8037750751279561
 31
0.0
 11
-3.5543798798272803
 21
-1.5877133879722152
 31
0.0
  0
SPLINE
  5
1C0
100
AcDbEntity
  8
0
  6
CONTINUOUS
 62
               7
100
AcDbSpline
210
0.0
220
0.0
230
1.0
 70
               0
 71
               3
 72
               0
 73
               0
 74
               5
 44
0.000001
 12
0.2955767328958229
 22
-0.9553190016798742
 32
0.0
 13
-0.2955767328958228
 23
-0.9553190016798742
 33
0.0
 11
-4.045620120172714
 21
1.5877133879722152
 31
0.0
 11
-3.8634508686153302
 21
0.803775075127956
 31
0.0
 11
-3.7999999999999972
 21
0.0
 31
0.0
 11
-3.8634508686153302
 21
-0.8037750751279561
 31
0.0
 11
-4.045620120172714
 21
-1.5877133879722152
 31
0.0
  0
SPLINE
  5
1C1
100
AcDbEntity
  8
0
  6
CONTINUOUS
 62
               7
100
AcDbSpline
210
0.0
220
0.0
230
1.0
 70
               0
 71
               3
 72
               0
 73
               0
 74
               5
 44
0.000001
 12
0.2955767328958229
 22
-0.9553190016798742
 32
0.0
 13
-0.2955767328958228
 23
-0.9553190016798742
 33
0.0
 11
-2.2456201201727168
 21
1.5877133879722152
 31
0.0
 11
-2.063450868615333
 21
0.803775075127956
 31
0.0
 11
-2.0
 21
0.0
 31
0.0
 11
-2.063450868615333
 21
-0.8037750751279561
 31
0.0
 11
-2.2456201201727168
 21
-1.5877133879722152
 31
0.0
  0
SPLINE
  5
1C2
100
AcDbEntity
  8
0
  6
CONTINUOUS
 62
               7
100
AcDbSpline
210
0.0
220
0.0
230
1.0
 70
               0
 71
               3
 72
               0
 73
               0
 74
               5
 44
0.000001
 12
-0.2955767328958228
 22
-0.9553190016798742
 32
0.0
 13
0.2955767328958229
 23
-0.9553190016798742
 33
0.0
 11
-5.3543798798272775
 21
1.5877133879722152
 31
0.0
 11
-5.5365491313846613
 21
0.803775075127956
 31
0.0
 11
-5.5999999999999943
 21
0.0
 31
0.0
 11
-5.5365491313846613
 21
-0.8037750751279561
 31
0.0
 11
-5.3543798798272775
 21
-1.5877133879722152
 31
0.0
  0
SPLINE
  5
1C3
100
AcDbEntity
  8
0
  6
CONTINUOUS
 62
               7
100
AcDbSpline
210
0.0
220
0.0
230
1.0
 70
               0
 71
               3
 72
               0
 73
               0
 74
               5
 44
0.000001
 12
0.526203759847777
 22
0.8503585144643776
 32
0.0
 13
-0.5262037751704169
 23
0.8503585049826934
 33
0.0
 11
-4.0456201180830647
 21
-3.1754265238809296
 31
0.0
 11
-3.8681515632708221
 21
-2.794852077955797
 31
0.0
 11
-3.7999999999999972
 21
-2.3815698774887011
 31
0.0
 11
-3.8681515837714122
 21
-1.9682877574118116
 31
0.0
 11
-4.045620120172714
 21
-1.5877133879722152
 31
0.0
  0
SPLINE
  5
1C4
100
AcDbEntity
  8
0
  6
CONTINUOUS
 62
               7
100
AcDbSpline
210
0.0
220
0.0
230
1.0
 70
               0
 71
               3
 72
               0
 73
               0
 74
               5
 44
0.000001
 12
-0.5262037598477771
 22
0.8503585144643775
 32
0.0
 13
0.5262037751704171
 23
0.8503585049826933
 33
0.0
 11
-3.5543798819169297
 21
-3.1754265238809296
 31
0.0
 11
-3.7318484367291722
 21
-2.794852077955797
 31
0.0
 11
-3.7999999999999972
 21
-2.3815698774887011
 31
0.0
 11
-3.7318484162285821
 21
-1.9682877574118116
 31
0.0
 11
-3.5543798798272803
 21
-1.5877133879722152
 31
0.0
  0
SPLINE
  5
1C5
100
AcDbEntity
  8
0
  6
CONTINUOUS
 62
               7
100
AcDbSpline
210
0.0
220
0.0
230
1.0
 70
               0
 71
               3
 72
               0
 73
               0
 74
               5
 44
0.000001
 12
0.526203759847777
 22
0.8503585144643776
 32
0.0
 13
-0.5262037751704169
 23
0.8503585049826934
 33
0.0
 11
-2.2456201180830675
 21
-3.1754265238809296
 31
0.0
 11
-2.0681515632708249
 21
-2.794852077955797
 31
0.0
 11
-2.0
 21
-2.3815698774887011
 31
0.0
 11
-2.0681515837714151
 21
-1.9682877574118116
 31
0.0
 11
-2.2456201201727168
 21
-1.5877133879722152
 31
0.0
  0
SPLINE
  5
1C6
100
AcDbEntity
  8
0
  6
CONTINUOUS
 62
               7
100
AcDbSpline
210
0.0
220
0.0
230
1.0
 70
               0
 71
               3
 72
               0
 73
               0
 74
               5
 44
0.000001
 12
-0.5262037598477771
 22
0.8503585144643775
 32
0.0
 13
0.5262037751704171
 23
0.8503585049826933
 33
0.0
 11
-5.3543798819169268
 21
-3.1754265238809296
 31
0.0
 11
-5.5318484367291694
 21
-2.794852077955797
 31
0.0
 11
-5.5999999999999943
 21
-2.3815698774887011
 31
0.0
 11
-5.5318484162285797
 21
-1.9682877574118116
 31
0.0
 11
-5.3543798798272775
 21
-1.5877133879722152
 31
0.0
  0
LINE
  5
1C7
100
AcDbEntity
  8
0
  6
CONTINUOUS
 62
               7
100
AcDbLine
 10
-2.0
 20
-1.5
 30
0.0
 11
0.0
 21
-1.5
 31
0.0
  0
LINE
  5
1C8
100
AcDbEntity
  8
0
  6
CONTINUOUS
 62
               2
100
AcDbLine
 10
-2.0
 20
-1.2000000000000028
 30
0.0
 11
-1.0
 21
-1.2000000000000028
 31
0.0
  0
LINE
  5
1C9
100
AcDbEntity
  8
0
  6
CONTINUOUS
 62
               7
100
AcDbLine
 10
-2.0
 20
1.5
 30
0.0
 11
0.0
 21
1.5
 31
0.0
  0
LINE
  5
1CA
100
AcDbEntity
  8
0
  6
CONTINUOUS
 62
               2
100
AcDbLine
 10
-2.0
 20
1.2000000000000028
 30
0.0
 11
-1.0
 21
1.2000000000000028
 31
0.0
  0
CIRCLE
  5
1CB
100
AcDbEntity
  8
0
  6
CONTINUOUS
 62
               7
100
AcDbCircle
 10
30.5
 20
0.0000000000000142
 30
0.0
 40
1.1999999999999886
  0
CIRCLE
  5
1CC
100
AcDbEntity
  8
0
  6
CONTINUOUS
 62
               2
100
AcDbCircle
 10
30.5
 20
0.0000000000000142
 30
0.0
 40
1.5
  0
LINE
  5
1CD
100
AcDbEntity
  8
0
  6
CENTER
 62
               2
100
AcDbLine
 10
30.5
 20
1.9547775518886965
 30
0.0
 11
30.5
 21
-1.9760956580291094
 31
0.0
  0
CIRCLE
  5
1CE
100
AcDbEntity
  8
0
  6
CONTINUOUS
 62
               7
100
AcDbCircle
 10
14.0
 20
0.0000000000000142
 30
0.0
 40
1.1999999999999886
  0
CIRCLE
  5
1CF
100
AcDbEntity
  8
0
  6
CONTINUOUS
 62
               2
100
AcDbCircle
 10
14.0
 20
0.0000000000000142
 30
0.0
 40
1.5
  0
LINE
  5
1D0
100
AcDbEntity
  8
0
  6
CENTER
 62
               2
100
AcDbLine
 10
14.0
 20
1.9547775518886965
 30
0.0
 11
14.0
 21
-1.9760956580291094
 31
0.0
  0
LINE
  5
1D1
100
AcDbEntity
  8
0
  6
CONTINUOUS
 62
               7
100
AcDbLine
 10
0.0
 20
-9.1564971020193919
 30
0.0
 11
7.2633315368207576
 21
-9.1564971020193919
 31
0.0
  0
LINE
  5
1D2
100
AcDbEntity
  8
0
  6
CONTINUOUS
 62
               7
100
AcDbLine
 10
0.0
 20
-5.4999999300493236
 30
0.0
 11
7.6733501893124583
 21
-5.4999999300493236
 31
0.0
  0
LINE
  5
1D3
100
AcDbEntity
  8
0
  6
CONTINUOUS
 62
               7
100
AcDbLine
 10
0.0
 20
-6.7696888883552724
 30
0.0
 11
6.7138141632386379
 21
-6.7696888883552724
 31
0.0
  0
LINE
  5
1D4
100
AcDbEntity
  8
0
  6
CONTINUOUS
 62
               7
100
AcDbLine
 10
0.0
 20
-8.8029437114261384
 30
0.0
 11
6.9844758287594146
 21
-8.8029437114261384
 31
0.0
  0
LINE
  5
1D5
100
AcDbEntity
  8
0
  6
CONTINUOUS
 62
               7
100
AcDbLine
 10
10.736668463179242
 20
-9.1564971020193919
 30
0.0
 11
16.5
 21
-9.1564971020193919
 31
0.0
  0
LINE
  5
1D6
100
AcDbEntity
  8
0
  6
CONTINUOUS
 62
               7
100
AcDbLine
 10
10.326649810687542
 20
-5.4999999300493236
 30
0.0
 11
33.5
 21
-5.4999999300493236
 31
0.0
  0
LINE
  5
1D7
100
AcDbEntity
  8
0
  6
CONTINUOUS
 62
               7
100
AcDbLine
 10
11.286185836761362
 20
-6.7696888883552724
 30
0.0
 11
33.5
 21
-6.7696888883552724
 31
0.0
  0
LINE
  5
1D8
100
AcDbEntity
  8
0
  6
CONTINUOUS
 62
               7
100
AcDbLine
 10
11.0155241712406
 20
-8.8029437114261384
 30
0.0
 11
16.5
 21
-8.8029437114261384
 31
0.0
  0
LINE
  5
1D9
100
AcDbEntity
  8
0
  6
CONTINUOUS
 62
               7
100
AcDbLine
 10
10.736668463179242
 20
9.1564971020193937
 30
0.0
 11
19.400000000000091
 21
9.1564971020193937
 31
0.0
  0
LINE
  5
1DA
100
AcDbEntity
  8
0
  6
CONTINUOUS
 62
               7
100
AcDbLine
 10
10.326649810687542
 20
5.4999999300493236
 30
0.0
 11
33.5
 21
5.4999999300493236
 31
0.0
  0
LINE
  5
1DB
100
AcDbEntity
  8
0
  6
CONTINUOUS
 62
               7
100
AcDbLine
 10
11.286185836761362
 20
6.7696888883552724
 30
0.0
 11
33.5
 21
6.7696888883552724
 31
0.0
  0
LINE
  5
1DC
100
AcDbEntity
  8
0
  6
CONTINUOUS
 62
               7
100
AcDbLine
 10
24.0
 20
8.8029437114261384
 30
0.0
 11
33.5
 21
8.8029437114261384
 31
0.0
  0
LINE
  5
1DD
100
AcDbEntity
  8
0
  6
CONTINUOUS
 62
               7
100
AcDbLine
 10
0.0
 20
9.1564971020193937
 30
0.0
 11
7.2633315368207576
 21
9.1564971020193937
 31
0.0
  0
LINE
  5
1DE
100
AcDbEntity
  8
0
  6
CONTINUOUS
 62
               7
100
AcDbLine
 10
0.0
 20
5.4999999300493236
 30
0.0
 11
7.6733501893124583
 21
5.4999999300493236
 31
0.0
  0
LINE
  5
1DF
100
AcDbEntity
  8
0
  6
CONTINUOUS
 62
               7
100
AcDbLine
 10
0.0
 20
6.7696888883552724
 30
0.0
 11
6.7138141632386379
 21
6.7696888883552724
 31
0.0
  0
LINE
  5
1E0
100
AcDbEntity
  8
0
  6
CONTINUOUS
 62
               7
100
AcDbLine
 10
0.0
 20
8.8029437114261384
 30
0.0
 11
6.9844758287594146
 21
8.8029437114261384
 31
0.0
  0
LINE
  5
1E1
100
AcDbEntity
  8
0
  6
CONTINUOUS
 62
               7
100
AcDbLine
 10
-7.7000000000000171
 20
-1.5
 30
0.0
 11
-5.5999999999999943
 21
-1.5
 31
0.0
  0
LINE
  5
1E2
100
AcDbEntity
  8
0
  6
CONTINUOUS
 62
               7
100
AcDbLine
 10
-7.7000000000000171
 20
1.5
 30
0.0
 11
-5.5999999999999943
 21
1.5
 31
0.0
  0
LINE
  5
1E3
100
AcDbEntity
  8
0
  6
CENTER
 62
               2
100
AcDbLine
 10
5.5999999999999943
 20
-7.5
 30
0.0
 11
12.400000000000006
 21
-7.5
 31
0.0
  0
CIRCLE
  5
1E4
100
AcDbEntity
  8
0
  6
CONTINUOUS
 62
               7
100
AcDbCircle
 10
9.0
 20
-7.5
 30
0.0
 40
1.3499999999999996
  0
CIRCLE
  5
1E5
100
AcDbEntity
  8
0
  6
CONTINUOUS
 62
               7
100
AcDbCircle
 10
9.0
 20
-7.5
 30
0.0
 40
2.4000000000000004
  0
LINE
  5
1E6
100
AcDbEntity
  8
0
  6
CENTER
 62
               2
100
AcDbLine
 10
9.0
 20
-10.899999999999999
 30
0.0
 11
9.0
 21
-4.1000000000000014
 31
0.0
  0
LINE
  5
1E7
100
AcDbEntity
  8
0
  6
CONTINUOUS
 62
               7
100
AcDbLine
 10
-0.0000000147648791
 20
-10.5
 30
0.0
 11
16.5
 21
-10.5
 31
0.0
  0
LINE
  5
1E8
100
AcDbEntity
  8
0
  6
CONTINUOUS
 62
               2
100
AcDbLine
 10
-1.0
 20
-1.2000000000000028
 30
0.0
 11
-0.4803847577293539
 21
-1.5
 31
0.0
  0
LINE
  5
1E9
100
AcDbEntity
  8
0
  6
CONTINUOUS
 62
               2
100
AcDbLine
 10
-8.0
 20
-1.2000000000000028
 30
0.0
 11
-5.5999999999999943
 21
-1.2000000000000028
 31
0.0
  0
LINE
  5
1EA
100
AcDbEntity
  8
0
  6
CONTINUOUS
 62
               7
100
AcDbLine
 10
-7.7000000000000171
 20
-1.5
 30
0.0
 11
-8.0
 21
-1.2000000000000028
 31
0.0
  0
LINE
  5
1EB
100
AcDbEntity
  8
0
  6
CONTINUOUS
 62
               2
100
AcDbLine
 10
-8.0
 20
1.2000000000000028
 30
0.0
 11
-5.5999999999999943
 21
1.2000000000000028
 31
0.0
  0
LINE
  5
1EC
100
AcDbEntity
  8
0
  6
CONTINUOUS
 62
               7
100
AcDbLine
 10
-7.7000000000000171
 20
1.5
 30
0.0
 11
-8.0
 21
1.2000000000000028
 31
0.0
  0
LINE
  5
1ED
100
AcDbEntity
  8
0
  6
CONTINUOUS
 62
               2
100
AcDbLine
 10
-1.0
 20
1.2000000000000028
 30
0.0
 11
-0.4803847577293539
 21
1.5
 31
0.0
  0
LINE
  5
1EE
100
AcDbEntity
  8
0
  6
CONTINUOUS
 62
               7
100
AcDbLine
 10
-7.7000000000000171
 20
-1.5
 30
0.0
 11
-7.7000000000000171
 21
1.5
 31
0.0
  0
LINE
  5
1EF
100
AcDbEntity
  8
0
  6
CONTINUOUS
 62
               7
100
AcDbLine
 10
-1.0
 20
-1.5
 30
0.0
 11
-1.0
 21
1.5
 31
0.0
  0
LINE
  5
1F0
100
AcDbEntity
  8
0
  6
CONTINUOUS
 62
               7
100
AcDbLine
 10
-8.0
 20
-1.2000000000000028
 30
0.0
 11
-8.0
 21
1.2000000000000028
 31
0.0
  0
ARC
  5
1F1
100
AcDbEntity
  8
0
  6
CONTINUOUS
 62
               7
100
AcDbCircle
 10
9.0
 20
7.5
 30
0.0
 40
2.4000000000000004
100
AcDbArc
 50
41.356665373641256
 51
342.28416756207855
  0
ARC
  5
1F2
100
AcDbEntity
  8
0
  6
CONTINUOUS
 62
               7
100
AcDbCircle
 10
9.0
 20
7.5
 30
0.0
 40
1.3499999999999996
100
AcDbArc
 50
89.999999999999801
 51
269.99999999999937
  0
LINE
  5
1F3
100
AcDbEntity
  8
0
  6
CENTER
 62
               2
100
AcDbLine
 10
9.0
 20
10.899999999999999
 30
0.0
 11
9.0
 21
4.1000000000000014
 31
0.0
  0
LINE
  5
1F4
100
AcDbEntity
  8
0
  6
CENTER
 62
               2
100
AcDbLine
 10
5.5999999999999943
 20
7.5
 30
0.0
 11
12.400000000000006
 21
7.5
 31
0.0
  0
LINE
  5
1F5
100
AcDbEntity
  8
0
  6
CONTINUOUS
 62
               7
100
AcDbLine
 10
33.5
 20
10.5
 30
0.0
 11
33.5
 21
-10.5
 31
0.0
  0
LINE
  5
1F6
100
AcDbEntity
  8
0
  6
CONTINUOUS
 62
               7
100
AcDbLine
 10
0.0
 20
10.5
 30
0.0
 11
0.0
 21
-10.5
 31
0.0
  0
LINE
  5
1F7
100
AcDbEntity
  8
0
  6
CONTINUOUS
 62
               7
100
AcDbLine
 10
-0.0000000147648791
 20
10.5
 30
0.0
 11
19.400000000000091
 21
10.5
 31
0.0
  0
LINE
  5
1F8
100
AcDbEntity
  8
0
  6
CENTER
 62
               2
100
AcDbLine
 10
-9.0969874860368805
 20
0.0
 30
0.0
 11
34.640571163080665
 21
0.0
 31
0.0
  0
LINE
  5
1F9
100
AcDbEntity
  8
0
  6
CONTINUOUS
 62
               7
100
AcDbLine
 10
21.100000000000136
 20
-10.5
 30
0.0
 11
33.5
 21
-10.5
 31
0.0
  0
LINE
  5
1FA
100
AcDbEntity
  8
0
  6
CONTINUOUS
 62
               7
100
AcDbLine
 10
21.100000000000136
 20
-9.1564971020193919
 30
0.0
 11
33.5
 21
-9.1564971020193919
 31
0.0
  0
LINE
  5
1FB
100
AcDbEntity
  8
0
  6
CONTINUOUS
 62
               7
100
AcDbLine
 10
31.5
 20
-8.8029437114261384
 30
0.0
 11
33.5
 21
-8.8029437114261384
 31
0.0
  0
LINE
  5
1FC
100
AcDbEntity
  8
0
  6
CONTINUOUS
 62
               7
100
AcDbLine
 10
24.0
 20
9.1564971020193937
 30
0.0
 11
33.5
 21
9.1564971020193937
 31
0.0
  0
LINE
  5
1FD
100
AcDbEntity
  8
0
  6
CONTINUOUS
 62
               7
100
AcDbLine
 10
24.0
 20
10.5
 30
0.0
 11
33.5
 21
10.5
 31
0.0
  0
ENDBLK
  5
1FE
100
AcDbEntity
  8
0
100
AcDbBlockEnd
  0
BLOCK
  5
1FF
100
AcDbEntity
  8
0
100
AcDbBlockBegin
  2
MS_6
 70
               0
 10
0.0
 20
0.0
 30
0.0
  3
MS_6
  1

  0
LINE
  5
200
100
AcDbEntity
  8
0
  6
CONTINUOUS
 62
               4
100
AcDbLine
 10
14.700290691663852
 20
-13.143569134347445
 30
0.0
 11
17.072137423387815
 21
-15.515415866071294
 31
0.0
  0
LINE
  5
201
100
AcDbEntity
  8
0
  6
CONTINUOUS
 62
               4
100
AcDbLine
 10
16.60947900086758
 20
-11.234380825143774
 30
0.0
 11
18.705468013036992
 21
-13.330369837313071
 31
0.0
  0
LINE
  5
202
100
AcDbEntity
  8
0
  6
PHANTOM
 62
             200
100
AcDbLine
 10
19.341235840324728
 20
-12.274807484820997
 30
0.0
 11
16.325650805804528
 21
-16.581509241032393
 31
0.0
  0
LINE
  5
203
100
AcDbEntity
  8
0
  6
CONTINUOUS
 62
               4
100
AcDbLine
 10
17.096372533121851
 20
-10.747487292889446
 30
0.0
 11
14.197234724476814
 21
-13.646625101534426
 31
0.0
  0
LINE
  5
204
100
AcDbEntity
  8
0
  6
CONTINUOUS
 62
               4
100
AcDbLine
 10
13.985102698637732
 20
-7.6362174584053832
 30
0.0
 11
13.207285234515851
 21
-7.6362174584053832
 31
0.0
  0
LINE
  5
205
100
AcDbEntity
  8
0
  6
CONTINUOUS
 62
               4
100
AcDbLine
 10
11.08596487891414
 20
-9.7575377899230489
 30
0.0
 11
11.085964890956305
 21
-10.535355266087038
 31
0.0
  0
LINE
  5
206
100
AcDbEntity
  8
0
  6
CONTINUOUS
 62
               4
100
AcDbLine
 10
17.096372527341785
 20
-10.747487298669569
 30
0.0
 11
13.985102690120996
 21
-7.6362174614487799
 31
0.0
  0
LINE
  5
207
100
AcDbEntity
  8
0
  6
CONTINUOUS
 62
               4
100
AcDbLine
 10
14.197234724476814
 20
-13.646625101534426
 30
0.0
 11
11.085964887256026
 21
-10.535355264313637
 31
0.0
  0
LINE
  5
208
100
AcDbEntity
  8
0
  6
CONTINUOUS
 62
               4
100
AcDbLine
 10
12.21632564562988
 20
-5.8694607220467674
 30
0.0
 11
12.21834595071887
 21
-6.6472781813519646
 31
0.0
  0
LINE
  5
209
100
AcDbEntity
  8
0
  6
CONTINUOUS
 62
               4
100
AcDbLine
 10
13.207285227772402
 20
-7.6362174584053832
 30
0.0
 11
12.21834595071887
 21
-6.6472781813519646
 31
0.0
  0
LINE
  5
20A
100
AcDbEntity
  8
0
  6
CONTINUOUS
 62
               4
100
AcDbLine
 10
11.085964890956305
 20
-9.7575378087085483
 30
0.0
 11
10.097025607159324
 21
-8.7685985249116243
 31
0.0
  0
LINE
  5
20B
100
AcDbEntity
  8
0
  6
CONTINUOUS
 62
               4
100
AcDbLine
 10
9.3171878427649091
 20
-8.7685985249116243
 30
0.0
 11
10.097025607159324
 21
-8.7685985249116243
 31
0.0
  0
LINE
  5
20C
100
AcDbEntity
  8
0
  6
CONTINUOUS
 62
               4
100
AcDbLine
 10
9.3171878427649091
 20
-8.7685985249116243
 30
0.0
 11
8.2221824844704798
 21
-7.6735931666170245
 31
0.0
  0
ARC
  5
20D
100
AcDbEntity
  8
0
  6
CONTINUOUS
 62
               4
100
AcDbCircle
 10
9.6707405806950675
 20
-6.223950684246347
 30
0.0
 40
2.0506628609917015
100
AcDbArc
 50
44.978576158876109
 51
134.94156910908407
  0
ARC
  5
20E
100
AcDbEntity
  8
0
  6
CONTINUOUS
 62
               4
100
AcDbCircle
 10
9.6736031547718113
 20
-6.223014112640044
 30
0.0
 40
2.0520237703338058
100
AcDbArc
 50
135.01661649434493
 51
224.98338350565427
  0
LINE
  5
20F
100
AcDbEntity
  8
0
  6
CENTER
 62
             200
100
AcDbLine
 10
18.883330674231004
 20
-15.433583248423702
 30
0.0
 11
7.5799329346170481
 21
-4.1301855088096886
 31
0.0
  0
LINE
  5
210
100
AcDbEntity
  8
0
  6
CONTINUOUS
 62
               4
100
AcDbLine
 10
16.389265751935412
 20
-10.040380511702892
 30
0.0
 11
13.490127943290375
 21
-12.939518320347872
 31
0.0
  0
LINE
  5
211
100
AcDbEntity
  8
0
  6
CONTINUOUS
 62
               4
100
AcDbLine
 10
13.207285227772076
 20
7.6362174584050706
 30
0.0
 11
12.218345950718543
 21
6.6472781813516519
 31
0.0
  0
LINE
  5
212
100
AcDbEntity
  8
0
  6
CONTINUOUS
 62
               4
100
AcDbLine
 10
9.3171878427645822
 20
8.7685985249113116
 30
0.0
 11
10.097025607158997
 21
8.7685985249113116
 31
0.0
  0
LINE
  5
213
100
AcDbEntity
  8
0
  6
CONTINUOUS
 62
               4
100
AcDbLine
 10
11.650640220680174
 20
5.3037752970971894
 30
0.0
 11
8.7515024178154306
 21
8.2029130999620463
 31
0.0
  0
LINE
  5
214
100
AcDbEntity
  8
0
  6
CENTER
 62
             200
100
AcDbLine
 10
18.883330674230677
 20
15.433583248423332
 30
0.0
 11
7.5799329346167212
 21
4.130185508809376
 31
0.0
  0
LINE
  5
215
100
AcDbEntity
  8
0
  6
CONTINUOUS
 62
               4
100
AcDbLine
 10
11.085964890955978
 20
9.7575378087081788
 30
0.0
 11
10.097025607158997
 21
8.7685985249113116
 31
0.0
  0
LINE
  5
216
100
AcDbEntity
  8
0
  6
CONTINUOUS
 62
               4
100
AcDbLine
 10
12.535533849708003
 20
6.9644660803410545
 30
0.0
 11
10.414213506148457
 21
9.0857864239006574
 31
0.0
  0
LINE
  5
217
100
AcDbEntity
  8
0
  6
CONTINUOUS
 62
               4
100
AcDbLine
 10
14.197234724476488
 20
13.646625101534056
 30
0.0
 11
11.085964887255699
 21
10.535355264313267
 31
0.0
  0
LINE
  5
218
100
AcDbEntity
  8
0
  6
CONTINUOUS
 62
               4
100
AcDbLine
 10
17.096372527341458
 20
10.747487298669256
 30
0.0
 11
13.985102690120669
 21
7.6362174614484104
 31
0.0
  0
LINE
  5
219
100
AcDbEntity
  8
0
  6
CONTINUOUS
 62
               4
100
AcDbLine
 10
11.085964878913813
 20
9.7575377899227362
 30
0.0
 11
11.085964890955978
 21
10.535355266086668
 31
0.0
  0
LINE
  5
21A
100
AcDbEntity
  8
0
  6
CONTINUOUS
 62
               4
100
AcDbLine
 10
13.985102698637405
 20
7.6362174584050706
 30
0.0
 11
13.207285234515524
 21
7.6362174584050706
 31
0.0
  0
LINE
  5
21B
100
AcDbEntity
  8
0
  6
CONTINUOUS
 62
               4
100
AcDbLine
 10
17.096372533121524
 20
10.747487292889076
 30
0.0
 11
14.197234724476488
 21
13.646625101534056
 31
0.0
  0
LINE
  5
21C
100
AcDbEntity
  8
0
  6
PHANTOM
 62
             200
100
AcDbLine
 10
19.341235840324401
 20
12.274807484820627
 30
0.0
 11
16.325650805804202
 21
16.58150924103208
 31
0.0
  0
LINE
  5
21D
100
AcDbEntity
  8
0
  6
CONTINUOUS
 62
               4
100
AcDbLine
 10
16.609479000867253
 20
11.234380825143404
 30
0.0
 11
18.705468013036665
 21
13.330369837312702
 31
0.0
  0
LINE
  5
21E
100
AcDbEntity
  8
0
  6
CONTINUOUS
 62
               4
100
AcDbLine
 10
14.700290691663525
 20
13.143569134347075
 30
0.0
 11
17.072137423387488
 21
15.515415866070924
 31
0.0
  0
LINE
  5
21F
100
AcDbEntity
  8
0
  6
CONTINUOUS
 62
               4
100
AcDbLine
 10
8.8949440791419363
 20
4.3865567866438084
 30
0.0
 11
7.8342839073619359
 21
5.4472169584236383
 31
0.0
  0
LINE
  5
220
100
AcDbEntity
  8
0
  6
CONTINUOUS
 62
               4
100
AcDbLine
 10
11.086581144255803
 20
4.7405041338015153
 30
0.0
 11
8.1878372979552694
 21
7.6392479801019419
 31
0.0
  0
LINE
  5
221
100
AcDbEntity
  8
0
  6
CONTINUOUS
 62
               4
100
AcDbLine
 10
9.6020508603283758
 20
4.3865567866438084
 30
0.0
 11
7.8342839073619359
 21
6.1543237396101347
 31
0.0
  0
ARC
  5
222
100
AcDbEntity
  8
0
  6
CONTINUOUS
 62
               4
100
AcDbCircle
 10
9.6736031547714845
 20
6.2230141126397314
 30
0.0
 40
2.0520237703338058
100
AcDbArc
 50
135.01661649434493
 51
224.98338350565427
  0
LINE
  5
223
100
AcDbEntity
  8
0
  6
CONTINUOUS
 62
               4
100
AcDbLine
 10
7.8342839073619359
 20
6.1543237396101347
 30
0.0
 11
7.8342839073619359
 21
5.4472169584236383
 31
0.0
  0
LINE
  5
224
100
AcDbEntity
  8
0
  6
CONTINUOUS
 62
               4
100
AcDbLine
 10
8.753522722904421
 20
7.0735625551526766
 30
0.0
 11
7.8342839073619359
 21
6.1543237396101347
 31
0.0
  0
LINE
  5
225
100
AcDbEntity
  8
0
  6
CONTINUOUS
 62
               4
100
AcDbLine
 10
9.3171878427645822
 20
8.7685985249113116
 30
0.0
 11
8.222182484470153
 21
7.6735931666167119
 31
0.0
  0
LINE
  5
226
100
AcDbEntity
  8
0
  6
CONTINUOUS
 62
             200
100
AcDbLine
 10
8.8959542316864315
 20
6.9311310463708367
 30
0.0
 11
7.8342839073619359
 21
5.8694607220464547
 31
0.0
  0
LINE
  5
227
100
AcDbEntity
  8
0
  6
CONTINUOUS
 62
               4
100
AcDbLine
 10
12.216325645629553
 20
5.8694607220464547
 30
0.0
 11
12.218345950718543
 21
6.6472781813516519
 31
0.0
  0
ARC
  5
228
100
AcDbEntity
  8
0
  6
CONTINUOUS
 62
               4
100
AcDbCircle
 10
9.6707405806947406
 20
6.2239506842460344
 30
0.0
 40
2.0506628609917015
100
AcDbArc
 50
225.05843089091513
 51
315.02142384112307
  0
LINE
  5
229
100
AcDbEntity
  8
0
  6
CONTINUOUS
 62
               4
100
AcDbLine
 10
8.8949440791419363
 20
4.3865567866438084
 30
0.0
 11
9.6020508603283758
 21
4.3865567866438084
 31
0.0
  0
LINE
  5
22A
100
AcDbEntity
  8
0
  6
CONTINUOUS
 62
               4
100
AcDbLine
 10
10.521289675870861
 20
5.3057956021862935
 30
0.0
 11
9.6020508603283758
 21
4.3865567866438084
 31
0.0
  0
LINE
  5
22B
100
AcDbEntity
  8
0
  6
CONTINUOUS
 62
               4
100
AcDbLine
 10
12.216325645629553
 20
5.8694607220464547
 30
0.0
 11
11.121320287334896
 21
4.774455363751855
 31
0.0
  0
LINE
  5
22C
100
AcDbEntity
  8
0
  6
CONTINUOUS
 62
             200
100
AcDbLine
 10
10.380878472178068
 20
5.4462068058790862
 30
0.0
 11
9.3212284529427905
 21
4.3865567866438084
 31
0.0
  0
LINE
  5
22D
100
AcDbEntity
  8
0
  6
CONTINUOUS
 62
               4
100
AcDbLine
 10
12.21834595071887
 20
-5.8674404169576633
 30
0.0
 11
11.123340592424441
 21
-4.7724350586630635
 31
0.0
  0
ARC
  5
22E
100
AcDbEntity
  8
0
  6
CONTINUOUS
 62
               7
100
AcDbCircle
 10
0.5
 20
-10.0
 30
0.0
 40
0.5
100
AcDbArc
 50
179.9999999999996
 51
269.99999999999937
  0
ARC
  5
22F
100
AcDbEntity
  8
0
  6
CONTINUOUS
 62
               7
100
AcDbCircle
 10
0.5
 20
10.0
 30
0.0
 40
0.5
100
AcDbArc
 50
89.999999999999801
 51
179.9999999999996
  0
LINE
  5
230
100
AcDbEntity
  8
0
  6
CONTINUOUS
 62
               7
100
AcDbLine
 10
5.0
 20
3.1754265808690292
 30
0.0
 11
7.7500001116530015
 21
1.587713133558772
 31
0.0
  0
LINE
  5
231
100
AcDbEntity
  8
0
  6
CONTINUOUS
 62
               7
100
AcDbLine
 10
7.7500000868849455
 20
1.5877132904345146
 30
0.0
 11
7.7499999634105947
 21
-1.5877133903221559
 31
0.0
  0
LINE
  5
232
100
AcDbEntity
  8
0
  6
CONTINUOUS
 62
               7
100
AcDbLine
 10
7.7500000868849384
 20
-1.5877132904345181
 30
0.0
 11
4.9999998517575932
 21
-3.1754265238809261
 31
0.0
  0
LINE
  5
233
100
AcDbEntity
  8
0
  6
CONTINUOUS
 62
               7
100
AcDbLine
 10
5.0
 20
-3.1754265808690292
 30
0.0
 11
2.2499998883469985
 21
-1.5877131335587702
 31
0.0
  0
LINE
  5
234
100
AcDbEntity
  8
0
  6
CONTINUOUS
 62
               7
100
AcDbLine
 10
2.2499999131150545
 20
-1.5877132904345146
 30
0.0
 11
2.2500000365894053
 21
1.5877133903221576
 31
0.0
  0
LINE
  5
235
100
AcDbEntity
  8
0
  6
CONTINUOUS
 62
               7
100
AcDbLine
 10
2.2499999131150545
 20
1.5877132904345181
 30
0.0
 11
5.0000001482424068
 21
3.1754265238809261
 31
0.0
  0
CIRCLE
  5
236
100
AcDbEntity
  8
0
  6
CONTINUOUS
 62
               7
100
AcDbCircle
 10
5.0
 20
0.0
 30
0.0
 40
2.75
  0
CIRCLE
  5
237
100
AcDbEntity
  8
0
  6
CONTINUOUS
 62
               2
100
AcDbCircle
 10
5.0
 20
0.0
 30
0.0
 40
1.2000000000000028
  0
CIRCLE
  5
238
100
AcDbEntity
  8
0
  6
CONTINUOUS
 62
               7
100
AcDbCircle
 10
5.0
 20
0.0
 30
0.0
 40
1.5
  0
CIRCLE
  5
239
100
AcDbEntity
  8
0
  6
CONTINUOUS
 62
               7
100
AcDbCircle
 10
5.0
 20
0.0
 30
0.0
 40
4.3499999999999996
  0
CIRCLE
  5
23A
100
AcDbEntity
  8
0
  6
CONTINUOUS
 62
               7
100
AcDbCircle
 10
5.0
 20
0.0
 30
0.0
 40
4.1500000000000004
  0
LINE
  5
23B
100
AcDbEntity
  8
0
  6
CONTINUOUS
 62
               7
100
AcDbLine
 10
12.818376562182721
 20
6.6816233678664929
 30
0.0
 11
14.0
 21
5.4999999300493236
 31
0.0
  0
LINE
  5
23C
100
AcDbEntity
  8
0
  6
CONTINUOUS
 62
               7
100
AcDbLine
 10
12.3941124934708
 20
6.6816233678664929
 30
0.0
 11
12.252691137233484
 21
6.5402020116291766
 31
0.0
  0
ARC
  5
23D
100
AcDbEntity
  8
0
  6
CONTINUOUS
 62
               7
100
AcDbCircle
 10
12.60624452782676
 20
6.4701645364513922
 30
0.0
 40
0.2995243519038812
100
AcDbArc
 50
44.908941249896863
 51
135.09105875010374
  0
LINE
  5
23E
100
AcDbEntity
  8
0
  6
CONTINUOUS
 62
               7
100
AcDbLine
 10
12.252691137233484
 20
6.5402020116291766
 30
0.0
 11
12.252691137233484
 21
5.8330952304426376
 31
0.0
  0
LINE
  5
23F
100
AcDbEntity
  8
0
  6
CONTINUOUS
 62
               7
100
AcDbLine
 10
12.252691137233484
 20
5.8330952304426376
 30
0.0
 11
11.12132028733501
 21
4.7017243805441638
 31
0.0
  0
ARC
  5
240
100
AcDbEntity
  8
0
  6
CONTINUOUS
 62
               7
100
AcDbCircle
 10
9.6363960468432595
 20
6.1866486210359
 30
0.0
 40
2.1000000111152071
100
AcDbArc
 50
134.99999999999969
 51
314.99999999999932
  0
LINE
  5
241
100
AcDbEntity
  8
0
  6
CONTINUOUS
 62
               7
100
AcDbLine
 10
10.131370793673852
 20
8.9443650676634405
 30
0.0
 11
9.9899494374365361
 21
8.8029437114261384
 31
0.0
  0
ARC
  5
242
100
AcDbEntity
  8
0
  6
CONTINUOUS
 62
               7
100
AcDbCircle
 10
9.9182496774320441
 20
9.1564971020194008
 30
0.0
 40
0.3007001998472195
100
AcDbArc
 50
315.13326207080115
 51
44.866737929199004
  0
LINE
  5
243
100
AcDbEntity
  8
0
  6
CONTINUOUS
 62
               7
100
AcDbLine
 10
9.2828426562499828
 20
8.8029437114261384
 30
0.0
 11
9.9899494374365361
 21
8.8029437114261384
 31
0.0
  0
LINE
  5
244
100
AcDbEntity
  8
0
  6
CONTINUOUS
 62
               7
100
AcDbLine
 10
10.164213554651639
 20
9.3357863753975749
 30
0.0
 11
8.9999999300491993
 21
10.499999999999993
 31
0.0
  0
LINE
  5
245
100
AcDbEntity
  8
0
  6
CONTINUOUS
 62
               7
100
AcDbLine
 10
9.2828426562499828
 20
8.8029437114261384
 30
0.0
 11
8.151471806351509
 21
7.6715728615276646
 31
0.0
  0
LINE
  5
246
100
AcDbEntity
  8
0
  6
CONTINUOUS
 62
               7
100
AcDbLine
 10
14.0
 20
5.4999999300493236
 30
0.0
 11
14.0
 21
-5.4999999300493236
 31
0.0
  0
LINE
  5
247
100
AcDbEntity
  8
0
  6
CONTINUOUS
 62
               7
100
AcDbLine
 10
0.5
 20
10.5
 30
0.0
 11
8.9999999300491993
 21
10.5
 31
0.0
  0
LINE
  5
248
100
AcDbEntity
  8
0
  6
CENTER
 62
               2
100
AcDbLine
 10
-1.0175191479551984
 20
0.0
 30
0.0
 11
14.757204481534416
 21
0.0
 31
0.0
  0
LINE
  5
249
100
AcDbEntity
  8
0
  6
CONTINUOUS
 62
               7
100
AcDbLine
 10
0.0
 20
10.0
 30
0.0
 11
0.0
 21
-10.0
 31
0.0
  0
LINE
  5
24A
100
AcDbEntity
  8
0
  6
CENTER
 62
               2
100
AcDbLine
 10
5.0
 20
-5.8499999999999996
 30
0.0
 11
5.0
 21
5.8500000000000014
 31
0.0
  0
ARC
  5
24B
100
AcDbEntity
  8
0
  6
CONTINUOUS
 62
               7
100
AcDbCircle
 10
12.60624452782676
 20
-6.4701645364513922
 30
0.0
 40
0.2995243519038812
100
AcDbArc
 50
224.90894124989543
 51
315.09105875010232
  0
LINE
  5
24C
100
AcDbEntity
  8
0
  6
CONTINUOUS
 62
               7
100
AcDbLine
 10
12.252691137233484
 20
-5.8330952304426376
 30
0.0
 11
11.12132028733501
 21
-4.7017243805441638
 31
0.0
  0
ARC
  5
24D
100
AcDbEntity
  8
0
  6
CONTINUOUS
 62
               7
100
AcDbCircle
 10
9.6363960468432595
 20
-6.1866486210359
 30
0.0
 40
2.1000000111152071
100
AcDbArc
 50
44.999999999999901
 51
224.99999999999949
  0
LINE
  5
24E
100
AcDbEntity
  8
0
  6
CONTINUOUS
 62
               7
100
AcDbLine
 10
0.5
 20
-10.5
 30
0.0
 11
8.9999999300491993
 21
-10.5
 31
0.0
  0
LINE
  5
24F
100
AcDbEntity
  8
0
  6
CONTINUOUS
 62
               7
100
AcDbLine
 10
9.2828426562499828
 20
-8.8029437114261384
 30
0.0
 11
8.151471806351509
 21
-7.6715728615276646
 31
0.0
  0
LINE
  5
250
100
AcDbEntity
  8
0
  6
CONTINUOUS
 62
               7
100
AcDbLine
 10
10.164213554651639
 20
-9.3357863753975749
 30
0.0
 11
8.9999999300491993
 21
-10.499999999999993
 31
0.0
  0
LINE
  5
251
100
AcDbEntity
  8
0
  6
CONTINUOUS
 62
               7
100
AcDbLine
 10
9.2828426562499828
 20
-8.8029437114261384
 30
0.0
 11
9.9899494374365361
 21
-8.8029437114261384
 31
0.0
  0
ARC
  5
252
100
AcDbEntity
  8
0
  6
CONTINUOUS
 62
               7
100
AcDbCircle
 10
9.9182496774320441
 20
-9.1564971020194008
 30
0.0
 40
0.3007001998472195
100
AcDbArc
 50
-44.866737929198983
 51
44.866737929198038
  0
LINE
  5
253
100
AcDbEntity
  8
0
  6
CONTINUOUS
 62
               7
100
AcDbLine
 10
10.131370793673852
 20
-8.9443650676634405
 30
0.0
 11
9.9899494374365361
 21
-8.8029437114261384
 31
0.0
  0
LINE
  5
254
100
AcDbEntity
  8
0
  6
CONTINUOUS
 62
               7
100
AcDbLine
 10
12.252691137233484
 20
-6.5402020116291766
 30
0.0
 11
12.252691137233484
 21
-5.8330952304426376
 31
0.0
  0
LINE
  5
255
100
AcDbEntity
  8
0
  6
CONTINUOUS
 62
               7
100
AcDbLine
 10
12.3941124934708
 20
-6.6816233678664929
 30
0.0
 11
12.252691137233484
 21
-6.5402020116291766
 31
0.0
  0
LINE
  5
256
100
AcDbEntity
  8
0
  6
CONTINUOUS
 62
               7
100
AcDbLine
 10
12.818376562182721
 20
-6.6816233678664929
 30
0.0
 11
14.0
 21
-5.4999999300493236
 31
0.0
  0
LINE
  5
257
100
AcDbEntity
  8
0
  6
CENTER
 62
               2
100
AcDbLine
 10
1.5
 20
7.5
 30
0.0
 11
-1.5
 21
7.5
 31
0.0
  0
LINE
  5
258
100
AcDbEntity
  8
0
  6
CENTER
 62
               2
100
AcDbLine
 10
1.5
 20
-7.5
 30
0.0
 11
-1.5
 21
-7.5
 31
0.0
  0
ENDBLK
  5
259
100
AcDbEntity
  8
0
100
AcDbBlockEnd
  0
BLOCK
  5
25A
100
AcDbEntity
  8
0
100
AcDbBlockBegin
  2
MS_7
 70
               0
 10
0.0
 20
0.0
 30
0.0
  3
MS_7
  1

  0
CIRCLE
  5
25B
100
AcDbEntity
  8
0
  6
DASHED
 62
               7
100
AcDbCircle
 10
3.5
 20
9.0
 30
0.0
 40
1.1999999999999886
  0
CIRCLE
  5
25C
100
AcDbEntity
  8
0
  6
DASHED
 62
               2
100
AcDbCircle
 10
3.5
 20
9.0
 30
0.0
 40
1.5
  0
LINE
  5
25D
100
AcDbEntity
  8
0
  6
CENTER
 62
               2
100
AcDbLine
 10
3.5
 20
7.0452224481113177
 30
0.0
 11
3.5
 21
10.976095658029124
 31
0.0
  0
LINE
  5
25E
100
AcDbEntity
  8
0
  6
CONTINUOUS
 62
               7
100
AcDbLine
 10
-2.0
 20
6.249999981121988
 30
0.0
 11
-2.0
 21
11.749999981121988
 31
0.0
  0
LINE
  5
25F
100
AcDbEntity
  8
0
  6
CONTINUOUS
 62
               7
100
AcDbLine
 10
-5.5999999999999943
 20
6.249999981121988
 30
0.0
 11
-5.5999999999999943
 21
11.749999981121988
 31
0.0
  0
LINE
  5
260
100
AcDbEntity
  8
0
  6
CONTINUOUS
 62
               7
100
AcDbLine
 10
-3.7999999999999972
 20
6.249999981121988
 30
0.0
 11
-3.7999999999999972
 21
11.749999981121988
 31
0.0
  0
LINE
  5
261
100
AcDbEntity
  8
0
  6
CONTINUOUS
 62
               7
100
AcDbLine
 10
-3.7999999999999972
 20
11.749999981121988
 30
0.0
 11
-5.5999999999999943
 21
11.749999981121988
 31
0.0
  0
LINE
  5
262
100
AcDbEntity
  8
0
  6
CONTINUOUS
 62
               7
100
AcDbLine
 10
-3.7999999999999972
 20
11.749999981121988
 30
0.0
 11
-2.0
 21
11.749999981121988
 31
0.0
  0
LINE
  5
263
100
AcDbEntity
  8
0
  6
CONTINUOUS
 62
               7
100
AcDbLine
 10
-3.5543798798272803
 20
9.0
 30
0.0
 11
-2.2456201201727168
 21
9.0
 31
0.0
  0
LINE
  5
264
100
AcDbEntity
  8
0
  6
CONTINUOUS
 62
               7
100
AcDbLine
 10
-3.7999999999999972
 20
6.25
 30
0.0
 11
-2.0
 21
6.25
 31
0.0
  0
LINE
  5
265
100
AcDbEntity
  8
0
  6
CONTINUOUS
 62
               7
100
AcDbLine
 10
-3.7999999999999972
 20
6.25
 30
0.0
 11
-5.5999999999999943
 21
6.25
 31
0.0
  0
LINE
  5
266
100
AcDbEntity
  8
0
  6
CONTINUOUS
 62
               7
100
AcDbLine
 10
-4.045620120172714
 20
9.0
 30
0.0
 11
-5.3543798798272775
 21
9.0
 31
0.0
  0
SPLINE
  5
267
100
AcDbEntity
  8
0
  6
CONTINUOUS
 62
               7
100
AcDbSpline
210
0.0
220
0.0
230
1.0
 70
               0
 71
               3
 72
               0
 73
               0
 74
               5
 44
0.000001
 12
-0.3364389337625614
 22
-0.9417052850274925
 32
0.0
 13
0.3364389335092213
 23
-0.9417052851180021
 33
0.0
 11
-3.5543798798272803
 21
11.749999981121988
 31
0.0
 11
-3.7359307314102335
 21
11.073685943751091
 31
0.0
 11
-3.7999999999999972
 21
10.375
 31
0.0
 11
-3.7359307329601386
 21
9.6763140466768789
 31
0.0
 11
-3.5543798798272803
 21
9.0
 31
0.0
  0
SPLINE
  5
268
100
AcDbEntity
  8
0
  6
CONTINUOUS
 62
               7
100
AcDbSpline
210
0.0
220
0.0
230
1.0
 70
               0
 71
               3
 72
               0
 73
               0
 74
               5
 44
0.000001
 12
0.3364389337625613
 22
-0.9417052850274925
 32
0.0
 13
-0.3364389335092214
 23
-0.9417052851180021
 33
0.0
 11
-2.2456201201727168
 21
11.749999981121988
 31
0.0
 11
-2.0640692685897637
 21
11.073685943751091
 31
0.0
 11
-2.0
 21
10.375
 31
0.0
 11
-2.0640692670398586
 21
9.6763140466768789
 31
0.0
 11
-2.2456201201727168
 21
9.0
 31
0.0
  0
SPLINE
  5
269
100
AcDbEntity
  8
0
  6
CONTINUOUS
 62
               7
100
AcDbSpline
210
0.0
220
0.0
230
1.0
 70
               0
 71
               3
 72
               0
 73
               0
 74
               5
 44
0.000001
 12
-0.3364389337625614
 22
-0.9417052850274925
 32
0.0
 13
0.3364389335092213
 23
-0.9417052851180021
 33
0.0
 11
-5.3543798798272775
 21
11.749999981121988
 31
0.0
 11
-5.5359307314102306
 21
11.073685943751091
 31
0.0
 11
-5.5999999999999943
 21
10.375
 31
0.0
 11
-5.5359307329601357
 21
9.6763140466768789
 31
0.0
 11
-5.3543798798272775
 21
9.0
 31
0.0
  0
SPLINE
  5
26A
100
AcDbEntity
  8
0
  6
CONTINUOUS
 62
               7
100
AcDbSpline
210
0.0
220
0.0
230
1.0
 70
               0
 71
               3
 72
               0
 73
               0
 74
               5
 44
0.000001
 12
0.3364389337625613
 22
-0.9417052850274925
 32
0.0
 13
-0.3364389335092214
 23
-0.9417052851180021
 33
0.0
 11
-4.045620120172714
 21
11.749999981121988
 31
0.0
 11
-3.8640692685897609
 21
11.073685943751091
 31
0.0
 11
-3.7999999999999972
 21
10.375
 31
0.0
 11
-3.8640692670398558
 21
9.6763140466768789
 31
0.0
 11
-4.045620120172714
 21
9.0
 31
0.0
  0
SPLINE
  5
26B
100
AcDbEntity
  8
0
  6
CONTINUOUS
 62
               7
100
AcDbSpline
210
0.0
220
0.0
230
1.0
 70
               0
 71
               3
 72
               0
 73
               0
 74
               5
 44
0.000001
 12
-0.3364389337625614
 22
0.9417052850274925
 32
0.0
 13
0.3364389335092213
 23
0.9417052851180021
 33
0.0
 11
-5.3543798798272775
 21
6.250000018878012
 31
0.0
 11
-5.5359307314102306
 21
6.9263140562489101
 31
0.0
 11
-5.5999999999999943
 21
7.625
 31
0.0
 11
-5.5359307329601357
 21
8.3236859533231211
 31
0.0
 11
-5.3543798798272775
 21
9.0
 31
0.0
  0
SPLINE
  5
26C
100
AcDbEntity
  8
0
  6
CONTINUOUS
 62
               7
100
AcDbSpline
210
0.0
220
0.0
230
1.0
 70
               0
 71
               3
 72
               0
 73
               0
 74
               5
 44
0.000001
 12
0.3364389337625613
 22
0.9417052850274925
 32
0.0
 13
-0.3364389335092214
 23
0.9417052851180021
 33
0.0
 11
-4.045620120172714
 21
6.250000018878012
 31
0.0
 11
-3.8640692685897609
 21
6.9263140562489101
 31
0.0
 11
-3.7999999999999972
 21
7.625
 31
0.0
 11
-3.8640692670398558
 21
8.3236859533231211
 31
0.0
 11
-4.045620120172714
 21
9.0
 31
0.0
  0
SPLINE
  5
26D
100
AcDbEntity
  8
0
  6
CONTINUOUS
 62
               7
100
AcDbSpline
210
0.0
220
0.0
230
1.0
 70
               0
 71
               3
 72
               0
 73
               0
 74
               5
 44
0.000001
 12
-0.3364389337625614
 22
0.9417052850274925
 32
0.0
 13
0.3364389335092213
 23
0.9417052851180021
 33
0.0
 11
-3.5543798798272803
 21
6.250000018878012
 31
0.0
 11
-3.7359307314102335
 21
6.9263140562489101
 31
0.0
 11
-3.7999999999999972
 21
7.625
 31
0.0
 11
-3.7359307329601386
 21
8.3236859533231211
 31
0.0
 11
-3.5543798798272803
 21
9.0
 31
0.0
  0
SPLINE
  5
26E
100
AcDbEntity
  8
0
  6
CONTINUOUS
 62
               7
100
AcDbSpline
210
0.0
220
0.0
230
1.0
 70
               0
 71
               3
 72
               0
 73
               0
 74
               5
 44
0.000001
 12
0.3364389337625613
 22
0.9417052850274925
 32
0.0
 13
-0.3364389335092214
 23
0.9417052851180021
 33
0.0
 11
-2.2456201201727168
 21
6.250000018878012
 31
0.0
 11
-2.0640692685897637
 21
6.9263140562489101
 31
0.0
 11
-2.0
 21
7.625
 31
0.0
 11
-2.0640692670398586
 21
8.3236859533231211
 31
0.0
 11
-2.2456201201727168
 21
9.0
 31
0.0
  0
LINE
  5
26F
100
AcDbEntity
  8
0
  6
CONTINUOUS
 62
               7
100
AcDbLine
 10
-2.0
 20
7.5
 30
0.0
 11
0.0
 21
7.5
 31
0.0
  0
LINE
  5
270
100
AcDbEntity
  8
0
  6
CONTINUOUS
 62
               2
100
AcDbLine
 10
-2.0
 20
7.7999999999999972
 30
0.0
 11
-1.0
 21
7.7999999999999972
 31
0.0
  0
LINE
  5
271
100
AcDbEntity
  8
0
  6
CONTINUOUS
 62
               2
100
AcDbLine
 10
-2.0
 20
10.200000000000003
 30
0.0
 11
-1.0
 21
10.200000000000003
 31
0.0
  0
LINE
  5
272
100
AcDbEntity
  8
0
  6
CONTINUOUS
 62
               7
100
AcDbLine
 10
-2.0
 20
10.5
 30
0.0
 11
0.0
 21
10.5
 31
0.0
  0
LINE
  5
273
100
AcDbEntity
  8
0
  6
CENTER
 62
               2
100
AcDbLine
 10
-9.0969874860368805
 20
9.0
 30
0.0
 11
34.355882105630116
 21
9.0
 31
0.0
  0
LINE
  5
274
100
AcDbEntity
  8
0
  6
CONTINUOUS
 62
               7
100
AcDbLine
 10
33.5
 20
0.0
 30
0.0
 11
33.5
 21
14.0
 31
0.0
  0
LINE
  5
275
100
AcDbEntity
  8
0
  6
CONTINUOUS
 62
               7
100
AcDbLine
 10
0.0
 20
0.0
 30
0.0
 11
0.0
 21
14.0
 31
0.0
  0
LINE
  5
276
100
AcDbEntity
  8
0
  6
CONTINUOUS
 62
               7
100
AcDbLine
 10
-7.7000000000000171
 20
7.5
 30
0.0
 11
-5.5999999999999943
 21
7.5
 31
0.0
  0
LINE
  5
277
100
AcDbEntity
  8
0
  6
CONTINUOUS
 62
               7
100
AcDbLine
 10
-8.0
 20
10.200000000000003
 30
0.0
 11
-8.0
 21
7.7999999999999972
 31
0.0
  0
LINE
  5
278
100
AcDbEntity
  8
0
  6
CONTINUOUS
 62
               7
100
AcDbLine
 10
-1.0
 20
10.5
 30
0.0
 11
-1.0
 21
7.5
 31
0.0
  0
LINE
  5
279
100
AcDbEntity
  8
0
  6
CONTINUOUS
 62
               7
100
AcDbLine
 10
-7.7000000000000171
 20
10.5
 30
0.0
 11
-7.7000000000000171
 21
7.5
 31
0.0
  0
LINE
  5
27A
100
AcDbEntity
  8
0
  6
CONTINUOUS
 62
               2
100
AcDbLine
 10
-1.0
 20
7.7999999999999972
 30
0.0
 11
-0.4803847577293539
 21
7.5
 31
0.0
  0
LINE
  5
27B
100
AcDbEntity
  8
0
  6
CONTINUOUS
 62
               7
100
AcDbLine
 10
-7.7000000000000171
 20
7.5
 30
0.0
 11
-8.0
 21
7.7999999999999972
 31
0.0
  0
LINE
  5
27C
100
AcDbEntity
  8
0
  6
CONTINUOUS
 62
               2
100
AcDbLine
 10
-8.0
 20
7.7999999999999972
 30
0.0
 11
-5.5999999999999943
 21
7.7999999999999972
 31
0.0
  0
LINE
  5
27D
100
AcDbEntity
  8
0
  6
CONTINUOUS
 62
               2
100
AcDbLine
 10
-8.0
 20
10.200000000000003
 30
0.0
 11
-5.5999999999999943
 21
10.200000000000003
 31
0.0
  0
LINE
  5
27E
100
AcDbEntity
  8
0
  6
CONTINUOUS
 62
               2
100
AcDbLine
 10
-1.0
 20
10.200000000000003
 30
0.0
 11
-0.4803847577293539
 21
10.5
 31
0.0
  0
LINE
  5
27F
100
AcDbEntity
  8
0
  6
CONTINUOUS
 62
               7
100
AcDbLine
 10
-7.7000000000000171
 20
10.5
 30
0.0
 11
-8.0
 21
10.200000000000003
 31
0.0
  0
LINE
  5
280
100
AcDbEntity
  8
0
  6
CONTINUOUS
 62
               7
100
AcDbLine
 10
0.0
 20
14.0
 30
0.0
 11
33.5
 21
14.0
 31
0.0
  0
LINE
  5
281
100
AcDbEntity
  8
0
  6
CONTINUOUS
 62
               7
100
AcDbLine
 10
-7.7000000000000171
 20
10.5
 30
0.0
 11
-5.5999999999999943
 21
10.5
 31
0.0
  0
LINE
  5
282
100
AcDbEntity
  8
0
  6
CONTINUOUS
 62
               7
100
AcDbLine
 10
0.0
 20
0.0
 30
0.0
 11
19.399999999999864
 21
0.0
 31
0.0
  0
LINE
  5
283
100
AcDbEntity
  8
0
  6
CONTINUOUS
 62
               7
100
AcDbLine
 10
0.0
 20
1.3937554721732539
 30
0.0
 11
19.399999999999864
 21
1.3937554721732539
 31
0.0
  0
LINE
  5
284
100
AcDbEntity
  8
0
  6
CONTINUOUS
 62
               7
100
AcDbLine
 10
0.0
 20
1.7473088627665163
 30
0.0
 11
9.0
 21
1.7473088627665163
 31
0.0
  0
LINE
  5
285
100
AcDbEntity
  8
0
  6
CONTINUOUS
 62
               7
100
AcDbLine
 10
0.0
 20
3.7810501227207283
 30
0.0
 11
33.5
 21
3.7810501227207283
 31
0.0
  0
LINE
  5
286
100
AcDbEntity
  8
0
  6
CONTINUOUS
 62
               7
100
AcDbLine
 10
0.0
 20
5.0000000699508007
 30
0.0
 11
33.5
 21
5.0000000699508007
 31
0.0
  0
LINE
  5
287
100
AcDbEntity
  8
0
  6
CENTER
 62
               2
100
AcDbLine
 10
14.0
 20
7.0452224481113035
 30
0.0
 11
14.0
 21
10.976095658029109
 31
0.0
  0
CIRCLE
  5
288
100
AcDbEntity
  8
0
  6
DASHED
 62
               2
100
AcDbCircle
 10
14.0
 20
8.9999999999999858
 30
0.0
 40
1.5
  0
CIRCLE
  5
289
100
AcDbEntity
  8
0
  6
DASHED
 62
               7
100
AcDbCircle
 10
14.0
 20
8.9999999999999858
 30
0.0
 40
1.1999999999999886
  0
LINE
  5
28A
100
AcDbEntity
  8
0
  6
CENTER
 62
               2
100
AcDbLine
 10
30.5
 20
7.0452224481113035
 30
0.0
 11
30.5
 21
10.976095658029109
 31
0.0
  0
CIRCLE
  5
28B
100
AcDbEntity
  8
0
  6
DASHED
 62
               2
100
AcDbCircle
 10
30.5
 20
8.9999999999999858
 30
0.0
 40
1.5
  0
CIRCLE
  5
28C
100
AcDbEntity
  8
0
  6
DASHED
 62
               7
100
AcDbCircle
 10
30.5
 20
8.9999999999999858
 30
0.0
 40
1.1999999999999886
  0
ELLIPSE
  5
28D
100
AcDbEntity
  8
0
  6
CONTINUOUS
 62
               4
100
AcDbEllipse
 10
19.0
 20
-1.6468036259090795
 30
0.0
 11
-2.0999999999999943
 21
0.0000000000000003
 31
0.0
210
0.0
220
0.0
230
1.0
 40
0.690270905444012
 41
0.5377386764774563
 42
2.1503123541906759
  0
ELLIPSE
  5
28E
100
AcDbEntity
  8
0
  6
CONTINUOUS
 62
               4
100
AcDbEllipse
 10
19.0
 20
-4.6468036259090795
 30
0.0
 11
-1.3500000000000016
 21
0.0000000000000002
 31
0.0
210
0.0
220
0.0
230
1.0
 40
0.713092870339449
 41
0.0
 42
2.7542760527011381
  0
LINE
  5
28F
100
AcDbEntity
  8
0
  6
CONTINUOUS
 62
               4
100
AcDbLine
 10
17.650000000000091
 20
-2.7571532445023976
 30
0.0
 11
17.650000000000091
 21
-4.6468036201571508
 31
0.0
  0
LINE
  5
290
100
AcDbEntity
  8
0
  6
CONTINUOUS
 62
               4
100
AcDbLine
 10
19.0
 20
-2.3892657461549547
 30
0.0
 11
16.5
 21
-2.3892657461549547
 31
0.0
  0
LINE
  5
291
100
AcDbEntity
  8
0
  6
CONTINUOUS
 62
               4
100
AcDbLine
 10
19.0
 20
-3.0963725273415079
 30
0.0
 11
19.0
 21
-2.3892657461549547
 31
0.0
  0
LINE
  5
292
100
AcDbEntity
  8
0
  6
CONTINUOUS
 62
               4
100
AcDbLine
 10
16.5
 20
0.0
 30
0.0
 11
16.5
 21
-2.389265718755631
 31
0.0
  0
LINE
  5
293
100
AcDbEntity
  8
0
  6
CONTINUOUS
 62
               4
100
AcDbLine
 10
8.9999999831253774
 20
1.4644661502916634
 30
0.0
 11
19.399999999999864
 21
1.4644661502916634
 31
0.0
  0
LINE
  5
294
100
AcDbEntity
  8
0
  6
CONTINUOUS
 62
               4
100
AcDbLine
 10
8.9999999831253774
 20
3.5857864938512094
 30
0.0
 11
24.0
 21
3.5857864938512094
 31
0.0
  0
LINE
  5
295
100
AcDbEntity
  8
0
  6
CONTINUOUS
 62
               4
100
AcDbLine
 10
21.5
 20
0.5098720762158351
 30
0.0
 11
21.5
 21
-0.197234724476651
 31
0.0
  0
LINE
  5
296
100
AcDbEntity
  8
0
  6
CONTINUOUS
 62
               4
100
AcDbLine
 10
21.5
 20
0.5098720567099022
 30
0.0
 11
24.000000019764457
 21
0.5098720567099022
 31
0.0
  0
LINE
  5
297
100
AcDbEntity
  8
0
  6
CONTINUOUS
 62
               4
100
AcDbLine
 10
23.59999998400167
 20
-0.9396968447225262
 30
0.0
 11
23.59999998400167
 21
-1.6468036201571508
 31
0.0
  0
LINE
  5
298
100
AcDbEntity
  8
0
  6
CONTINUOUS
 62
               4
100
AcDbLine
 10
23.30362512657598
 20
-2.3892657461549547
 30
0.0
 11
24.0
 21
-2.3892657461549547
 31
0.0
  0
LINE
  5
299
100
AcDbEntity
  8
0
  6
CONTINUOUS
 62
               4
100
AcDbLine
 10
22.849999999999909
 20
-1.6468036201571508
 30
0.0
 11
22.849999999999909
 21
-4.6468036201571508
 31
0.0
  0
LINE
  5
29A
100
AcDbEntity
  8
0
  6
CONTINUOUS
 62
               4
100
AcDbLine
 10
20.149999999999864
 20
-1.6468036201571508
 30
0.0
 11
20.149999999999864
 21
-4.6468036201571508
 31
0.0
  0
ELLIPSE
  5
29B
100
AcDbEntity
  8
0
  6
CONTINUOUS
 62
               4
100
AcDbEllipse
 10
21.5
 20
-1.6468036259090795
 30
0.0
 11
1.3500000000000016
 21
0.0
 31
0.0
210
0.0
220
0.0
230
1.0
 40
0.713092870339449
 41
0.0
 42
3.1415926535897931
  0
ELLIPSE
  5
29C
100
AcDbEntity
  8
0
  6
CONTINUOUS
 62
               4
100
AcDbEllipse
 10
21.5
 20
-4.6468036259090795
 30
0.0
 11
1.3500000000000016
 21
0.0
 31
0.0
210
0.0
220
0.0
230
1.0
 40
0.713092870339449
 41
0.0
 42
6.2831853071795862
  0
ELLIPSE
  5
29D
100
AcDbEntity
  8
0
  6
CONTINUOUS
 62
               4
100
AcDbEllipse
 10
21.5
 20
-0.9396968447225262
 30
0.0
 11
2.0999999840018688
 21
0.0
 31
0.0
210
0.0
220
0.0
230
1.0
 40
0.6902709107026028
 41
0.0
 42
1.5707963267948966
  0
ELLIPSE
  5
29E
100
AcDbEntity
  8
0
  6
CONTINUOUS
 62
               4
100
AcDbEllipse
 10
21.5
 20
-1.6468036259090795
 30
0.0
 11
2.0999999999999943
 21
0.0
 31
0.0
210
0.0
220
0.0
230
1.0
 40
0.690270905444012
 41
-0.8725714153590118
 42
4.014164068948805
  0
LINE
  5
29F
100
AcDbEntity
  8
0
  6
CONTINUOUS
 62
               4
100
AcDbLine
 10
20.030306154329992
 20
2.9140351157875344
 30
0.0
 11
24.0
 21
2.9140351157875344
 31
0.0
  0
ELLIPSE
  5
2A0
100
AcDbEntity
  8
0
  6
CONTINUOUS
 62
               4
100
AcDbEllipse
 10
21.500000019764457
 20
2.5251263220717206
 30
0.0
 11
-2.10000001976465
 21
0.0000000000000003
 31
0.0
210
0.0
220
0.0
230
1.0
 40
0.6902708989473664
 41
5.4875823576499068
 42
0.0
  0
LINE
  5
2A1
100
AcDbEntity
  8
0
  6
CONTINUOUS
 62
               4
100
AcDbLine
 10
20.030306154329992
 20
3.5857864938512094
 30
0.0
 11
20.030306154329992
 21
2.9140351387883143
 31
0.0
  0
LINE
  5
2A2
100
AcDbEntity
  8
0
  6
CONTINUOUS
 62
               4
100
AcDbLine
 10
19.399999999999864
 20
-1.6468036259090795
 30
0.0
 11
19.399999999999864
 21
2.5251263220717206
 31
0.0
  0
LINE
  5
2A3
100
AcDbEntity
  8
0
  6
CONTINUOUS
 62
               4
100
AcDbLine
 10
24.0
 20
3.7810501227207283
 30
0.0
 11
24.0
 21
-2.389265718755631
 31
0.0
  0
ELLIPSE
  5
2A4
100
AcDbEntity
  8
0
  6
CONTINUOUS
 62
               4
100
AcDbEllipse
 10
11.0
 20
2.5251263220717206
 30
0.0
 11
-1.25
 21
0.0000000000000002
 31
0.0
210
0.0
220
0.0
230
1.0
 40
0.7071067811865476
 41
0.0
 42
6.2831853071795862
  0
LINE
  5
2A5
100
AcDbEntity
  8
0
  6
CONTINUOUS
 62
               4
100
AcDbLine
 10
11.25
 20
1.6591009182873009
 30
0.0
 11
11.25
 21
3.3911517258561972
 31
0.0
  0
LINE
  5
2A6
100
AcDbEntity
  8
0
  6
CONTINUOUS
 62
               4
100
AcDbLine
 10
10.75
 20
1.6591009182873009
 30
0.0
 11
10.75
 21
3.3911517258561972
 31
0.0
  0
LINE
  5
2A7
100
AcDbEntity
  8
0
  6
CONTINUOUS
 62
               4
100
AcDbLine
 10
9.0
 20
1.4644661502916634
 30
0.0
 11
9.0
 21
3.7810501227207283
 31
0.0
  0
LINE
  5
2A8
100
AcDbEntity
  8
0
  6
CONTINUOUS
 62
               7
100
AcDbLine
 10
24.0
 20
0.0
 30
0.0
 11
33.5
 21
0.0
 31
0.0
  0
LINE
  5
2A9
100
AcDbEntity
  8
0
  6
CONTINUOUS
 62
               7
100
AcDbLine
 10
24.0
 20
1.3937554721732539
 30
0.0
 11
33.5
 21
1.3937554721732539
 31
0.0
  0
LINE
  5
2AA
100
AcDbEntity
  8
0
  6
CONTINUOUS
 62
               7
100
AcDbLine
 10
24.0
 20
1.7473088627665163
 30
0.0
 11
33.5
 21
1.7473088627665163
 31
0.0
  0
LINE
  5
2AB
100
AcDbEntity
  8
0
  6
CENTER
 62
               2
100
AcDbLine
 10
8.9999999915627029
 20
12.5
 30
0.0
 11
8.9999999915627029
 21
15.5
 31
0.0
  0
ENDBLK
  5
2AC
100
AcDbEntity
  8
0
100
AcDbBlockEnd
  0
BLOCK
  5
2AD
100
AcDbEntity
  8
0
100
AcDbBlockBegin
  2
MS_8
 70
               0
 10
0.0
 20
0.0
 30
0.0
  3
MS_8
  1

  0
LINE
  5
2AE
100
AcDbEntity
  8
0
  6
CONTINUOUS
 62
               4
100
AcDbLine
 10
31.5
 20
12.535533849708337
 30
0.0
 11
31.5
 21
10.218949877279265
 31
0.0
  0
LINE
  5
2AF
100
AcDbEntity
  8
0
  6
CONTINUOUS
 62
               4
100
AcDbLine
 10
29.75
 20
12.340899081712699
 30
0.0
 11
29.75
 21
10.608848274143803
 31
0.0
  0
LINE
  5
2B0
100
AcDbEntity
  8
0
  6
CONTINUOUS
 62
               4
100
AcDbLine
 10
29.25
 20
12.340899081712699
 30
0.0
 11
29.25
 21
10.608848274143803
 31
0.0
  0
ELLIPSE
  5
2B1
100
AcDbEntity
  8
0
  6
CONTINUOUS
 62
               4
100
AcDbEllipse
 10
29.5
 20
11.474873677928279
 30
0.0
 11
1.25
 21
0.0
 31
0.0
210
0.0
220
0.0
230
1.0
 40
0.7071067811865476
 41
0.0
 42
6.2831853071795862
  0
LINE
  5
2B2
100
AcDbEntity
  8
0
  6
CONTINUOUS
 62
               4
100
AcDbLine
 10
16.5
 20
10.218949877279265
 30
0.0
 11
16.5
 21
16.389265718755631
 31
0.0
  0
LINE
  5
2B3
100
AcDbEntity
  8
0
  6
CONTINUOUS
 62
               4
100
AcDbLine
 10
21.100000000000136
 20
15.646803625909079
 30
0.0
 11
21.100000000000136
 21
11.474873677928279
 31
0.0
  0
LINE
  5
2B4
100
AcDbEntity
  8
0
  6
CONTINUOUS
 62
               4
100
AcDbLine
 10
20.469693845670008
 20
10.414213506148791
 30
0.0
 11
20.469693845670008
 21
11.085964861211686
 31
0.0
  0
ELLIPSE
  5
2B5
100
AcDbEntity
  8
0
  6
CONTINUOUS
 62
               4
100
AcDbEllipse
 10
18.999999980235543
 20
11.474873677928279
 30
0.0
 11
2.10000001976465
 21
0.0
 31
0.0
210
0.0
220
0.0
230
1.0
 40
0.6902708989473664
 41
5.4875823576499068
 42
0.0
  0
LINE
  5
2B6
100
AcDbEntity
  8
0
  6
CONTINUOUS
 62
               4
100
AcDbLine
 10
20.469693845670008
 20
11.085964884212466
 30
0.0
 11
16.5
 21
11.085964884212466
 31
0.0
  0
ELLIPSE
  5
2B7
100
AcDbEntity
  8
0
  6
CONTINUOUS
 62
               4
100
AcDbEllipse
 10
19.0
 20
15.646803625909079
 30
0.0
 11
-2.0999999999999943
 21
0.0000000000000003
 31
0.0
210
0.0
220
0.0
230
1.0
 40
0.690270905444012
 41
-0.8725714153590118
 42
4.014164068948805
  0
ELLIPSE
  5
2B8
100
AcDbEntity
  8
0
  6
CONTINUOUS
 62
               4
100
AcDbEllipse
 10
19.0
 20
14.939696844722526
 30
0.0
 11
-2.0999999840018688
 21
0.0000000000000003
 31
0.0
210
0.0
220
0.0
230
1.0
 40
0.6902709107026028
 41
0.0
 42
1.5707963267948966
  0
ELLIPSE
  5
2B9
100
AcDbEntity
  8
0
  6
CONTINUOUS
 62
               4
100
AcDbEllipse
 10
19.0
 20
18.646803625909079
 30
0.0
 11
-1.3500000000000016
 21
0.0000000000000002
 31
0.0
210
0.0
220
0.0
230
1.0
 40
0.713092870339449
 41
0.0
 42
6.2831853071795862
  0
ELLIPSE
  5
2BA
100
AcDbEntity
  8
0
  6
CONTINUOUS
 62
               4
100
AcDbEllipse
 10
19.0
 20
15.646803625909079
 30
0.0
 11
-1.3500000000000016
 21
0.0000000000000002
 31
0.0
210
0.0
220
0.0
230
1.0
 40
0.713092870339449
 41
0.0
 42
3.1415926535897931
  0
LINE
  5
2BB
100
AcDbEntity
  8
0
  6
CONTINUOUS
 62
               4
100
AcDbLine
 10
20.350000000000136
 20
15.646803620157151
 30
0.0
 11
20.350000000000136
 21
18.646803620157151
 31
0.0
  0
LINE
  5
2BC
100
AcDbEntity
  8
0
  6
CONTINUOUS
 62
               4
100
AcDbLine
 10
17.650000000000091
 20
15.646803620157151
 30
0.0
 11
17.650000000000091
 21
18.646803620157151
 31
0.0
  0
LINE
  5
2BD
100
AcDbEntity
  8
0
  6
CONTINUOUS
 62
               4
100
AcDbLine
 10
17.19637487342402
 20
16.389265746154955
 30
0.0
 11
16.5
 21
16.389265746154955
 31
0.0
  0
LINE
  5
2BE
100
AcDbEntity
  8
0
  6
CONTINUOUS
 62
               4
100
AcDbLine
 10
16.90000001599833
 20
14.939696844722526
 30
0.0
 11
16.90000001599833
 21
15.646803620157151
 31
0.0
  0
LINE
  5
2BF
100
AcDbEntity
  8
0
  6
CONTINUOUS
 62
               4
100
AcDbLine
 10
19.0
 20
13.490127943290098
 30
0.0
 11
16.499999980235543
 21
13.490127943290098
 31
0.0
  0
LINE
  5
2C0
100
AcDbEntity
  8
0
  6
CONTINUOUS
 62
               4
100
AcDbLine
 10
19.0
 20
13.490127923784165
 30
0.0
 11
19.0
 21
14.197234724476651
 31
0.0
  0
LINE
  5
2C1
100
AcDbEntity
  8
0
  6
CONTINUOUS
 62
               4
100
AcDbLine
 10
31.500000016874623
 20
10.414213506148791
 30
0.0
 11
16.5
 21
10.414213506148791
 31
0.0
  0
LINE
  5
2C2
100
AcDbEntity
  8
0
  6
CONTINUOUS
 62
               4
100
AcDbLine
 10
31.500000016874623
 20
12.535533849708337
 30
0.0
 11
21.100000000000136
 21
12.535533849708337
 31
0.0
  0
LINE
  5
2C3
100
AcDbEntity
  8
0
  6
CONTINUOUS
 62
               4
100
AcDbLine
 10
24.0
 20
14.0
 30
0.0
 11
24.0
 21
16.389265718755631
 31
0.0
  0
LINE
  5
2C4
100
AcDbEntity
  8
0
  6
CONTINUOUS
 62
               4
100
AcDbLine
 10
21.5
 20
17.096372527341508
 30
0.0
 11
21.5
 21
16.389265746154955
 31
0.0
  0
LINE
  5
2C5
100
AcDbEntity
  8
0
  6
CONTINUOUS
 62
               4
100
AcDbLine
 10
21.5
 20
16.389265746154955
 30
0.0
 11
24.0
 21
16.389265746154955
 31
0.0
  0
LINE
  5
2C6
100
AcDbEntity
  8
0
  6
CONTINUOUS
 62
               4
100
AcDbLine
 10
22.849999999999909
 20
16.757153244502398
 30
0.0
 11
22.849999999999909
 21
18.646803620157151
 31
0.0
  0
ELLIPSE
  5
2C7
100
AcDbEntity
  8
0
  6
CONTINUOUS
 62
               4
100
AcDbEllipse
 10
21.5
 20
18.646803625909079
 30
0.0
 11
1.3500000000000016
 21
0.0
 31
0.0
210
0.0
220
0.0
230
1.0
 40
0.713092870339449
 41
0.0
 42
2.7542760527011376
  0
ELLIPSE
  5
2C8
100
AcDbEntity
  8
0
  6
CONTINUOUS
 62
               4
100
AcDbEllipse
 10
21.5
 20
15.646803625909079
 30
0.0
 11
2.0999999999999943
 21
0.0
 31
0.0
210
0.0
220
0.0
230
1.0
 40
0.690270905444012
 41
0.5377386764774563
 42
2.1503123541906755
  0
CIRCLE
  5
2C9
100
AcDbEntity
  8
0
  6
DASHED
 62
               7
100
AcDbCircle
 10
3.5
 20
5.0
 30
0.0
 40
1.1999999999999886
  0
CIRCLE
  5
2CA
100
AcDbEntity
  8
0
  6
DASHED
 62
               2
100
AcDbCircle
 10
3.5
 20
5.0
 30
0.0
 40
1.5
  0
LINE
  5
2CB
100
AcDbEntity
  8
0
  6
CENTER
 62
               2
100
AcDbLine
 10
3.5
 20
3.0452224481113177
 30
0.0
 11
3.5
 21
6.9760956580291236
 31
0.0
  0
LINE
  5
2CC
100
AcDbEntity
  8
0
  6
CONTINUOUS
 62
               7
100
AcDbLine
 10
-2.0
 20
2.249999981121988
 30
0.0
 11
-2.0
 21
7.749999981121988
 31
0.0
  0
LINE
  5
2CD
100
AcDbEntity
  8
0
  6
CONTINUOUS
 62
               7
100
AcDbLine
 10
-5.5999999999999943
 20
2.249999981121988
 30
0.0
 11
-5.5999999999999943
 21
7.749999981121988
 31
0.0
  0
LINE
  5
2CE
100
AcDbEntity
  8
0
  6
CONTINUOUS
 62
               7
100
AcDbLine
 10
-3.7999999999999972
 20
2.249999981121988
 30
0.0
 11
-3.7999999999999972
 21
7.749999981121988
 31
0.0
  0
LINE
  5
2CF
100
AcDbEntity
  8
0
  6
CONTINUOUS
 62
               7
100
AcDbLine
 10
-3.7999999999999972
 20
7.749999981121988
 30
0.0
 11
-5.5999999999999943
 21
7.749999981121988
 31
0.0
  0
LINE
  5
2D0
100
AcDbEntity
  8
0
  6
CONTINUOUS
 62
               7
100
AcDbLine
 10
-3.7999999999999972
 20
7.749999981121988
 30
0.0
 11
-2.0
 21
7.749999981121988
 31
0.0
  0
LINE
  5
2D1
100
AcDbEntity
  8
0
  6
CONTINUOUS
 62
               7
100
AcDbLine
 10
-3.5543798798272803
 20
5.0
 30
0.0
 11
-2.2456201201727168
 21
5.0
 31
0.0
  0
LINE
  5
2D2
100
AcDbEntity
  8
0
  6
CONTINUOUS
 62
               7
100
AcDbLine
 10
-3.7999999999999972
 20
2.25
 30
0.0
 11
-2.0
 21
2.25
 31
0.0
  0
LINE
  5
2D3
100
AcDbEntity
  8
0
  6
CONTINUOUS
 62
               7
100
AcDbLine
 10
-3.7999999999999972
 20
2.25
 30
0.0
 11
-5.5999999999999943
 21
2.25
 31
0.0
  0
LINE
  5
2D4
100
AcDbEntity
  8
0
  6
CONTINUOUS
 62
               7
100
AcDbLine
 10
-4.045620120172714
 20
5.0
 30
0.0
 11
-5.3543798798272775
 21
5.0
 31
0.0
  0
SPLINE
  5
2D5
100
AcDbEntity
  8
0
  6
CONTINUOUS
 62
               7
100
AcDbSpline
210
0.0
220
0.0
230
1.0
 70
               0
 71
               3
 72
               0
 73
               0
 74
               5
 44
0.000001
 12
-0.3364389337625614
 22
-0.9417052850274925
 32
0.0
 13
0.3364389335092213
 23
-0.9417052851180021
 33
0.0
 11
-3.5543798798272803
 21
7.749999981121988
 31
0.0
 11
-3.7359307314102335
 21
7.0736859437510899
 31
0.0
 11
-3.7999999999999972
 21
6.375
 31
0.0
 11
-3.7359307329601386
 21
5.6763140466768789
 31
0.0
 11
-3.5543798798272803
 21
5.0
 31
0.0
  0
SPLINE
  5
2D6
100
AcDbEntity
  8
0
  6
CONTINUOUS
 62
               7
100
AcDbSpline
210
0.0
220
0.0
230
1.0
 70
               0
 71
               3
 72
               0
 73
               0
 74
               5
 44
0.000001
 12
0.3364389337625613
 22
-0.9417052850274925
 32
0.0
 13
-0.3364389335092214
 23
-0.9417052851180021
 33
0.0
 11
-2.2456201201727168
 21
7.749999981121988
 31
0.0
 11
-2.0640692685897637
 21
7.0736859437510899
 31
0.0
 11
-2.0
 21
6.375
 31
0.0
 11
-2.0640692670398586
 21
5.6763140466768789
 31
0.0
 11
-2.2456201201727168
 21
5.0
 31
0.0
  0
SPLINE
  5
2D7
100
AcDbEntity
  8
0
  6
CONTINUOUS
 62
               7
100
AcDbSpline
210
0.0
220
0.0
230
1.0
 70
               0
 71
               3
 72
               0
 73
               0
 74
               5
 44
0.000001
 12
-0.3364389337625614
 22
-0.9417052850274925
 32
0.0
 13
0.3364389335092213
 23
-0.9417052851180021
 33
0.0
 11
-5.3543798798272775
 21
7.749999981121988
 31
0.0
 11
-5.5359307314102306
 21
7.0736859437510899
 31
0.0
 11
-5.5999999999999943
 21
6.375
 31
0.0
 11
-5.5359307329601357
 21
5.6763140466768789
 31
0.0
 11
-5.3543798798272775
 21
5.0
 31
0.0
  0
SPLINE
  5
2D8
100
AcDbEntity
  8
0
  6
CONTINUOUS
 62
               7
100
AcDbSpline
210
0.0
220
0.0
230
1.0
 70
               0
 71
               3
 72
               0
 73
               0
 74
               5
 44
0.000001
 12
0.3364389337625613
 22
-0.9417052850274925
 32
0.0
 13
-0.3364389335092214
 23
-0.9417052851180021
 33
0.0
 11
-4.045620120172714
 21
7.749999981121988
 31
0.0
 11
-3.8640692685897609
 21
7.0736859437510899
 31
0.0
 11
-3.7999999999999972
 21
6.375
 31
0.0
 11
-3.8640692670398558
 21
5.6763140466768789
 31
0.0
 11
-4.045620120172714
 21
5.0
 31
0.0
  0
SPLINE
  5
2D9
100
AcDbEntity
  8
0
  6
CONTINUOUS
 62
               7
100
AcDbSpline
210
0.0
220
0.0
230
1.0
 70
               0
 71
               3
 72
               0
 73
               0
 74
               5
 44
0.000001
 12
-0.3364389337625614
 22
0.9417052850274925
 32
0.0
 13
0.3364389335092213
 23
0.9417052851180021
 33
0.0
 11
-5.3543798798272775
 21
2.250000018878012
 31
0.0
 11
-5.5359307314102306
 21
2.9263140562489101
 31
0.0
 11
-5.5999999999999943
 21
3.625
 31
0.0
 11
-5.5359307329601357
 21
4.3236859533231211
 31
0.0
 11
-5.3543798798272775
 21
5.0
 31
0.0
  0
SPLINE
  5
2DA
100
AcDbEntity
  8
0
  6
CONTINUOUS
 62
               7
100
AcDbSpline
210
0.0
220
0.0
230
1.0
 70
               0
 71
               3
 72
               0
 73
               0
 74
               5
 44
0.000001
 12
0.3364389337625613
 22
0.9417052850274925
 32
0.0
 13
-0.3364389335092214
 23
0.9417052851180021
 33
0.0
 11
-4.045620120172714
 21
2.250000018878012
 31
0.0
 11
-3.8640692685897609
 21
2.9263140562489101
 31
0.0
 11
-3.7999999999999972
 21
3.625
 31
0.0
 11
-3.8640692670398558
 21
4.3236859533231211
 31
0.0
 11
-4.045620120172714
 21
5.0
 31
0.0
  0
SPLINE
  5
2DB
100
AcDbEntity
  8
0
  6
CONTINUOUS
 62
               7
100
AcDbSpline
210
0.0
220
0.0
230
1.0
 70
               0
 71
               3
 72
               0
 73
               0
 74
               5
 44
0.000001
 12
-0.3364389337625614
 22
0.9417052850274925
 32
0.0
 13
0.3364389335092213
 23
0.9417052851180021
 33
0.0
 11
-3.5543798798272803
 21
2.250000018878012
 31
0.0
 11
-3.7359307314102335
 21
2.9263140562489101
 31
0.0
 11
-3.7999999999999972
 21
3.625
 31
0.0
 11
-3.7359307329601386
 21
4.3236859533231211
 31
0.0
 11
-3.5543798798272803
 21
5.0
 31
0.0
  0
SPLINE
  5
2DC
100
AcDbEntity
  8
0
  6
CONTINUOUS
 62
               7
100
AcDbSpline
210
0.0
220
0.0
230
1.0
 70
               0
 71
               3
 72
               0
 73
               0
 74
               5
 44
0.000001
 12
0.3364389337625613
 22
0.9417052850274925
 32
0.0
 13
-0.3364389335092214
 23
0.9417052851180021
 33
0.0
 11
-2.2456201201727168
 21
2.250000018878012
 31
0.0
 11
-2.0640692685897637
 21
2.9263140562489101
 31
0.0
 11
-2.0
 21
3.625
 31
0.0
 11
-2.0640692670398586
 21
4.3236859533231211
 31
0.0
 11
-2.2456201201727168
 21
5.0
 31
0.0
  0
LINE
  5
2DD
100
AcDbEntity
  8
0
  6
CONTINUOUS
 62
               7
100
AcDbLine
 10
-2.0
 20
3.5
 30
0.0
 11
0.0
 21
3.5
 31
0.0
  0
LINE
  5
2DE
100
AcDbEntity
  8
0
  6
CONTINUOUS
 62
               2
100
AcDbLine
 10
-2.0
 20
3.7999999999999972
 30
0.0
 11
-1.0
 21
3.7999999999999972
 31
0.0
  0
LINE
  5
2DF
100
AcDbEntity
  8
0
  6
CONTINUOUS
 62
               2
100
AcDbLine
 10
-2.0
 20
6.2000000000000028
 30
0.0
 11
-1.0
 21
6.2000000000000028
 31
0.0
  0
LINE
  5
2E0
100
AcDbEntity
  8
0
  6
CONTINUOUS
 62
               7
100
AcDbLine
 10
-2.0
 20
6.5
 30
0.0
 11
0.0
 21
6.5
 31
0.0
  0
CIRCLE
  5
2E1
100
AcDbEntity
  8
0
  6
DASHED
 62
               7
100
AcDbCircle
 10
30.5
 20
5.0000000000000142
 30
0.0
 40
1.1999999999999886
  0
CIRCLE
  5
2E2
100
AcDbEntity
  8
0
  6
DASHED
 62
               2
100
AcDbCircle
 10
30.5
 20
5.0000000000000142
 30
0.0
 40
1.5
  0
LINE
  5
2E3
100
AcDbEntity
  8
0
  6
CENTER
 62
               2
100
AcDbLine
 10
30.5
 20
6.9547775518886965
 30
0.0
 11
30.5
 21
3.0239043419708906
 31
0.0
  0
CIRCLE
  5
2E4
100
AcDbEntity
  8
0
  6
DASHED
 62
               7
100
AcDbCircle
 10
14.0
 20
5.0000000000000142
 30
0.0
 40
1.1999999999999886
  0
CIRCLE
  5
2E5
100
AcDbEntity
  8
0
  6
DASHED
 62
               2
100
AcDbCircle
 10
14.0
 20
5.0000000000000142
 30
0.0
 40
1.5
  0
LINE
  5
2E6
100
AcDbEntity
  8
0
  6
CENTER
 62
               2
100
AcDbLine
 10
14.0
 20
6.9547775518886965
 30
0.0
 11
14.0
 21
3.0239043419708906
 31
0.0
  0
LINE
  5
2E7
100
AcDbEntity
  8
0
  6
CONTINUOUS
 62
               7
100
AcDbLine
 10
0.0
 20
8.9999999300491922
 30
0.0
 11
33.5
 21
8.9999999300491922
 31
0.0
  0
LINE
  5
2E8
100
AcDbEntity
  8
0
  6
CONTINUOUS
 62
               7
100
AcDbLine
 10
0.0
 20
10.218949877279265
 30
0.0
 11
33.5
 21
10.218949877279265
 31
0.0
  0
LINE
  5
2E9
100
AcDbEntity
  8
0
  6
CONTINUOUS
 62
               7
100
AcDbLine
 10
0.0
 20
12.252691137233484
 30
0.0
 11
16.5
 21
12.252691137233484
 31
0.0
  0
LINE
  5
2EA
100
AcDbEntity
  8
0
  6
CONTINUOUS
 62
               7
100
AcDbLine
 10
0.0
 20
12.606244527826746
 30
0.0
 11
16.5
 21
12.606244527826746
 31
0.0
  0
LINE
  5
2EB
100
AcDbEntity
  8
0
  6
CONTINUOUS
 62
               7
100
AcDbLine
 10
0.0
 20
14.0
 30
0.0
 11
16.5
 21
14.0
 31
0.0
  0
LINE
  5
2EC
100
AcDbEntity
  8
0
  6
CONTINUOUS
 62
               7
100
AcDbLine
 10
-7.7000000000000171
 20
3.5
 30
0.0
 11
-5.5999999999999943
 21
3.5
 31
0.0
  0
LINE
  5
2ED
100
AcDbEntity
  8
0
  6
CONTINUOUS
 62
               7
100
AcDbLine
 10
0.0
 20
0.0
 30
0.0
 11
33.5
 21
0.0
 31
0.0
  0
LINE
  5
2EE
100
AcDbEntity
  8
0
  6
CONTINUOUS
 62
               7
100
AcDbLine
 10
-7.7000000000000171
 20
3.5
 30
0.0
 11
-8.0
 21
3.7999999999999972
 31
0.0
  0
LINE
  5
2EF
100
AcDbEntity
  8
0
  6
CONTINUOUS
 62
               2
100
AcDbLine
 10
-1.0
 20
3.7999999999999972
 30
0.0
 11
-0.4803847577293539
 21
3.5
 31
0.0
  0
LINE
  5
2F0
100
AcDbEntity
  8
0
  6
CONTINUOUS
 62
               2
100
AcDbLine
 10
-8.0
 20
3.7999999999999972
 30
0.0
 11
-5.5999999999999943
 21
3.7999999999999972
 31
0.0
  0
LINE
  5
2F1
100
AcDbEntity
  8
0
  6
CONTINUOUS
 62
               2
100
AcDbLine
 10
-8.0
 20
6.2000000000000028
 30
0.0
 11
-5.5999999999999943
 21
6.2000000000000028
 31
0.0
  0
LINE
  5
2F2
100
AcDbEntity
  8
0
  6
CONTINUOUS
 62
               7
100
AcDbLine
 10
-7.7000000000000171
 20
6.5
 30
0.0
 11
-8.0
 21
6.2000000000000028
 31
0.0
  0
LINE
  5
2F3
100
AcDbEntity
  8
0
  6
CONTINUOUS
 62
               2
100
AcDbLine
 10
-1.0
 20
6.2000000000000028
 30
0.0
 11
-0.4803847577293539
 21
6.5
 31
0.0
  0
LINE
  5
2F4
100
AcDbEntity
  8
0
  6
CONTINUOUS
 62
               7
100
AcDbLine
 10
-7.7000000000000171
 20
3.5
 30
0.0
 11
-7.7000000000000171
 21
6.5
 31
0.0
  0
LINE
  5
2F5
100
AcDbEntity
  8
0
  6
CONTINUOUS
 62
               7
100
AcDbLine
 10
-1.0
 20
3.5
 30
0.0
 11
-1.0
 21
6.5
 31
0.0
  0
LINE
  5
2F6
100
AcDbEntity
  8
0
  6
CONTINUOUS
 62
               7
100
AcDbLine
 10
-8.0
 20
3.7999999999999972
 30
0.0
 11
-8.0
 21
6.2000000000000028
 31
0.0
  0
LINE
  5
2F7
100
AcDbEntity
  8
0
  6
CONTINUOUS
 62
               7
100
AcDbLine
 10
-7.7000000000000171
 20
6.5
 30
0.0
 11
-5.5999999999999943
 21
6.5
 31
0.0
  0
LINE
  5
2F8
100
AcDbEntity
  8
0
  6
CONTINUOUS
 62
               7
100
AcDbLine
 10
0.0
 20
14.0
 30
0.0
 11
0.0
 21
0.0
 31
0.0
  0
LINE
  5
2F9
100
AcDbEntity
  8
0
  6
CONTINUOUS
 62
               7
100
AcDbLine
 10
33.5
 20
14.0
 30
0.0
 11
33.5
 21
0.0
 31
0.0
  0
LINE
  5
2FA
100
AcDbEntity
  8
0
  6
CENTER
 62
               2
100
AcDbLine
 10
-9.0969874860368805
 20
5.0
 30
0.0
 11
34.355882105630116
 21
5.0
 31
0.0
  0
LINE
  5
2FB
100
AcDbEntity
  8
0
  6
CONTINUOUS
 62
               7
100
AcDbLine
 10
31.5
 20
12.252691137233484
 30
0.0
 11
33.5
 21
12.252691137233484
 31
0.0
  0
LINE
  5
2FC
100
AcDbEntity
  8
0
  6
CONTINUOUS
 62
               7
100
AcDbLine
 10
21.100000000000136
 20
12.606244527826746
 30
0.0
 11
33.5
 21
12.606244527826746
 31
0.0
  0
LINE
  5
2FD
100
AcDbEntity
  8
0
  6
CONTINUOUS
 62
               7
100
AcDbLine
 10
21.100000000000136
 20
14.0
 30
0.0
 11
33.5
 21
14.0
 31
0.0
  0
LINE
  5
2FE
100
AcDbEntity
  8
0
  6
CENTER
 62
               2
100
AcDbLine
 10
8.9999999915627029
 20
1.5
 30
0.0
 11
8.9999999915627029
 21
-1.5
 31
0.0
  0
ENDBLK
  5
2FF
100
AcDbEntity
  8
0
100
AcDbBlockEnd
  0
BLOCK
  5
303
100
AcDbEntity
  8
0
  6
ByBlock
 62
               0
100
AcDbBlockBegin
  2
_OPEN30
 70
               2
 10
0.0
 20
0.0
 30
0.0
  3
_OPEN30
  1

  0
LINE
  5
304
100
AcDbEntity
  8
0
  6
ByBlock
 62
               0
100
AcDbLine
 10
-1.0
 20
0.267949
 30
0.0
 11
0.0
 21
0.0
 31
0.0
  0
LINE
  5
305
100
AcDbEntity
  8
0
  6
ByBlock
 62
               0
100
AcDbLine
 10
0.0
 20
0.0
 30
0.0
 11
-1.0
 21
-0.267949
 31
0.0
  0
LINE
  5
306
100
AcDbEntity
  8
0
  6
ByBlock
 62
               0
100
AcDbLine
 10
0.0
 20
0.0
 30
0.0
 11
-1.0
 21
0.0
 31
0.0
  0
ENDBLK
  5
307
100
AcDbEntity
  8
0
  6
ByBlock
 62
               0
100
AcDbBlockEnd
  0
ENDSEC
  0
SECTION
  2
ENTITIES
  0
LINE
  5
300
100
AcDbEntity
  8
0
  6
CONTINUOUS
 62
               7
100
AcDbLine
 10
-0.024993896484375
 20
84.5
 30
0.0
 11
-0.024993896484375
 21
-84.800003051757813
 31
0.0
  0
LEADER
  5
301
100
AcDbEntity
  8
0
 62
               2
100
AcDbLeader
  3
MXDIMSTYLE
 73
               3
 74
               0
 75
               0
 40
0.0
 76
               3
 10
-64.47112613970647
 20
-52.640804311930395
 30
0.0
 10
-69.226192424833087
 20
-44.404787912733269
 30
0.0
 10
-74.343101325272826
 20
-44.404787912733269
 30
0.0
 77
               2
1001
ACAD
1000
DSTYLE
1002
{
1070
               6
1000
_OPEN30
1070
               7
1000
_OPEN30
1070
              41
1040
2.77
1070
             173
1070
               1
1002
}
  0
MTEXT
  5
308
100
AcDbEntity
  8
0
 62
               2
100
AcDbMText
 10
-74.343101325272826
 20
-41.373537912733269
 30
0.0
 40
2.5
 41
0.0
 71
               4
 72
               1
  1
\A1;-R
  7
MX_NOTE_STANDARD
  0
LEADER
  5
309
100
AcDbEntity
  8
0
 62
               2
100
AcDbLeader
  3
MXDIMSTYLE
 73
               3
 74
               0
 75
               0
 40
0.0
 76
               3
 10
-64.47112613970647
 20
47.359195688069605
 30
0.0
 10
-69.226192424833087
 20
55.595212087266731
 30
0.0
 10
-74.343101325272826
 20
55.595212087266731
 30
0.0
 77
               2
1001
ACAD
1000
DSTYLE
1002
{
1070
               6
1000
_OPEN30
1070
               7
1000
_OPEN30
1070
              41
1040
2.77
1070
             173
1070
               1
1002
}
  0
MTEXT
  5
30A
100
AcDbEntity
  8
0
 62
               2
100
AcDbMText
 10
-74.343101325272826
 20
58.626462087266731
 30
0.0
 40
2.5
 41
0.0
 71
               4
 72
               1
  1
\A1;-L
  7
MX_NOTE_STANDARD
  0
INSERT
  5
30B
100
AcDbEntity
  8
0
100
AcDbBlockReference
  2
MS_1
 10
-67.221126146343252
 20
-3.9398424061118114
 30
0.0
  0
INSERT
  5
30C
100
AcDbEntity
  8
0
100
AcDbBlockReference
  2
MS_8
 10
72.77887386029353
 20
-58.939842417607053
 30
0.0
  0
INSERT
  5
30D
100
AcDbEntity
  8
0
100
AcDbBlockReference
  2
MS_7
 10
72.77887386029353
 20
37.060157582392947
 30
0.0
  0
INSERT
  5
30E
100
AcDbEntity
  8
0
100
AcDbBlockReference
  2
MS_6
 10
28.778873853656755
 20
-3.9398424061118114
 30
0.0
  0
INSERT
  5
30F
100
AcDbEntity
  8
0
100
AcDbBlockReference
  2
MS_5
 10
72.778873853656748
 20
-3.9398424061118114
 30
0.0
  0
INSERT
  5
310
100
AcDbEntity
  8
0
100
AcDbBlockReference
  2
MS_4
 10
-67.22112613970647
 20
-58.939842417607053
 30
0.0
  0
INSERT
  5
311
100
AcDbEntity
  8
0
100
AcDbBlockReference
  2
MS_3
 10
-67.22112613970647
 20
37.060157582392947
 30
0.0
  0
INSERT
  5
312
100
AcDbEntity
  8
0
100
AcDbBlockReference
  2
MS_2
 10
-111.22112614634325
 20
-3.9398424061118114
 30
0.0
  0
MTEXT
  5
313
100
AcDbEntity
  8
0
  6
CONTINUOUS
 62
               7
100
AcDbMText
 10
-57.488882822460639
 20
-86.800003051757813
 30
0.0
 40
3.2000000476837158
 41
0.0
 71
               4
 72
               1
  1
\W1.333;\A1;10
  7
MX_NOTE_STANDARD
  0
MTEXT
  5
314
100
AcDbEntity
  8
0
  6
CONTINUOUS
 62
               7
100
AcDbMText
 10
-57.755549510761583
 20
-80.800003051757813
 30
0.0
 40
3.2000000476837158
 41
0.0
 71
               4
 72
               1
  1
\W0.833;\A1;２０
  7
MX_NOTE_STANDARD
  0
LINE
  5
315
100
AcDbEntity
  8
0
  6
CONTINUOUS
 62
               7
100
AcDbLine
 10
-59.799993896484395
 20
-77.800003051757812
 30
0.0
 11
-59.799993896484395
 21
-89.800003051757812
 31
0.0
  0
MTEXT
  5
316
100
AcDbEntity
  8
0
  6
CONTINUOUS
 62
               7
100
AcDbMText
 10
-65.755549486919719
 20
-86.800003051757813
 30
0.0
 40
3.2000000476837158
 41
0.0
 71
               4
 72
               1
  1
\W0.833;\A1;５
  7
MX_NOTE_STANDARD
  0
MTEXT
  5
317
100
AcDbEntity
  8
0
  6
CONTINUOUS
 62
               7
100
AcDbMText
 10
-67.355549510761577
 20
-80.800003051757813
 30
0.0
 40
3.2000000476837158
 41
0.0
 71
               4
 72
               1
  1
\W0.833;\A1;１５
  7
MX_NOTE_STANDARD
  0
LINE
  5
318
100
AcDbEntity
  8
0
  6
CONTINUOUS
 62
               7
100
AcDbLine
 10
-69.399993896484389
 20
-77.800003051757812
 30
0.0
 11
-69.399993896484389
 21
-89.800003051757812
 31
0.0
  0
MTEXT
  5
319
100
AcDbEntity
  8
0
  6
CONTINUOUS
 62
               3
100
AcDbMText
 10
79.179545996827642
 20
25.147026807955669
 30
0.0
 40
3.2000000476837158
 41
0.0
 71
               4
 72
               1
  1
\W1.065;\A1;STRETCH LINE
  7
MX_NOTE_STANDARD
  0
MTEXT
  5
31A
100
AcDbEntity
  8
0
  6
CONTINUOUS
 62
               7
100
AcDbMText
 10
-59.223993985366832
 20
-75.800003051757813
 30
0.0
 40
3.2000000476837158
 41
0.0
 71
               4
 72
               1
  1
\W1.200;\A1;(mm)
  7
MX_NOTE_STANDARD
  0
MTEXT
  5
31B
100
AcDbEntity
  8
0
  6
CONTINUOUS
 62
               7
100
AcDbMText
 10
-110.43194683784571
 20
-74.800003051757813
 30
0.0
 40
3.2000000476837158
 41
0.0
 71
               4
 72
               1
  1
\W1.065;\A1;STRETCH LIST
  7
MX_NOTE_STANDARD
  0
MTEXT
  5
31C
100
AcDbEntity
  8
0
  6
CONTINUOUS
 62
               7
100
AcDbMText
 10
-105.66666060288748
 20
-86.800003051757813
 30
0.0
 40
3.2000000476837158
 41
0.0
 71
               4
 72
               1
  1
\A1;-6
  7
MX_NOTE_STANDARD
  0
MTEXT
  5
31D
100
AcDbEntity
  8
0
  6
CONTINUOUS
 62
               7
100
AcDbMText
 10
-96.066660602887481
 20
-86.800003051757813
 30
0.0
 40
3.2000000476837158
 41
0.0
 71
               4
 72
               1
  1
\A1;-4
  7
MX_NOTE_STANDARD
  0
MTEXT
  5
31E
100
AcDbEntity
  8
0
  6
CONTINUOUS
 62
               7
100
AcDbMText
 10
-86.466660602887487
 20
-86.800003051757813
 30
0.0
 40
3.2000000476837158
 41
0.0
 71
               4
 72
               1
  1
\A1;-2
  7
MX_NOTE_STANDARD
  0
MTEXT
  5
31F
100
AcDbEntity
  8
0
  6
CONTINUOUS
 62
               7
100
AcDbMText
 10
-75.159993895530732
 20
-86.800003051757813
 30
0.0
 40
3.2000000476837158
 41
0.0
 71
               4
 72
               1
  1
\W1.200;\A1;0
  7
MX_NOTE_STANDARD
  0
MTEXT
  5
320
100
AcDbEntity
  8
0
  6
CONTINUOUS
 62
               7
100
AcDbMText
 10
-76.688882822460627
 20
-80.800003051757813
 30
0.0
 40
3.2000000476837158
 41
0.0
 71
               4
 72
               1
  1
\W1.333;\A1;10
  7
MX_NOTE_STANDARD
  0
MTEXT
  5
321
100
AcDbEntity
  8
0
  6
CONTINUOUS
 62
               7
100
AcDbMText
 10
-84.866660579045629
 20
-80.800003051757813
 30
0.0
 40
3.2000000476837158
 41
0.0
 71
               4
 72
               1
  1
\A1;8
  7
MX_NOTE_STANDARD
  0
MTEXT
  5
322
100
AcDbEntity
  8
0
  6
CONTINUOUS
 62
               7
100
AcDbMText
 10
-94.466660579045623
 20
-80.800003051757813
 30
0.0
 40
3.2000000476837158
 41
0.0
 71
               4
 72
               1
  1
\A1;6
  7
MX_NOTE_STANDARD
  0
MTEXT
  5
323
100
AcDbEntity
  8
0
  6
CONTINUOUS
 62
               7
100
AcDbMText
 10
-104.06666057904562
 20
-80.800003051757813
 30
0.0
 40
3.2000000476837158
 41
0.0
 71
               4
 72
               1
  1
\A1;4
  7
MX_NOTE_STANDARD
  0
LINE
  5
324
100
AcDbEntity
  8
0
  6
CONTINUOUS
 62
               7
100
AcDbLine
 10
-50.199993896484372
 20
-77.800003051757812
 30
0.0
 11
-50.199993896484372
 21
-89.800003051757812
 31
0.0
  0
LINE
  5
325
100
AcDbEntity
  8
0
  6
CONTINUOUS
 62
               7
100
AcDbLine
 10
-78.999993896484384
 20
-77.800003051757812
 30
0.0
 11
-78.999993896484384
 21
-89.800003051757812
 31
0.0
  0
LINE
  5
326
100
AcDbEntity
  8
0
  6
CONTINUOUS
 62
               7
100
AcDbLine
 10
-88.599993896484378
 20
-77.800003051757812
 30
0.0
 11
-88.599993896484378
 21
-89.800003051757812
 31
0.0
  0
LINE
  5
327
100
AcDbEntity
  8
0
  6
CONTINUOUS
 62
               7
100
AcDbLine
 10
-98.199993896484386
 20
-77.800003051757812
 30
0.0
 11
-98.199993896484386
 21
-89.800003051757812
 31
0.0
  0
LINE
  5
328
100
AcDbEntity
  8
0
  6
CONTINUOUS
 62
               7
100
AcDbLine
 10
-107.79999389648438
 20
-77.800003051757812
 30
0.0
 11
-107.79999389648438
 21
-89.800003051757812
 31
0.0
  0
MTEXT
  5
329
100
AcDbEntity
  8
0
  6
CONTINUOUS
 62
               7
100
AcDbMText
 10
-131.26666072209676
 20
-86.800003051757813
 30
0.0
 40
3.2000000476837158
 41
0.0
 71
               4
 72
               1
  1
\A1;STRETCH
  7
MX_NOTE_STANDARD
  0
MTEXT
  5
32A
100
AcDbEntity
  8
0
  6
CONTINUOUS
 62
               7
100
AcDbMText
 10
-129.6666606982549
 20
-80.800003051757813
 30
0.0
 40
3.2000000476837158
 41
0.0
 71
               4
 72
               1
  1
\A1;STROKE
  7
MX_NOTE_STANDARD
  0
LINE
  5
32B
100
AcDbEntity
  8
0
  6
CONTINUOUS
 62
               7
100
AcDbLine
 10
-133.39999389648437
 20
-77.800003051757812
 30
0.0
 11
-50.199993896484372
 21
-77.800003051757812
 31
0.0
  0
LINE
  5
32C
100
AcDbEntity
  8
0
  6
CONTINUOUS
 62
               7
100
AcDbLine
 10
-133.39999389648437
 20
-83.800003051757813
 30
0.0
 11
-50.199993896484372
 21
-83.800003051757813
 31
0.0
  0
LINE
  5
32D
100
AcDbEntity
  8
0
  6
CONTINUOUS
 62
               7
100
AcDbLine
 10
-133.39999389648437
 20
-77.800003051757812
 30
0.0
 11
-133.39999389648437
 21
-89.800003051757812
 31
0.0
  0
LINE
  5
32E
100
AcDbEntity
  8
0
  6
CONTINUOUS
 62
               7
100
AcDbLine
 10
-133.39999389648437
 20
-89.800003051757812
 30
0.0
 11
-50.199993896484372
 21
-89.800003051757812
 31
0.0
  0
MTEXT
  5
32F
100
AcDbEntity
  8
0
  6
CONTINUOUS
 62
               7
100
AcDbMText
 10
82.508335494995123
 20
68.5
 30
0.0
 40
3.1999998092651367
 41
0.0
 71
               4
 72
               1
  1
\A1;ZE255
  7
MX_NOTE_STANDARD
  0
MTEXT
  5
330
100
AcDbEntity
  8
0
  6
CONTINUOUS
 62
               7
100
AcDbMText
 10
-55.828569271613127
 20
68.5
 30
0.0
 40
3.1999998092651367
 41
0.0
 71
               4
 72
               1
  1
\W1.071;\A1;ZE155
  7
MX_NOTE_STANDARD
  0
MTEXT
  5
331
100
AcDbEntity
  8
0
  6
CONTINUOUS
 62
               7
100
AcDbMText
 10
-130.90186156846724
 20
91.099999904632568
 30
0.0
 40
3.1999998092651367
 41
0.0
 71
               1
 72
               1
  1
\W1.121;\A1;MINIBIT CYLINDER
  7
MX_NOTE_STANDARD
  0
MTEXT
  5
332
100
AcDbEntity
  8
0
  6
CONTINUOUS
 62
               7
100
AcDbMText
 10
8.945706800725997
 20
74.5
 30
0.0
 40
3.1999998092651367
 41
0.0
 71
               4
 72
               1
  1
\W1.070;\A1;MODEL:CS-MBDAS8*ST(10)-ZE235
  7
MX_NOTE_STANDARD
  0
MTEXT
  5
333
100
AcDbEntity
  8
0
  6
CONTINUOUS
 62
               7
100
AcDbMText
 10
-129.42192932099928
 20
74.5
 30
0.0
 40
3.1999998092651367
 41
0.0
 71
               4
 72
               1
  1
\W1.084;\A1;MODEL:CS-MBDAS8*ST(10)-ZE135
  7
MX_NOTE_STANDARD
  0
LINE
  5
334
100
AcDbEntity
  8
0
  6
CONTINUOUS
 62
               7
100
AcDbLine
 10
-138.39999389648437
 20
94.5
 30
0.0
 11
138.35000610351562
 21
94.5
 31
0.0
  0
LINE
  5
335
100
AcDbEntity
  8
0
  6
CONTINUOUS
 62
               7
100
AcDbLine
 10
138.35000610351562
 20
94.5
 30
0.0
 11
138.35000610351562
 21
-94.800003051757812
 31
0.0
  0
LINE
  5
336
100
AcDbEntity
  8
0
  6
CONTINUOUS
 62
               7
100
AcDbLine
 10
-138.39999389648437
 20
-94.800003051757812
 30
0.0
 11
138.35000610351562
 21
-94.800003051757812
 31
0.0
  0
LINE
  5
337
100
AcDbEntity
  8
0
  6
CONTINUOUS
 62
               7
100
AcDbLine
 10
-138.39999389648437
 20
94.5
 30
0.0
 11
-138.39999389648437
 21
-94.800003051757812
 31
0.0
  0
LINE
  5
338
100
AcDbEntity
  8
0
  6
CONTINUOUS
 62
               7
100
AcDbLine
 10
73.350006103515625
 20
-84.800003051757813
 30
0.0
 11
138.35000610351562
 21
-84.800003051757813
 31
0.0
  0
LINE
  5
339
100
AcDbEntity
  8
0
  6
CONTINUOUS
 62
               7
100
AcDbLine
 10
-138.39999389648437
 20
84.5
 30
0.0
 11
-73.399993896484375
 21
84.5
 31
0.0
  0
LINE
  5
33A
100
AcDbEntity
  8
0
  6
CONTINUOUS
 62
               7
100
AcDbLine
 10
73.350006103515625
 20
84.5
 30
0.0
 11
138.35000610351562
 21
84.5
 31
0.0
  0
LINE
  5
33B
100
AcDbEntity
  8
0
  6
CONTINUOUS
 62
               7
100
AcDbLine
 10
73.350006103515625
 20
-84.800003051757813
 30
0.0
 11
73.350006103515625
 21
-94.800003051757812
 31
0.0
  0
LINE
  5
33C
100
AcDbEntity
  8
0
  6
CONTINUOUS
 62
               7
100
AcDbLine
 10
73.350006103515625
 20
94.5
 30
0.0
 11
73.350006103515625
 21
84.5
 31
0.0
  0
LINE
  5
33D
100
AcDbEntity
  8
0
  6
CONTINUOUS
 62
               7
100
AcDbLine
 10
-73.399993896484375
 20
94.5
 30
0.0
 11
-73.399993896484375
 21
84.5
 31
0.0
  0
MTEXT
  5
33E
100
AcDbEntity
  8
0
  6
CONTINUOUS
 62
               7
100
AcDbMText
 10
77.440529363489745
 20
-89.800003051757812
 30
0.0
 40
4.5
 41
0.0
 71
               4
 72
               1
  1
\W1.121;\A1;KOGANEI CORP.
  7
MX_NOTE_STANDARD
  0
MTEXT
  5
33F
100
AcDbEntity
  8
0
  6
CONTINUOUS
 62
               7
100
AcDbMText
 10
93.749460369842424
 20
89.5
 30
0.0
 40
3.1999998092651367
 41
0.0
 71
               4
 72
               1
  1
\W1.311;\A1;Ver. 1.0
  7
MX_NOTE_STANDARD
  0
ENDSEC
  0
SECTION
  2
OBJECTS
  0
DICTIONARY
  5
19
100
AcDbDictionary
  3
ACAD_GROUP
350
1A
  3
ACAD_MLINESTYLE
350
1B
  0
DICTIONARY
  5
1A
102
{ACAD_REACTORS
330
19
102
}
100
AcDbDictionary
  0
DICTIONARY
  5
1B
102
{ACAD_REACTORS
330
19
102
}
100
AcDbDictionary
  3
STANDARD
350
1C
  0
MLINESTYLE
  5
1C
102
{ACAD_REACTORS
330
1B
102
}
100
AcDbMlineStyle
  2
Standard
 70
               0
  3

 62
               0
 51
90.0
 52
90.0
 71
               2
 49
0.5
 62
             256
  6
ByLayer
 49
-0.5
 62
             256
  6
ByLayer
  0
ENDSEC
  0
EOF
