  0
SECTION
  2
HEADER
  9
$ACADVER
  1
AC1012
  9
$DWGCODEPAGE
  3
dos932
  9
$INSBASE
 10
0.0
 20
0.0
 30
0.0
  9
$EXTMIN
 10
-138.39999389648437
 20
-94.800003051757812
 30
0.0
  9
$EXTMAX
 10
138.35000610351562
 20
94.5
 30
0.0
  9
$LIMMIN
 10
-138.39999389648437
 20
-94.800003051757812
  9
$LIMMAX
 10
138.35000610351562
 20
94.5
  9
$ORTHOMODE
 70
               0
  9
$REGENMODE
 70
               1
  9
$FILLMODE
 70
               1
  9
$QTEXTMODE
 70
               0
  9
$MIRRTEXT
 70
               1
  9
$DRAGMODE
 70
               2
  9
$LTSCALE
 40
1.0
  9
$OSMODE
 70
               0
  9
$ATTMODE
 70
               1
  9
$TEXTSIZE
 40
3.2000000476837158
  9
$TRACEWID
 40
0.05
  9
$TEXTSTYLE
  7
MX_NOTE_STANDARD
  9
$CLAYER
  8
0
  9
$CELTYPE
  6
CONTINUOUS
  9
$CECOLOR
 62
             256
  9
$CELTSCALE
 40
1.0
  9
$DELOBJ
 70
               1
  9
$DISPSILH
 70
               0
  9
$DIMSCALE
 40
1.0
  9
$DIMASZ
 40
2.5
  9
$DIMEXO
 40
1.5
  9
$DIMDLI
 40
3.75
  9
$DIMRND
 40
0.0
  9
$DIMDLE
 40
0.0
  9
$DIMEXE
 40
1.5
  9
$DIMTP
 40
0.0
  9
$DIMTM
 40
0.0
  9
$DIMTXT
 40
3.2000000476837158
  9
$DIMCEN
 40
2.5
  9
$DIMTSZ
 40
0.0
  9
$DIMTOL
 70
               0
  9
$DIMLIM
 70
               0
  9
$DIMTIH
 70
               0
  9
$DIMTOH
 70
               0
  9
$DIMSE1
 70
               0
  9
$DIMSE2
 70
               0
  9
$DIMTAD
 70
               1
  9
$DIMZIN
 70
               8
  9
$DIMBLK
  1

  9
$DIMASO
 70
               1
  9
$DIMSHO
 70
               1
  9
$DIMPOST
  1

  9
$DIMAPOST
  1

  9
$DIMALT
 70
               0
  9
$DIMALTD
 70
               4
  9
$DIMALTF
 40
0.0394
  9
$DIMLFAC
 40
1.0
  9
$DIMTOFL
 70
               1
  9
$DIMTVP
 40
0.0
  9
$DIMTIX
 70
               0
  9
$DIMSOXD
 70
               0
  9
$DIMSAH
 70
               0
  9
$DIMBLK1
  1

  9
$DIMBLK2
  1

  9
$DIMSTYLE
  2
MXDIMSTYLE
  9
$DIMCLRD
 70
               0
  9
$DIMCLRE
 70
               0
  9
$DIMCLRT
 70
               0
  9
$DIMTFAC
 40
1.0
  9
$DIMGAP
 40
1.0
  9
$DIMJUST
 70
               0
  9
$DIMSD1
 70
               0
  9
$DIMSD2
 70
               0
  9
$DIMTOLJ
 70
               1
  9
$DIMTZIN
 70
               0
  9
$DIMALTZ
 70
               0
  9
$DIMALTTZ
 70
               0
  9
$DIMFIT
 70
               3
  9
$DIMUPT
 70
               1
  9
$DIMUNIT
 70
               2
  9
$DIMDEC
 70
               4
  9
$DIMTDEC
 70
               4
  9
$DIMALTU
 70
               8
  9
$DIMALTTD
 70
               4
  9
$DIMTXSTY
  7
MX_NOTE_STANDARD
  9
$DIMAUNIT
 70
               0
  9
$LUNITS
 70
               2
  9
$LUPREC
 70
               4
  9
$SKETCHINC
 40
0.1
  9
$FILLETRAD
 40
0.0
  9
$AUNITS
 70
               0
  9
$AUPREC
 70
               0
  9
$MENU
  1
acad
  9
$ELEVATION
 40
0.0
  9
$PELEVATION
 40
0.0
  9
$THICKNESS
 40
0.0
  9
$LIMCHECK
 70
               0
  9
$BLIPMODE
 70
               1
  9
$CHAMFERA
 40
0.0
  9
$CHAMFERB
 40
0.0
  9
$CHAMFERC
 40
0.0
  9
$CHAMFERD
 40
0.0
  9
$SKPOLY
 70
               0
  9
$TDCREATE
 40
2452209.493206019
  9
$TDUPDATE
 40
2452209.493206019
  9
$TDINDWG
 40
0.0000000000
  9
$TDUSRTIMER
 40
0.0000000000
  9
$USRTIMER
 70
               1
  9
$ANGBASE
 50
0.0
  9
$ANGDIR
 70
               0
  9
$PDMODE
 70
               0
  9
$PDSIZE
 40
0.0
  9
$PLINEWID
 40
0.0
  9
$COORDS
 70
               1
  9
$SPLFRAME
 70
               0
  9
$SPLINETYPE
 70
               6
  9
$SPLINESEGS
 70
               8
  9
$ATTDIA
 70
               0
  9
$ATTREQ
 70
               1
  9
$HANDLING
 70
               1
  9
$HANDSEED
  5
333
  9
$SURFTAB1
 70
               6
  9
$SURFTAB2
 70
               6
  9
$SURFTYPE
 70
               6
  9
$SURFU
 70
               6
  9
$SURFV
 70
               6
  9
$UCSNAME
  2

  9
$UCSORG
 10
0.0
 20
0.0
 30
0.0
  9
$UCSXDIR
 10
1.0
 20
0.0
 30
0.0
  9
$UCSYDIR
 10
0.0
 20
1.0
 30
0.0
  9
$PUCSNAME
  2

  9
$PUCSORG
 10
0.0
 20
0.0
 30
0.0
  9
$PUCSXDIR
 10
1.0
 20
0.0
 30
0.0
  9
$PUCSYDIR
 10
0.0
 20
1.0
 30
0.0
  9
$USERI1
 70
               0
  9
$USERI2
 70
               0
  9
$USERI3
 70
               0
  9
$USERI4
 70
               0
  9
$USERI5
 70
               0
  9
$USERR1
 40
0.0
  9
$USERR2
 40
0.0
  9
$USERR3
 40
0.0
  9
$USERR4
 40
0.0
  9
$USERR5
 40
0.0
  9
$WORLDVIEW
 70
               1
  9
$SHADEDGE
 70
               3
  9
$SHADEDIF
 70
              70
  9
$TILEMODE
 70
               1
  9
$MAXACTVP
 70
              16
  9
$PINSBASE
 10
0.0
 20
0.0
 30
0.0
  9
$PLIMCHECK
 70
               0
  9
$PEXTMIN
 10
1.0000000000000000E+20
 20
1.0000000000000000E+20
 30
1.0000000000000000E+20
  9
$PEXTMAX
 10
-1.0000000000000000E+20
 20
-1.0000000000000000E+20
 30
-1.0000000000000000E+20
  9
$PLIMMIN
 10
0.0
 20
0.0
  9
$PLIMMAX
 10
12.0
 20
9.0
  9
$UNITMODE
 70
               0
  9
$VISRETAIN
 70
               0
  9
$PLINEGEN
 70
               1
  9
$PSLTSCALE
 70
               0
  9
$TREEDEPTH
 70
            3020
  9
$PICKSTYLE
 70
               1
  9
$CMLSTYLE
  2
Standard
  9
$CMLJUST
 70
               0
  9
$CMLSCALE
 40
1.0
  9
$SAVEIMAGES
 70
               0
  0
ENDSEC
  0
SECTION
  2
CLASSES
  0
CLASS
  1
LWPOLYLINE
  2
AcDbPolyline
  3
"AutoCAD"
 90
        0
280
               0
281
               1
  0
CLASS
  1
IMAGE
  2
AcDbRasterImage
  3
ISM
 90
      127
280
               0
281
               1
  0
CLASS
  1
OLE2FRAME
  2
AcDbOle2Frame
  3
""
 90
        0
280
               0
281
               1
  0
CLASS
  1
HATCH
  2
AcDbHatch
  3
"ACAD_SEDONA"
 90
        0
280
               0
281
               1
  0
CLASS
  1
DICTIONARYVAR
  2
AcDbDictionaryVar
  3
"AutoCAD"
 90
        0
280
               0
281
               0
  0
CLASS
  1
RASTERVARIABLES
  2
AcDbRasterVariables
  3
ISM
 90
        0
280
               0
281
               0
  0
CLASS
  1
IMAGEDEF
  2
AcDbRasterImageDef
  3
ISM
 90
        0
280
               0
281
               0
  0
CLASS
  1
IMAGEDEF_REACTOR
  2
AcDbRasterImageDefReactor
  3
ISM
 90
        1
280
               0
281
               0
  0
CLASS
  1
IDBUFFER
  2
AcDbIdBuffer
  3
"Acad"
 90
        0
280
               0
281
               0
  0
CLASS
  1
SPATIAL_FILTER
  2
AcDbSpatialFilter
  3
"Acad"
 90
        0
280
               0
281
               0
  0
CLASS
  1
XRECORD
  2
AcDbXrecord
  3
"<Built In>"
 90
        0
280
               0
281
               0
  0
CLASS
  1
SORTENTSTABLE
  2
AcDbSortentsTable
  3
"AutoCAD"
 90
        0
280
               0
281
               0
  0
CLASS
  1
LAYER_INDEX
  2
AcDbLayerIndex
  3
"Acad"
 90
        0
280
               0
281
               0
  0
CLASS
  1
SPATIAL_INDEX
  2
AcDbSpatialIndex
  3
"Acad"
 90
        0
280
               0
281
               0
  0
CLASS
  1
OBJECT_PTR
  2
CAseDLPNTableRecord
  3
"ASE-LPNTableRecord"
 90
        1
280
               0
281
               0
  0
CLASS
  1
LAYOUT
  2
AcDbLayout
  3
"AutoCAD 2000"
 90
        1
280
               0
281
               0
  0
CLASS
  1
PLOTSETTINGS
  2
AcDbPlotSettings
  3
"AutoCAD 2000"
 90
        1
280
               0
281
               0
  0
CLASS
  1
ACDBDICTIONARYWDFLT
  2
AcDbDictionaryWithDefault
  3
"AutoCAD 2000"
 90
        1
280
               0
281
               0
  0
CLASS
  1
ACDBPLACEHOLDER
  2
AcDbPlaceHolder
  3
"AutoCAD 2000"
 90
        1
280
               0
281
               0
  0
CLASS
  1
VBA_PROJECT
  2
AcDbVbaProject
  3
"acadvba"
 90
        1
280
               0
281
               0
  0
CLASS
  1
WIPEOUT
  2
AcDbWipeout
  3
WipeOut|AutoCAD Express Tool|expresstools@autodesk.com
 90
      127
280
               0
281
               1
  0
CLASS
  1
WIPEOUTVARIABLES
  2
AcDbWipeoutVariables
  3
WipeOut|AutoCAD Express Tool|expresstools@autodesk.com
 90
        0
280
               0
281
               0
  0
CLASS
  1
RTEXT
  2
RText
  3
RText|AutoCAD Express Tool|expresstools@autodesk.com
 90
        0
280
               0
281
               1
  0
CLASS
  1
ARCALIGNEDTEXT
  2
AcDbArcAlignedText
  3
ATEXT|AutoCAD Express Tool|expresstools@autodesk.com
 90
        0
280
               0
281
               1
  0
ENDSEC
  0
SECTION
  2
TABLES
  0
TABLE
  2
VPORT
  5
7
100
AcDbSymbolTable
 70
               1
  0
VPORT
  5
15
100
AcDbSymbolTableRecord
100
AcDbViewportTableRecord
  2
*ACTIVE
 70
               0
 10
0.0
 20
0.0
 11
1.0
 21
1.0
 12
-0.024993896484375
 22
-0.1500015258789063
 13
0.0
 23
0.0
 14
1.0
 24
1.0
 15
0.0
 25
0.0
 16
0.0
 26
0.0
 36
1.0
 17
0.0
 27
0.0
 37
0.0
 40
191.1930030822754
 41
1.7320508075688772
 42
50.0
 43
0.0
 44
0.0
 50
0.0
 51
0.0
 71
               0
 72
             100
 73
               1
 74
               1
 75
               0
 76
               0
 77
               0
 78
               0
  0
ENDTAB
  0
TABLE
  2
LTYPE
  5
4
100
AcDbSymbolTable
 70
               6
  0
LTYPE
  5
11
100
AcDbSymbolTableRecord
100
AcDbLinetypeTableRecord
  2
BYBLOCK
 70
              64
  3

 72
              65
 73
               0
 40
0.0
  0
LTYPE
  5
12
100
AcDbSymbolTableRecord
100
AcDbLinetypeTableRecord
  2
BYLAYER
 70
              64
  3

 72
              65
 73
               0
 40
0.0
  0
LTYPE
  5
13
100
AcDbSymbolTableRecord
100
AcDbLinetypeTableRecord
  2
CONTINUOUS
 70
              64
  3
Solid line
 72
              65
 73
               0
 40
0.0
  0
LTYPE
  5
27
100
AcDbSymbolTableRecord
100
AcDbLinetypeTableRecord
  2
PHANTOM
 70
              64
  3
Phantom ______  __  __  ______  __  __  ______
 72
              65
 73
               6
 40
63.500000000000007
 49
31.75
 74
               0
 49
-6.3499999999999996
 74
               0
 49
6.3499999999999996
 74
               0
 49
-6.3499999999999996
 74
               0
 49
6.3499999999999996
 74
               0
 49
-6.3499999999999996
 74
               0
  0
LTYPE
  5
48
100
AcDbSymbolTableRecord
100
AcDbLinetypeTableRecord
  2
CENTER
 70
              64
  3
Center ____ _ ____ _ ____ _ ____ _ ____ _ ____
 72
              65
 73
               4
 40
50.800000000000004
 49
31.75
 74
               0
 49
-6.3499999999999996
 74
               0
 49
6.3499999999999996
 74
               0
 49
-6.3499999999999996
 74
               0
  0
LTYPE
  5
F7
100
AcDbSymbolTableRecord
100
AcDbLinetypeTableRecord
  2
DASHED
 70
              64
  3
Dashed __ __ __ __ __ __ __ __ __ __ __ __ __ _
 72
              65
 73
               2
 40
19.049999999999997
 49
12.699999999999999
 74
               0
 49
-6.3499999999999996
 74
               0
  0
ENDTAB
  0
TABLE
  2
LAYER
  5
2
100
AcDbSymbolTable
 70
               2
  0
LAYER
  5
14
100
AcDbSymbolTableRecord
100
AcDbLayerTableRecord
  2
0
 70
               0
 62
               7
  6
CONTINUOUS
  0
LAYER
  5
1D
100
AcDbSymbolTableRecord
100
AcDbLayerTableRecord
  2
DEFPOINTS
 70
               0
 62
               7
  6
CONTINUOUS
  0
ENDTAB
  0
TABLE
  2
STYLE
  5
3
100
AcDbSymbolTable
 70
               1
  0
STYLE
  5
17
100
AcDbSymbolTableRecord
100
AcDbTextStyleTableRecord
  2
MX_NOTE_STANDARD
 70
               0
 40
3.2000000476837158
 41
1.0
 50
0.0
 71
               0
 42
3.2000000476837158
  3
txt.shx
  4
extfont.shx
  0
ENDTAB
  0
TABLE
  2
VIEW
  5
5
100
AcDbSymbolTable
 70
               0
  0
ENDTAB
  0
TABLE
  2
UCS
  5
6
100
AcDbSymbolTable
 70
               0
  0
ENDTAB
  0
TABLE
  2
APPID
  5
8
100
AcDbSymbolTable
 70
               1
  0
APPID
  5
16
100
AcDbSymbolTableRecord
100
AcDbRegAppTableRecord
  2
ACAD
 70
               0
  0
ENDTAB
  0
TABLE
  2
DIMSTYLE
  5
9
100
AcDbSymbolTable
 70
               1
  0
DIMSTYLE
105
18
100
AcDbSymbolTableRecord
100
AcDbDimStyleTableRecord
  2
MXDIMSTYLE
 70
               0
  3

  4

  5

  6

  7

 40
1.0
 41
2.5
 42
1.5
 43
3.75
 44
1.5
 45
0.0
 46
0.0
 47
0.0
 48
0.0
 71
               0
 72
               0
 73
               0
 74
               0
 75
               0
 76
               0
 77
               1
 78
               8
140
3.2000000476837158
141
2.5
142
0.0
143
0.0394
144
1.0
145
0.0
146
1.0
147
1.0
170
               0
171
               4
172
               1
173
               0
174
               0
175
               0
176
               0
177
               0
178
               0
270
               2
271
               4
272
               4
273
               8
274
               4
275
               0
280
               0
281
               0
282
               0
283
               1
284
               0
285
               0
286
               0
287
               3
288
               1
340
17
  0
ENDTAB
  0
TABLE
  2
BLOCK_RECORD
  5
1
100
AcDbSymbolTable
 70
               9
  0
BLOCK_RECORD
  5
A
100
AcDbSymbolTableRecord
100
AcDbBlockTableRecord
  2
*MODEL_SPACE
  0
BLOCK_RECORD
  5
B
100
AcDbSymbolTableRecord
100
AcDbBlockTableRecord
  2
*PAPER_SPACE
  0
BLOCK_RECORD
  5
1E
100
AcDbSymbolTableRecord
100
AcDbBlockTableRecord
  2
MS_1
  0
BLOCK_RECORD
  5
1F
100
AcDbSymbolTableRecord
100
AcDbBlockTableRecord
  2
MS_2
  0
BLOCK_RECORD
  5
20
100
AcDbSymbolTableRecord
100
AcDbBlockTableRecord
  2
MS_3
  0
BLOCK_RECORD
  5
21
100
AcDbSymbolTableRecord
100
AcDbBlockTableRecord
  2
MS_4
  0
BLOCK_RECORD
  5
22
100
AcDbSymbolTableRecord
100
AcDbBlockTableRecord
  2
MS_5
  0
BLOCK_RECORD
  5
23
100
AcDbSymbolTableRecord
100
AcDbBlockTableRecord
  2
MS_6
  0
BLOCK_RECORD
  5
24
100
AcDbSymbolTableRecord
100
AcDbBlockTableRecord
  2
MS_7
  0
BLOCK_RECORD
  5
25
100
AcDbSymbolTableRecord
100
AcDbBlockTableRecord
  2
MS_8
  0
BLOCK_RECORD
  5
2F3
100
AcDbSymbolTableRecord
100
AcDbBlockTableRecord
  2
_OPEN30
  0
ENDTAB
  0
ENDSEC
  0
SECTION
  2
BLOCKS
  0
BLOCK
  5
D
100
AcDbEntity
  8
0
100
AcDbBlockBegin
  2
*MODEL_SPACE
 70
               0
 10
0.0
 20
0.0
 30
0.0
  3
*MODEL_SPACE
  1

  0
ENDBLK
  5
E
100
AcDbEntity
  8
0
100
AcDbBlockEnd
  0
BLOCK
  5
F
100
AcDbEntity
 67
               1
  8
0
100
AcDbBlockBegin
  2
*PAPER_SPACE
 70
               0
 10
0.0
 20
0.0
 30
0.0
  3
*PAPER_SPACE
  1

  0
ENDBLK
  5
10
100
AcDbEntity
 67
               1
  8
0
100
AcDbBlockEnd
  0
BLOCK
  5
26
100
AcDbEntity
  8
0
100
AcDbBlockBegin
  2
MS_1
 70
               0
 10
0.0
 20
0.0
 30
0.0
  3
MS_1
  1

  0
LINE
  5
28
100
AcDbEntity
  8
0
  6
PHANTOM
 62
               3
100
AcDbLine
 10
27.224761827779218
 20
1.786470202028795
 30
0.0
 11
17.730491557508941
 21
1.786470202028795
 31
0.0
  0
LINE
  5
29
100
AcDbEntity
  8
0
  6
PHANTOM
 62
               3
100
AcDbLine
 10
27.224761827779218
 20
32.0
 30
0.0
 11
27.224761827779218
 21
1.786470202028795
 31
0.0
  0
LINE
  5
2A
100
AcDbEntity
  8
0
  6
PHANTOM
 62
               3
100
AcDbLine
 10
17.730491557508941
 20
1.786470202028795
 30
0.0
 11
17.730491557508941
 21
-22.0
 31
0.0
  0
LINE
  5
2B
100
AcDbEntity
  8
0
  6
CONTINUOUS
 62
               4
100
AcDbLine
 10
35.500000000000114
 20
-5.8094408139473117
 30
0.0
 11
43.165063543869927
 21
-5.8094408139473117
 31
0.0
  0
LINE
  5
2C
100
AcDbEntity
  8
0
  6
CONTINUOUS
 62
               4
100
AcDbLine
 10
35.500000000000114
 20
-3.1094408082233187
 30
0.0
 11
43.888526356947544
 21
-3.1094408082233187
 31
0.0
  0
LINE
  5
2D
100
AcDbEntity
  8
0
  6
CONTINUOUS
 62
               4
100
AcDbLine
 10
34.000000000000114
 20
3.1094408082233045
 30
0.0
 11
43.16506354386992
 21
3.1094408082233045
 31
0.0
  0
LINE
  5
2E
100
AcDbEntity
  8
0
  6
CONTINUOUS
 62
               4
100
AcDbLine
 10
25.500000052624699
 20
5.8094408139472975
 30
0.0
 11
43.888526356947537
 21
5.8094408139472975
 31
0.0
  0
LINE
  5
2F
100
AcDbEntity
  8
0
  6
CONTINUOUS
 62
               4
100
AcDbLine
 10
10.0
 20
7.0757359095384373
 30
0.0
 11
10.0
 21
3.2104469831826723
 31
0.0
  0
LINE
  5
30
100
AcDbEntity
  8
0
  6
CONTINUOUS
 62
               4
100
AcDbLine
 10
25.500000032859987
 20
7.0757359095384373
 30
0.0
 11
25.500000032859987
 21
4.7596383717443906
 31
0.0
  0
LINE
  5
31
100
AcDbEntity
  8
0
  6
CONTINUOUS
 62
               4
100
AcDbLine
 10
35.500000000000114
 20
-2.0765980849602101
 30
0.0
 11
35.500000000000114
 21
-7.0757359095384516
 31
0.0
  0
LINE
  5
32
100
AcDbEntity
  8
0
  6
CONTINUOUS
 62
               4
100
AcDbLine
 10
19.999999967139871
 20
-4.7596383717443906
 30
0.0
 11
19.999999967139871
 21
-7.0757359095384516
 31
0.0
  0
LINE
  5
33
100
AcDbEntity
  8
0
  6
CONTINUOUS
 62
               4
100
AcDbLine
 10
34.000000000000114
 20
-2.0765980849602101
 30
0.0
 11
35.500000019764798
 21
-2.0765980849602101
 31
0.0
  0
LINE
  5
34
100
AcDbEntity
  8
0
  6
CONTINUOUS
 62
               4
100
AcDbLine
 10
34.000000000000114
 20
-3.8230447091846145
 30
0.0
 11
35.500000000000114
 21
-3.8230447091846145
 31
0.0
  0
LINE
  5
35
100
AcDbEntity
  8
0
  6
CONTINUOUS
 62
               4
100
AcDbLine
 10
10.0
 20
3.8230447091846287
 30
0.0
 11
10.678474379733487
 21
3.8230447091846287
 31
0.0
  0
ELLIPSE
  5
36
100
AcDbEntity
  8
0
  6
CONTINUOUS
 62
               4
100
AcDbEllipse
 10
12.000000004240036
 20
6.0150757355100168
 30
0.0
 11
-1.25000000265
 21
0.0000000000000002
 31
0.0
210
0.0
220
0.0
230
1.0
 40
0.7071067811865475
 41
0.0
 42
6.2831853071795862
  0
LINE
  5
37
100
AcDbEntity
  8
0
  6
CONTINUOUS
 62
               4
100
AcDbLine
 10
12.250000004769987
 20
6.8811011411304364
 30
0.0
 11
12.250000004769987
 21
5.1490503298895902
 31
0.0
  0
LINE
  5
38
100
AcDbEntity
  8
0
  6
CONTINUOUS
 62
               4
100
AcDbLine
 10
11.750000003709971
 20
6.8811011411304364
 30
0.0
 11
11.750000003709971
 21
5.1490503298895902
 31
0.0
  0
ELLIPSE
  5
39
100
AcDbEntity
  8
0
  6
CONTINUOUS
 62
               4
100
AcDbEllipse
 10
21.999999971379879
 20
-6.0150757355100239
 30
0.0
 11
-1.25000000265
 21
0.0000000000000002
 31
0.0
210
0.0
220
0.0
230
1.0
 40
0.7071067811865475
 41
0.0
 42
6.2831853071795862
  0
LINE
  5
3A
100
AcDbEntity
  8
0
  6
CONTINUOUS
 62
               4
100
AcDbLine
 10
22.249999971909887
 20
-6.8811011411304435
 30
0.0
 11
22.249999971909887
 21
-5.1490503298896115
 31
0.0
  0
LINE
  5
3B
100
AcDbEntity
  8
0
  6
CONTINUOUS
 62
               4
100
AcDbLine
 10
21.749999970849871
 20
-6.8811011411304435
 30
0.0
 11
21.749999970849871
 21
-5.1490503298896115
 31
0.0
  0
LINE
  5
3C
100
AcDbEntity
  8
0
  6
CONTINUOUS
 62
             200
100
AcDbLine
 10
42.831127768706423
 20
1.8631755150317417
 30
0.0
 11
44.240096658071721
 21
7.1215190547214533
 31
0.0
  0
LINE
  5
3D
100
AcDbEntity
  8
0
  6
CONTINUOUS
 62
             200
100
AcDbLine
 10
42.83112776870643
 20
-7.0557061071388318
 30
0.0
 11
44.240096658071728
 21
-1.7973625674491274
 31
0.0
  0
LINE
  5
3E
100
AcDbEntity
  8
0
  6
CONTINUOUS
 62
               4
100
AcDbLine
 10
10.000000034627163
 20
7.0757359095384373
 30
0.0
 11
25.500000032859987
 21
7.0757359095384373
 31
0.0
  0
LINE
  5
3F
100
AcDbEntity
  8
0
  6
CONTINUOUS
 62
               4
100
AcDbLine
 10
10.000000034627163
 20
4.9544155614815821
 30
0.0
 11
25.500000022298906
 21
4.9544155614815821
 31
0.0
  0
LINE
  5
40
100
AcDbEntity
  8
0
  6
CONTINUOUS
 62
               4
100
AcDbLine
 10
19.999999978835689
 20
-7.0757359095384516
 30
0.0
 11
35.500000000000114
 21
-7.0757359095384516
 31
0.0
  0
LINE
  5
41
100
AcDbEntity
  8
0
  6
CONTINUOUS
 62
               4
100
AcDbLine
 10
19.999999978835689
 20
-4.9544155614815963
 30
0.0
 11
35.500000000000114
 21
-4.9544155614815963
 31
0.0
  0
CIRCLE
  5
42
100
AcDbEntity
  8
0
  6
CONTINUOUS
 62
               7
100
AcDbCircle
 10
9.0
 20
-5.0
 30
0.0
 40
1.1000000000000001
  0
CIRCLE
  5
43
100
AcDbEntity
  8
0
  6
CONTINUOUS
 62
               7
100
AcDbCircle
 10
9.0
 20
-5.0
 30
0.0
 40
2.0499999999999998
  0
ARC
  5
44
100
AcDbEntity
  8
0
  6
CONTINUOUS
 62
               7
100
AcDbCircle
 10
9.0
 20
5.0
 30
0.0
 40
1.1000000000000001
100
AcDbArc
 50
24.619977328657054
 51
335.38002267134215
  0
ARC
  5
45
100
AcDbEntity
  8
0
  6
CONTINUOUS
 62
               7
100
AcDbCircle
 10
9.0
 20
5.0
 30
0.0
 40
2.0499999999999998
100
AcDbArc
 50
60.803595590367706
 51
353.26660584743428
  0
LINE
  5
46
100
AcDbEntity
  8
0
  6
CONTINUOUS
 62
               7
100
AcDbLine
 10
0.0
 20
7.5
 30
0.0
 11
34.000000000000114
 21
7.5
 31
0.0
  0
LINE
  5
47
100
AcDbEntity
  8
0
  6
CONTINUOUS
 62
               7
100
AcDbLine
 10
0.0
 20
-7.5
 30
0.0
 11
34.000000000000114
 21
-7.5
 31
0.0
  0
LINE
  5
49
100
AcDbEntity
  8
0
  6
CENTER
 62
               2
100
AcDbLine
 10
6.2000000000000171
 20
5.0
 30
0.0
 11
11.799999999999983
 21
5.0
 31
0.0
  0
LINE
  5
4A
100
AcDbEntity
  8
0
  6
CENTER
 62
               2
100
AcDbLine
 10
9.0
 20
7.7999999999999972
 30
0.0
 11
9.0
 21
2.2000000000000028
 31
0.0
  0
LINE
  5
4B
100
AcDbEntity
  8
0
  6
CENTER
 62
               2
100
AcDbLine
 10
6.2000000000000171
 20
-5.0
 30
0.0
 11
11.799999999999983
 21
-5.0
 31
0.0
  0
LINE
  5
4C
100
AcDbEntity
  8
0
  6
CENTER
 62
               2
100
AcDbLine
 10
9.0
 20
-7.7999999999999972
 30
0.0
 11
9.0
 21
-2.2000000000000028
 31
0.0
  0
LINE
  5
4D
100
AcDbEntity
  8
0
  6
CONTINUOUS
 62
               7
100
AcDbLine
 10
0.0
 20
7.5
 30
0.0
 11
0.0
 21
-7.5
 31
0.0
  0
LINE
  5
4E
100
AcDbEntity
  8
0
  6
CENTER
 62
               2
100
AcDbLine
 10
-8.3483094814212819
 20
0.0
 30
0.0
 11
34.846416164038573
 21
0.0
 31
0.0
  0
LINE
  5
4F
100
AcDbEntity
  8
0
  6
CONTINUOUS
 62
               7
100
AcDbLine
 10
34.000000000000114
 20
7.5
 30
0.0
 11
34.000000000000114
 21
5.8094408139472975
 31
0.0
  0
CIRCLE
  5
50
100
AcDbEntity
  8
0
  6
CONTINUOUS
 62
               7
100
AcDbCircle
 10
14.0
 20
0.0000000000000142
 30
0.0
 40
1.1999999999999886
  0
CIRCLE
  5
51
100
AcDbEntity
  8
0
  6
CONTINUOUS
 62
               2
100
AcDbCircle
 10
14.0
 20
0.0000000000000142
 30
0.0
 40
1.5
  0
LINE
  5
52
100
AcDbEntity
  8
0
  6
CENTER
 62
               2
100
AcDbLine
 10
14.0
 20
1.9547775518886965
 30
0.0
 11
14.0
 21
-1.9760956580291094
 31
0.0
  0
CIRCLE
  5
53
100
AcDbEntity
  8
0
  6
CONTINUOUS
 62
               7
100
AcDbCircle
 10
31.0
 20
0.0000000000000142
 30
0.0
 40
1.1999999999999886
  0
CIRCLE
  5
54
100
AcDbEntity
  8
0
  6
CONTINUOUS
 62
               2
100
AcDbCircle
 10
31.0
 20
0.0000000000000142
 30
0.0
 40
1.5
  0
LINE
  5
55
100
AcDbEntity
  8
0
  6
CENTER
 62
               2
100
AcDbLine
 10
31.0
 20
1.9547775518886965
 30
0.0
 11
31.0
 21
-1.9760956580291094
 31
0.0
  0
LINE
  5
56
100
AcDbEntity
  8
0
  6
CONTINUOUS
 62
               7
100
AcDbLine
 10
-0.0000000230649846
 20
6.7928931948152567
 30
0.0
 11
8.0060010100683598
 21
6.7928931948152567
 31
0.0
  0
LINE
  5
57
100
AcDbEntity
  8
0
  6
CONTINUOUS
 62
               7
100
AcDbLine
 10
-0.0000000230649846
 20
4.7596383717443906
 30
0.0
 11
6.9641399145171334
 21
4.7596383717443906
 31
0.0
  0
LINE
  5
58
100
AcDbEntity
  8
0
  6
CONTINUOUS
 62
               7
100
AcDbLine
 10
-0.0000000230649846
 20
3.9999999675247047
 30
0.0
 11
7.2104470013298254
 21
3.9999999675247047
 31
0.0
  0
LINE
  5
59
100
AcDbEntity
  8
0
  6
CONTINUOUS
 62
               7
100
AcDbLine
 10
25.500000032859987
 20
6.7928931948152567
 30
0.0
 11
34.000000000000114
 21
6.7928931948152567
 31
0.0
  0
LINE
  5
5A
100
AcDbEntity
  8
0
  6
CONTINUOUS
 62
               7
100
AcDbLine
 10
11.035860085482867
 20
4.7596383717443906
 30
0.0
 11
34.000000000000114
 21
4.7596383717443906
 31
0.0
  0
LINE
  5
5B
100
AcDbEntity
  8
0
  6
CONTINUOUS
 62
               7
100
AcDbLine
 10
10.789552998670175
 20
3.9999999675247047
 30
0.0
 11
34.000000000000114
 21
3.9999999675247047
 31
0.0
  0
LINE
  5
5C
100
AcDbEntity
  8
0
  6
CONTINUOUS
 62
               7
100
AcDbLine
 10
9.9939989899316402
 20
-6.7928931948152567
 30
0.0
 11
19.999999967139871
 21
-6.7928931948152567
 31
0.0
  0
LINE
  5
5D
100
AcDbEntity
  8
0
  6
CONTINUOUS
 62
               7
100
AcDbLine
 10
11.035860085482867
 20
-4.7596383717443906
 30
0.0
 11
34.000000000000114
 21
-4.7596383717443906
 31
0.0
  0
LINE
  5
5E
100
AcDbEntity
  8
0
  6
CONTINUOUS
 62
               7
100
AcDbLine
 10
10.789552998670175
 20
-3.9999999675247047
 30
0.0
 11
34.000000000000114
 21
-3.9999999675247047
 31
0.0
  0
LINE
  5
5F
100
AcDbEntity
  8
0
  6
CONTINUOUS
 62
               7
100
AcDbLine
 10
-0.0000000230649846
 20
-6.7928931948152567
 30
0.0
 11
8.0060010100683598
 21
-6.7928931948152567
 31
0.0
  0
LINE
  5
60
100
AcDbEntity
  8
0
  6
CONTINUOUS
 62
               7
100
AcDbLine
 10
-0.0000000230649846
 20
-4.7596383717443906
 30
0.0
 11
6.9641399145171334
 21
-4.7596383717443906
 31
0.0
  0
LINE
  5
61
100
AcDbEntity
  8
0
  6
CONTINUOUS
 62
               7
100
AcDbLine
 10
-0.0000000230649846
 20
-3.9999999675247047
 30
0.0
 11
7.2104470013298254
 21
-3.9999999675247047
 31
0.0
  0
CIRCLE
  5
62
100
AcDbEntity
  8
0
  6
CONTINUOUS
 62
               7
100
AcDbCircle
 10
3.5
 20
0.0000000000000142
 30
0.0
 40
1.1999999999999886
  0
CIRCLE
  5
63
100
AcDbEntity
  8
0
  6
CONTINUOUS
 62
               2
100
AcDbCircle
 10
3.5
 20
0.0000000000000142
 30
0.0
 40
1.5
  0
LINE
  5
64
100
AcDbEntity
  8
0
  6
CENTER
 62
               2
100
AcDbLine
 10
3.5
 20
1.9547775518886965
 30
0.0
 11
3.5
 21
-1.9760956580291094
 31
0.0
  0
SPLINE
  5
65
100
AcDbEntity
  8
0
  6
CONTINUOUS
 62
               7
100
AcDbSpline
210
0.0
220
0.0
230
1.0
 70
               0
 71
               3
 72
               0
 73
               0
 74
               5
 44
0.000001
 12
0.5262035662224491
 22
0.8503586342801351
 32
0.0
 13
-0.5262036381605768
 23
0.8503585897646785
 33
0.0
 11
-2.1786327055817054
 21
-2.3094009377364486
 31
0.0
 11
-2.0495647487176472
 21
-2.032619570643357
 31
0.0
 11
-2.0
 21
-1.7320507690633562
 31
0.0
 11
-2.0495647626436275
 21
-1.4314819019278699
 31
0.0
 11
-2.1786327651863502
 21
-1.1547004811809456
 31
0.0
  0
SPLINE
  5
66
100
AcDbEntity
  8
0
  6
CONTINUOUS
 62
               7
100
AcDbSpline
210
0.0
220
0.0
230
1.0
 70
               0
 71
               3
 72
               0
 73
               0
 74
               5
 44
0.000001
 12
-0.526203566222449
 22
0.8503586342801353
 32
0.0
 13
0.5262036381605767
 23
0.8503585897646786
 33
0.0
 11
-3.4213672944183031
 21
-2.3094009377364486
 31
0.0
 11
-3.5504352512823614
 21
-2.032619570643357
 31
0.0
 11
-3.6000000000000085
 21
-1.7320507690633562
 31
0.0
 11
-3.550435237356381
 21
-1.4314819019278699
 31
0.0
 11
-3.4213672348136583
 21
-1.1547004811809456
 31
0.0
  0
SPLINE
  5
67
100
AcDbEntity
  8
0
  6
CONTINUOUS
 62
               7
100
AcDbSpline
210
0.0
220
0.0
230
1.0
 70
               0
 71
               3
 72
               0
 73
               0
 74
               5
 44
0.000001
 12
0.5262035662224491
 22
0.8503586342801351
 32
0.0
 13
-0.5262036381605768
 23
0.8503585897646785
 33
0.0
 11
-3.7786327055816997
 21
-2.3094009377364486
 31
0.0
 11
-3.6495647487176486
 21
-2.032619570643357
 31
0.0
 11
-3.6000000000000085
 21
-1.7320507690633562
 31
0.0
 11
-3.6495647626436289
 21
-1.4314819019278699
 31
0.0
 11
-3.7786327651863445
 21
-1.1547004811809456
 31
0.0
  0
SPLINE
  5
68
100
AcDbEntity
  8
0
  6
CONTINUOUS
 62
               7
100
AcDbSpline
210
0.0
220
0.0
230
1.0
 70
               0
 71
               3
 72
               0
 73
               0
 74
               5
 44
0.000001
 12
-0.526203566222449
 22
0.8503586342801353
 32
0.0
 13
0.5262036381605767
 23
0.8503585897646786
 33
0.0
 11
-5.0213672944182974
 21
-2.3094009377364486
 31
0.0
 11
-5.1504352512823557
 21
-2.032619570643357
 31
0.0
 11
-5.2000000000000028
 21
-1.7320507690633562
 31
0.0
 11
-5.1504352373563753
 21
-1.4314819019278699
 31
0.0
 11
-5.0213672348136527
 21
-1.1547004811809456
 31
0.0
  0
SPLINE
  5
69
100
AcDbEntity
  8
0
  6
CONTINUOUS
 62
               7
100
AcDbSpline
210
0.0
220
0.0
230
1.0
 70
               0
 71
               3
 72
               0
 73
               0
 74
               5
 44
0.000001
 12
0.5262035662224491
 22
-0.8503586342801351
 32
0.0
 13
-0.5262036381605768
 23
-0.8503585897646785
 33
0.0
 11
-2.1786327055817054
 21
2.3094009377364557
 31
0.0
 11
-2.0495647487176472
 21
2.0326195706433641
 31
0.0
 11
-2.0
 21
1.7320507690633633
 31
0.0
 11
-2.0495647626436275
 21
1.4314819019278771
 31
0.0
 11
-2.1786327651863502
 21
1.1547004811809527
 31
0.0
  0
SPLINE
  5
6A
100
AcDbEntity
  8
0
  6
CONTINUOUS
 62
               7
100
AcDbSpline
210
0.0
220
0.0
230
1.0
 70
               0
 71
               3
 72
               0
 73
               0
 74
               5
 44
0.000001
 12
-0.526203566222449
 22
-0.8503586342801353
 32
0.0
 13
0.5262036381605767
 23
-0.8503585897646786
 33
0.0
 11
-3.4213672944183031
 21
2.3094009377364557
 31
0.0
 11
-3.5504352512823614
 21
2.0326195706433641
 31
0.0
 11
-3.6000000000000085
 21
1.7320507690633633
 31
0.0
 11
-3.550435237356381
 21
1.4314819019278771
 31
0.0
 11
-3.4213672348136583
 21
1.1547004811809527
 31
0.0
  0
SPLINE
  5
6B
100
AcDbEntity
  8
0
  6
CONTINUOUS
 62
               7
100
AcDbSpline
210
0.0
220
0.0
230
1.0
 70
               0
 71
               3
 72
               0
 73
               0
 74
               5
 44
0.000001
 12
0.5262035662224491
 22
-0.8503586342801351
 32
0.0
 13
-0.5262036381605768
 23
-0.8503585897646785
 33
0.0
 11
-3.7786327055816997
 21
2.3094009377364557
 31
0.0
 11
-3.6495647487176486
 21
2.0326195706433641
 31
0.0
 11
-3.6000000000000085
 21
1.7320507690633633
 31
0.0
 11
-3.6495647626436289
 21
1.4314819019278771
 31
0.0
 11
-3.7786327651863445
 21
1.1547004811809527
 31
0.0
  0
SPLINE
  5
6C
100
AcDbEntity
  8
0
  6
CONTINUOUS
 62
               7
100
AcDbSpline
210
0.0
220
0.0
230
1.0
 70
               0
 71
               3
 72
               0
 73
               0
 74
               5
 44
0.000001
 12
-0.526203566222449
 22
-0.8503586342801353
 32
0.0
 13
0.5262036381605767
 23
-0.8503585897646786
 33
0.0
 11
-5.0213672944182974
 21
2.3094009377364557
 31
0.0
 11
-5.1504352512823557
 21
2.0326195706433641
 31
0.0
 11
-5.2000000000000028
 21
1.7320507690633633
 31
0.0
 11
-5.1504352373563753
 21
1.4314819019278771
 31
0.0
 11
-5.0213672348136527
 21
1.1547004811809527
 31
0.0
  0
SPLINE
  5
6D
100
AcDbEntity
  8
0
  6
CONTINUOUS
 62
               7
100
AcDbSpline
210
0.0
220
0.0
230
1.0
 70
               0
 71
               3
 72
               0
 73
               0
 74
               5
 44
0.000001
 12
-0.2955766966256463
 22
-0.9553190129019052
 32
0.0
 13
0.2955766966256496
 23
-0.9553190129019042
 33
0.0
 11
-5.0213672348136527
 21
1.1547004811809529
 31
0.0
 11
-5.153853926889103
 21
0.5845636058644737
 31
0.0
 11
-5.2000000000000028
 21
0.0
 31
0.0
 11
-5.1538539268891039
 21
-0.5845636058644703
 31
0.0
 11
-5.0213672348136527
 21
-1.154700481180946
 31
0.0
  0
SPLINE
  5
6E
100
AcDbEntity
  8
0
  6
CONTINUOUS
 62
               7
100
AcDbSpline
210
0.0
220
0.0
230
1.0
 70
               0
 71
               3
 72
               0
 73
               0
 74
               5
 44
0.000001
 12
0.2955766966256462
 22
-0.9553190129019054
 32
0.0
 13
-0.2955766966256495
 23
-0.9553190129019044
 33
0.0
 11
-3.7786327651863445
 21
1.1547004811809529
 31
0.0
 11
-3.6461460731109012
 21
0.5845636058644737
 31
0.0
 11
-3.6000000000000085
 21
0.0
 31
0.0
 11
-3.6461460731109008
 21
-0.5845636058644703
 31
0.0
 11
-3.7786327651863445
 21
-1.154700481180946
 31
0.0
  0
SPLINE
  5
6F
100
AcDbEntity
  8
0
  6
CONTINUOUS
 62
               7
100
AcDbSpline
210
0.0
220
0.0
230
1.0
 70
               0
 71
               3
 72
               0
 73
               0
 74
               5
 44
0.000001
 12
-0.2955766966256463
 22
-0.9553190129019052
 32
0.0
 13
0.2955766966256496
 23
-0.9553190129019042
 33
0.0
 11
-3.4213672348136583
 21
1.1547004811809529
 31
0.0
 11
-3.5538539268891087
 21
0.5845636058644737
 31
0.0
 11
-3.6000000000000085
 21
0.0
 31
0.0
 11
-3.5538539268891092
 21
-0.5845636058644703
 31
0.0
 11
-3.4213672348136583
 21
-1.154700481180946
 31
0.0
  0
SPLINE
  5
70
100
AcDbEntity
  8
0
  6
CONTINUOUS
 62
               7
100
AcDbSpline
210
0.0
220
0.0
230
1.0
 70
               0
 71
               3
 72
               0
 73
               0
 74
               5
 44
0.000001
 12
0.2955766966256462
 22
-0.9553190129019054
 32
0.0
 13
-0.2955766966256495
 23
-0.9553190129019044
 33
0.0
 11
-2.1786327651863502
 21
1.1547004811809529
 31
0.0
 11
-2.0461460731108998
 21
0.5845636058644737
 31
0.0
 11
-2.0
 21
0.0
 31
0.0
 11
-2.0461460731108994
 21
-0.5845636058644703
 31
0.0
 11
-2.1786327651863502
 21
-1.154700481180946
 31
0.0
  0
LINE
  5
71
100
AcDbEntity
  8
0
  6
CONTINUOUS
 62
               7
100
AcDbLine
 10
-1.9999999693756507
 20
-1.9999999620322555
 30
0.0
 11
-2.1786327055817054
 21
-2.3094009377364486
 31
0.0
  0
LINE
  5
72
100
AcDbEntity
  8
0
  6
CONTINUOUS
 62
               7
100
AcDbLine
 10
-3.4213672348136583
 20
-1.1547004811809458
 30
0.0
 11
-2.1786327651863502
 21
-1.1547004811809458
 31
0.0
  0
LINE
  5
73
100
AcDbEntity
  8
0
  6
CONTINUOUS
 62
               7
100
AcDbLine
 10
-3.6000000306243578
 20
-1.9999999620322555
 30
0.0
 11
-3.4213672944183031
 21
-2.3094009377364486
 31
0.0
  0
LINE
  5
74
100
AcDbEntity
  8
0
  6
CONTINUOUS
 62
               7
100
AcDbLine
 10
-3.4213672348136583
 20
-2.3094010569457382
 30
0.0
 11
-2.1786328025931994
 21
-2.3094010569457382
 31
0.0
  0
LINE
  5
75
100
AcDbEntity
  8
0
  6
CONTINUOUS
 62
               7
100
AcDbLine
 10
-3.7786327651863445
 20
-2.3094010569457382
 30
0.0
 11
-5.0213671974068035
 21
-2.3094010569457382
 31
0.0
  0
LINE
  5
76
100
AcDbEntity
  8
0
  6
CONTINUOUS
 62
               7
100
AcDbLine
 10
-3.599999969375645
 20
-1.9999999620322555
 30
0.0
 11
-3.7786327055816997
 21
-2.3094009377364486
 31
0.0
  0
LINE
  5
77
100
AcDbEntity
  8
0
  6
CONTINUOUS
 62
               7
100
AcDbLine
 10
-3.7786327651863445
 20
-1.1547004811809458
 30
0.0
 11
-5.0213672348136527
 21
-1.1547004811809458
 31
0.0
  0
LINE
  5
78
100
AcDbEntity
  8
0
  6
CONTINUOUS
 62
               7
100
AcDbLine
 10
-5.2000000306243521
 20
-1.9999999620322555
 30
0.0
 11
-5.0213672944182974
 21
-2.3094009377364486
 31
0.0
  0
LINE
  5
79
100
AcDbEntity
  8
0
  6
CONTINUOUS
 62
               7
100
AcDbLine
 10
-1.9999999693756507
 20
1.9999999620322626
 30
0.0
 11
-2.1786327055817054
 21
2.3094009377364557
 31
0.0
  0
LINE
  5
7A
100
AcDbEntity
  8
0
  6
CONTINUOUS
 62
               7
100
AcDbLine
 10
-3.6000000306243578
 20
1.9999999620322626
 30
0.0
 11
-3.4213672944183031
 21
2.3094009377364557
 31
0.0
  0
LINE
  5
7B
100
AcDbEntity
  8
0
  6
CONTINUOUS
 62
               7
100
AcDbLine
 10
-3.4213672348136583
 20
1.1547004811809529
 30
0.0
 11
-2.1786327651863502
 21
1.1547004811809529
 31
0.0
  0
LINE
  5
7C
100
AcDbEntity
  8
0
  6
CONTINUOUS
 62
               7
100
AcDbLine
 10
-3.4213672348136583
 20
2.3094010209507303
 30
0.0
 11
-2.1786327536254788
 21
2.3094010209507303
 31
0.0
  0
LINE
  5
7D
100
AcDbEntity
  8
0
  6
CONTINUOUS
 62
               7
100
AcDbLine
 10
-3.7786327651863445
 20
2.3094010209507303
 30
0.0
 11
-5.0213672463745098
 21
2.3094010209507303
 31
0.0
  0
LINE
  5
7E
100
AcDbEntity
  8
0
  6
CONTINUOUS
 62
               7
100
AcDbLine
 10
-3.7786327651863445
 20
1.1547004811809529
 30
0.0
 11
-5.0213672348136527
 21
1.1547004811809529
 31
0.0
  0
LINE
  5
7F
100
AcDbEntity
  8
0
  6
CONTINUOUS
 62
               7
100
AcDbLine
 10
-3.599999969375645
 20
1.9999999620322626
 30
0.0
 11
-3.7786327055816997
 21
2.3094009377364557
 31
0.0
  0
LINE
  5
80
100
AcDbEntity
  8
0
  6
CONTINUOUS
 62
               7
100
AcDbLine
 10
-5.2000000306243521
 20
1.9999999620322626
 30
0.0
 11
-5.0213672944182974
 21
2.3094009377364557
 31
0.0
  0
LINE
  5
81
100
AcDbEntity
  8
0
  6
CONTINUOUS
 62
               7
100
AcDbLine
 10
-5.2000000000000028
 20
-2.0000000379677303
 30
0.0
 11
-5.2000000000000028
 21
2.0000000216369074
 31
0.0
  0
LINE
  5
82
100
AcDbEntity
  8
0
  6
CONTINUOUS
 62
               7
100
AcDbLine
 10
-3.6000000000000085
 20
-2.0000000379677303
 30
0.0
 11
-3.6000000000000085
 21
2.0000000216369074
 31
0.0
  0
LINE
  5
83
100
AcDbEntity
  8
0
  6
CONTINUOUS
 62
               7
100
AcDbLine
 10
-2.0
 20
-2.0000000379677303
 30
0.0
 11
-2.0
 21
2.0000000216369074
 31
0.0
  0
LINE
  5
84
100
AcDbEntity
  8
0
  6
CONTINUOUS
 62
               2
100
AcDbLine
 10
-2.0
 20
-0.6999999999999957
 30
0.0
 11
-1.0
 21
-0.6999999999999957
 31
0.0
  0
LINE
  5
85
100
AcDbEntity
  8
0
  6
CONTINUOUS
 62
               2
100
AcDbLine
 10
-2.0
 20
0.7000000000000171
 30
0.0
 11
-1.0
 21
0.7000000000000171
 31
0.0
  0
LINE
  5
86
100
AcDbEntity
  8
0
  6
CONTINUOUS
 62
               7
100
AcDbLine
 10
-6.7000000000000171
 20
-0.9999999999999929
 30
0.0
 11
-7.0
 21
-0.6999999999999957
 31
0.0
  0
LINE
  5
87
100
AcDbEntity
  8
0
  6
CONTINUOUS
 62
               2
100
AcDbLine
 10
-7.0
 20
-0.6999999999999957
 30
0.0
 11
-5.2000000000000028
 21
-0.6999999999999957
 31
0.0
  0
LINE
  5
88
100
AcDbEntity
  8
0
  6
CONTINUOUS
 62
               7
100
AcDbLine
 10
-6.7000000000000171
 20
-0.9999999999999929
 30
0.0
 11
-5.2000000000000028
 21
-0.9999999999999929
 31
0.0
  0
LINE
  5
89
100
AcDbEntity
  8
0
  6
CONTINUOUS
 62
               7
100
AcDbLine
 10
-6.7000000000000171
 20
1.0
 30
0.0
 11
-6.7000000000000171
 21
-0.9999999999999929
 31
0.0
  0
LINE
  5
8A
100
AcDbEntity
  8
0
  6
CONTINUOUS
 62
               7
100
AcDbLine
 10
-6.7000000000000171
 20
1.0
 30
0.0
 11
-7.0
 21
0.7000000000000171
 31
0.0
  0
LINE
  5
8B
100
AcDbEntity
  8
0
  6
CONTINUOUS
 62
               7
100
AcDbLine
 10
-1.0
 20
1.0
 30
0.0
 11
-1.0
 21
-0.9999999999999929
 31
0.0
  0
LINE
  5
8C
100
AcDbEntity
  8
0
  6
CONTINUOUS
 62
               2
100
AcDbLine
 10
-7.0
 20
0.7000000000000171
 30
0.0
 11
-5.2000000000000028
 21
0.7000000000000171
 31
0.0
  0
LINE
  5
8D
100
AcDbEntity
  8
0
  6
CONTINUOUS
 62
               7
100
AcDbLine
 10
-7.0
 20
0.7000000000000171
 30
0.0
 11
-7.0
 21
-0.6999999999999957
 31
0.0
  0
LINE
  5
8E
100
AcDbEntity
  8
0
  6
CONTINUOUS
 62
               7
100
AcDbLine
 10
-6.7000000000000171
 20
1.0
 30
0.0
 11
-5.2000000000000028
 21
1.0
 31
0.0
  0
LINE
  5
8F
100
AcDbEntity
  8
0
  6
CONTINUOUS
 62
               2
100
AcDbLine
 10
-1.0
 20
0.7000000000000171
 30
0.0
 11
-0.4803847577293539
 21
1.0
 31
0.0
  0
LINE
  5
90
100
AcDbEntity
  8
0
  6
CONTINUOUS
 62
               2
100
AcDbLine
 10
-1.0
 20
-0.6999999999999957
 30
0.0
 11
-0.4803847577293539
 21
-0.9999999999999929
 31
0.0
  0
LINE
  5
91
100
AcDbEntity
  8
0
  6
CONTINUOUS
 62
               7
100
AcDbLine
 10
-2.0
 20
1.0
 30
0.0
 11
0.0
 21
1.0
 31
0.0
  0
LINE
  5
92
100
AcDbEntity
  8
0
  6
CONTINUOUS
 62
               7
100
AcDbLine
 10
-2.0
 20
-0.9999999999999929
 30
0.0
 11
0.0
 21
-0.9999999999999929
 31
0.0
  0
LINE
  5
93
100
AcDbEntity
  8
0
  6
CONTINUOUS
 62
               7
100
AcDbLine
 10
34.000000000000114
 20
-7.0757359095384516
 30
0.0
 11
34.000000000000114
 21
-7.5
 31
0.0
  0
LINE
  5
94
100
AcDbEntity
  8
0
  6
CONTINUOUS
 62
               7
100
AcDbLine
 10
34.000000000000114
 20
4.7596383717443906
 30
0.0
 11
34.000000000000114
 21
-4.7596383717443906
 31
0.0
  0
ENDBLK
  5
95
100
AcDbEntity
  8
0
100
AcDbBlockEnd
  0
BLOCK
  5
96
100
AcDbEntity
  8
0
100
AcDbBlockBegin
  2
MS_2
 70
               0
 10
0.0
 20
0.0
 30
0.0
  3
MS_2
  1

  0
LINE
  5
97
100
AcDbEntity
  8
0
  6
CONTINUOUS
 62
             200
100
AcDbLine
 10
7.8909290239451764
 20
3.436156283800905
 30
0.0
 11
6.8312790024634467
 21
2.3765062623191895
 31
0.0
  0
LINE
  5
98
100
AcDbEntity
  8
0
  6
CONTINUOUS
 62
               4
100
AcDbLine
 10
9.7263762012877919
 20
3.8594102008655966
 30
0.0
 11
8.6313708406717353
 21
2.7644048402495827
 31
0.0
  0
LINE
  5
99
100
AcDbEntity
  8
0
  6
CONTINUOUS
 62
               4
100
AcDbLine
 10
8.0313402279356296
 20
3.2957450798104588
 30
0.0
 11
7.1121014104443816
 21
2.3765062623191895
 31
0.0
  0
LINE
  5
9A
100
AcDbEntity
  8
0
  6
CONTINUOUS
 62
               4
100
AcDbLine
 10
6.40499462775864
 20
2.3765062623191895
 30
0.0
 11
7.1121014104443816
 21
2.3765062623191895
 31
0.0
  0
ARC
  5
9B
100
AcDbEntity
  8
0
  6
CONTINUOUS
 62
               4
100
AcDbCircle
 10
7.1807911309563792
 20
4.2139001638166889
 30
0.0
 40
2.0506628653391066
100
AcDbArc
 50
225.05843089091513
 51
315.02142384112307
  0
LINE
  5
9C
100
AcDbEntity
  8
0
  6
CONTINUOUS
 62
               4
100
AcDbLine
 10
9.7263762012877919
 20
3.8594102008655966
 30
0.0
 11
9.728396506381074
 21
4.6372276618197574
 31
0.0
  0
LINE
  5
9D
100
AcDbEntity
  8
0
  6
CONTINUOUS
 62
             200
100
AcDbLine
 10
6.4060047803054943
 20
4.9210805274406866
 30
0.0
 11
5.3443344537302551
 21
3.8594102008655966
 31
0.0
  0
LINE
  5
9E
100
AcDbEntity
  8
0
  6
CONTINUOUS
 62
               4
100
AcDbLine
 10
6.8272383922766835
 20
6.7585480098765984
 30
0.0
 11
5.7322330316608259
 21
5.6635426492605845
 31
0.0
  0
LINE
  5
9F
100
AcDbEntity
  8
0
  6
CONTINUOUS
 62
               4
100
AcDbLine
 10
6.2635732712215315
 20
5.0635120365245143
 30
0.0
 11
5.3443344537302551
 21
4.1442732190332094
 31
0.0
  0
LINE
  5
A0
100
AcDbEntity
  8
0
  6
CONTINUOUS
 62
               4
100
AcDbLine
 10
5.3443344537302551
 20
4.1442732190332094
 30
0.0
 11
5.3443344537302551
 21
3.4371664363475958
 31
0.0
  0
ARC
  5
A1
100
AcDbEntity
  8
0
  6
CONTINUOUS
 62
               4
100
AcDbCircle
 10
7.1836537050391769
 20
4.2129635922084034
 30
0.0
 40
2.0520237746840961
100
AcDbArc
 50
135.01661649434493
 51
224.98338350565427
  0
LINE
  5
A2
100
AcDbEntity
  8
0
  6
CONTINUOUS
 62
               4
100
AcDbLine
 10
7.1121014104443816
 20
2.3765062623191895
 30
0.0
 11
5.3443344537302551
 21
4.1442732190332094
 31
0.0
  0
LINE
  5
A3
100
AcDbEntity
  8
0
  6
CONTINUOUS
 62
               4
100
AcDbLine
 10
8.5970256540840353
 20
2.7300596536620034
 30
0.0
 11
5.6978878450730974
 21
5.6291974626729981
 31
0.0
  0
LINE
  5
A4
100
AcDbEntity
  8
0
  6
CONTINUOUS
 62
               4
100
AcDbLine
 10
6.40499462775864
 20
2.3765062623191895
 30
0.0
 11
5.3443344537302551
 21
3.4371664363475958
 31
0.0
  0
LINE
  5
A5
100
AcDbEntity
  8
0
  6
CONTINUOUS
 62
               4
100
AcDbLine
 10
10.045584406042991
 20
4.9544155614816034
 30
0.0
 11
7.9242640579860222
 21
7.0757359095384302
 31
0.0
  0
LINE
  5
A6
100
AcDbEntity
  8
0
  6
CONTINUOUS
 62
               4
100
AcDbLine
 10
7.9242640579860222
 20
7.0757359095384089
 30
0.0
 11
7.6070761583243609
 21
6.7585480098765984
 31
0.0
  0
LINE
  5
A7
100
AcDbEntity
  8
0
  6
CENTER
 62
             200
100
AcDbLine
 10
10.003421765214597
 20
7.0335732687101498
 30
0.0
 11
5.0899834804458237
 21
2.1201349839412202
 31
0.0
  0
LINE
  5
A8
100
AcDbEntity
  8
0
  6
CONTINUOUS
 62
               4
100
AcDbLine
 10
9.1606907751391589
 20
3.2937247747170701
 30
0.0
 11
6.2615529661282494
 21
6.1928625837281004
 31
0.0
  0
LINE
  5
A9
100
AcDbEntity
  8
0
  6
CONTINUOUS
 62
               4
100
AcDbLine
 10
6.8272383922766835
 20
6.7585480098765984
 30
0.0
 11
7.6070761583243609
 21
6.7585480098765984
 31
0.0
  0
LINE
  5
AA
100
AcDbEntity
  8
0
  6
CONTINUOUS
 62
               4
100
AcDbLine
 10
10.045584406042991
 20
4.9544155614815537
 30
0.0
 11
9.728396506381074
 21
4.6372276618197574
 31
0.0
  0
ARC
  5
AB
100
AcDbEntity
  8
0
  6
CONTINUOUS
 62
               4
100
AcDbCircle
 10
7.1807911309563792
 20
-4.2139001638167102
 30
0.0
 40
2.0506628653391066
100
AcDbArc
 50
44.978576158876109
 51
134.94156910908407
  0
ARC
  5
AC
100
AcDbEntity
  8
0
  6
CONTINUOUS
 62
               4
100
AcDbCircle
 10
7.1836537050391769
 20
-4.2129635922083963
 30
0.0
 40
2.0520237746840961
100
AcDbArc
 50
135.01661649434493
 51
224.98338350565427
  0
LINE
  5
AD
100
AcDbEntity
  8
0
  6
CONTINUOUS
 62
               4
100
AcDbLine
 10
8.5970256540840353
 20
-2.7300596536619892
 30
0.0
 11
5.6978878450730974
 21
-5.6291974626730195
 31
0.0
  0
LINE
  5
AE
100
AcDbEntity
  8
0
  6
CENTER
 62
             200
100
AcDbLine
 10
10.003421765214597
 20
-7.0335732687101498
 30
0.0
 11
5.0899834804458237
 21
-2.1201349839412416
 31
0.0
  0
LINE
  5
AF
100
AcDbEntity
  8
0
  6
CONTINUOUS
 62
               4
100
AcDbLine
 10
9.1606907751391589
 20
-3.293724774717127
 30
0.0
 11
6.2615529661282494
 21
-6.1928625837281217
 31
0.0
  0
LINE
  5
B0
100
AcDbEntity
  8
0
  6
CONTINUOUS
 62
               4
100
AcDbLine
 10
6.40499462775864
 20
-2.3765062623191824
 30
0.0
 11
5.3443344537302551
 21
-3.43716643634761
 31
0.0
  0
LINE
  5
B1
100
AcDbEntity
  8
0
  6
CONTINUOUS
 62
               4
100
AcDbLine
 10
7.1121014104443816
 20
-2.3765062623191824
 30
0.0
 11
5.3443344537302551
 21
-4.1442732190332308
 31
0.0
  0
LINE
  5
B2
100
AcDbEntity
  8
0
  6
CONTINUOUS
 62
               4
100
AcDbLine
 10
5.3443344537302551
 20
-4.1442732190332308
 30
0.0
 11
5.3443344537302551
 21
-3.43716643634761
 31
0.0
  0
LINE
  5
B3
100
AcDbEntity
  8
0
  6
CONTINUOUS
 62
               4
100
AcDbLine
 10
6.2635732712215315
 20
-5.0635120365245356
 30
0.0
 11
5.3443344537302551
 21
-4.1442732190332308
 31
0.0
  0
LINE
  5
B4
100
AcDbEntity
  8
0
  6
CONTINUOUS
 62
             200
100
AcDbLine
 10
6.4060047803054943
 20
-4.9210805274407079
 30
0.0
 11
5.3443344537302551
 21
-3.8594102008655895
 31
0.0
  0
LINE
  5
B5
100
AcDbEntity
  8
0
  6
CONTINUOUS
 62
               4
100
AcDbLine
 10
6.40499462775864
 20
-2.3765062623191824
 30
0.0
 11
7.1121014104443816
 21
-2.3765062623191824
 31
0.0
  0
LINE
  5
B6
100
AcDbEntity
  8
0
  6
CONTINUOUS
 62
               4
100
AcDbLine
 10
8.0313402279356296
 20
-3.2957450798105157
 30
0.0
 11
7.1121014104443816
 21
-2.3765062623191824
 31
0.0
  0
LINE
  5
B7
100
AcDbEntity
  8
0
  6
CONTINUOUS
 62
             200
100
AcDbLine
 10
7.8909290239451764
 20
-3.4361562838009263
 30
0.0
 11
6.8312790024634467
 21
-2.3765062623191824
 31
0.0
  0
LINE
  5
B8
100
AcDbEntity
  8
0
  6
CONTINUOUS
 62
               4
100
AcDbLine
 10
6.8272383922766835
 20
-6.7585480098766126
 30
0.0
 11
5.7322330316608259
 21
-5.6635426492606058
 31
0.0
  0
LINE
  5
B9
100
AcDbEntity
  8
0
  6
CONTINUOUS
 62
               4
100
AcDbLine
 10
10.045584406042991
 20
-4.9544155614815963
 30
0.0
 11
9.728396506381074
 21
-4.6372276618197859
 31
0.0
  0
LINE
  5
BA
100
AcDbEntity
  8
0
  6
CONTINUOUS
 62
               4
100
AcDbLine
 10
6.8272383922766835
 20
-6.7585480098766126
 30
0.0
 11
7.6070761583243609
 21
-6.7585480098766126
 31
0.0
  0
LINE
  5
BB
100
AcDbEntity
  8
0
  6
CONTINUOUS
 62
               4
100
AcDbLine
 10
7.9242640579860222
 20
-7.0757359095384516
 30
0.0
 11
7.6070761583243609
 21
-6.7585480098766126
 31
0.0
  0
LINE
  5
BC
100
AcDbEntity
  8
0
  6
CONTINUOUS
 62
               4
100
AcDbLine
 10
10.045584406042991
 20
-4.9544155614815963
 30
0.0
 11
7.9242640579860222
 21
-7.0757359095384516
 31
0.0
  0
LINE
  5
BD
100
AcDbEntity
  8
0
  6
CONTINUOUS
 62
               4
100
AcDbLine
 10
9.7263762012877919
 20
-3.8594102008655895
 30
0.0
 11
9.728396506381074
 21
-4.6372276618197859
 31
0.0
  0
LINE
  5
BE
100
AcDbEntity
  8
0
  6
CONTINUOUS
 62
               4
100
AcDbLine
 10
9.7263762012877919
 20
-3.8594102008655895
 30
0.0
 11
8.6313708406717353
 21
-2.7644048402495756
 31
0.0
  0
LINE
  5
BF
100
AcDbEntity
  8
0
  6
CONTINUOUS
 62
               7
100
AcDbLine
 10
7.5
 20
-7.5
 30
0.0
 11
0.4000000000000057
 21
-7.5
 31
0.0
  0
LINE
  5
C0
100
AcDbEntity
  8
0
  6
CENTER
 62
               2
100
AcDbLine
 10
3.0
 20
-3.4499999999999993
 30
0.0
 11
3.0
 21
3.4499999999999993
 31
0.0
  0
LINE
  5
C1
100
AcDbEntity
  8
0
  6
CONTINUOUS
 62
               7
100
AcDbLine
 10
0.0
 20
-7.0999999999999996
 30
0.0
 11
0.0
 21
7.1000000000000014
 31
0.0
  0
LINE
  5
C2
100
AcDbEntity
  8
0
  6
CENTER
 62
               2
100
AcDbLine
 10
12.450000000000017
 20
0.0
 30
0.0
 11
-0.4499999999999886
 21
0.0
 31
0.0
  0
LINE
  5
C3
100
AcDbEntity
  8
0
  6
CONTINUOUS
 62
               7
100
AcDbLine
 10
7.5
 20
7.5
 30
0.0
 11
0.4000000000000057
 21
7.5
 31
0.0
  0
LINE
  5
C4
100
AcDbEntity
  8
0
  6
CONTINUOUS
 62
               7
100
AcDbLine
 10
11.0
 20
-3.9999999675247047
 30
0.0
 11
11.0
 21
3.9999999675247047
 31
0.0
  0
ARC
  5
C5
100
AcDbEntity
  8
0
  6
CONTINUOUS
 62
               7
100
AcDbCircle
 10
0.4000000000000057
 20
7.1000000000000014
 30
0.0
 40
0.4
100
AcDbArc
 50
89.999999999999801
 51
179.9999999999996
  0
ARC
  5
C6
100
AcDbEntity
  8
0
  6
CONTINUOUS
 62
               7
100
AcDbCircle
 10
0.4000000000000057
 20
-7.0999999999999996
 30
0.0
 40
0.4
100
AcDbArc
 50
179.9999999999996
 51
269.99999999999937
  0
ARC
  5
C7
100
AcDbEntity
  8
0
  6
CONTINUOUS
 62
               7
100
AcDbCircle
 10
7.4283002315183637
 20
7.1464465854085191
 30
0.0
 40
0.3007001998472195
100
AcDbArc
 50
315.13326207080115
 51
45.000000000001322
  0
LINE
  5
C8
100
AcDbEntity
  8
0
  6
CONTINUOUS
 62
               7
100
AcDbLine
 10
6.7928932103363024
 20
6.7928931948152567
 30
0.0
 11
7.4999999915228557
 21
6.7928931948152567
 31
0.0
  0
LINE
  5
C9
100
AcDbEntity
  8
0
  6
CONTINUOUS
 62
               7
100
AcDbLine
 10
7.641421347760172
 20
6.9343145510525588
 30
0.0
 11
7.4999999915228557
 21
6.7928931948152567
 31
0.0
  0
LINE
  5
CA
100
AcDbEntity
  8
0
  6
CONTINUOUS
 62
               7
100
AcDbLine
 10
7.640926806817248
 20
7.3590731607074087
 30
0.0
 11
7.4999999675246443
 21
7.5
 31
0.0
  0
LINE
  5
CB
100
AcDbEntity
  8
0
  6
CONTINUOUS
 62
               7
100
AcDbLine
 10
6.7928932103363024
 20
6.7928931948152567
 30
0.0
 11
5.6615223604378286
 21
5.6615223449167829
 31
0.0
  0
ARC
  5
CC
100
AcDbEntity
  8
0
  6
CONTINUOUS
 62
               7
100
AcDbCircle
 10
7.1464466009295791
 20
4.1765981044250182
 30
0.0
 40
2.1000000111152071
100
AcDbArc
 50
134.99999999999969
 51
314.99999999999932
  0
LINE
  5
CD
100
AcDbEntity
  8
0
  6
CONTINUOUS
 62
               7
100
AcDbLine
 10
10.32842711626904
 20
4.6715728512556112
 30
0.0
 11
11.0
 21
3.9999999675247047
 31
0.0
  0
LINE
  5
CE
100
AcDbEntity
  8
0
  6
CONTINUOUS
 62
               7
100
AcDbLine
 10
9.7627416913198033
 20
3.8230447138317558
 30
0.0
 11
8.6313708414213295
 21
2.691673863933282
 31
0.0
  0
LINE
  5
CF
100
AcDbEntity
  8
0
  6
CONTINUOUS
 62
               7
100
AcDbLine
 10
9.7627416913198033
 20
4.5301514950182948
 30
0.0
 11
9.7627416913198033
 21
3.8230447138317558
 31
0.0
  0
ARC
  5
D0
100
AcDbEntity
  8
0
  6
CONTINUOUS
 62
               7
100
AcDbCircle
 10
10.11629508191308
 20
4.4601140198405105
 30
0.0
 40
0.2995243519038812
100
AcDbArc
 50
44.908941249896863
 51
135.09105875010374
  0
LINE
  5
D1
100
AcDbEntity
  8
0
  6
CONTINUOUS
 62
               7
100
AcDbLine
 10
9.9041630475571196
 20
4.6715728512556112
 30
0.0
 11
9.7627416913198033
 21
4.5301514950182948
 31
0.0
  0
LINE
  5
D2
100
AcDbEntity
  8
0
  6
CONTINUOUS
 62
               7
100
AcDbLine
 10
6.7928932103363024
 20
-6.7928931948152567
 30
0.0
 11
7.4999999915228557
 21
-6.7928931948152567
 31
0.0
  0
LINE
  5
D3
100
AcDbEntity
  8
0
  6
CONTINUOUS
 62
               7
100
AcDbLine
 10
7.6742641087379582
 20
-7.3257358587866932
 30
0.0
 11
7.4999999675246443
 21
-7.5
 31
0.0
  0
LINE
  5
D4
100
AcDbEntity
  8
0
  6
CONTINUOUS
 62
               7
100
AcDbLine
 10
7.641421347760172
 20
-6.9343145510525588
 30
0.0
 11
7.4999999915228557
 21
-6.7928931948152567
 31
0.0
  0
ARC
  5
D5
100
AcDbEntity
  8
0
  6
CONTINUOUS
 62
               7
100
AcDbCircle
 10
7.4283002315183637
 20
-7.1464465854085191
 30
0.0
 40
0.3007001998472195
100
AcDbArc
 50
-44.866737929198983
 51
44.866737929198038
  0
LINE
  5
D6
100
AcDbEntity
  8
0
  6
CONTINUOUS
 62
               7
100
AcDbLine
 10
6.7928932103363024
 20
-6.7928931948152567
 30
0.0
 11
5.6615223604378286
 21
-5.6615223449167829
 31
0.0
  0
ARC
  5
D7
100
AcDbEntity
  8
0
  6
CONTINUOUS
 62
               7
100
AcDbCircle
 10
7.1464466009295791
 20
-4.1765981044250182
 30
0.0
 40
2.1000000111152071
100
AcDbArc
 50
44.999999999999901
 51
224.99999999999949
  0
LINE
  5
D8
100
AcDbEntity
  8
0
  6
CONTINUOUS
 62
               7
100
AcDbLine
 10
10.32842711626904
 20
-4.6715728512556112
 30
0.0
 11
11.0
 21
-3.9999999675247047
 31
0.0
  0
LINE
  5
D9
100
AcDbEntity
  8
0
  6
CONTINUOUS
 62
               7
100
AcDbLine
 10
9.7627416913198033
 20
-3.8230447138317558
 30
0.0
 11
8.6313708414213295
 21
-2.691673863933282
 31
0.0
  0
LINE
  5
DA
100
AcDbEntity
  8
0
  6
CONTINUOUS
 62
               7
100
AcDbLine
 10
9.9041630475571196
 20
-4.6715728512556112
 30
0.0
 11
9.7627416913198033
 21
-4.5301514950182948
 31
0.0
  0
ARC
  5
DB
100
AcDbEntity
  8
0
  6
CONTINUOUS
 62
               7
100
AcDbCircle
 10
10.11629508191308
 20
-4.4601140198405105
 30
0.0
 40
0.2995243519038812
100
AcDbArc
 50
224.90894124989543
 51
315.09105875010232
  0
LINE
  5
DC
100
AcDbEntity
  8
0
  6
CONTINUOUS
 62
               7
100
AcDbLine
 10
9.7627416913198033
 20
-4.5301514950182948
 30
0.0
 11
9.7627416913198033
 21
-3.8230447138317558
 31
0.0
  0
LINE
  5
DD
100
AcDbEntity
  8
0
  6
CONTINUOUS
 62
               7
100
AcDbLine
 10
1.0000000000000284
 20
-1.1547005383792559
 30
0.0
 11
1.0
 21
1.1547005383792524
 31
0.0
  0
LINE
  5
DE
100
AcDbEntity
  8
0
  6
CONTINUOUS
 62
               7
100
AcDbLine
 10
1.0
 20
1.1547005383792452
 30
0.0
 11
3.0
 21
2.3094010767585047
 31
0.0
  0
LINE
  5
DF
100
AcDbEntity
  8
0
  6
CONTINUOUS
 62
               7
100
AcDbLine
 10
3.0
 20
2.3094010767584976
 30
0.0
 11
5.0
 21
1.1547005383792524
 31
0.0
  0
LINE
  5
E0
100
AcDbEntity
  8
0
  6
CONTINUOUS
 62
               7
100
AcDbLine
 10
5.0
 20
1.1547005383792559
 30
0.0
 11
5.0
 21
-1.1547005383792524
 31
0.0
  0
LINE
  5
E1
100
AcDbEntity
  8
0
  6
CONTINUOUS
 62
               7
100
AcDbLine
 10
5.0
 20
-1.1547005383792417
 30
0.0
 11
3.0
 21
-2.3094010767585029
 31
0.0
  0
LINE
  5
E2
100
AcDbEntity
  8
0
  6
CONTINUOUS
 62
               7
100
AcDbLine
 10
3.0000000000000284
 20
-2.3094010767584976
 30
0.0
 11
1.0
 21
-1.1547005383792506
 31
0.0
  0
CIRCLE
  5
E3
100
AcDbEntity
  8
0
  6
CONTINUOUS
 62
               7
100
AcDbCircle
 10
3.0
 20
0.0
 30
0.0
 40
2.0
  0
CIRCLE
  5
E4
100
AcDbEntity
  8
0
  6
CONTINUOUS
 62
               7
100
AcDbCircle
 10
3.0
 20
0.0
 30
0.0
 40
1.0
  0
CIRCLE
  5
E5
100
AcDbEntity
  8
0
  6
CONTINUOUS
 62
               2
100
AcDbCircle
 10
3.0
 20
0.0
 30
0.0
 40
0.7000000000000028
  0
ARC
  5
E6
100
AcDbEntity
  8
0
  6
CONTINUOUS
 62
               7
100
AcDbCircle
 10
3.0
 20
0.0
 30
0.0
 40
2.25
100
AcDbArc
 50
332.7339555492664
 51
27.266044450733151
  0
CIRCLE
  5
E7
100
AcDbEntity
  8
0
  6
CONTINUOUS
 62
               7
100
AcDbCircle
 10
3.0
 20
0.0
 30
0.0
 40
2.4499999999999993
  0
ARC
  5
E8
100
AcDbEntity
  8
0
  6
CONTINUOUS
 62
               7
100
AcDbCircle
 10
3.0
 20
0.0
 30
0.0
 40
2.25
100
AcDbArc
 50
32.733955549267137
 51
87.266044450732949
  0
ARC
  5
E9
100
AcDbEntity
  8
0
  6
CONTINUOUS
 62
               7
100
AcDbCircle
 10
3.0
 20
0.0
 30
0.0
 40
2.25
100
AcDbArc
 50
92.733955549267023
 51
147.26604445073284
  0
ARC
  5
EA
100
AcDbEntity
  8
0
  6
CONTINUOUS
 62
               7
100
AcDbCircle
 10
3.0
 20
0.0
 30
0.0
 40
2.25
100
AcDbArc
 50
152.7339555492668
 51
207.26604445073272
  0
ARC
  5
EB
100
AcDbEntity
  8
0
  6
CONTINUOUS
 62
               7
100
AcDbCircle
 10
3.0
 20
0.0
 30
0.0
 40
2.25
100
AcDbArc
 50
212.73395554926654
 51
267.26604445073269
  0
ARC
  5
EC
100
AcDbEntity
  8
0
  6
CONTINUOUS
 62
               7
100
AcDbCircle
 10
3.0
 20
0.0
 30
0.0
 40
2.25
100
AcDbArc
 50
272.73395554926662
 51
327.26604445073252
  0
LINE
  5
ED
100
AcDbEntity
  8
0
  6
CENTER
 62
               2
100
AcDbLine
 10
1.5
 20
5.0
 30
0.0
 11
-1.5
 21
5.0
 31
0.0
  0
LINE
  5
EE
100
AcDbEntity
  8
0
  6
CENTER
 62
               2
100
AcDbLine
 10
1.5
 20
-5.0
 30
0.0
 11
-1.5
 21
-5.0
 31
0.0
  0
ENDBLK
  5
EF
100
AcDbEntity
  8
0
100
AcDbBlockEnd
  0
BLOCK
  5
F0
100
AcDbEntity
  8
0
100
AcDbBlockBegin
  2
MS_3
 70
               0
 10
0.0
 20
0.0
 30
0.0
  3
MS_3
  1

  0
LINE
  5
F1
100
AcDbEntity
  8
0
  6
PHANTOM
 62
               3
100
AcDbLine
 10
27.224761827779204
 20
16.0
 30
0.0
 11
27.224761827779204
 21
-5.0
 31
0.0
  0
LINE
  5
F2
100
AcDbEntity
  8
0
  6
CENTER
 62
               2
100
AcDbLine
 10
-8.4558223814587876
 20
8.0
 30
0.0
 11
0.7419156642792473
 21
8.0
 31
0.0
  0
LINE
  5
F3
100
AcDbEntity
  8
0
  6
CONTINUOUS
 62
               7
100
AcDbLine
 10
0.0
 20
0.0
 30
0.0
 11
34.000000000000114
 21
0.0
 31
0.0
  0
LINE
  5
F4
100
AcDbEntity
  8
0
  6
CONTINUOUS
 62
               7
100
AcDbLine
 10
0.0
 20
0.0
 30
0.0
 11
0.0
 21
11.0
 31
0.0
  0
LINE
  5
F5
100
AcDbEntity
  8
0
  6
CONTINUOUS
 62
               7
100
AcDbLine
 10
34.000000000000114
 20
0.0
 30
0.0
 11
34.000000000000114
 21
2.3207106748590149
 31
0.0
  0
LINE
  5
F6
100
AcDbEntity
  8
0
  6
CONTINUOUS
 62
               7
100
AcDbLine
 10
0.0
 20
11.0
 30
0.0
 11
34.000000000000114
 21
11.0
 31
0.0
  0
CIRCLE
  5
F8
100
AcDbEntity
  8
0
  6
DASHED
 62
               7
100
AcDbCircle
 10
31.0
 20
8.1999999999999886
 30
0.0
 40
1.1999999999999886
  0
CIRCLE
  5
F9
100
AcDbEntity
  8
0
  6
DASHED
 62
               2
100
AcDbCircle
 10
31.0
 20
8.1999999999999886
 30
0.0
 40
1.5
  0
LINE
  5
FA
100
AcDbEntity
  8
0
  6
CENTER
 62
               2
100
AcDbLine
 10
31.0
 20
6.2452224481113063
 30
0.0
 11
31.0
 21
10.176095658029112
 31
0.0
  0
CIRCLE
  5
FB
100
AcDbEntity
  8
0
  6
DASHED
 62
               7
100
AcDbCircle
 10
14.0
 20
8.1999999999999886
 30
0.0
 40
1.1999999999999886
  0
CIRCLE
  5
FC
100
AcDbEntity
  8
0
  6
DASHED
 62
               2
100
AcDbCircle
 10
14.0
 20
8.1999999999999886
 30
0.0
 40
1.5
  0
LINE
  5
FD
100
AcDbEntity
  8
0
  6
CENTER
 62
               2
100
AcDbLine
 10
14.0
 20
6.2452224481113063
 30
0.0
 11
14.0
 21
10.176095658029112
 31
0.0
  0
LINE
  5
FE
100
AcDbEntity
  8
0
  6
CONTINUOUS
 62
               7
100
AcDbLine
 10
0.0
 20
3.2709995686344229
 30
0.0
 11
34.000000000000114
 21
3.2709995686344229
 31
0.0
  0
LINE
  5
FF
100
AcDbEntity
  8
0
  6
CONTINUOUS
 62
               7
100
AcDbLine
 10
0.0
 20
1.2372583086801967
 30
0.0
 11
10.0
 21
1.2372583086801967
 31
0.0
  0
CIRCLE
  5
100
100
AcDbEntity
  8
0
  6
DASHED
 62
               7
100
AcDbCircle
 10
3.5
 20
8.2000000000000171
 30
0.0
 40
1.1999999999999886
  0
CIRCLE
  5
101
100
AcDbEntity
  8
0
  6
DASHED
 62
               2
100
AcDbCircle
 10
3.5
 20
8.2000000000000171
 30
0.0
 40
1.5
  0
LINE
  5
102
100
AcDbEntity
  8
0
  6
CENTER
 62
               2
100
AcDbLine
 10
3.5
 20
10.154777551888699
 30
0.0
 11
3.5
 21
6.2239043419708935
 31
0.0
  0
LINE
  5
103
100
AcDbEntity
  8
0
  6
CENTER
 62
               2
100
AcDbLine
 10
1.5239043419708906
 20
8.2000000000000028
 30
0.0
 11
32.976095658029109
 21
8.2000000000000028
 31
0.0
  0
SPLINE
  5
104
100
AcDbEntity
  8
0
  6
CONTINUOUS
 62
               7
100
AcDbSpline
210
0.0
220
0.0
230
1.0
 70
               0
 71
               3
 72
               0
 73
               0
 74
               5
 44
0.000001
 12
0.3364388437983802
 22
-0.9417053171685976
 32
0.0
 13
-0.3364388427479146
 23
-0.9417053175438929
 33
0.0
 11
-3.7786327651863445
 21
8.0
 31
0.0
 11
-3.6465958195026329
 21
7.5081352390130274
 31
0.0
 11
-3.5999999999999943
 21
7.0000000094807291
 31
0.0
 11
-3.646595814828685
 21
6.4918647510826766
 31
0.0
 11
-3.7786327651863445
 21
5.9999999620322626
 31
0.0
  0
SPLINE
  5
105
100
AcDbEntity
  8
0
  6
CONTINUOUS
 62
               7
100
AcDbSpline
210
0.0
220
0.0
230
1.0
 70
               0
 71
               3
 72
               0
 73
               0
 74
               5
 44
0.000001
 12
0.3364388462345875
 22
-0.9417053162982247
 32
0.0
 13
-0.3364388451841198
 23
-0.9417053166735206
 33
0.0
 11
-3.7786327651863445
 21
10.000000021636907
 31
0.0
 11
-3.6465958195313308
 21
9.5081352647867039
 31
0.0
 11
-3.5999999999999943
 21
9.0000000392830515
 31
0.0
 11
-3.6465958148573829
 21
8.4918647849136448
 31
0.0
 11
-3.7786327651863445
 21
8.0
 31
0.0
  0
SPLINE
  5
106
100
AcDbEntity
  8
0
  6
CONTINUOUS
 62
               7
100
AcDbSpline
210
0.0
220
0.0
230
1.0
 70
               0
 71
               3
 72
               0
 73
               0
 74
               5
 44
0.000001
 12
-0.3364388432731471
 22
-0.9417053173562454
 32
0.0
 13
0.3364388432731469
 23
-0.9417053173562454
 33
0.0
 11
-5.0213672348136527
 21
8.0
 31
0.0
 11
-5.153404182834338
 21
7.5081352249813067
 31
0.0
 11
-5.2000000000000028
 21
6.9999999810161313
 31
0.0
 11
-5.153404182834338
 21
6.4918647370509559
 31
0.0
 11
-5.0213672348136527
 21
5.9999999620322626
 31
0.0
  0
SPLINE
  5
107
100
AcDbEntity
  8
0
  6
CONTINUOUS
 62
               7
100
AcDbSpline
210
0.0
220
0.0
230
1.0
 70
               0
 71
               3
 72
               0
 73
               0
 74
               5
 44
0.000001
 12
-0.3364388457093553
 22
-0.9417053164858721
 32
0.0
 13
0.3364388457093551
 23
-0.9417053164858722
 33
0.0
 11
-5.0213672348136527
 21
10.000000021636907
 31
0.0
 11
-5.1534041828056401
 21
9.5081352507549823
 31
0.0
 11
-5.2000000000000028
 21
9.0000000108184537
 31
0.0
 11
-5.1534041828056401
 21
8.491864770881925
 31
0.0
 11
-5.0213672348136527
 21
8.0
 31
0.0
  0
SPLINE
  5
108
100
AcDbEntity
  8
0
  6
CONTINUOUS
 62
               7
100
AcDbSpline
210
0.0
220
0.0
230
1.0
 70
               0
 71
               3
 72
               0
 73
               0
 74
               5
 44
0.000001
 12
-0.3364388437983803
 22
-0.9417053171685976
 32
0.0
 13
0.3364388427479147
 23
-0.9417053175438928
 33
0.0
 11
-3.4213672348136583
 21
8.0
 31
0.0
 11
-3.5534041804973628
 21
7.5081352390130274
 31
0.0
 11
-3.5999999999999943
 21
7.0000000094807291
 31
0.0
 11
-3.5534041851713107
 21
6.4918647510826766
 31
0.0
 11
-3.4213672348136583
 21
5.9999999620322626
 31
0.0
  0
SPLINE
  5
109
100
AcDbEntity
  8
0
  6
CONTINUOUS
 62
               7
100
AcDbSpline
210
0.0
220
0.0
230
1.0
 70
               0
 71
               3
 72
               0
 73
               0
 74
               5
 44
0.000001
 12
-0.3364388462345876
 22
-0.9417053162982247
 32
0.0
 13
0.3364388451841199
 23
-0.9417053166735206
 33
0.0
 11
-3.4213672348136583
 21
10.000000021636907
 31
0.0
 11
-3.5534041804686649
 21
9.5081352647867039
 31
0.0
 11
-3.5999999999999943
 21
9.0000000392830515
 31
0.0
 11
-3.5534041851426128
 21
8.4918647849136448
 31
0.0
 11
-3.4213672348136583
 21
8.0
 31
0.0
  0
SPLINE
  5
10A
100
AcDbEntity
  8
0
  6
CONTINUOUS
 62
               7
100
AcDbSpline
210
0.0
220
0.0
230
1.0
 70
               0
 71
               3
 72
               0
 73
               0
 74
               5
 44
0.000001
 12
0.3364388432731469
 22
-0.9417053173562454
 32
0.0
 13
-0.3364388432731468
 23
-0.9417053173562454
 33
0.0
 11
-2.178632765186336
 21
8.0
 31
0.0
 11
-2.0465958171656577
 21
7.5081352249813067
 31
0.0
 11
-2.0
 21
6.9999999810161313
 31
0.0
 11
-2.0465958171656577
 21
6.4918647370509559
 31
0.0
 11
-2.178632765186336
 21
5.9999999620322626
 31
0.0
  0
SPLINE
  5
10B
100
AcDbEntity
  8
0
  6
CONTINUOUS
 62
               7
100
AcDbSpline
210
0.0
220
0.0
230
1.0
 70
               0
 71
               3
 72
               0
 73
               0
 74
               5
 44
0.000001
 12
0.3364388457093553
 22
-0.9417053164858722
 32
0.0
 13
-0.3364388457093552
 23
-0.9417053164858722
 33
0.0
 11
-2.178632765186336
 21
10.000000021636907
 31
0.0
 11
-2.0465958171943552
 21
9.5081352507549823
 31
0.0
 11
-2.0
 21
9.0000000108184537
 31
0.0
 11
-2.0465958171943552
 21
8.491864770881925
 31
0.0
 11
-2.178632765186336
 21
8.0
 31
0.0
  0
LINE
  5
10C
100
AcDbEntity
  8
0
  6
CONTINUOUS
 62
               7
100
AcDbLine
 10
-2.0
 20
7.0
 30
0.0
 11
0.0
 21
7.0
 31
0.0
  0
LINE
  5
10D
100
AcDbEntity
  8
0
  6
CONTINUOUS
 62
               7
100
AcDbLine
 10
-2.0
 20
9.0
 30
0.0
 11
0.0
 21
9.0
 31
0.0
  0
LINE
  5
10E
100
AcDbEntity
  8
0
  6
CONTINUOUS
 62
               2
100
AcDbLine
 10
-1.0
 20
7.2999999999999972
 30
0.0
 11
-0.4803847577293539
 21
7.0
 31
0.0
  0
LINE
  5
10F
100
AcDbEntity
  8
0
  6
CONTINUOUS
 62
               2
100
AcDbLine
 10
-1.0
 20
8.7000000000000028
 30
0.0
 11
-0.4803847577293539
 21
9.0
 31
0.0
  0
LINE
  5
110
100
AcDbEntity
  8
0
  6
CONTINUOUS
 62
               7
100
AcDbLine
 10
-3.7786327651863445
 20
8.0
 30
0.0
 11
-5.0213672348136527
 21
8.0
 31
0.0
  0
LINE
  5
111
100
AcDbEntity
  8
0
  6
CONTINUOUS
 62
               7
100
AcDbLine
 10
-3.4213672348136583
 20
8.0
 30
0.0
 11
-2.178632765186336
 21
8.0
 31
0.0
  0
LINE
  5
112
100
AcDbEntity
  8
0
  6
CONTINUOUS
 62
               7
100
AcDbLine
 10
-5.2000000000000028
 20
5.9999999620322626
 30
0.0
 11
-2.0
 21
5.9999999620322626
 31
0.0
  0
LINE
  5
113
100
AcDbEntity
  8
0
  6
CONTINUOUS
 62
               7
100
AcDbLine
 10
-5.2000000000000028
 20
10.000000021636907
 30
0.0
 11
-2.0
 21
10.000000021636907
 31
0.0
  0
LINE
  5
114
100
AcDbEntity
  8
0
  6
CONTINUOUS
 62
               7
100
AcDbLine
 10
-6.7000000000000171
 20
9.0
 30
0.0
 11
-5.2000000000000028
 21
9.0
 31
0.0
  0
LINE
  5
115
100
AcDbEntity
  8
0
  6
CONTINUOUS
 62
               7
100
AcDbLine
 10
-7.0
 20
8.7000000000000028
 30
0.0
 11
-7.0
 21
7.2999999999999972
 31
0.0
  0
LINE
  5
116
100
AcDbEntity
  8
0
  6
CONTINUOUS
 62
               2
100
AcDbLine
 10
-7.0
 20
8.7000000000000028
 30
0.0
 11
-5.2000000000000028
 21
8.7000000000000028
 31
0.0
  0
LINE
  5
117
100
AcDbEntity
  8
0
  6
CONTINUOUS
 62
               7
100
AcDbLine
 10
-1.0
 20
9.0
 30
0.0
 11
-1.0
 21
7.0
 31
0.0
  0
LINE
  5
118
100
AcDbEntity
  8
0
  6
CONTINUOUS
 62
               7
100
AcDbLine
 10
-6.7000000000000171
 20
9.0
 30
0.0
 11
-7.0
 21
8.7000000000000028
 31
0.0
  0
LINE
  5
119
100
AcDbEntity
  8
0
  6
CONTINUOUS
 62
               7
100
AcDbLine
 10
-6.7000000000000171
 20
9.0
 30
0.0
 11
-6.7000000000000171
 21
7.0
 31
0.0
  0
LINE
  5
11A
100
AcDbEntity
  8
0
  6
CONTINUOUS
 62
               7
100
AcDbLine
 10
-6.7000000000000171
 20
7.0
 30
0.0
 11
-5.2000000000000028
 21
7.0
 31
0.0
  0
LINE
  5
11B
100
AcDbEntity
  8
0
  6
CONTINUOUS
 62
               2
100
AcDbLine
 10
-7.0
 20
7.2999999999999972
 30
0.0
 11
-5.2000000000000028
 21
7.2999999999999972
 31
0.0
  0
LINE
  5
11C
100
AcDbEntity
  8
0
  6
CONTINUOUS
 62
               7
100
AcDbLine
 10
-6.7000000000000171
 20
7.0
 30
0.0
 11
-7.0
 21
7.2999999999999972
 31
0.0
  0
LINE
  5
11D
100
AcDbEntity
  8
0
  6
CONTINUOUS
 62
               2
100
AcDbLine
 10
-2.0
 20
8.7000000000000028
 30
0.0
 11
-1.0
 21
8.7000000000000028
 31
0.0
  0
LINE
  5
11E
100
AcDbEntity
  8
0
  6
CONTINUOUS
 62
               2
100
AcDbLine
 10
-2.0
 20
7.2999999999999972
 30
0.0
 11
-1.0
 21
7.2999999999999972
 31
0.0
  0
LINE
  5
11F
100
AcDbEntity
  8
0
  6
CONTINUOUS
 62
               7
100
AcDbLine
 10
-2.0
 20
5.9999999620322626
 30
0.0
 11
-2.0
 21
10.000000021636907
 31
0.0
  0
LINE
  5
120
100
AcDbEntity
  8
0
  6
CONTINUOUS
 62
               7
100
AcDbLine
 10
-3.5999999999999943
 20
5.9999999620322626
 30
0.0
 11
-3.5999999999999943
 21
10.000000021636907
 31
0.0
  0
LINE
  5
121
100
AcDbEntity
  8
0
  6
CONTINUOUS
 62
               7
100
AcDbLine
 10
-5.2000000000000028
 20
5.9999999620322626
 30
0.0
 11
-5.2000000000000028
 21
10.000000021636907
 31
0.0
  0
LINE
  5
122
100
AcDbEntity
  8
0
  6
CONTINUOUS
 62
               4
100
AcDbLine
 10
25.499999999367589
 20
3.075735942013992
 30
0.0
 11
10.000000011695818
 21
3.075735942013992
 31
0.0
  0
LINE
  5
123
100
AcDbEntity
  8
0
  6
CONTINUOUS
 62
               4
100
AcDbLine
 10
25.499999999367589
 20
0.9544155939570231
 30
0.0
 11
10.000000011695818
 21
0.9544155939570231
 31
0.0
  0
LINE
  5
124
100
AcDbEntity
  8
0
  6
CONTINUOUS
 62
               4
100
AcDbLine
 10
34.000000000000114
 20
4.8207106801590243
 30
0.0
 11
43.834936518941618
 21
4.8207106801590243
 31
0.0
  0
LINE
  5
125
100
AcDbEntity
  8
0
  6
CONTINUOUS
 62
               4
100
AcDbLine
 10
25.500000032860243
 20
3.2709995686344229
 30
0.0
 11
25.500000032860243
 21
0.9544155939570089
 31
0.0
  0
LINE
  5
126
100
AcDbEntity
  8
0
  6
CONTINUOUS
 62
             200
100
AcDbLine
 10
42.80433284970357
 20
0.9744453814554674
 30
0.0
 11
44.213301739068811
 21
6.2327889211451719
 31
0.0
  0
LINE
  5
127
100
AcDbEntity
  8
0
  6
CONTINUOUS
 62
               4
100
AcDbLine
 10
25.500000032860243
 20
2.3207106748590149
 30
0.0
 11
43.165063543869991
 21
2.3207106748590149
 31
0.0
  0
LINE
  5
128
100
AcDbEntity
  8
0
  6
CONTINUOUS
 62
               4
100
AcDbLine
 10
11.750000003709999
 20
1.1490503474638842
 30
0.0
 11
11.750000003709999
 21
2.8811011587047304
 31
0.0
  0
LINE
  5
129
100
AcDbEntity
  8
0
  6
CONTINUOUS
 62
               4
100
AcDbLine
 10
12.250000004770015
 20
1.1490503474638842
 30
0.0
 11
12.250000004770015
 21
2.8811011587047304
 31
0.0
  0
ELLIPSE
  5
12A
100
AcDbEntity
  8
0
  6
CONTINUOUS
 62
               4
100
AcDbEllipse
 10
12.000000004240007
 20
2.0150757530843038
 30
0.0
 11
-1.25000000265
 21
0.0000000000000002
 31
0.0
210
0.0
220
0.0
230
1.0
 40
0.7071067811865475
 41
0.0
 42
6.2831853071795862
  0
LINE
  5
12B
100
AcDbEntity
  8
0
  6
CONTINUOUS
 62
               4
100
AcDbLine
 10
10.0
 20
3.2709995686344229
 30
0.0
 11
10.0
 21
0.9544155939570089
 31
0.0
  0
LINE
  5
12C
100
AcDbEntity
  8
0
  6
CONTINUOUS
 62
               7
100
AcDbLine
 10
25.500000032860243
 20
1.2372583086801967
 30
0.0
 11
34.000000000000114
 21
1.2372583086801967
 31
0.0
  0
LINE
  5
12D
100
AcDbEntity
  8
0
  6
CONTINUOUS
 62
               7
100
AcDbLine
 10
34.000000000000114
 20
3.2709995686344229
 30
0.0
 11
34.000000000000114
 21
11.0
 31
0.0
  0
LINE
  5
12E
100
AcDbEntity
  8
0
  6
CENTER
 62
               2
100
AcDbLine
 10
9.0
 20
9.5
 30
0.0
 11
9.0
 21
12.5
 31
0.0
  0
ENDBLK
  5
12F
100
AcDbEntity
  8
0
100
AcDbBlockEnd
  0
BLOCK
  5
130
100
AcDbEntity
  8
0
100
AcDbBlockBegin
  2
MS_4
 70
               0
 10
0.0
 20
0.0
 30
0.0
  3
MS_4
  1

  0
LINE
  5
131
100
AcDbEntity
  8
0
  6
PHANTOM
 62
               3
100
AcDbLine
 10
17.730491557508927
 20
16.0
 30
0.0
 11
17.730491557508927
 21
-5.9452054736468796
 31
0.0
  0
LINE
  5
132
100
AcDbEntity
  8
0
  6
CONTINUOUS
 62
               4
100
AcDbLine
 10
35.500000000000114
 20
8.6792893251409851
 30
0.0
 11
43.834936518941532
 21
8.6792893251409851
 31
0.0
  0
LINE
  5
133
100
AcDbEntity
  8
0
  6
CONTINUOUS
 62
             200
100
AcDbLine
 10
42.80433284970357
 20
4.8330240264374282
 30
0.0
 11
44.213301739068811
 21
10.091367566127133
 31
0.0
  0
LINE
  5
134
100
AcDbEntity
  8
0
  6
CONTINUOUS
 62
               4
100
AcDbLine
 10
21.749999970849871
 20
9.8509496525361158
 30
0.0
 11
21.749999970849871
 21
8.1188988412952696
 31
0.0
  0
LINE
  5
135
100
AcDbEntity
  8
0
  6
CONTINUOUS
 62
               4
100
AcDbLine
 10
22.249999971909887
 20
9.8509496525361158
 30
0.0
 11
22.249999971909887
 21
8.1188988412952696
 31
0.0
  0
ELLIPSE
  5
136
100
AcDbEntity
  8
0
  6
CONTINUOUS
 62
               4
100
AcDbEllipse
 10
21.999999971379879
 20
8.9849242469156962
 30
0.0
 11
-1.25000000265
 21
0.0000000000000002
 31
0.0
210
0.0
220
0.0
230
1.0
 40
0.7071067811865475
 41
0.0
 42
6.2831853071795862
  0
LINE
  5
137
100
AcDbEntity
  8
0
  6
CONTINUOUS
 62
               4
100
AcDbLine
 10
19.999999967139871
 20
7.7290004313655771
 30
0.0
 11
19.999999967139871
 21
10.045584406042991
 31
0.0
  0
LINE
  5
138
100
AcDbEntity
  8
0
  6
CONTINUOUS
 62
               4
100
AcDbLine
 10
35.500000000000114
 20
5.0464465963658824
 30
0.0
 11
35.500000000000114
 21
10.045584406042991
 31
0.0
  0
LINE
  5
139
100
AcDbEntity
  8
0
  6
CONTINUOUS
 62
               4
100
AcDbLine
 10
35.500000000000114
 20
6.1792893198409757
 30
0.0
 11
43.165063543869877
 21
6.1792893198409757
 31
0.0
  0
LINE
  5
13A
100
AcDbEntity
  8
0
  6
CONTINUOUS
 62
               4
100
AcDbLine
 10
34.000000000000114
 20
6.7928932205903152
 30
0.0
 11
35.500000000000114
 21
6.7928932205903152
 31
0.0
  0
LINE
  5
13B
100
AcDbEntity
  8
0
  6
CONTINUOUS
 62
               4
100
AcDbLine
 10
34.000000000000114
 20
5.0464465963658824
 30
0.0
 11
35.500000019764798
 21
5.0464465963658824
 31
0.0
  0
LINE
  5
13C
100
AcDbEntity
  8
0
  6
CONTINUOUS
 62
               4
100
AcDbLine
 10
35.49999996650746
 20
7.924264057986008
 30
0.0
 11
19.999999978835689
 21
7.924264057986008
 31
0.0
  0
LINE
  5
13D
100
AcDbEntity
  8
0
  6
CONTINUOUS
 62
               4
100
AcDbLine
 10
35.49999996650746
 20
10.045584406042977
 30
0.0
 11
19.999999978835689
 21
10.045584406042977
 31
0.0
  0
LINE
  5
13E
100
AcDbEntity
  8
0
  6
CONTINUOUS
 62
               7
100
AcDbLine
 10
-5.2000000000000028
 20
5.0000000379677374
 30
0.0
 11
-5.2000000000000028
 21
0.9999999783630926
 31
0.0
  0
LINE
  5
13F
100
AcDbEntity
  8
0
  6
CONTINUOUS
 62
               7
100
AcDbLine
 10
-3.5999999999999943
 20
5.0000000379677374
 30
0.0
 11
-3.5999999999999943
 21
0.9999999783630926
 31
0.0
  0
LINE
  5
140
100
AcDbEntity
  8
0
  6
CONTINUOUS
 62
               7
100
AcDbLine
 10
-2.0
 20
5.0000000379677374
 30
0.0
 11
-2.0
 21
0.9999999783630926
 31
0.0
  0
LINE
  5
141
100
AcDbEntity
  8
0
  6
CONTINUOUS
 62
               2
100
AcDbLine
 10
-2.0
 20
3.7000000000000028
 30
0.0
 11
-1.0
 21
3.7000000000000028
 31
0.0
  0
LINE
  5
142
100
AcDbEntity
  8
0
  6
CONTINUOUS
 62
               2
100
AcDbLine
 10
-2.0
 20
2.2999999999999972
 30
0.0
 11
-1.0
 21
2.2999999999999972
 31
0.0
  0
LINE
  5
143
100
AcDbEntity
  8
0
  6
CONTINUOUS
 62
               7
100
AcDbLine
 10
-6.7000000000000171
 20
4.0
 30
0.0
 11
-7.0
 21
3.7000000000000028
 31
0.0
  0
LINE
  5
144
100
AcDbEntity
  8
0
  6
CONTINUOUS
 62
               2
100
AcDbLine
 10
-7.0
 20
3.7000000000000028
 30
0.0
 11
-5.2000000000000028
 21
3.7000000000000028
 31
0.0
  0
LINE
  5
145
100
AcDbEntity
  8
0
  6
CONTINUOUS
 62
               7
100
AcDbLine
 10
-6.7000000000000171
 20
4.0
 30
0.0
 11
-5.2000000000000028
 21
4.0
 31
0.0
  0
LINE
  5
146
100
AcDbEntity
  8
0
  6
CONTINUOUS
 62
               7
100
AcDbLine
 10
-6.7000000000000171
 20
2.0
 30
0.0
 11
-6.7000000000000171
 21
4.0
 31
0.0
  0
LINE
  5
147
100
AcDbEntity
  8
0
  6
CONTINUOUS
 62
               7
100
AcDbLine
 10
-6.7000000000000171
 20
2.0
 30
0.0
 11
-7.0
 21
2.2999999999999972
 31
0.0
  0
LINE
  5
148
100
AcDbEntity
  8
0
  6
CONTINUOUS
 62
               7
100
AcDbLine
 10
-1.0
 20
2.0
 30
0.0
 11
-1.0
 21
4.0
 31
0.0
  0
LINE
  5
149
100
AcDbEntity
  8
0
  6
CONTINUOUS
 62
               2
100
AcDbLine
 10
-7.0
 20
2.2999999999999972
 30
0.0
 11
-5.2000000000000028
 21
2.2999999999999972
 31
0.0
  0
LINE
  5
14A
100
AcDbEntity
  8
0
  6
CONTINUOUS
 62
               7
100
AcDbLine
 10
-7.0
 20
2.2999999999999972
 30
0.0
 11
-7.0
 21
3.7000000000000028
 31
0.0
  0
LINE
  5
14B
100
AcDbEntity
  8
0
  6
CONTINUOUS
 62
               7
100
AcDbLine
 10
-6.7000000000000171
 20
2.0
 30
0.0
 11
-5.2000000000000028
 21
2.0
 31
0.0
  0
LINE
  5
14C
100
AcDbEntity
  8
0
  6
CONTINUOUS
 62
               7
100
AcDbLine
 10
-5.2000000000000028
 20
0.9999999783630926
 30
0.0
 11
-2.0
 21
0.9999999783630926
 31
0.0
  0
LINE
  5
14D
100
AcDbEntity
  8
0
  6
CONTINUOUS
 62
               7
100
AcDbLine
 10
-5.2000000000000028
 20
5.0000000379677374
 30
0.0
 11
-2.0
 21
5.0000000379677374
 31
0.0
  0
LINE
  5
14E
100
AcDbEntity
  8
0
  6
CONTINUOUS
 62
               7
100
AcDbLine
 10
-3.4213672348136583
 20
3.0
 30
0.0
 11
-2.178632765186336
 21
3.0
 31
0.0
  0
LINE
  5
14F
100
AcDbEntity
  8
0
  6
CONTINUOUS
 62
               7
100
AcDbLine
 10
-3.7786327651863445
 20
3.0
 30
0.0
 11
-5.0213672348136527
 21
3.0
 31
0.0
  0
LINE
  5
150
100
AcDbEntity
  8
0
  6
CONTINUOUS
 62
               2
100
AcDbLine
 10
-1.0
 20
2.2999999999999972
 30
0.0
 11
-0.4803847577293539
 21
2.0
 31
0.0
  0
LINE
  5
151
100
AcDbEntity
  8
0
  6
CONTINUOUS
 62
               2
100
AcDbLine
 10
-1.0
 20
3.7000000000000028
 30
0.0
 11
-0.4803847577293539
 21
4.0
 31
0.0
  0
LINE
  5
152
100
AcDbEntity
  8
0
  6
CONTINUOUS
 62
               7
100
AcDbLine
 10
-2.0
 20
2.0
 30
0.0
 11
0.0
 21
2.0
 31
0.0
  0
LINE
  5
153
100
AcDbEntity
  8
0
  6
CONTINUOUS
 62
               7
100
AcDbLine
 10
-2.0
 20
4.0
 30
0.0
 11
0.0
 21
4.0
 31
0.0
  0
SPLINE
  5
154
100
AcDbEntity
  8
0
  6
CONTINUOUS
 62
               7
100
AcDbSpline
210
0.0
220
0.0
230
1.0
 70
               0
 71
               3
 72
               0
 73
               0
 74
               5
 44
0.000001
 12
0.3364388457093553
 22
0.9417053164858722
 32
0.0
 13
-0.3364388457093552
 23
0.9417053164858722
 33
0.0
 11
-2.178632765186336
 21
0.9999999783630926
 31
0.0
 11
-2.0465958171943552
 21
1.4918647492450172
 31
0.0
 11
-2.0
 21
1.9999999891815463
 31
0.0
 11
-2.0465958171943552
 21
2.5081352291180754
 31
0.0
 11
-2.178632765186336
 21
3.0000000000000004
 31
0.0
  0
SPLINE
  5
155
100
AcDbEntity
  8
0
  6
CONTINUOUS
 62
               7
100
AcDbSpline
210
0.0
220
0.0
230
1.0
 70
               0
 71
               3
 72
               0
 73
               0
 74
               5
 44
0.000001
 12
0.3364388432731469
 22
0.9417053173562454
 32
0.0
 13
-0.3364388432731468
 23
0.9417053173562454
 33
0.0
 11
-2.178632765186336
 21
3.0
 31
0.0
 11
-2.0465958171656577
 21
3.4918647750186933
 31
0.0
 11
-2.0
 21
4.0000000189838687
 31
0.0
 11
-2.0465958171656577
 21
4.5081352629490441
 31
0.0
 11
-2.178632765186336
 21
5.0000000379677374
 31
0.0
  0
SPLINE
  5
156
100
AcDbEntity
  8
0
  6
CONTINUOUS
 62
               7
100
AcDbSpline
210
0.0
220
0.0
230
1.0
 70
               0
 71
               3
 72
               0
 73
               0
 74
               5
 44
0.000001
 12
-0.3364388462345876
 22
0.9417053162982247
 32
0.0
 13
0.3364388451841199
 23
0.9417053166735206
 33
0.0
 11
-3.4213672348136583
 21
0.9999999783630926
 31
0.0
 11
-3.5534041804686649
 21
1.4918647352132965
 31
0.0
 11
-3.5999999999999943
 21
1.9999999607169485
 31
0.0
 11
-3.5534041851426128
 21
2.5081352150863547
 31
0.0
 11
-3.4213672348136583
 21
3.0
 31
0.0
  0
SPLINE
  5
157
100
AcDbEntity
  8
0
  6
CONTINUOUS
 62
               7
100
AcDbSpline
210
0.0
220
0.0
230
1.0
 70
               0
 71
               3
 72
               0
 73
               0
 74
               5
 44
0.000001
 12
-0.3364388437983803
 22
0.9417053171685976
 32
0.0
 13
0.3364388427479147
 23
0.9417053175438928
 33
0.0
 11
-3.4213672348136583
 21
3.0
 31
0.0
 11
-3.5534041804973628
 21
3.4918647609869726
 31
0.0
 11
-3.5999999999999943
 21
3.9999999905192709
 31
0.0
 11
-3.5534041851713107
 21
4.5081352489173234
 31
0.0
 11
-3.4213672348136583
 21
5.0000000379677374
 31
0.0
  0
SPLINE
  5
158
100
AcDbEntity
  8
0
  6
CONTINUOUS
 62
               7
100
AcDbSpline
210
0.0
220
0.0
230
1.0
 70
               0
 71
               3
 72
               0
 73
               0
 74
               5
 44
0.000001
 12
-0.3364388457093553
 22
0.9417053164858721
 32
0.0
 13
0.3364388457093551
 23
0.9417053164858722
 33
0.0
 11
-5.0213672348136527
 21
0.9999999783630926
 31
0.0
 11
-5.1534041828056401
 21
1.4918647492450172
 31
0.0
 11
-5.2000000000000028
 21
1.9999999891815463
 31
0.0
 11
-5.1534041828056401
 21
2.5081352291180754
 31
0.0
 11
-5.0213672348136527
 21
3.0000000000000004
 31
0.0
  0
SPLINE
  5
159
100
AcDbEntity
  8
0
  6
CONTINUOUS
 62
               7
100
AcDbSpline
210
0.0
220
0.0
230
1.0
 70
               0
 71
               3
 72
               0
 73
               0
 74
               5
 44
0.000001
 12
-0.3364388432731471
 22
0.9417053173562454
 32
0.0
 13
0.3364388432731469
 23
0.9417053173562454
 33
0.0
 11
-5.0213672348136527
 21
3.0
 31
0.0
 11
-5.153404182834338
 21
3.4918647750186933
 31
0.0
 11
-5.2000000000000028
 21
4.0000000189838687
 31
0.0
 11
-5.153404182834338
 21
4.5081352629490441
 31
0.0
 11
-5.0213672348136527
 21
5.0000000379677374
 31
0.0
  0
SPLINE
  5
15A
100
AcDbEntity
  8
0
  6
CONTINUOUS
 62
               7
100
AcDbSpline
210
0.0
220
0.0
230
1.0
 70
               0
 71
               3
 72
               0
 73
               0
 74
               5
 44
0.000001
 12
0.3364388462345875
 22
0.9417053162982247
 32
0.0
 13
-0.3364388451841198
 23
0.9417053166735206
 33
0.0
 11
-3.7786327651863445
 21
0.9999999783630926
 31
0.0
 11
-3.6465958195313308
 21
1.4918647352132965
 31
0.0
 11
-3.5999999999999943
 21
1.9999999607169485
 31
0.0
 11
-3.6465958148573829
 21
2.5081352150863547
 31
0.0
 11
-3.7786327651863445
 21
3.0
 31
0.0
  0
SPLINE
  5
15B
100
AcDbEntity
  8
0
  6
CONTINUOUS
 62
               7
100
AcDbSpline
210
0.0
220
0.0
230
1.0
 70
               0
 71
               3
 72
               0
 73
               0
 74
               5
 44
0.000001
 12
0.3364388437983802
 22
0.9417053171685976
 32
0.0
 13
-0.3364388427479146
 23
0.9417053175438929
 33
0.0
 11
-3.7786327651863445
 21
3.0
 31
0.0
 11
-3.6465958195026329
 21
3.4918647609869726
 31
0.0
 11
-3.5999999999999943
 21
3.9999999905192709
 31
0.0
 11
-3.646595814828685
 21
4.5081352489173234
 31
0.0
 11
-3.7786327651863445
 21
5.0000000379677374
 31
0.0
  0
LINE
  5
15C
100
AcDbEntity
  8
0
  6
CENTER
 62
               2
100
AcDbLine
 10
1.5239043419708906
 20
2.7999999999999972
 30
0.0
 11
32.976095658029109
 21
2.7999999999999972
 31
0.0
  0
LINE
  5
15D
100
AcDbEntity
  8
0
  6
CENTER
 62
               2
100
AcDbLine
 10
3.5
 20
0.8452224481113007
 30
0.0
 11
3.5
 21
4.7760956580291065
 31
0.0
  0
CIRCLE
  5
15E
100
AcDbEntity
  8
0
  6
DASHED
 62
               2
100
AcDbCircle
 10
3.5
 20
2.7999999999999829
 30
0.0
 40
1.5
  0
CIRCLE
  5
15F
100
AcDbEntity
  8
0
  6
DASHED
 62
               7
100
AcDbCircle
 10
3.5
 20
2.7999999999999829
 30
0.0
 40
1.1999999999999886
  0
LINE
  5
160
100
AcDbEntity
  8
0
  6
CONTINUOUS
 62
               7
100
AcDbLine
 10
0.0
 20
9.7627416913198033
 30
0.0
 11
19.999999967139871
 21
9.7627416913198033
 31
0.0
  0
LINE
  5
161
100
AcDbEntity
  8
0
  6
CONTINUOUS
 62
               7
100
AcDbLine
 10
0.0
 20
7.7290004313655771
 30
0.0
 11
34.000000000000114
 21
7.7290004313655771
 31
0.0
  0
LINE
  5
162
100
AcDbEntity
  8
0
  6
CENTER
 62
               2
100
AcDbLine
 10
14.0
 20
4.7547775518886937
 30
0.0
 11
14.0
 21
0.8239043419708878
 31
0.0
  0
CIRCLE
  5
163
100
AcDbEntity
  8
0
  6
DASHED
 62
               2
100
AcDbCircle
 10
14.0
 20
2.8000000000000114
 30
0.0
 40
1.5
  0
CIRCLE
  5
164
100
AcDbEntity
  8
0
  6
DASHED
 62
               7
100
AcDbCircle
 10
14.0
 20
2.8000000000000114
 30
0.0
 40
1.1999999999999886
  0
LINE
  5
165
100
AcDbEntity
  8
0
  6
CENTER
 62
               2
100
AcDbLine
 10
31.0
 20
4.7547775518886937
 30
0.0
 11
31.0
 21
0.8239043419708878
 31
0.0
  0
CIRCLE
  5
166
100
AcDbEntity
  8
0
  6
DASHED
 62
               2
100
AcDbCircle
 10
31.0
 20
2.8000000000000114
 30
0.0
 40
1.5
  0
CIRCLE
  5
167
100
AcDbEntity
  8
0
  6
DASHED
 62
               7
100
AcDbCircle
 10
31.0
 20
2.8000000000000114
 30
0.0
 40
1.1999999999999886
  0
LINE
  5
168
100
AcDbEntity
  8
0
  6
CONTINUOUS
 62
               7
100
AcDbLine
 10
0.0
 20
0.0
 30
0.0
 11
34.000000000000114
 21
0.0
 31
0.0
  0
LINE
  5
169
100
AcDbEntity
  8
0
  6
CONTINUOUS
 62
               7
100
AcDbLine
 10
34.000000000000114
 20
11.0
 30
0.0
 11
34.000000000000114
 21
10.045584406042977
 31
0.0
  0
LINE
  5
16A
100
AcDbEntity
  8
0
  6
CONTINUOUS
 62
               7
100
AcDbLine
 10
0.0
 20
11.0
 30
0.0
 11
0.0
 21
0.0
 31
0.0
  0
LINE
  5
16B
100
AcDbEntity
  8
0
  6
CONTINUOUS
 62
               7
100
AcDbLine
 10
0.0
 20
11.0
 30
0.0
 11
34.000000000000114
 21
11.0
 31
0.0
  0
LINE
  5
16C
100
AcDbEntity
  8
0
  6
CENTER
 62
               2
100
AcDbLine
 10
-8.4558223814587876
 20
3.0
 30
0.0
 11
0.7419156642792473
 21
3.0
 31
0.0
  0
LINE
  5
16D
100
AcDbEntity
  8
0
  6
CONTINUOUS
 62
               7
100
AcDbLine
 10
34.000000000000114
 20
7.7290004313655771
 30
0.0
 11
34.000000000000114
 21
0.0
 31
0.0
  0
LINE
  5
16E
100
AcDbEntity
  8
0
  6
CENTER
 62
               2
100
AcDbLine
 10
9.0
 20
1.5
 30
0.0
 11
9.0
 21
-1.5
 31
0.0
  0
ENDBLK
  5
16F
100
AcDbEntity
  8
0
100
AcDbBlockEnd
  0
BLOCK
  5
170
100
AcDbEntity
  8
0
100
AcDbBlockBegin
  2
MS_5
 70
               0
 10
0.0
 20
0.0
 30
0.0
  3
MS_5
  1

  0
LINE
  5
171
100
AcDbEntity
  8
0
  6
PHANTOM
 62
               3
100
AcDbLine
 10
16.13049155750894
 20
1.786470202028795
 30
0.0
 11
16.13049155750894
 21
-17.920000000000002
 31
0.0
  0
LINE
  5
172
100
AcDbEntity
  8
0
  6
PHANTOM
 62
               3
100
AcDbLine
 10
27.224761827779218
 20
1.786470202028795
 30
0.0
 11
16.13049155750894
 21
1.786470202028795
 31
0.0
  0
LINE
  5
173
100
AcDbEntity
  8
0
  6
PHANTOM
 62
               3
100
AcDbLine
 10
27.224761827779218
 20
17.765517241379314
 30
0.0
 11
27.224761827779218
 21
1.786470202028795
 31
0.0
  0
LINE
  5
174
100
AcDbEntity
  8
0
  6
CONTINUOUS
 62
               4
100
AcDbLine
 10
11.750000003709971
 20
6.8811011411304364
 30
0.0
 11
11.750000003709971
 21
5.1490503298895902
 31
0.0
  0
LINE
  5
175
100
AcDbEntity
  8
0
  6
CONTINUOUS
 62
               4
100
AcDbLine
 10
12.250000004769987
 20
6.8811011411304364
 30
0.0
 11
12.250000004769987
 21
5.1490503298895902
 31
0.0
  0
ELLIPSE
  5
176
100
AcDbEntity
  8
0
  6
CONTINUOUS
 62
               4
100
AcDbEllipse
 10
12.000000004240036
 20
6.0150757355100453
 30
0.0
 11
-1.25000000265
 21
0.0000000000000002
 31
0.0
210
0.0
220
0.0
230
1.0
 40
0.7071067811865475
 41
0.0
 42
6.2831853071795862
  0
LINE
  5
177
100
AcDbEntity
  8
0
  6
CONTINUOUS
 62
               4
100
AcDbLine
 10
10.0
 20
3.8230447091846287
 30
0.0
 11
10.678474379733487
 21
3.8230447091846287
 31
0.0
  0
LINE
  5
178
100
AcDbEntity
  8
0
  6
CONTINUOUS
 62
               4
100
AcDbLine
 10
10.0
 20
7.075735909538416
 30
0.0
 11
10.0
 21
3.8230447091846287
 31
0.0
  0
LINE
  5
179
100
AcDbEntity
  8
0
  6
CONTINUOUS
 62
               4
100
AcDbLine
 10
25.000000031799999
 20
4.7596383717443906
 30
0.0
 11
25.000000031799999
 21
10.929467786755907
 31
0.0
  0
LINE
  5
17A
100
AcDbEntity
  8
0
  6
CONTINUOUS
 62
               4
100
AcDbLine
 10
22.500000026500004
 20
8.0303299856382679
 30
0.0
 11
22.500000026500004
 21
8.7374367878298216
 31
0.0
  0
LINE
  5
17B
100
AcDbEntity
  8
0
  6
CONTINUOUS
 62
               4
100
AcDbLine
 10
24.600000014953878
 20
9.4798989096497195
 30
0.0
 11
24.600000014953878
 21
10.187005686583404
 31
0.0
  0
ELLIPSE
  5
17C
100
AcDbEntity
  8
0
  6
CONTINUOUS
 62
               4
100
AcDbEllipse
 10
22.500000026500004
 20
10.187005692335333
 30
0.0
 11
2.1000000044519944
 21
0.0
 31
0.0
210
0.0
220
0.0
230
1.0
 40
0.690270905444012
 41
2.2690212382307813
 42
0.8725714153590118
  0
LINE
  5
17D
100
AcDbEntity
  8
0
  6
CONTINUOUS
 62
               4
100
AcDbLine
 10
22.500000026500004
 20
8.0303300051442008
 30
0.0
 11
25.000000051564683
 21
8.0303300051442008
 31
0.0
  0
LINE
  5
17E
100
AcDbEntity
  8
0
  6
CONTINUOUS
 62
               4
100
AcDbLine
 10
24.303625156899869
 20
10.929467814155231
 30
0.0
 11
25.000000031799999
 21
10.929467814155231
 31
0.0
  0
LINE
  5
17F
100
AcDbEntity
  8
0
  6
CONTINUOUS
 62
               4
100
AcDbLine
 10
20.40000002204809
 20
10.187005692335333
 30
0.0
 11
20.40000002204809
 21
6.0150757355100453
 31
0.0
  0
ELLIPSE
  5
180
100
AcDbEntity
  8
0
  6
CONTINUOUS
 62
               4
100
AcDbEllipse
 10
22.500000026500004
 20
9.4798989096497195
 30
0.0
 11
2.0999999884538685
 21
0.0
 31
0.0
210
0.0
220
0.0
230
1.0
 40
0.6902709107026031
 41
4.7123889803846897
 42
0.0
  0
LINE
  5
181
100
AcDbEntity
  8
0
  6
CONTINUOUS
 62
               4
100
AcDbLine
 10
21.030306177714436
 20
5.626166940969739
 30
0.0
 11
25.000000031799999
 21
5.626166940969739
 31
0.0
  0
LINE
  5
182
100
AcDbEntity
  8
0
  6
CONTINUOUS
 62
               4
100
AcDbLine
 10
21.030306177714436
 20
4.9544155614816461
 30
0.0
 11
21.030306177714436
 21
5.6261669179689591
 31
0.0
  0
ELLIPSE
  5
183
100
AcDbEntity
  8
0
  6
CONTINUOUS
 62
               4
100
AcDbEllipse
 10
22.50000004626466
 20
6.0150757355100453
 30
0.0
 11
-2.1000000242166501
 21
0.0000000000000003
 31
0.0
210
0.0
220
0.0
230
1.0
 40
0.6902708989473662
 41
0.0
 42
0.7956029495296795
  0
LINE
  5
184
100
AcDbEntity
  8
0
  6
CONTINUOUS
 62
               4
100
AcDbLine
 10
23.850000029362121
 20
10.187005686583404
 30
0.0
 11
23.850000029362121
 21
13.187005692943409
 31
0.0
  0
LINE
  5
185
100
AcDbEntity
  8
0
  6
CONTINUOUS
 62
               4
100
AcDbLine
 10
21.150000023638086
 20
10.187005686583404
 30
0.0
 11
21.150000023638086
 21
13.187005692943409
 31
0.0
  0
ELLIPSE
  5
186
100
AcDbEntity
  8
0
  6
CONTINUOUS
 62
               4
100
AcDbEllipse
 10
22.500000026500004
 20
10.187005692335333
 30
0.0
 11
1.3500000028620016
 21
0.0
 31
0.0
210
0.0
220
0.0
230
1.0
 40
0.7130928703394489
 41
3.1415926535897931
 42
0.0
  0
ELLIPSE
  5
187
100
AcDbEntity
  8
0
  6
CONTINUOUS
 62
               4
100
AcDbEllipse
 10
22.500000026500004
 20
13.18700569869533
 30
0.0
 11
1.3500000028620016
 21
0.0
 31
0.0
210
0.0
220
0.0
230
1.0
 40
0.7130928703394489
 41
0.0
 42
6.2831853071795862
  0
LINE
  5
188
100
AcDbEntity
  8
0
  6
CONTINUOUS
 62
               4
100
AcDbLine
 10
16.999999968200143
 20
-4.7596383717443906
 30
0.0
 11
16.999999968200143
 21
-10.9294677867559
 31
0.0
  0
LINE
  5
189
100
AcDbEntity
  8
0
  6
CONTINUOUS
 62
               4
100
AcDbLine
 10
19.49999997350011
 20
-8.0303299856382679
 30
0.0
 11
19.49999997350011
 21
-8.7374367878297576
 31
0.0
  0
LINE
  5
18A
100
AcDbEntity
  8
0
  6
CONTINUOUS
 62
               4
100
AcDbLine
 10
21.599999977952251
 20
-10.187005692335269
 30
0.0
 11
21.599999977952251
 21
-6.0150757355099849
 31
0.0
  0
ELLIPSE
  5
18B
100
AcDbEntity
  8
0
  6
CONTINUOUS
 62
               4
100
AcDbEllipse
 10
19.49999997350011
 20
-9.4798989096496555
 30
0.0
 11
-2.0999999884538685
 21
0.0000000000000003
 31
0.0
210
0.0
220
0.0
230
1.0
 40
0.6902709107026031
 41
4.7123889803846897
 42
0.0
  0
ELLIPSE
  5
18C
100
AcDbEntity
  8
0
  6
CONTINUOUS
 62
               4
100
AcDbEllipse
 10
19.49999997350011
 20
-13.187005698695273
 30
0.0
 11
-1.3500000028620016
 21
0.0000000000000002
 31
0.0
210
0.0
220
0.0
230
1.0
 40
0.7130928703394489
 41
0.0
 42
6.2831853071795862
  0
ELLIPSE
  5
18D
100
AcDbEntity
  8
0
  6
CONTINUOUS
 62
               4
100
AcDbEllipse
 10
19.49999997350011
 20
-10.187005692335269
 30
0.0
 11
-1.3500000028620016
 21
0.0000000000000002
 31
0.0
210
0.0
220
0.0
230
1.0
 40
0.7130928703394489
 41
3.1415926535897931
 42
0.0
  0
LINE
  5
18E
100
AcDbEntity
  8
0
  6
CONTINUOUS
 62
               4
100
AcDbLine
 10
20.849999976362284
 20
-10.187005686583404
 30
0.0
 11
20.849999976362284
 21
-13.187005692943401
 31
0.0
  0
LINE
  5
18F
100
AcDbEntity
  8
0
  6
CONTINUOUS
 62
               4
100
AcDbLine
 10
18.14999997063822
 20
-10.187005686583404
 30
0.0
 11
18.14999997063822
 21
-13.187005692943401
 31
0.0
  0
LINE
  5
190
100
AcDbEntity
  8
0
  6
CONTINUOUS
 62
               4
100
AcDbLine
 10
17.696374843100472
 20
-10.929467814155167
 30
0.0
 11
16.999999968200143
 21
-10.929467814155167
 31
0.0
  0
ELLIPSE
  5
191
100
AcDbEntity
  8
0
  6
CONTINUOUS
 62
               4
100
AcDbEllipse
 10
19.49999997350011
 20
-10.187005692335269
 30
0.0
 11
-2.1000000044519944
 21
0.0000000000000003
 31
0.0
210
0.0
220
0.0
230
1.0
 40
0.690270905444012
 41
2.2690212382307813
 42
0.8725714153590118
  0
LINE
  5
192
100
AcDbEntity
  8
0
  6
CONTINUOUS
 62
               4
100
AcDbLine
 10
17.399999985046492
 20
-9.4798989096496555
 30
0.0
 11
17.399999985046492
 21
-10.187005686583404
 31
0.0
  0
LINE
  5
193
100
AcDbEntity
  8
0
  6
CONTINUOUS
 62
               4
100
AcDbLine
 10
19.49999997350011
 20
-8.0303300051441937
 30
0.0
 11
16.999999948435686
 21
-8.0303300051441937
 31
0.0
  0
LINE
  5
194
100
AcDbEntity
  8
0
  6
CONTINUOUS
 62
               4
100
AcDbLine
 10
20.969693822285876
 20
-5.6261669409696822
 30
0.0
 11
16.999999968200143
 21
-5.6261669409696822
 31
0.0
  0
LINE
  5
195
100
AcDbEntity
  8
0
  6
CONTINUOUS
 62
               4
100
AcDbLine
 10
20.969693822285876
 20
-4.954415561481639
 30
0.0
 11
20.969693822285876
 21
-5.6261669179689626
 31
0.0
  0
ELLIPSE
  5
196
100
AcDbEntity
  8
0
  6
CONTINUOUS
 62
               4
100
AcDbEllipse
 10
19.499999953735653
 20
-6.0150757355099849
 30
0.0
 11
2.1000000242166501
 21
0.0
 31
0.0
210
0.0
220
0.0
230
1.0
 40
0.6902708989473662
 41
0.0
 42
0.7956029495296795
  0
LINE
  5
197
100
AcDbEntity
  8
0
  6
CONTINUOUS
 62
               4
100
AcDbLine
 10
30.249999996290143
 20
-6.881101141130376
 30
0.0
 11
30.249999996290143
 21
-5.1490503298895867
 31
0.0
  0
LINE
  5
198
100
AcDbEntity
  8
0
  6
CONTINUOUS
 62
               4
100
AcDbLine
 10
29.749999995230155
 20
-6.881101141130376
 30
0.0
 11
29.749999995230155
 21
-5.1490503298895867
 31
0.0
  0
ELLIPSE
  5
199
100
AcDbEntity
  8
0
  6
CONTINUOUS
 62
               4
100
AcDbEllipse
 10
29.999999995760106
 20
-6.0150757355099849
 30
0.0
 11
1.25000000265
 21
0.0
 31
0.0
210
0.0
220
0.0
230
1.0
 40
0.7071067811865475
 41
0.0
 42
6.2831853071795862
  0
LINE
  5
19A
100
AcDbEntity
  8
0
  6
CONTINUOUS
 62
               4
100
AcDbLine
 10
32.000000000000114
 20
-7.0757359095384089
 30
0.0
 11
32.000000000000114
 21
-4.7596383717443906
 31
0.0
  0
LINE
  5
19B
100
AcDbEntity
  8
0
  6
CONTINUOUS
 62
               4
100
AcDbLine
 10
10.000000034627163
 20
7.075735909538416
 30
0.0
 11
20.40000002204809
 21
7.075735909538416
 31
0.0
  0
LINE
  5
19C
100
AcDbEntity
  8
0
  6
CONTINUOUS
 62
               4
100
AcDbLine
 10
10.000000034627163
 20
4.9544155614816461
 30
0.0
 11
25.000000031799999
 21
4.9544155614816461
 31
0.0
  0
LINE
  5
19D
100
AcDbEntity
  8
0
  6
CONTINUOUS
 62
               4
100
AcDbLine
 10
21.600000011635075
 20
-7.0757359095384089
 30
0.0
 11
31.99999996583324
 21
-7.0757359095384089
 31
0.0
  0
LINE
  5
19E
100
AcDbEntity
  8
0
  6
CONTINUOUS
 62
               4
100
AcDbLine
 10
16.999999991361619
 20
-4.954415561481639
 30
0.0
 11
31.99999996583324
 21
-4.954415561481639
 31
0.0
  0
LINE
  5
19F
100
AcDbEntity
  8
0
  6
CONTINUOUS
 62
               7
100
AcDbLine
 10
-2.0
 20
-0.9999999999999929
 30
0.0
 11
0.0
 21
-0.9999999999999929
 31
0.0
  0
LINE
  5
1A0
100
AcDbEntity
  8
0
  6
CONTINUOUS
 62
               7
100
AcDbLine
 10
-2.0
 20
1.0
 30
0.0
 11
0.0
 21
1.0
 31
0.0
  0
LINE
  5
1A1
100
AcDbEntity
  8
0
  6
CONTINUOUS
 62
               2
100
AcDbLine
 10
-1.0
 20
-0.6999999999999957
 30
0.0
 11
-0.4803847577293539
 21
-0.9999999999999929
 31
0.0
  0
LINE
  5
1A2
100
AcDbEntity
  8
0
  6
CONTINUOUS
 62
               2
100
AcDbLine
 10
-1.0
 20
0.7000000000000171
 30
0.0
 11
-0.4803847577293539
 21
1.0
 31
0.0
  0
LINE
  5
1A3
100
AcDbEntity
  8
0
  6
CONTINUOUS
 62
               7
100
AcDbLine
 10
-6.7000000000000171
 20
1.0
 30
0.0
 11
-5.2000000000000028
 21
1.0
 31
0.0
  0
LINE
  5
1A4
100
AcDbEntity
  8
0
  6
CONTINUOUS
 62
               7
100
AcDbLine
 10
-7.0
 20
0.7000000000000171
 30
0.0
 11
-7.0
 21
-0.6999999999999957
 31
0.0
  0
LINE
  5
1A5
100
AcDbEntity
  8
0
  6
CONTINUOUS
 62
               2
100
AcDbLine
 10
-7.0
 20
0.7000000000000171
 30
0.0
 11
-5.2000000000000028
 21
0.7000000000000171
 31
0.0
  0
LINE
  5
1A6
100
AcDbEntity
  8
0
  6
CONTINUOUS
 62
               7
100
AcDbLine
 10
-1.0
 20
1.0
 30
0.0
 11
-1.0
 21
-0.9999999999999929
 31
0.0
  0
LINE
  5
1A7
100
AcDbEntity
  8
0
  6
CONTINUOUS
 62
               7
100
AcDbLine
 10
-6.7000000000000171
 20
1.0
 30
0.0
 11
-7.0
 21
0.7000000000000171
 31
0.0
  0
LINE
  5
1A8
100
AcDbEntity
  8
0
  6
CONTINUOUS
 62
               7
100
AcDbLine
 10
-6.7000000000000171
 20
1.0
 30
0.0
 11
-6.7000000000000171
 21
-0.9999999999999929
 31
0.0
  0
LINE
  5
1A9
100
AcDbEntity
  8
0
  6
CONTINUOUS
 62
               7
100
AcDbLine
 10
-6.7000000000000171
 20
-0.9999999999999929
 30
0.0
 11
-5.2000000000000028
 21
-0.9999999999999929
 31
0.0
  0
LINE
  5
1AA
100
AcDbEntity
  8
0
  6
CONTINUOUS
 62
               2
100
AcDbLine
 10
-7.0
 20
-0.6999999999999957
 30
0.0
 11
-5.2000000000000028
 21
-0.6999999999999957
 31
0.0
  0
LINE
  5
1AB
100
AcDbEntity
  8
0
  6
CONTINUOUS
 62
               7
100
AcDbLine
 10
-6.7000000000000171
 20
-0.9999999999999929
 30
0.0
 11
-7.0
 21
-0.6999999999999957
 31
0.0
  0
LINE
  5
1AC
100
AcDbEntity
  8
0
  6
CONTINUOUS
 62
               2
100
AcDbLine
 10
-2.0
 20
0.7000000000000171
 30
0.0
 11
-1.0
 21
0.7000000000000171
 31
0.0
  0
LINE
  5
1AD
100
AcDbEntity
  8
0
  6
CONTINUOUS
 62
               2
100
AcDbLine
 10
-2.0
 20
-0.6999999999999957
 30
0.0
 11
-1.0
 21
-0.6999999999999957
 31
0.0
  0
LINE
  5
1AE
100
AcDbEntity
  8
0
  6
CONTINUOUS
 62
               7
100
AcDbLine
 10
-2.0
 20
-2.0000000379677303
 30
0.0
 11
-2.0
 21
2.0000000216369074
 31
0.0
  0
LINE
  5
1AF
100
AcDbEntity
  8
0
  6
CONTINUOUS
 62
               7
100
AcDbLine
 10
-3.6000000000000085
 20
-2.0000000379677303
 30
0.0
 11
-3.6000000000000085
 21
2.0000000216369074
 31
0.0
  0
LINE
  5
1B0
100
AcDbEntity
  8
0
  6
CONTINUOUS
 62
               7
100
AcDbLine
 10
-5.2000000000000028
 20
-2.0000000379677303
 30
0.0
 11
-5.2000000000000028
 21
2.0000000216369074
 31
0.0
  0
LINE
  5
1B1
100
AcDbEntity
  8
0
  6
CONTINUOUS
 62
               7
100
AcDbLine
 10
-5.2000000306243521
 20
1.9999999620322626
 30
0.0
 11
-5.0213672944182974
 21
2.3094009377364557
 31
0.0
  0
LINE
  5
1B2
100
AcDbEntity
  8
0
  6
CONTINUOUS
 62
               7
100
AcDbLine
 10
-3.599999969375645
 20
1.9999999620322626
 30
0.0
 11
-3.7786327055816997
 21
2.3094009377364557
 31
0.0
  0
LINE
  5
1B3
100
AcDbEntity
  8
0
  6
CONTINUOUS
 62
               7
100
AcDbLine
 10
-3.7786327651863445
 20
1.1547004811809529
 30
0.0
 11
-5.0213672348136527
 21
1.1547004811809529
 31
0.0
  0
LINE
  5
1B4
100
AcDbEntity
  8
0
  6
CONTINUOUS
 62
               7
100
AcDbLine
 10
-3.7786327651863445
 20
2.3094010209507303
 30
0.0
 11
-5.0213672463745098
 21
2.3094010209507303
 31
0.0
  0
LINE
  5
1B5
100
AcDbEntity
  8
0
  6
CONTINUOUS
 62
               7
100
AcDbLine
 10
-3.4213672348136583
 20
2.3094010209507303
 30
0.0
 11
-2.1786327536254788
 21
2.3094010209507303
 31
0.0
  0
LINE
  5
1B6
100
AcDbEntity
  8
0
  6
CONTINUOUS
 62
               7
100
AcDbLine
 10
-3.4213672348136583
 20
1.1547004811809529
 30
0.0
 11
-2.1786327651863502
 21
1.1547004811809529
 31
0.0
  0
LINE
  5
1B7
100
AcDbEntity
  8
0
  6
CONTINUOUS
 62
               7
100
AcDbLine
 10
-3.6000000306243578
 20
1.9999999620322626
 30
0.0
 11
-3.4213672944183031
 21
2.3094009377364557
 31
0.0
  0
LINE
  5
1B8
100
AcDbEntity
  8
0
  6
CONTINUOUS
 62
               7
100
AcDbLine
 10
-1.9999999693756507
 20
1.9999999620322626
 30
0.0
 11
-2.1786327055817054
 21
2.3094009377364557
 31
0.0
  0
LINE
  5
1B9
100
AcDbEntity
  8
0
  6
CONTINUOUS
 62
               7
100
AcDbLine
 10
-5.2000000306243521
 20
-1.9999999620322555
 30
0.0
 11
-5.0213672944182974
 21
-2.3094009377364486
 31
0.0
  0
LINE
  5
1BA
100
AcDbEntity
  8
0
  6
CONTINUOUS
 62
               7
100
AcDbLine
 10
-3.7786327651863445
 20
-1.1547004811809458
 30
0.0
 11
-5.0213672348136527
 21
-1.1547004811809458
 31
0.0
  0
LINE
  5
1BB
100
AcDbEntity
  8
0
  6
CONTINUOUS
 62
               7
100
AcDbLine
 10
-3.599999969375645
 20
-1.9999999620322555
 30
0.0
 11
-3.7786327055816997
 21
-2.3094009377364486
 31
0.0
  0
LINE
  5
1BC
100
AcDbEntity
  8
0
  6
CONTINUOUS
 62
               7
100
AcDbLine
 10
-3.7786327651863445
 20
-2.3094010569457382
 30
0.0
 11
-5.0213671974068035
 21
-2.3094010569457382
 31
0.0
  0
LINE
  5
1BD
100
AcDbEntity
  8
0
  6
CONTINUOUS
 62
               7
100
AcDbLine
 10
-3.4213672348136583
 20
-2.3094010569457382
 30
0.0
 11
-2.1786328025931994
 21
-2.3094010569457382
 31
0.0
  0
LINE
  5
1BE
100
AcDbEntity
  8
0
  6
CONTINUOUS
 62
               7
100
AcDbLine
 10
-3.6000000306243578
 20
-1.9999999620322555
 30
0.0
 11
-3.4213672944183031
 21
-2.3094009377364486
 31
0.0
  0
LINE
  5
1BF
100
AcDbEntity
  8
0
  6
CONTINUOUS
 62
               7
100
AcDbLine
 10
-3.4213672348136583
 20
-1.1547004811809458
 30
0.0
 11
-2.1786327651863502
 21
-1.1547004811809458
 31
0.0
  0
LINE
  5
1C0
100
AcDbEntity
  8
0
  6
CONTINUOUS
 62
               7
100
AcDbLine
 10
-1.9999999693756507
 20
-1.9999999620322555
 30
0.0
 11
-2.1786327055817054
 21
-2.3094009377364486
 31
0.0
  0
SPLINE
  5
1C1
100
AcDbEntity
  8
0
  6
CONTINUOUS
 62
               7
100
AcDbSpline
210
0.0
220
0.0
230
1.0
 70
               0
 71
               3
 72
               0
 73
               0
 74
               5
 44
0.000001
 12
0.2955766966256462
 22
-0.9553190129019054
 32
0.0
 13
-0.2955766966256495
 23
-0.9553190129019044
 33
0.0
 11
-2.1786327651863502
 21
1.1547004811809529
 31
0.0
 11
-2.0461460731108998
 21
0.5845636058644737
 31
0.0
 11
-2.0
 21
0.0
 31
0.0
 11
-2.0461460731108994
 21
-0.5845636058644703
 31
0.0
 11
-2.1786327651863502
 21
-1.154700481180946
 31
0.0
  0
SPLINE
  5
1C2
100
AcDbEntity
  8
0
  6
CONTINUOUS
 62
               7
100
AcDbSpline
210
0.0
220
0.0
230
1.0
 70
               0
 71
               3
 72
               0
 73
               0
 74
               5
 44
0.000001
 12
-0.2955766966256463
 22
-0.9553190129019052
 32
0.0
 13
0.2955766966256496
 23
-0.9553190129019042
 33
0.0
 11
-3.4213672348136583
 21
1.1547004811809529
 31
0.0
 11
-3.5538539268891087
 21
0.5845636058644737
 31
0.0
 11
-3.6000000000000085
 21
0.0
 31
0.0
 11
-3.5538539268891092
 21
-0.5845636058644703
 31
0.0
 11
-3.4213672348136583
 21
-1.154700481180946
 31
0.0
  0
SPLINE
  5
1C3
100
AcDbEntity
  8
0
  6
CONTINUOUS
 62
               7
100
AcDbSpline
210
0.0
220
0.0
230
1.0
 70
               0
 71
               3
 72
               0
 73
               0
 74
               5
 44
0.000001
 12
0.2955766966256462
 22
-0.9553190129019054
 32
0.0
 13
-0.2955766966256495
 23
-0.9553190129019044
 33
0.0
 11
-3.7786327651863445
 21
1.1547004811809529
 31
0.0
 11
-3.6461460731109012
 21
0.5845636058644737
 31
0.0
 11
-3.6000000000000085
 21
0.0
 31
0.0
 11
-3.6461460731109008
 21
-0.5845636058644703
 31
0.0
 11
-3.7786327651863445
 21
-1.154700481180946
 31
0.0
  0
SPLINE
  5
1C4
100
AcDbEntity
  8
0
  6
CONTINUOUS
 62
               7
100
AcDbSpline
210
0.0
220
0.0
230
1.0
 70
               0
 71
               3
 72
               0
 73
               0
 74
               5
 44
0.000001
 12
-0.2955766966256463
 22
-0.9553190129019052
 32
0.0
 13
0.2955766966256496
 23
-0.9553190129019042
 33
0.0
 11
-5.0213672348136527
 21
1.1547004811809529
 31
0.0
 11
-5.153853926889103
 21
0.5845636058644737
 31
0.0
 11
-5.2000000000000028
 21
0.0
 31
0.0
 11
-5.1538539268891039
 21
-0.5845636058644703
 31
0.0
 11
-5.0213672348136527
 21
-1.154700481180946
 31
0.0
  0
SPLINE
  5
1C5
100
AcDbEntity
  8
0
  6
CONTINUOUS
 62
               7
100
AcDbSpline
210
0.0
220
0.0
230
1.0
 70
               0
 71
               3
 72
               0
 73
               0
 74
               5
 44
0.000001
 12
-0.526203566222449
 22
-0.8503586342801353
 32
0.0
 13
0.5262036381605767
 23
-0.8503585897646786
 33
0.0
 11
-5.0213672944182974
 21
2.3094009377364557
 31
0.0
 11
-5.1504352512823557
 21
2.0326195706433641
 31
0.0
 11
-5.2000000000000028
 21
1.7320507690633633
 31
0.0
 11
-5.1504352373563753
 21
1.4314819019278771
 31
0.0
 11
-5.0213672348136527
 21
1.1547004811809527
 31
0.0
  0
SPLINE
  5
1C6
100
AcDbEntity
  8
0
  6
CONTINUOUS
 62
               7
100
AcDbSpline
210
0.0
220
0.0
230
1.0
 70
               0
 71
               3
 72
               0
 73
               0
 74
               5
 44
0.000001
 12
0.5262035662224491
 22
-0.8503586342801351
 32
0.0
 13
-0.5262036381605768
 23
-0.8503585897646785
 33
0.0
 11
-3.7786327055816997
 21
2.3094009377364557
 31
0.0
 11
-3.6495647487176486
 21
2.0326195706433641
 31
0.0
 11
-3.6000000000000085
 21
1.7320507690633633
 31
0.0
 11
-3.6495647626436289
 21
1.4314819019278771
 31
0.0
 11
-3.7786327651863445
 21
1.1547004811809527
 31
0.0
  0
SPLINE
  5
1C7
100
AcDbEntity
  8
0
  6
CONTINUOUS
 62
               7
100
AcDbSpline
210
0.0
220
0.0
230
1.0
 70
               0
 71
               3
 72
               0
 73
               0
 74
               5
 44
0.000001
 12
-0.526203566222449
 22
-0.8503586342801353
 32
0.0
 13
0.5262036381605767
 23
-0.8503585897646786
 33
0.0
 11
-3.4213672944183031
 21
2.3094009377364557
 31
0.0
 11
-3.5504352512823614
 21
2.0326195706433641
 31
0.0
 11
-3.6000000000000085
 21
1.7320507690633633
 31
0.0
 11
-3.550435237356381
 21
1.4314819019278771
 31
0.0
 11
-3.4213672348136583
 21
1.1547004811809527
 31
0.0
  0
SPLINE
  5
1C8
100
AcDbEntity
  8
0
  6
CONTINUOUS
 62
               7
100
AcDbSpline
210
0.0
220
0.0
230
1.0
 70
               0
 71
               3
 72
               0
 73
               0
 74
               5
 44
0.000001
 12
0.5262035662224491
 22
-0.8503586342801351
 32
0.0
 13
-0.5262036381605768
 23
-0.8503585897646785
 33
0.0
 11
-2.1786327055817054
 21
2.3094009377364557
 31
0.0
 11
-2.0495647487176472
 21
2.0326195706433641
 31
0.0
 11
-2.0
 21
1.7320507690633633
 31
0.0
 11
-2.0495647626436275
 21
1.4314819019278771
 31
0.0
 11
-2.1786327651863502
 21
1.1547004811809527
 31
0.0
  0
SPLINE
  5
1C9
100
AcDbEntity
  8
0
  6
CONTINUOUS
 62
               7
100
AcDbSpline
210
0.0
220
0.0
230
1.0
 70
               0
 71
               3
 72
               0
 73
               0
 74
               5
 44
0.000001
 12
-0.526203566222449
 22
0.8503586342801353
 32
0.0
 13
0.5262036381605767
 23
0.8503585897646786
 33
0.0
 11
-5.0213672944182974
 21
-2.3094009377364486
 31
0.0
 11
-5.1504352512823557
 21
-2.032619570643357
 31
0.0
 11
-5.2000000000000028
 21
-1.7320507690633562
 31
0.0
 11
-5.1504352373563753
 21
-1.4314819019278699
 31
0.0
 11
-5.0213672348136527
 21
-1.1547004811809456
 31
0.0
  0
SPLINE
  5
1CA
100
AcDbEntity
  8
0
  6
CONTINUOUS
 62
               7
100
AcDbSpline
210
0.0
220
0.0
230
1.0
 70
               0
 71
               3
 72
               0
 73
               0
 74
               5
 44
0.000001
 12
0.5262035662224491
 22
0.8503586342801351
 32
0.0
 13
-0.5262036381605768
 23
0.8503585897646785
 33
0.0
 11
-3.7786327055816997
 21
-2.3094009377364486
 31
0.0
 11
-3.6495647487176486
 21
-2.032619570643357
 31
0.0
 11
-3.6000000000000085
 21
-1.7320507690633562
 31
0.0
 11
-3.6495647626436289
 21
-1.4314819019278699
 31
0.0
 11
-3.7786327651863445
 21
-1.1547004811809456
 31
0.0
  0
SPLINE
  5
1CB
100
AcDbEntity
  8
0
  6
CONTINUOUS
 62
               7
100
AcDbSpline
210
0.0
220
0.0
230
1.0
 70
               0
 71
               3
 72
               0
 73
               0
 74
               5
 44
0.000001
 12
-0.526203566222449
 22
0.8503586342801353
 32
0.0
 13
0.5262036381605767
 23
0.8503585897646786
 33
0.0
 11
-3.4213672944183031
 21
-2.3094009377364486
 31
0.0
 11
-3.5504352512823614
 21
-2.032619570643357
 31
0.0
 11
-3.6000000000000085
 21
-1.7320507690633562
 31
0.0
 11
-3.550435237356381
 21
-1.4314819019278699
 31
0.0
 11
-3.4213672348136583
 21
-1.1547004811809456
 31
0.0
  0
SPLINE
  5
1CC
100
AcDbEntity
  8
0
  6
CONTINUOUS
 62
               7
100
AcDbSpline
210
0.0
220
0.0
230
1.0
 70
               0
 71
               3
 72
               0
 73
               0
 74
               5
 44
0.000001
 12
0.5262035662224491
 22
0.8503586342801351
 32
0.0
 13
-0.5262036381605768
 23
0.8503585897646785
 33
0.0
 11
-2.1786327055817054
 21
-2.3094009377364486
 31
0.0
 11
-2.0495647487176472
 21
-2.032619570643357
 31
0.0
 11
-2.0
 21
-1.7320507690633562
 31
0.0
 11
-2.0495647626436275
 21
-1.4314819019278699
 31
0.0
 11
-2.1786327651863502
 21
-1.1547004811809456
 31
0.0
  0
LINE
  5
1CD
100
AcDbEntity
  8
0
  6
CENTER
 62
               2
100
AcDbLine
 10
3.5
 20
1.9547775518886965
 30
0.0
 11
3.5
 21
-1.9760956580291094
 31
0.0
  0
CIRCLE
  5
1CE
100
AcDbEntity
  8
0
  6
CONTINUOUS
 62
               2
100
AcDbCircle
 10
3.5
 20
0.0000000000000142
 30
0.0
 40
1.5
  0
CIRCLE
  5
1CF
100
AcDbEntity
  8
0
  6
CONTINUOUS
 62
               7
100
AcDbCircle
 10
3.5
 20
0.0000000000000142
 30
0.0
 40
1.1999999999999886
  0
LINE
  5
1D0
100
AcDbEntity
  8
0
  6
CONTINUOUS
 62
               7
100
AcDbLine
 10
-0.0000000230649846
 20
-3.9999999675247047
 30
0.0
 11
7.2104470013298254
 21
-3.9999999675247047
 31
0.0
  0
LINE
  5
1D1
100
AcDbEntity
  8
0
  6
CONTINUOUS
 62
               7
100
AcDbLine
 10
-0.0000000230649846
 20
-4.7596383717443906
 30
0.0
 11
6.9641399145171334
 21
-4.7596383717443906
 31
0.0
  0
LINE
  5
1D2
100
AcDbEntity
  8
0
  6
CONTINUOUS
 62
               7
100
AcDbLine
 10
-0.0000000230649846
 20
-6.7928931948152567
 30
0.0
 11
8.0060010100683598
 21
-6.7928931948152567
 31
0.0
  0
LINE
  5
1D3
100
AcDbEntity
  8
0
  6
CONTINUOUS
 62
               7
100
AcDbLine
 10
10.789552998670175
 20
-3.9999999675247047
 30
0.0
 11
34.000000000000114
 21
-3.9999999675247047
 31
0.0
  0
LINE
  5
1D4
100
AcDbEntity
  8
0
  6
CONTINUOUS
 62
               7
100
AcDbLine
 10
11.035860085482867
 20
-4.7596383717443906
 30
0.0
 11
34.000000000000114
 21
-4.7596383717443906
 31
0.0
  0
LINE
  5
1D5
100
AcDbEntity
  8
0
  6
CONTINUOUS
 62
               7
100
AcDbLine
 10
9.9939989899316402
 20
-6.7928931948152567
 30
0.0
 11
16.999999968200143
 21
-6.7928931948152567
 31
0.0
  0
LINE
  5
1D6
100
AcDbEntity
  8
0
  6
CONTINUOUS
 62
               7
100
AcDbLine
 10
10.789552998670175
 20
3.9999999675247047
 30
0.0
 11
34.000000000000114
 21
3.9999999675247047
 31
0.0
  0
LINE
  5
1D7
100
AcDbEntity
  8
0
  6
CONTINUOUS
 62
               7
100
AcDbLine
 10
11.035860085482867
 20
4.7596383717443906
 30
0.0
 11
34.000000000000114
 21
4.7596383717443906
 31
0.0
  0
LINE
  5
1D8
100
AcDbEntity
  8
0
  6
CONTINUOUS
 62
               7
100
AcDbLine
 10
25.000000031799999
 20
6.7928931948152567
 30
0.0
 11
34.000000000000114
 21
6.7928931948152567
 31
0.0
  0
LINE
  5
1D9
100
AcDbEntity
  8
0
  6
CONTINUOUS
 62
               7
100
AcDbLine
 10
-0.0000000230649846
 20
3.9999999675247047
 30
0.0
 11
7.2104470013298254
 21
3.9999999675247047
 31
0.0
  0
LINE
  5
1DA
100
AcDbEntity
  8
0
  6
CONTINUOUS
 62
               7
100
AcDbLine
 10
-0.0000000230649846
 20
4.7596383717443906
 30
0.0
 11
6.9641399145171334
 21
4.7596383717443906
 31
0.0
  0
LINE
  5
1DB
100
AcDbEntity
  8
0
  6
CONTINUOUS
 62
               7
100
AcDbLine
 10
-0.0000000230649846
 20
6.7928931948152567
 30
0.0
 11
8.0060010100683598
 21
6.7928931948152567
 31
0.0
  0
LINE
  5
1DC
100
AcDbEntity
  8
0
  6
CENTER
 62
               2
100
AcDbLine
 10
31.0
 20
1.9547775518886965
 30
0.0
 11
31.0
 21
-1.9760956580291094
 31
0.0
  0
CIRCLE
  5
1DD
100
AcDbEntity
  8
0
  6
CONTINUOUS
 62
               2
100
AcDbCircle
 10
31.0
 20
0.0000000000000142
 30
0.0
 40
1.5
  0
CIRCLE
  5
1DE
100
AcDbEntity
  8
0
  6
CONTINUOUS
 62
               7
100
AcDbCircle
 10
31.0
 20
0.0000000000000142
 30
0.0
 40
1.1999999999999886
  0
LINE
  5
1DF
100
AcDbEntity
  8
0
  6
CENTER
 62
               2
100
AcDbLine
 10
14.0
 20
1.9547775518886965
 30
0.0
 11
14.0
 21
-1.9760956580291094
 31
0.0
  0
CIRCLE
  5
1E0
100
AcDbEntity
  8
0
  6
CONTINUOUS
 62
               2
100
AcDbCircle
 10
14.0
 20
0.0000000000000142
 30
0.0
 40
1.5
  0
CIRCLE
  5
1E1
100
AcDbEntity
  8
0
  6
CONTINUOUS
 62
               7
100
AcDbCircle
 10
14.0
 20
0.0000000000000142
 30
0.0
 40
1.1999999999999886
  0
LINE
  5
1E2
100
AcDbEntity
  8
0
  6
CONTINUOUS
 62
               7
100
AcDbLine
 10
34.000000000000114
 20
7.5
 30
0.0
 11
34.000000000000114
 21
-7.5
 31
0.0
  0
LINE
  5
1E3
100
AcDbEntity
  8
0
  6
CENTER
 62
               2
100
AcDbLine
 10
-8.3483094814212819
 20
0.0
 30
0.0
 11
34.846416164038573
 21
0.0
 31
0.0
  0
LINE
  5
1E4
100
AcDbEntity
  8
0
  6
CONTINUOUS
 62
               7
100
AcDbLine
 10
0.0
 20
7.5
 30
0.0
 11
0.0
 21
-7.5
 31
0.0
  0
LINE
  5
1E5
100
AcDbEntity
  8
0
  6
CENTER
 62
               2
100
AcDbLine
 10
9.0
 20
-7.7999999999999972
 30
0.0
 11
9.0
 21
-2.2000000000000028
 31
0.0
  0
LINE
  5
1E6
100
AcDbEntity
  8
0
  6
CENTER
 62
               2
100
AcDbLine
 10
6.2000000000000171
 20
-5.0
 30
0.0
 11
11.799999999999983
 21
-5.0
 31
0.0
  0
LINE
  5
1E7
100
AcDbEntity
  8
0
  6
CENTER
 62
               2
100
AcDbLine
 10
9.0
 20
7.7999999999999972
 30
0.0
 11
9.0
 21
2.2000000000000028
 31
0.0
  0
LINE
  5
1E8
100
AcDbEntity
  8
0
  6
CENTER
 62
               2
100
AcDbLine
 10
6.2000000000000171
 20
5.0
 30
0.0
 11
11.799999999999983
 21
5.0
 31
0.0
  0
LINE
  5
1E9
100
AcDbEntity
  8
0
  6
CONTINUOUS
 62
               7
100
AcDbLine
 10
0.0
 20
-7.5
 30
0.0
 11
16.999999968200143
 21
-7.5
 31
0.0
  0
LINE
  5
1EA
100
AcDbEntity
  8
0
  6
CONTINUOUS
 62
               7
100
AcDbLine
 10
0.0
 20
7.5
 30
0.0
 11
20.40000002204809
 21
7.5
 31
0.0
  0
ARC
  5
1EB
100
AcDbEntity
  8
0
  6
CONTINUOUS
 62
               7
100
AcDbCircle
 10
9.0
 20
5.0
 30
0.0
 40
2.0499999999999998
100
AcDbArc
 50
60.803595590367706
 51
353.26660584743428
  0
ARC
  5
1EC
100
AcDbEntity
  8
0
  6
CONTINUOUS
 62
               7
100
AcDbCircle
 10
9.0
 20
5.0
 30
0.0
 40
1.1000000000000001
100
AcDbArc
 50
24.619977328657054
 51
335.38002267134215
  0
CIRCLE
  5
1ED
100
AcDbEntity
  8
0
  6
CONTINUOUS
 62
               7
100
AcDbCircle
 10
9.0
 20
-5.0
 30
0.0
 40
2.0499999999999998
  0
CIRCLE
  5
1EE
100
AcDbEntity
  8
0
  6
CONTINUOUS
 62
               7
100
AcDbCircle
 10
9.0
 20
-5.0
 30
0.0
 40
1.1000000000000001
  0
LINE
  5
1EF
100
AcDbEntity
  8
0
  6
CONTINUOUS
 62
               7
100
AcDbLine
 10
25.000000031799999
 20
7.5
 30
0.0
 11
34.000000000000114
 21
7.5
 31
0.0
  0
LINE
  5
1F0
100
AcDbEntity
  8
0
  6
CONTINUOUS
 62
               7
100
AcDbLine
 10
32.000000000000114
 20
-6.7928931948152567
 30
0.0
 11
34.000000000000114
 21
-6.7928931948152567
 31
0.0
  0
LINE
  5
1F1
100
AcDbEntity
  8
0
  6
CONTINUOUS
 62
               7
100
AcDbLine
 10
21.599999977952251
 20
-7.5
 30
0.0
 11
34.000000000000114
 21
-7.5
 31
0.0
  0
ENDBLK
  5
1F2
100
AcDbEntity
  8
0
100
AcDbBlockEnd
  0
BLOCK
  5
1F3
100
AcDbEntity
  8
0
100
AcDbBlockBegin
  2
MS_6
 70
               0
 10
0.0
 20
0.0
 30
0.0
  3
MS_6
  1

  0
LINE
  5
1F4
100
AcDbEntity
  8
0
  6
CONTINUOUS
 62
               4
100
AcDbLine
 10
12.21034125326009
 20
-11.133518629259747
 30
0.0
 11
14.582187990012336
 21
-13.505365366011915
 31
0.0
  0
LINE
  5
1F5
100
AcDbEntity
  8
0
  6
CONTINUOUS
 62
               4
100
AcDbLine
 10
14.11952956651124
 20
-9.2243303160086043
 30
0.0
 11
16.215518583124187
 21
-11.320319332621395
 31
0.0
  0
LINE
  5
1F6
100
AcDbEntity
  8
0
  6
PHANTOM
 62
             200
100
AcDbLine
 10
16.851286411759709
 20
-10.26475697789153
 30
0.0
 11
13.835701370846529
 21
-14.57145874323313
 31
0.0
  0
LINE
  5
1F7
100
AcDbEntity
  8
0
  6
CONTINUOUS
 62
               4
100
AcDbLine
 10
14.606423099797759
 20
-8.7374367827220567
 30
0.0
 11
11.707285285006556
 21
-11.63657459751321
 31
0.0
  0
LINE
  5
1F8
100
AcDbEntity
  8
0
  6
CONTINUOUS
 62
               4
100
AcDbLine
 10
11.495153258717757
 20
-5.6261669416421043
 30
0.0
 11
10.717335792946876
 21
-5.6261669416421043
 31
0.0
  0
LINE
  5
1F9
100
AcDbEntity
  8
0
  6
CONTINUOUS
 62
               4
100
AcDbLine
 10
8.5960154328479987
 20
-7.7474872776569725
 30
0.0
 11
8.5960154448901633
 21
-8.5253047554699322
 31
0.0
  0
LINE
  5
1FA
100
AcDbEntity
  8
0
  6
CONTINUOUS
 62
               4
100
AcDbLine
 10
14.606423094017664
 20
-8.7374367885021798
 30
0.0
 11
11.495153250201021
 21
-5.6261669446855045
 31
0.0
  0
LINE
  5
1FB
100
AcDbEntity
  8
0
  6
CONTINUOUS
 62
               4
100
AcDbLine
 10
11.707285285006556
 20
-11.63657459751321
 30
0.0
 11
8.5960154411898557
 21
-8.5253047536965312
 31
0.0
  0
LINE
  5
1FC
100
AcDbEntity
  8
0
  6
CONTINUOUS
 62
               4
100
AcDbLine
 10
9.7263762019600861
 20
-3.8594102015379619
 30
0.0
 11
9.7283965070533398
 21
-4.6372276624921334
 31
0.0
  0
LINE
  5
1FD
100
AcDbEntity
  8
0
  6
CONTINUOUS
 62
               4
100
AcDbLine
 10
10.717335786203428
 20
-5.6261669416421043
 30
0.0
 11
9.7283965070533398
 21
-4.6372276624921334
 31
0.0
  0
LINE
  5
1FE
100
AcDbEntity
  8
0
  6
CONTINUOUS
 62
               4
100
AcDbLine
 10
8.5960154448901633
 20
-7.7474872964424719
 30
0.0
 11
7.6070761589966267
 21
-6.7585480105489957
 31
0.0
  0
LINE
  5
1FF
100
AcDbEntity
  8
0
  6
CONTINUOUS
 62
               4
100
AcDbLine
 10
6.8272383929489493
 20
-6.7585480105489957
 30
0.0
 11
7.6070761589966267
 21
-6.7585480105489957
 31
0.0
  0
LINE
  5
200
100
AcDbEntity
  8
0
  6
CONTINUOUS
 62
               4
100
AcDbLine
 10
6.8272383929489493
 20
-6.7585480105489957
 30
0.0
 11
5.7322330323330917
 21
-5.6635426499329817
 31
0.0
  0
ARC
  5
201
100
AcDbEntity
  8
0
  6
CONTINUOUS
 62
               4
100
AcDbCircle
 10
7.180791131628645
 20
-4.2139001644890612
 30
0.0
 40
2.0506628653391066
100
AcDbArc
 50
44.978576158876109
 51
134.94156910908407
  0
ARC
  5
202
100
AcDbEntity
  8
0
  6
CONTINUOUS
 62
               4
100
AcDbCircle
 10
7.1836537057114143
 20
-4.2129635928807723
 30
0.0
 40
2.0520237746840961
100
AcDbArc
 50
135.01661649434493
 51
224.98338350565427
  0
LINE
  5
203
100
AcDbEntity
  8
0
  6
CENTER
 62
             200
100
AcDbLine
 10
16.39338124469527
 20
-13.423532748190837
 30
0.0
 11
5.0899834811181179
 21
-2.120134984613621
 31
0.0
  0
LINE
  5
204
100
AcDbEntity
  8
0
  6
CONTINUOUS
 62
               4
100
AcDbLine
 10
13.899316317112273
 20
-8.0303300000364359
 30
0.0
 11
11.000178502321013
 21
-10.929467814827589
 31
0.0
  0
LINE
  5
205
100
AcDbEntity
  8
0
  6
CONTINUOUS
 62
               4
100
AcDbLine
 10
10.717335785531056
 20
5.6261669409697319
 30
0.0
 11
9.7283965063809674
 21
4.6372276618197645
 31
0.0
  0
LINE
  5
206
100
AcDbEntity
  8
0
  6
CONTINUOUS
 62
               4
100
AcDbLine
 10
6.8272383922765769
 20
6.7585480098766268
 30
0.0
 11
7.6070761583242543
 21
6.7585480098766268
 31
0.0
  0
LINE
  5
207
100
AcDbEntity
  8
0
  6
CONTINUOUS
 62
               4
100
AcDbLine
 10
9.1606907751391091
 20
3.2937247747170773
 30
0.0
 11
6.2615529661281712
 21
6.1928625837281075
 31
0.0
  0
LINE
  5
208
100
AcDbEntity
  8
0
  6
CENTER
 62
             200
100
AcDbLine
 10
16.393381244022898
 20
13.423532747518415
 30
0.0
 11
5.0899834804457456
 21
2.1201349839412558
 31
0.0
  0
LINE
  5
209
100
AcDbEntity
  8
0
  6
CONTINUOUS
 62
               4
100
AcDbLine
 10
8.596015444217791
 20
7.7474872957700427
 30
0.0
 11
7.6070761583242543
 21
6.7585480098766268
 31
0.0
  0
LINE
  5
20A
100
AcDbEntity
  8
0
  6
CONTINUOUS
 62
               4
100
AcDbLine
 10
10.045584406042913
 20
4.9544155614816034
 30
0.0
 11
7.924264057986143
 21
7.0757359095384089
 31
0.0
  0
LINE
  5
20B
100
AcDbEntity
  8
0
  6
CONTINUOUS
 62
               4
100
AcDbLine
 10
11.707285284334183
 20
11.636574596840781
 30
0.0
 11
8.5960154405174833
 21
8.525304753024102
 31
0.0
  0
LINE
  5
20C
100
AcDbEntity
  8
0
  6
CONTINUOUS
 62
               4
100
AcDbLine
 10
14.606423093345292
 20
8.7374367878298145
 30
0.0
 11
11.495153249528649
 21
5.6261669440130717
 31
0.0
  0
LINE
  5
20D
100
AcDbEntity
  8
0
  6
CONTINUOUS
 62
               4
100
AcDbLine
 10
8.5960154321756264
 20
7.7474872769846002
 30
0.0
 11
8.596015444217791
 21
8.5253047547975029
 31
0.0
  0
LINE
  5
20E
100
AcDbEntity
  8
0
  6
CONTINUOUS
 62
               4
100
AcDbLine
 10
11.495153258045384
 20
5.6261669409697319
 30
0.0
 11
10.717335792274504
 21
5.6261669409697319
 31
0.0
  0
LINE
  5
20F
100
AcDbEntity
  8
0
  6
CONTINUOUS
 62
               4
100
AcDbLine
 10
14.606423099125386
 20
8.7374367820496346
 30
0.0
 11
11.707285284334183
 21
11.636574596840781
 31
0.0
  0
LINE
  5
210
100
AcDbEntity
  8
0
  6
PHANTOM
 62
             200
100
AcDbLine
 10
16.851286411087337
 20
10.264756977219101
 30
0.0
 11
13.835701370174156
 21
14.571458742560765
 31
0.0
  0
LINE
  5
211
100
AcDbEntity
  8
0
  6
CONTINUOUS
 62
               4
100
AcDbLine
 10
14.119529565838867
 20
9.2243303153361751
 30
0.0
 11
16.215518582451814
 21
11.320319331948973
 31
0.0
  0
LINE
  5
212
100
AcDbEntity
  8
0
  6
CONTINUOUS
 62
               4
100
AcDbLine
 10
12.210341252587718
 20
11.133518628587325
 30
0.0
 11
14.582187989339964
 21
13.505365365339493
 31
0.0
  0
LINE
  5
213
100
AcDbEntity
  8
0
  6
CONTINUOUS
 62
               4
100
AcDbLine
 10
6.4049946277587608
 20
2.3765062623191895
 30
0.0
 11
5.3443344537301769
 21
3.4371664363476171
 31
0.0
  0
LINE
  5
214
100
AcDbEntity
  8
0
  6
CONTINUOUS
 62
               4
100
AcDbLine
 10
8.5966316975188946
 20
2.7304536102272721
 30
0.0
 11
5.6978878450730477
 21
5.6291974626730266
 31
0.0
  0
LINE
  5
215
100
AcDbEntity
  8
0
  6
CONTINUOUS
 62
               4
100
AcDbLine
 10
7.112101410444275
 20
2.3765062623191895
 30
0.0
 11
5.3443344537301769
 21
4.144273219033181
 31
0.0
  0
ARC
  5
216
100
AcDbEntity
  8
0
  6
CONTINUOUS
 62
               4
100
AcDbCircle
 10
7.1836537050390419
 20
4.2129635922084034
 30
0.0
 40
2.0520237746840961
100
AcDbArc
 50
135.01661649434493
 51
224.98338350565427
  0
LINE
  5
217
100
AcDbEntity
  8
0
  6
CONTINUOUS
 62
               4
100
AcDbLine
 10
5.3443344537301769
 20
4.144273219033181
 30
0.0
 11
5.3443344537301769
 21
3.4371664363476171
 31
0.0
  0
LINE
  5
218
100
AcDbEntity
  8
0
  6
CONTINUOUS
 62
               4
100
AcDbLine
 10
6.2635732712214249
 20
5.0635120365245072
 30
0.0
 11
5.3443344537301769
 21
4.144273219033181
 31
0.0
  0
LINE
  5
219
100
AcDbEntity
  8
0
  6
CONTINUOUS
 62
               4
100
AcDbLine
 10
6.8272383922765769
 20
6.7585480098766268
 30
0.0
 11
5.7322330316607193
 21
5.6635426492606129
 31
0.0
  0
LINE
  5
21A
100
AcDbEntity
  8
0
  6
CONTINUOUS
 62
             200
100
AcDbLine
 10
6.4060047803054161
 20
4.921080527440715
 30
0.0
 11
5.3443344537301769
 21
3.8594102008655895
 31
0.0
  0
LINE
  5
21B
100
AcDbEntity
  8
0
  6
CONTINUOUS
 62
               4
100
AcDbLine
 10
9.7263762012877137
 20
3.8594102008655895
 30
0.0
 11
9.7283965063809674
 21
4.6372276618197645
 31
0.0
  0
ARC
  5
21C
100
AcDbEntity
  8
0
  6
CONTINUOUS
 62
               4
100
AcDbCircle
 10
7.1807911309562726
 20
4.213900163816696
 30
0.0
 40
2.0506628653391066
100
AcDbArc
 50
225.05843089091513
 51
315.02142384112307
  0
LINE
  5
21D
100
AcDbEntity
  8
0
  6
CONTINUOUS
 62
               4
100
AcDbLine
 10
6.4049946277587608
 20
2.3765062623191895
 30
0.0
 11
7.112101410444275
 21
2.3765062623191895
 31
0.0
  0
LINE
  5
21E
100
AcDbEntity
  8
0
  6
CONTINUOUS
 62
               4
100
AcDbLine
 10
8.0313402279355799
 20
3.2957450798104659
 30
0.0
 11
7.112101410444275
 21
2.3765062623191895
 31
0.0
  0
LINE
  5
21F
100
AcDbEntity
  8
0
  6
CONTINUOUS
 62
               4
100
AcDbLine
 10
9.7263762012877137
 20
3.8594102008655895
 30
0.0
 11
8.6313708406716287
 21
2.7644048402495827
 31
0.0
  0
LINE
  5
220
100
AcDbEntity
  8
0
  6
CONTINUOUS
 62
             200
100
AcDbLine
 10
7.8909290239450698
 20
3.4361562838009263
 30
0.0
 11
6.8312790024633685
 21
2.3765062623191895
 31
0.0
  0
LINE
  5
221
100
AcDbEntity
  8
0
  6
CONTINUOUS
 62
               4
100
AcDbLine
 10
9.7283965070533398
 20
-3.8573898964445767
 30
0.0
 11
8.633391146437539
 21
-2.7623845358285664
 31
0.0
  0
ARC
  5
222
100
AcDbEntity
  8
0
  6
CONTINUOUS
 62
               7
100
AcDbCircle
 10
3.0
 20
0.0
 30
0.0
 40
2.25
100
AcDbArc
 50
272.73395554926662
 51
327.26604445073252
  0
ARC
  5
223
100
AcDbEntity
  8
0
  6
CONTINUOUS
 62
               7
100
AcDbCircle
 10
3.0
 20
0.0
 30
0.0
 40
2.25
100
AcDbArc
 50
212.73395554926654
 51
267.26604445073269
  0
ARC
  5
224
100
AcDbEntity
  8
0
  6
CONTINUOUS
 62
               7
100
AcDbCircle
 10
3.0
 20
0.0
 30
0.0
 40
2.25
100
AcDbArc
 50
152.7339555492668
 51
207.26604445073272
  0
ARC
  5
225
100
AcDbEntity
  8
0
  6
CONTINUOUS
 62
               7
100
AcDbCircle
 10
3.0
 20
0.0
 30
0.0
 40
2.25
100
AcDbArc
 50
92.733955549267023
 51
147.26604445073284
  0
ARC
  5
226
100
AcDbEntity
  8
0
  6
CONTINUOUS
 62
               7
100
AcDbCircle
 10
3.0
 20
0.0
 30
0.0
 40
2.25
100
AcDbArc
 50
32.733955549267137
 51
87.266044450732949
  0
CIRCLE
  5
227
100
AcDbEntity
  8
0
  6
CONTINUOUS
 62
               7
100
AcDbCircle
 10
3.0
 20
0.0
 30
0.0
 40
2.4499999999999993
  0
ARC
  5
228
100
AcDbEntity
  8
0
  6
CONTINUOUS
 62
               7
100
AcDbCircle
 10
3.0
 20
0.0
 30
0.0
 40
2.25
100
AcDbArc
 50
332.7339555492664
 51
27.266044450733151
  0
CIRCLE
  5
229
100
AcDbEntity
  8
0
  6
CONTINUOUS
 62
               2
100
AcDbCircle
 10
3.0
 20
0.0
 30
0.0
 40
0.7000000000000028
  0
CIRCLE
  5
22A
100
AcDbEntity
  8
0
  6
CONTINUOUS
 62
               7
100
AcDbCircle
 10
3.0
 20
0.0
 30
0.0
 40
1.0
  0
CIRCLE
  5
22B
100
AcDbEntity
  8
0
  6
CONTINUOUS
 62
               7
100
AcDbCircle
 10
3.0
 20
0.0
 30
0.0
 40
2.0
  0
LINE
  5
22C
100
AcDbEntity
  8
0
  6
CONTINUOUS
 62
               7
100
AcDbLine
 10
3.0000000000000071
 20
-2.3094010767584976
 30
0.0
 11
1.0
 21
-1.1547005383792506
 31
0.0
  0
LINE
  5
22D
100
AcDbEntity
  8
0
  6
CONTINUOUS
 62
               7
100
AcDbLine
 10
5.0
 20
-1.1547005383792417
 30
0.0
 11
3.0
 21
-2.3094010767585029
 31
0.0
  0
LINE
  5
22E
100
AcDbEntity
  8
0
  6
CONTINUOUS
 62
               7
100
AcDbLine
 10
4.9999999999999929
 20
1.1547005383792559
 30
0.0
 11
5.0
 21
-1.1547005383792524
 31
0.0
  0
LINE
  5
22F
100
AcDbEntity
  8
0
  6
CONTINUOUS
 62
               7
100
AcDbLine
 10
2.9999999999999929
 20
2.3094010767584976
 30
0.0
 11
5.0
 21
1.1547005383792524
 31
0.0
  0
LINE
  5
230
100
AcDbEntity
  8
0
  6
CONTINUOUS
 62
               7
100
AcDbLine
 10
1.0
 20
1.1547005383792452
 30
0.0
 11
3.0
 21
2.3094010767585047
 31
0.0
  0
LINE
  5
231
100
AcDbEntity
  8
0
  6
CONTINUOUS
 62
               7
100
AcDbLine
 10
1.0000000000000071
 20
-1.1547005383792559
 30
0.0
 11
1.0
 21
1.1547005383792524
 31
0.0
  0
LINE
  5
232
100
AcDbEntity
  8
0
  6
CONTINUOUS
 62
               7
100
AcDbLine
 10
9.7627416913197962
 20
-4.5301514950182948
 30
0.0
 11
9.7627416913197962
 21
-3.8230447138317558
 31
0.0
  0
ARC
  5
233
100
AcDbEntity
  8
0
  6
CONTINUOUS
 62
               7
100
AcDbCircle
 10
10.116295081913073
 20
-4.4601140198405105
 30
0.0
 40
0.2995243519038812
100
AcDbArc
 50
224.90894124989543
 51
315.09105875010232
  0
LINE
  5
234
100
AcDbEntity
  8
0
  6
CONTINUOUS
 62
               7
100
AcDbLine
 10
9.9041630475571125
 20
-4.6715728512556112
 30
0.0
 11
9.7627416913197962
 21
-4.5301514950182948
 31
0.0
  0
LINE
  5
235
100
AcDbEntity
  8
0
  6
CONTINUOUS
 62
               7
100
AcDbLine
 10
9.7627416913197962
 20
-3.8230447138317558
 30
0.0
 11
8.6313708414213224
 21
-2.691673863933282
 31
0.0
  0
LINE
  5
236
100
AcDbEntity
  8
0
  6
CONTINUOUS
 62
               7
100
AcDbLine
 10
10.328427116269033
 20
-4.6715728512556112
 30
0.0
 11
11.0
 21
-3.9999999675247047
 31
0.0
  0
ARC
  5
237
100
AcDbEntity
  8
0
  6
CONTINUOUS
 62
               7
100
AcDbCircle
 10
7.146446600929572
 20
-4.1765981044250182
 30
0.0
 40
2.1000000111152071
100
AcDbArc
 50
44.999999999999901
 51
224.99999999999949
  0
LINE
  5
238
100
AcDbEntity
  8
0
  6
CONTINUOUS
 62
               7
100
AcDbLine
 10
6.7928932103362953
 20
-6.7928931948152567
 30
0.0
 11
5.6615223604378215
 21
-5.6615223449167829
 31
0.0
  0
ARC
  5
239
100
AcDbEntity
  8
0
  6
CONTINUOUS
 62
               7
100
AcDbCircle
 10
7.4283002315183566
 20
-7.1464465854085191
 30
0.0
 40
0.3007001998472195
100
AcDbArc
 50
-44.866737929198983
 51
44.866737929198038
  0
LINE
  5
23A
100
AcDbEntity
  8
0
  6
CONTINUOUS
 62
               7
100
AcDbLine
 10
7.6414213477601649
 20
-6.9343145510525588
 30
0.0
 11
7.4999999915228486
 21
-6.7928931948152567
 31
0.0
  0
LINE
  5
23B
100
AcDbEntity
  8
0
  6
CONTINUOUS
 62
               7
100
AcDbLine
 10
7.6742641087379511
 20
-7.3257358587866932
 30
0.0
 11
7.4999999675246372
 21
-7.5
 31
0.0
  0
LINE
  5
23C
100
AcDbEntity
  8
0
  6
CONTINUOUS
 62
               7
100
AcDbLine
 10
6.7928932103362953
 20
-6.7928931948152567
 30
0.0
 11
7.4999999915228486
 21
-6.7928931948152567
 31
0.0
  0
LINE
  5
23D
100
AcDbEntity
  8
0
  6
CONTINUOUS
 62
               7
100
AcDbLine
 10
9.9041630475571125
 20
4.6715728512556112
 30
0.0
 11
9.7627416913197962
 21
4.5301514950182948
 31
0.0
  0
ARC
  5
23E
100
AcDbEntity
  8
0
  6
CONTINUOUS
 62
               7
100
AcDbCircle
 10
10.116295081913073
 20
4.4601140198405105
 30
0.0
 40
0.2995243519038812
100
AcDbArc
 50
44.908941249896863
 51
135.09105875010374
  0
LINE
  5
23F
100
AcDbEntity
  8
0
  6
CONTINUOUS
 62
               7
100
AcDbLine
 10
9.7627416913197962
 20
4.5301514950182948
 30
0.0
 11
9.7627416913197962
 21
3.8230447138317558
 31
0.0
  0
LINE
  5
240
100
AcDbEntity
  8
0
  6
CONTINUOUS
 62
               7
100
AcDbLine
 10
9.7627416913197962
 20
3.8230447138317558
 30
0.0
 11
8.6313708414213224
 21
2.691673863933282
 31
0.0
  0
LINE
  5
241
100
AcDbEntity
  8
0
  6
CONTINUOUS
 62
               7
100
AcDbLine
 10
10.328427116269033
 20
4.6715728512556112
 30
0.0
 11
11.0
 21
3.9999999675247047
 31
0.0
  0
ARC
  5
242
100
AcDbEntity
  8
0
  6
CONTINUOUS
 62
               7
100
AcDbCircle
 10
7.146446600929572
 20
4.1765981044250182
 30
0.0
 40
2.1000000111152071
100
AcDbArc
 50
134.99999999999969
 51
314.99999999999932
  0
LINE
  5
243
100
AcDbEntity
  8
0
  6
CONTINUOUS
 62
               7
100
AcDbLine
 10
6.7928932103362953
 20
6.7928931948152567
 30
0.0
 11
5.6615223604378215
 21
5.6615223449167829
 31
0.0
  0
LINE
  5
244
100
AcDbEntity
  8
0
  6
CONTINUOUS
 62
               7
100
AcDbLine
 10
7.6409268068172338
 20
7.3590731607074087
 30
0.0
 11
7.4999999675246372
 21
7.5
 31
0.0
  0
LINE
  5
245
100
AcDbEntity
  8
0
  6
CONTINUOUS
 62
               7
100
AcDbLine
 10
7.6414213477601649
 20
6.9343145510525588
 30
0.0
 11
7.4999999915228486
 21
6.7928931948152567
 31
0.0
  0
LINE
  5
246
100
AcDbEntity
  8
0
  6
CONTINUOUS
 62
               7
100
AcDbLine
 10
6.7928932103362953
 20
6.7928931948152567
 30
0.0
 11
7.4999999915228486
 21
6.7928931948152567
 31
0.0
  0
ARC
  5
247
100
AcDbEntity
  8
0
  6
CONTINUOUS
 62
               7
100
AcDbCircle
 10
7.4283002315183566
 20
7.1464465854085191
 30
0.0
 40
0.3007001998472195
100
AcDbArc
 50
315.13326207080115
 51
45.000000000001322
  0
ARC
  5
248
100
AcDbEntity
  8
0
  6
CONTINUOUS
 62
               7
100
AcDbCircle
 10
0.3999999999999986
 20
-7.0999999999999996
 30
0.0
 40
0.4
100
AcDbArc
 50
179.9999999999996
 51
269.99999999999937
  0
ARC
  5
249
100
AcDbEntity
  8
0
  6
CONTINUOUS
 62
               7
100
AcDbCircle
 10
0.3999999999999986
 20
7.1000000000000014
 30
0.0
 40
0.4
100
AcDbArc
 50
89.999999999999801
 51
179.9999999999996
  0
LINE
  5
24A
100
AcDbEntity
  8
0
  6
CONTINUOUS
 62
               7
100
AcDbLine
 10
11.0
 20
-3.9999999675247047
 30
0.0
 11
11.0
 21
3.9999999675247047
 31
0.0
  0
LINE
  5
24B
100
AcDbEntity
  8
0
  6
CONTINUOUS
 62
               7
100
AcDbLine
 10
7.5
 20
7.5
 30
0.0
 11
0.3999999999999986
 21
7.5
 31
0.0
  0
LINE
  5
24C
100
AcDbEntity
  8
0
  6
CENTER
 62
               2
100
AcDbLine
 10
12.449999999999996
 20
0.0
 30
0.0
 11
-0.4499999999999957
 21
0.0
 31
0.0
  0
LINE
  5
24D
100
AcDbEntity
  8
0
  6
CONTINUOUS
 62
               7
100
AcDbLine
 10
0.0
 20
-7.0999999999999996
 30
0.0
 11
0.0
 21
7.1000000000000014
 31
0.0
  0
LINE
  5
24E
100
AcDbEntity
  8
0
  6
CENTER
 62
               2
100
AcDbLine
 10
3.0
 20
-3.4499999999999993
 30
0.0
 11
3.0
 21
3.4499999999999993
 31
0.0
  0
LINE
  5
24F
100
AcDbEntity
  8
0
  6
CONTINUOUS
 62
               7
100
AcDbLine
 10
7.5
 20
-7.5
 30
0.0
 11
0.3999999999999986
 21
-7.5
 31
0.0
  0
LINE
  5
250
100
AcDbEntity
  8
0
  6
CENTER
 62
               2
100
AcDbLine
 10
1.5
 20
5.0
 30
0.0
 11
-1.5
 21
5.0
 31
0.0
  0
LINE
  5
251
100
AcDbEntity
  8
0
  6
CENTER
 62
               2
100
AcDbLine
 10
1.5
 20
-5.0
 30
0.0
 11
-1.5
 21
-5.0
 31
0.0
  0
ENDBLK
  5
252
100
AcDbEntity
  8
0
100
AcDbBlockEnd
  0
BLOCK
  5
253
100
AcDbEntity
  8
0
100
AcDbBlockBegin
  2
MS_7
 70
               0
 10
0.0
 20
0.0
 30
0.0
  3
MS_7
  1

  0
LINE
  5
254
100
AcDbEntity
  8
0
  6
CONTINUOUS
 62
               7
100
AcDbLine
 10
-5.2000000000000028
 20
5.9999999620322626
 30
0.0
 11
-5.2000000000000028
 21
10.000000021636907
 31
0.0
  0
LINE
  5
255
100
AcDbEntity
  8
0
  6
CONTINUOUS
 62
               7
100
AcDbLine
 10
-3.5999999999999943
 20
5.9999999620322626
 30
0.0
 11
-3.5999999999999943
 21
10.000000021636907
 31
0.0
  0
LINE
  5
256
100
AcDbEntity
  8
0
  6
CONTINUOUS
 62
               7
100
AcDbLine
 10
-2.0
 20
5.9999999620322626
 30
0.0
 11
-2.0
 21
10.000000021636907
 31
0.0
  0
LINE
  5
257
100
AcDbEntity
  8
0
  6
CONTINUOUS
 62
               2
100
AcDbLine
 10
-2.0
 20
7.2999999999999972
 30
0.0
 11
-1.0
 21
7.2999999999999972
 31
0.0
  0
LINE
  5
258
100
AcDbEntity
  8
0
  6
CONTINUOUS
 62
               2
100
AcDbLine
 10
-2.0
 20
8.7000000000000028
 30
0.0
 11
-1.0
 21
8.7000000000000028
 31
0.0
  0
LINE
  5
259
100
AcDbEntity
  8
0
  6
CONTINUOUS
 62
               7
100
AcDbLine
 10
-6.7000000000000171
 20
7.0
 30
0.0
 11
-7.0
 21
7.2999999999999972
 31
0.0
  0
LINE
  5
25A
100
AcDbEntity
  8
0
  6
CONTINUOUS
 62
               2
100
AcDbLine
 10
-7.0
 20
7.2999999999999972
 30
0.0
 11
-5.2000000000000028
 21
7.2999999999999972
 31
0.0
  0
LINE
  5
25B
100
AcDbEntity
  8
0
  6
CONTINUOUS
 62
               7
100
AcDbLine
 10
-6.7000000000000171
 20
7.0
 30
0.0
 11
-5.2000000000000028
 21
7.0
 31
0.0
  0
LINE
  5
25C
100
AcDbEntity
  8
0
  6
CONTINUOUS
 62
               7
100
AcDbLine
 10
-6.7000000000000171
 20
9.0
 30
0.0
 11
-6.7000000000000171
 21
7.0
 31
0.0
  0
LINE
  5
25D
100
AcDbEntity
  8
0
  6
CONTINUOUS
 62
               7
100
AcDbLine
 10
-6.7000000000000171
 20
9.0
 30
0.0
 11
-7.0
 21
8.7000000000000028
 31
0.0
  0
LINE
  5
25E
100
AcDbEntity
  8
0
  6
CONTINUOUS
 62
               7
100
AcDbLine
 10
-1.0
 20
9.0
 30
0.0
 11
-1.0
 21
7.0
 31
0.0
  0
LINE
  5
25F
100
AcDbEntity
  8
0
  6
CONTINUOUS
 62
               2
100
AcDbLine
 10
-7.0
 20
8.7000000000000028
 30
0.0
 11
-5.2000000000000028
 21
8.7000000000000028
 31
0.0
  0
LINE
  5
260
100
AcDbEntity
  8
0
  6
CONTINUOUS
 62
               7
100
AcDbLine
 10
-7.0
 20
8.7000000000000028
 30
0.0
 11
-7.0
 21
7.2999999999999972
 31
0.0
  0
LINE
  5
261
100
AcDbEntity
  8
0
  6
CONTINUOUS
 62
               7
100
AcDbLine
 10
-6.7000000000000171
 20
9.0
 30
0.0
 11
-5.2000000000000028
 21
9.0
 31
0.0
  0
LINE
  5
262
100
AcDbEntity
  8
0
  6
CONTINUOUS
 62
               7
100
AcDbLine
 10
-5.2000000000000028
 20
10.000000021636907
 30
0.0
 11
-2.0
 21
10.000000021636907
 31
0.0
  0
LINE
  5
263
100
AcDbEntity
  8
0
  6
CONTINUOUS
 62
               7
100
AcDbLine
 10
-5.2000000000000028
 20
5.9999999620322626
 30
0.0
 11
-2.0
 21
5.9999999620322626
 31
0.0
  0
LINE
  5
264
100
AcDbEntity
  8
0
  6
CONTINUOUS
 62
               7
100
AcDbLine
 10
-3.4213672348136583
 20
8.0
 30
0.0
 11
-2.178632765186336
 21
8.0
 31
0.0
  0
LINE
  5
265
100
AcDbEntity
  8
0
  6
CONTINUOUS
 62
               7
100
AcDbLine
 10
-3.7786327651863445
 20
8.0
 30
0.0
 11
-5.0213672348136527
 21
8.0
 31
0.0
  0
LINE
  5
266
100
AcDbEntity
  8
0
  6
CONTINUOUS
 62
               2
100
AcDbLine
 10
-1.0
 20
8.7000000000000028
 30
0.0
 11
-0.4803847577293539
 21
9.0
 31
0.0
  0
LINE
  5
267
100
AcDbEntity
  8
0
  6
CONTINUOUS
 62
               2
100
AcDbLine
 10
-1.0
 20
7.2999999999999972
 30
0.0
 11
-0.4803847577293539
 21
7.0
 31
0.0
  0
LINE
  5
268
100
AcDbEntity
  8
0
  6
CONTINUOUS
 62
               7
100
AcDbLine
 10
-2.0
 20
9.0
 30
0.0
 11
0.0
 21
9.0
 31
0.0
  0
LINE
  5
269
100
AcDbEntity
  8
0
  6
CONTINUOUS
 62
               7
100
AcDbLine
 10
-2.0
 20
7.0
 30
0.0
 11
0.0
 21
7.0
 31
0.0
  0
SPLINE
  5
26A
100
AcDbEntity
  8
0
  6
CONTINUOUS
 62
               7
100
AcDbSpline
210
0.0
220
0.0
230
1.0
 70
               0
 71
               3
 72
               0
 73
               0
 74
               5
 44
0.000001
 12
0.3364388457093553
 22
-0.9417053164858722
 32
0.0
 13
-0.3364388457093552
 23
-0.9417053164858722
 33
0.0
 11
-2.178632765186336
 21
10.000000021636907
 31
0.0
 11
-2.0465958171943552
 21
9.5081352507549823
 31
0.0
 11
-2.0
 21
9.0000000108184537
 31
0.0
 11
-2.0465958171943552
 21
8.491864770881925
 31
0.0
 11
-2.178632765186336
 21
8.0
 31
0.0
  0
SPLINE
  5
26B
100
AcDbEntity
  8
0
  6
CONTINUOUS
 62
               7
100
AcDbSpline
210
0.0
220
0.0
230
1.0
 70
               0
 71
               3
 72
               0
 73
               0
 74
               5
 44
0.000001
 12
0.3364388432731469
 22
-0.9417053173562454
 32
0.0
 13
-0.3364388432731468
 23
-0.9417053173562454
 33
0.0
 11
-2.178632765186336
 21
8.0
 31
0.0
 11
-2.0465958171656577
 21
7.5081352249813067
 31
0.0
 11
-2.0
 21
6.9999999810161313
 31
0.0
 11
-2.0465958171656577
 21
6.4918647370509559
 31
0.0
 11
-2.178632765186336
 21
5.9999999620322626
 31
0.0
  0
SPLINE
  5
26C
100
AcDbEntity
  8
0
  6
CONTINUOUS
 62
               7
100
AcDbSpline
210
0.0
220
0.0
230
1.0
 70
               0
 71
               3
 72
               0
 73
               0
 74
               5
 44
0.000001
 12
-0.3364388462345876
 22
-0.9417053162982247
 32
0.0
 13
0.3364388451841199
 23
-0.9417053166735206
 33
0.0
 11
-3.4213672348136583
 21
10.000000021636907
 31
0.0
 11
-3.5534041804686649
 21
9.5081352647867039
 31
0.0
 11
-3.5999999999999943
 21
9.0000000392830515
 31
0.0
 11
-3.5534041851426128
 21
8.4918647849136448
 31
0.0
 11
-3.4213672348136583
 21
8.0
 31
0.0
  0
SPLINE
  5
26D
100
AcDbEntity
  8
0
  6
CONTINUOUS
 62
               7
100
AcDbSpline
210
0.0
220
0.0
230
1.0
 70
               0
 71
               3
 72
               0
 73
               0
 74
               5
 44
0.000001
 12
-0.3364388437983803
 22
-0.9417053171685976
 32
0.0
 13
0.3364388427479147
 23
-0.9417053175438928
 33
0.0
 11
-3.4213672348136583
 21
8.0
 31
0.0
 11
-3.5534041804973628
 21
7.5081352390130274
 31
0.0
 11
-3.5999999999999943
 21
7.0000000094807291
 31
0.0
 11
-3.5534041851713107
 21
6.4918647510826766
 31
0.0
 11
-3.4213672348136583
 21
5.9999999620322626
 31
0.0
  0
SPLINE
  5
26E
100
AcDbEntity
  8
0
  6
CONTINUOUS
 62
               7
100
AcDbSpline
210
0.0
220
0.0
230
1.0
 70
               0
 71
               3
 72
               0
 73
               0
 74
               5
 44
0.000001
 12
-0.3364388457093553
 22
-0.9417053164858721
 32
0.0
 13
0.3364388457093551
 23
-0.9417053164858722
 33
0.0
 11
-5.0213672348136527
 21
10.000000021636907
 31
0.0
 11
-5.1534041828056401
 21
9.5081352507549823
 31
0.0
 11
-5.2000000000000028
 21
9.0000000108184537
 31
0.0
 11
-5.1534041828056401
 21
8.491864770881925
 31
0.0
 11
-5.0213672348136527
 21
8.0
 31
0.0
  0
SPLINE
  5
26F
100
AcDbEntity
  8
0
  6
CONTINUOUS
 62
               7
100
AcDbSpline
210
0.0
220
0.0
230
1.0
 70
               0
 71
               3
 72
               0
 73
               0
 74
               5
 44
0.000001
 12
-0.3364388432731471
 22
-0.9417053173562454
 32
0.0
 13
0.3364388432731469
 23
-0.9417053173562454
 33
0.0
 11
-5.0213672348136527
 21
8.0
 31
0.0
 11
-5.153404182834338
 21
7.5081352249813067
 31
0.0
 11
-5.2000000000000028
 21
6.9999999810161313
 31
0.0
 11
-5.153404182834338
 21
6.4918647370509559
 31
0.0
 11
-5.0213672348136527
 21
5.9999999620322626
 31
0.0
  0
SPLINE
  5
270
100
AcDbEntity
  8
0
  6
CONTINUOUS
 62
               7
100
AcDbSpline
210
0.0
220
0.0
230
1.0
 70
               0
 71
               3
 72
               0
 73
               0
 74
               5
 44
0.000001
 12
0.3364388462345875
 22
-0.9417053162982247
 32
0.0
 13
-0.3364388451841198
 23
-0.9417053166735206
 33
0.0
 11
-3.7786327651863445
 21
10.000000021636907
 31
0.0
 11
-3.6465958195313308
 21
9.5081352647867039
 31
0.0
 11
-3.5999999999999943
 21
9.0000000392830515
 31
0.0
 11
-3.6465958148573829
 21
8.4918647849136448
 31
0.0
 11
-3.7786327651863445
 21
8.0
 31
0.0
  0
SPLINE
  5
271
100
AcDbEntity
  8
0
  6
CONTINUOUS
 62
               7
100
AcDbSpline
210
0.0
220
0.0
230
1.0
 70
               0
 71
               3
 72
               0
 73
               0
 74
               5
 44
0.000001
 12
0.3364388437983802
 22
-0.9417053171685976
 32
0.0
 13
-0.3364388427479146
 23
-0.9417053175438929
 33
0.0
 11
-3.7786327651863445
 21
8.0
 31
0.0
 11
-3.6465958195026329
 21
7.5081352390130274
 31
0.0
 11
-3.5999999999999943
 21
7.0000000094807291
 31
0.0
 11
-3.646595814828685
 21
6.4918647510826766
 31
0.0
 11
-3.7786327651863445
 21
5.9999999620322626
 31
0.0
  0
LINE
  5
272
100
AcDbEntity
  8
0
  6
CENTER
 62
               2
100
AcDbLine
 10
1.5239043419708906
 20
8.2000000000000028
 30
0.0
 11
32.976095658029109
 21
8.2000000000000028
 31
0.0
  0
LINE
  5
273
100
AcDbEntity
  8
0
  6
CENTER
 62
               2
100
AcDbLine
 10
3.5
 20
10.154777551888699
 30
0.0
 11
3.5
 21
6.2239043419708935
 31
0.0
  0
CIRCLE
  5
274
100
AcDbEntity
  8
0
  6
DASHED
 62
               2
100
AcDbCircle
 10
3.5
 20
8.2000000000000171
 30
0.0
 40
1.5
  0
CIRCLE
  5
275
100
AcDbEntity
  8
0
  6
DASHED
 62
               7
100
AcDbCircle
 10
3.5
 20
8.2000000000000171
 30
0.0
 40
1.1999999999999886
  0
LINE
  5
276
100
AcDbEntity
  8
0
  6
CONTINUOUS
 62
               7
100
AcDbLine
 10
0.0
 20
1.2372583086801967
 30
0.0
 11
10.000000034166874
 21
1.2372583086801967
 31
0.0
  0
LINE
  5
277
100
AcDbEntity
  8
0
  6
CONTINUOUS
 62
               7
100
AcDbLine
 10
0.0
 20
3.2709995686344229
 30
0.0
 11
34.000000000000114
 21
3.2709995686344229
 31
0.0
  0
LINE
  5
278
100
AcDbEntity
  8
0
  6
CENTER
 62
               2
100
AcDbLine
 10
14.0
 20
6.2452224481113063
 30
0.0
 11
14.0
 21
10.176095658029112
 31
0.0
  0
CIRCLE
  5
279
100
AcDbEntity
  8
0
  6
DASHED
 62
               2
100
AcDbCircle
 10
14.0
 20
8.1999999999999886
 30
0.0
 40
1.5
  0
CIRCLE
  5
27A
100
AcDbEntity
  8
0
  6
DASHED
 62
               7
100
AcDbCircle
 10
14.0
 20
8.1999999999999886
 30
0.0
 40
1.1999999999999886
  0
LINE
  5
27B
100
AcDbEntity
  8
0
  6
CENTER
 62
               2
100
AcDbLine
 10
31.0
 20
6.2452224481113063
 30
0.0
 11
31.0
 21
10.176095658029112
 31
0.0
  0
CIRCLE
  5
27C
100
AcDbEntity
  8
0
  6
DASHED
 62
               2
100
AcDbCircle
 10
31.0
 20
8.1999999999999886
 30
0.0
 40
1.5
  0
CIRCLE
  5
27D
100
AcDbEntity
  8
0
  6
DASHED
 62
               7
100
AcDbCircle
 10
31.0
 20
8.1999999999999886
 30
0.0
 40
1.1999999999999886
  0
LINE
  5
27E
100
AcDbEntity
  8
0
  6
CONTINUOUS
 62
               7
100
AcDbLine
 10
0.0
 20
11.0
 30
0.0
 11
34.000000000000114
 21
11.0
 31
0.0
  0
LINE
  5
27F
100
AcDbEntity
  8
0
  6
CONTINUOUS
 62
               7
100
AcDbLine
 10
34.000000000000114
 20
0.0
 30
0.0
 11
34.000000000000114
 21
11.0
 31
0.0
  0
LINE
  5
280
100
AcDbEntity
  8
0
  6
CONTINUOUS
 62
               7
100
AcDbLine
 10
0.0
 20
0.0
 30
0.0
 11
0.0
 21
11.0
 31
0.0
  0
LINE
  5
281
100
AcDbEntity
  8
0
  6
CONTINUOUS
 62
               7
100
AcDbLine
 10
0.0
 20
0.0
 30
0.0
 11
20.400000022047863
 21
0.0
 31
0.0
  0
LINE
  5
282
100
AcDbEntity
  8
0
  6
CENTER
 62
               2
100
AcDbLine
 10
-8.4558223814587876
 20
8.0
 30
0.0
 11
0.7419156642792473
 21
8.0
 31
0.0
  0
LINE
  5
283
100
AcDbEntity
  8
0
  6
CONTINUOUS
 62
               4
100
AcDbLine
 10
25.000000031799971
 20
3.2709995686344229
 30
0.0
 11
25.000000031799971
 21
-2.8993162832604327
 31
0.0
  0
LINE
  5
284
100
AcDbEntity
  8
0
  6
CONTINUOUS
 62
               4
100
AcDbLine
 10
20.400000022047863
 20
-2.1568541888398585
 30
0.0
 11
20.400000022047863
 21
2.0150757679854223
 31
0.0
  0
ELLIPSE
  5
285
100
AcDbEntity
  8
0
  6
CONTINUOUS
 62
               4
100
AcDbEllipse
 10
22.500000026500004
 20
-1.4497474061542448
 30
0.0
 11
2.0999999884538685
 21
0.0
 31
0.0
210
0.0
220
0.0
230
1.0
 40
0.6902709107026031
 41
0.0
 42
1.5707963267948966
  0
LINE
  5
286
100
AcDbEntity
  8
0
  6
CONTINUOUS
 62
               4
100
AcDbLine
 10
22.500000026500004
 20
-0.0001784821427933
 30
0.0
 11
22.500000026500004
 21
-0.7072852843343469
 31
0.0
  0
LINE
  5
287
100
AcDbEntity
  8
0
  6
CONTINUOUS
 62
               4
100
AcDbLine
 10
16.999999987965779
 20
-2.8993163106597564
 30
0.0
 11
16.999999968200115
 21
0.0
 31
0.0
  0
ELLIPSE
  5
288
100
AcDbEntity
  8
0
  6
CONTINUOUS
 62
               4
100
AcDbEllipse
 10
19.499999993265746
 20
-2.1568541888398585
 30
0.0
 11
-2.1000000044519944
 21
0.0000000000000003
 31
0.0
210
0.0
220
0.0
230
1.0
 40
0.690270905444012
 41
0.537738676477459
 42
2.3663992894222425
  0
ELLIPSE
  5
289
100
AcDbEntity
  8
0
  6
CONTINUOUS
 62
               4
100
AcDbEllipse
 10
19.499999993265746
 20
-5.1568541951998625
 30
0.0
 11
-1.3500000028620016
 21
0.0000000000000002
 31
0.0
210
0.0
220
0.0
230
1.0
 40
0.7130928703394489
 41
0.0
 42
3.1415926535897931
  0
LINE
  5
28A
100
AcDbEntity
  8
0
  6
CONTINUOUS
 62
               4
100
AcDbLine
 10
20.84999999612792
 20
-3.267203809786956
 30
0.0
 11
20.84999999612792
 21
-5.1568541894479338
 31
0.0
  0
LINE
  5
28B
100
AcDbEntity
  8
0
  6
CONTINUOUS
 62
               4
100
AcDbLine
 10
18.149999990403856
 20
-3.2672038097871265
 30
0.0
 11
18.149999990403856
 21
-5.1568541894479338
 31
0.0
  0
LINE
  5
28C
100
AcDbEntity
  8
0
  6
CONTINUOUS
 62
               4
100
AcDbLine
 10
19.499999993265746
 20
-2.8993163106597564
 30
0.0
 11
19.499999993265746
 21
-3.60642309334537
 31
0.0
  0
LINE
  5
28D
100
AcDbEntity
  8
0
  6
CONTINUOUS
 62
               4
100
AcDbLine
 10
19.499999993265746
 20
-2.8993163106597564
 30
0.0
 11
16.999999987965779
 21
-2.8993163106597564
 31
0.0
  0
LINE
  5
28E
100
AcDbEntity
  8
0
  6
CONTINUOUS
 62
               4
100
AcDbLine
 10
24.600000014953622
 20
-1.4497474061542448
 30
0.0
 11
24.600000014953622
 21
-2.1568541830879298
 31
0.0
  0
LINE
  5
28F
100
AcDbEntity
  8
0
  6
CONTINUOUS
 62
               4
100
AcDbLine
 10
24.303625156899642
 20
-2.8993163106597564
 30
0.0
 11
25.000000031799971
 21
-2.8993163106597564
 31
0.0
  0
LINE
  5
290
100
AcDbEntity
  8
0
  6
CONTINUOUS
 62
               4
100
AcDbLine
 10
23.850000029361894
 20
-2.1568541830879298
 30
0.0
 11
23.850000029361894
 21
-5.1568541894479338
 31
0.0
  0
LINE
  5
291
100
AcDbEntity
  8
0
  6
CONTINUOUS
 62
               4
100
AcDbLine
 10
21.15000002363783
 20
-2.1568541830879298
 30
0.0
 11
21.15000002363783
 21
-5.1568541894479338
 31
0.0
  0
ELLIPSE
  5
292
100
AcDbEntity
  8
0
  6
CONTINUOUS
 62
               4
100
AcDbEllipse
 10
22.500000026500004
 20
-2.1568541888398585
 30
0.0
 11
1.3500000028620016
 21
0.0
 31
0.0
210
0.0
220
0.0
230
1.0
 40
0.7130928703394489
 41
0.0
 42
3.1415926535897931
  0
ELLIPSE
  5
293
100
AcDbEntity
  8
0
  6
CONTINUOUS
 62
               4
100
AcDbEllipse
 10
22.500000026500004
 20
-5.1568541951998625
 30
0.0
 11
1.3500000028620016
 21
0.0
 31
0.0
210
0.0
220
0.0
230
1.0
 40
0.7130928703394489
 41
0.0
 42
6.2831853071795862
  0
ELLIPSE
  5
294
100
AcDbEntity
  8
0
  6
CONTINUOUS
 62
               4
100
AcDbEllipse
 10
22.500000026500004
 20
-2.1568541888398585
 30
0.0
 11
2.1000000044519944
 21
0.0
 31
0.0
210
0.0
220
0.0
230
1.0
 40
0.690270905444012
 41
-0.8725714153590118
 42
4.014164068948805
  0
ELLIPSE
  5
295
100
AcDbEntity
  8
0
  6
CONTINUOUS
 62
               4
100
AcDbEllipse
 10
22.500000046264461
 20
2.0150757679854223
 30
0.0
 11
-2.1000000242166501
 21
0.0000000000000003
 31
0.0
210
0.0
220
0.0
230
1.0
 40
0.6902708989473662
 41
5.4875823576499068
 42
0.0
  0
LINE
  5
296
100
AcDbEntity
  8
0
  6
CONTINUOUS
 62
               4
100
AcDbLine
 10
10.000000034166874
 20
3.0757359420138712
 30
0.0
 11
25.000000031799971
 21
3.0757359420138712
 31
0.0
  0
LINE
  5
297
100
AcDbEntity
  8
0
  6
CONTINUOUS
 62
               4
100
AcDbLine
 10
21.030306177714237
 20
2.4039845625257286
 30
0.0
 11
25.000000031799971
 21
2.4039845625257286
 31
0.0
  0
LINE
  5
298
100
AcDbEntity
  8
0
  6
CONTINUOUS
 62
               4
100
AcDbLine
 10
21.030306177714237
 20
3.0757359420138712
 30
0.0
 11
21.030306177714237
 21
2.4039845855265085
 31
0.0
  0
LINE
  5
299
100
AcDbEntity
  8
0
  6
CONTINUOUS
 62
               4
100
AcDbLine
 10
11.750000003709971
 20
1.1490503623650312
 30
0.0
 11
11.750000003709971
 21
2.8811011736058774
 31
0.0
  0
LINE
  5
29A
100
AcDbEntity
  8
0
  6
CONTINUOUS
 62
               4
100
AcDbLine
 10
12.250000004769959
 20
1.1490503623650312
 30
0.0
 11
12.250000004769959
 21
2.8811011736058774
 31
0.0
  0
ELLIPSE
  5
29B
100
AcDbEntity
  8
0
  6
CONTINUOUS
 62
               4
100
AcDbEllipse
 10
12.000000004240007
 20
2.0150757679854223
 30
0.0
 11
-1.25000000265
 21
0.0000000000000002
 31
0.0
210
0.0
220
0.0
230
1.0
 40
0.7071067811865475
 41
0.0
 42
6.2831853071795862
  0
LINE
  5
29C
100
AcDbEntity
  8
0
  6
CONTINUOUS
 62
               4
100
AcDbLine
 10
10.000000034166874
 20
0.9544155939571439
 30
0.0
 11
20.400000022047863
 21
0.9544155939571439
 31
0.0
  0
LINE
  5
29D
100
AcDbEntity
  8
0
  6
CONTINUOUS
 62
               4
100
AcDbLine
 10
10.000000034166874
 20
3.2709995686344229
 30
0.0
 11
10.000000034166874
 21
0.9544155939571439
 31
0.0
  0
LINE
  5
29E
100
AcDbEntity
  8
0
  6
CONTINUOUS
 62
               7
100
AcDbLine
 10
25.000000031799971
 20
1.2372583086801967
 30
0.0
 11
34.000000000000114
 21
1.2372583086801967
 31
0.0
  0
LINE
  5
29F
100
AcDbEntity
  8
0
  6
CONTINUOUS
 62
               7
100
AcDbLine
 10
25.000000031799971
 20
0.0
 30
0.0
 11
34.000000000000114
 21
0.0
 31
0.0
  0
LINE
  5
2A0
100
AcDbEntity
  8
0
  6
CENTER
 62
               2
100
AcDbLine
 10
9.0
 20
9.5
 30
0.0
 11
9.0
 21
12.5
 31
0.0
  0
ENDBLK
  5
2A1
100
AcDbEntity
  8
0
100
AcDbBlockEnd
  0
BLOCK
  5
2A2
100
AcDbEntity
  8
0
100
AcDbBlockBegin
  2
MS_8
 70
               0
 10
0.0
 20
0.0
 30
0.0
  3
MS_8
  1

  0
LINE
  5
2A3
100
AcDbEntity
  8
0
  6
CONTINUOUS
 62
               4
100
AcDbLine
 10
32.000000000000114
 20
10.04558440604287
 30
0.0
 11
32.000000000000114
 21
7.7290004313655771
 31
0.0
  0
LINE
  5
2A4
100
AcDbEntity
  8
0
  6
CONTINUOUS
 62
               4
100
AcDbLine
 10
30.249999996290143
 20
9.8509496376349688
 30
0.0
 11
30.249999996290143
 21
8.1188988263941226
 31
0.0
  0
LINE
  5
2A5
100
AcDbEntity
  8
0
  6
CONTINUOUS
 62
               4
100
AcDbLine
 10
29.749999995230155
 20
9.8509496376349688
 30
0.0
 11
29.749999995230155
 21
8.1188988263941226
 31
0.0
  0
ELLIPSE
  5
2A6
100
AcDbEntity
  8
0
  6
CONTINUOUS
 62
               4
100
AcDbEllipse
 10
29.999999995760106
 20
8.9849242320145777
 30
0.0
 11
1.25000000265
 21
0.0
 31
0.0
210
0.0
220
0.0
230
1.0
 40
0.7071067811865475
 41
0.0
 42
6.2831853071795862
  0
LINE
  5
2A7
100
AcDbEntity
  8
0
  6
CONTINUOUS
 62
               4
100
AcDbLine
 10
16.999999968200143
 20
7.7290004313655771
 30
0.0
 11
16.999999968200143
 21
13.899316283260433
 31
0.0
  0
LINE
  5
2A8
100
AcDbEntity
  8
0
  6
CONTINUOUS
 62
               4
100
AcDbLine
 10
21.599999977952251
 20
13.156854188839858
 30
0.0
 11
21.599999977952251
 21
8.9849242320145777
 31
0.0
  0
LINE
  5
2A9
100
AcDbEntity
  8
0
  6
CONTINUOUS
 62
               4
100
AcDbLine
 10
20.969693822285876
 20
7.9242640579861288
 30
0.0
 11
20.969693822285876
 21
8.5960154144734915
 31
0.0
  0
ELLIPSE
  5
2AA
100
AcDbEntity
  8
0
  6
CONTINUOUS
 62
               4
100
AcDbEllipse
 10
19.499999953735653
 20
8.9849242320145777
 30
0.0
 11
2.1000000242166501
 21
0.0
 31
0.0
210
0.0
220
0.0
230
1.0
 40
0.6902708989473662
 41
5.4875823576499068
 42
0.0
  0
LINE
  5
2AB
100
AcDbEntity
  8
0
  6
CONTINUOUS
 62
               4
100
AcDbLine
 10
20.969693822285876
 20
8.5960154374742714
 30
0.0
 11
16.999999968200143
 21
8.5960154374742714
 31
0.0
  0
ELLIPSE
  5
2AC
100
AcDbEntity
  8
0
  6
CONTINUOUS
 62
               4
100
AcDbEllipse
 10
19.49999997350011
 20
13.156854188839858
 30
0.0
 11
-2.1000000044519944
 21
0.0000000000000003
 31
0.0
210
0.0
220
0.0
230
1.0
 40
0.690270905444012
 41
-0.8725714153590118
 42
4.014164068948805
  0
ELLIPSE
  5
2AD
100
AcDbEntity
  8
0
  6
CONTINUOUS
 62
               4
100
AcDbEllipse
 10
19.49999997350011
 20
12.449747406154245
 30
0.0
 11
-2.0999999884538685
 21
0.0000000000000003
 31
0.0
210
0.0
220
0.0
230
1.0
 40
0.6902709107026031
 41
0.0
 42
1.5707963267948966
  0
ELLIPSE
  5
2AE
100
AcDbEntity
  8
0
  6
CONTINUOUS
 62
               4
100
AcDbEllipse
 10
19.49999997350011
 20
16.156854195199863
 30
0.0
 11
-1.3500000028620016
 21
0.0000000000000002
 31
0.0
210
0.0
220
0.0
230
1.0
 40
0.7130928703394489
 41
0.0
 42
6.2831853071795862
  0
ELLIPSE
  5
2AF
100
AcDbEntity
  8
0
  6
CONTINUOUS
 62
               4
100
AcDbEllipse
 10
19.49999997350011
 20
13.156854188839858
 30
0.0
 11
-1.3500000028620016
 21
0.0000000000000002
 31
0.0
210
0.0
220
0.0
230
1.0
 40
0.7130928703394489
 41
0.0
 42
3.1415926535897931
  0
LINE
  5
2B0
100
AcDbEntity
  8
0
  6
CONTINUOUS
 62
               4
100
AcDbLine
 10
20.849999976362284
 20
13.15685418308793
 30
0.0
 11
20.849999976362284
 21
16.156854189447934
 31
0.0
  0
LINE
  5
2B1
100
AcDbEntity
  8
0
  6
CONTINUOUS
 62
               4
100
AcDbLine
 10
18.14999997063822
 20
13.15685418308793
 30
0.0
 11
18.14999997063822
 21
16.156854189447934
 31
0.0
  0
LINE
  5
2B2
100
AcDbEntity
  8
0
  6
CONTINUOUS
 62
               4
100
AcDbLine
 10
17.696374843100472
 20
13.899316310659756
 30
0.0
 11
16.999999968200143
 21
13.899316310659756
 31
0.0
  0
LINE
  5
2B3
100
AcDbEntity
  8
0
  6
CONTINUOUS
 62
               4
100
AcDbLine
 10
17.399999985046492
 20
12.449747406154245
 30
0.0
 11
17.399999985046492
 21
13.15685418308793
 31
0.0
  0
LINE
  5
2B4
100
AcDbEntity
  8
0
  6
CONTINUOUS
 62
               4
100
AcDbLine
 10
19.49999997350011
 20
11.000178501648726
 30
0.0
 11
16.999999948435686
 21
11.000178501648726
 31
0.0
  0
LINE
  5
2B5
100
AcDbEntity
  8
0
  6
CONTINUOUS
 62
               4
100
AcDbLine
 10
19.49999997350011
 20
11.000178482142793
 30
0.0
 11
19.49999997350011
 21
11.707285284334347
 31
0.0
  0
LINE
  5
2B6
100
AcDbEntity
  8
0
  6
CONTINUOUS
 62
               4
100
AcDbLine
 10
31.99999996583324
 20
7.9242640579861288
 30
0.0
 11
16.999999968200143
 21
7.9242640579861288
 31
0.0
  0
LINE
  5
2B7
100
AcDbEntity
  8
0
  6
CONTINUOUS
 62
               4
100
AcDbLine
 10
31.99999996583324
 20
10.045584406042856
 30
0.0
 11
21.599999977952251
 21
10.045584406042856
 31
0.0
  0
LINE
  5
2B8
100
AcDbEntity
  8
0
  6
CONTINUOUS
 62
               4
100
AcDbLine
 10
22.500000006734368
 20
13.899316310659756
 30
0.0
 11
25.000000012034334
 21
13.899316310659756
 31
0.0
  0
LINE
  5
2B9
100
AcDbEntity
  8
0
  6
CONTINUOUS
 62
               4
100
AcDbLine
 10
22.500000006734368
 20
13.899316310659756
 30
0.0
 11
22.500000006734368
 21
14.60642309334537
 31
0.0
  0
LINE
  5
2BA
100
AcDbEntity
  8
0
  6
CONTINUOUS
 62
               4
100
AcDbLine
 10
23.850000009596258
 20
14.267203809787127
 30
0.0
 11
23.850000009596258
 21
16.156854189447934
 31
0.0
  0
LINE
  5
2BB
100
AcDbEntity
  8
0
  6
CONTINUOUS
 62
               4
100
AcDbLine
 10
21.150000003872194
 20
14.267203809786956
 30
0.0
 11
21.150000003872194
 21
16.156854189447934
 31
0.0
  0
ELLIPSE
  5
2BC
100
AcDbEntity
  8
0
  6
CONTINUOUS
 62
               4
100
AcDbEllipse
 10
22.500000006734368
 20
16.156854195199863
 30
0.0
 11
1.3500000028620016
 21
0.0
 31
0.0
210
0.0
220
0.0
230
1.0
 40
0.7130928703394489
 41
0.0
 42
3.1415926535897931
  0
ELLIPSE
  5
2BD
100
AcDbEntity
  8
0
  6
CONTINUOUS
 62
               4
100
AcDbEllipse
 10
22.500000006734368
 20
13.156854188839858
 30
0.0
 11
2.1000000044519944
 21
0.0
 31
0.0
210
0.0
220
0.0
230
1.0
 40
0.690270905444012
 41
0.5377386764774587
 42
2.3663992894222421
  0
LINE
  5
2BE
100
AcDbEntity
  8
0
  6
CONTINUOUS
 62
               4
100
AcDbLine
 10
25.000000012034334
 20
13.899316310659756
 30
0.0
 11
25.000000031799999
 21
11.0
 31
0.0
  0
LINE
  5
2BF
100
AcDbEntity
  8
0
  6
CENTER
 62
               2
100
AcDbLine
 10
-8.4558223814587876
 20
3.0
 30
0.0
 11
0.7419156642792473
 21
3.0
 31
0.0
  0
LINE
  5
2C0
100
AcDbEntity
  8
0
  6
CONTINUOUS
 62
               7
100
AcDbLine
 10
0.0
 20
11.0
 30
0.0
 11
16.999999968200143
 21
11.0
 31
0.0
  0
LINE
  5
2C1
100
AcDbEntity
  8
0
  6
CONTINUOUS
 62
               7
100
AcDbLine
 10
0.0
 20
11.0
 30
0.0
 11
0.0
 21
0.0
 31
0.0
  0
LINE
  5
2C2
100
AcDbEntity
  8
0
  6
CONTINUOUS
 62
               7
100
AcDbLine
 10
34.000000000000114
 20
11.0
 30
0.0
 11
34.000000000000114
 21
0.0
 31
0.0
  0
LINE
  5
2C3
100
AcDbEntity
  8
0
  6
CONTINUOUS
 62
               7
100
AcDbLine
 10
0.0
 20
0.0
 30
0.0
 11
34.000000000000114
 21
0.0
 31
0.0
  0
CIRCLE
  5
2C4
100
AcDbEntity
  8
0
  6
DASHED
 62
               7
100
AcDbCircle
 10
31.0
 20
2.8000000000000114
 30
0.0
 40
1.1999999999999886
  0
CIRCLE
  5
2C5
100
AcDbEntity
  8
0
  6
DASHED
 62
               2
100
AcDbCircle
 10
31.0
 20
2.8000000000000114
 30
0.0
 40
1.5
  0
LINE
  5
2C6
100
AcDbEntity
  8
0
  6
CENTER
 62
               2
100
AcDbLine
 10
31.0
 20
4.7547775518886937
 30
0.0
 11
31.0
 21
0.8239043419708878
 31
0.0
  0
CIRCLE
  5
2C7
100
AcDbEntity
  8
0
  6
DASHED
 62
               7
100
AcDbCircle
 10
14.0
 20
2.8000000000000114
 30
0.0
 40
1.1999999999999886
  0
CIRCLE
  5
2C8
100
AcDbEntity
  8
0
  6
DASHED
 62
               2
100
AcDbCircle
 10
14.0
 20
2.8000000000000114
 30
0.0
 40
1.5
  0
LINE
  5
2C9
100
AcDbEntity
  8
0
  6
CENTER
 62
               2
100
AcDbLine
 10
14.0
 20
4.7547775518886937
 30
0.0
 11
14.0
 21
0.8239043419708878
 31
0.0
  0
LINE
  5
2CA
100
AcDbEntity
  8
0
  6
CONTINUOUS
 62
               7
100
AcDbLine
 10
0.0
 20
7.7290004313655771
 30
0.0
 11
34.000000000000114
 21
7.7290004313655771
 31
0.0
  0
LINE
  5
2CB
100
AcDbEntity
  8
0
  6
CONTINUOUS
 62
               7
100
AcDbLine
 10
0.0
 20
9.7627416913198033
 30
0.0
 11
16.999999968200143
 21
9.7627416913198033
 31
0.0
  0
CIRCLE
  5
2CC
100
AcDbEntity
  8
0
  6
DASHED
 62
               7
100
AcDbCircle
 10
3.5
 20
2.7999999999999829
 30
0.0
 40
1.1999999999999886
  0
CIRCLE
  5
2CD
100
AcDbEntity
  8
0
  6
DASHED
 62
               2
100
AcDbCircle
 10
3.5
 20
2.7999999999999829
 30
0.0
 40
1.5
  0
LINE
  5
2CE
100
AcDbEntity
  8
0
  6
CENTER
 62
               2
100
AcDbLine
 10
3.5
 20
0.8452224481113007
 30
0.0
 11
3.5
 21
4.7760956580291065
 31
0.0
  0
LINE
  5
2CF
100
AcDbEntity
  8
0
  6
CENTER
 62
               2
100
AcDbLine
 10
1.5239043419708906
 20
2.7999999999999972
 30
0.0
 11
32.976095658029109
 21
2.7999999999999972
 31
0.0
  0
SPLINE
  5
2D0
100
AcDbEntity
  8
0
  6
CONTINUOUS
 62
               7
100
AcDbSpline
210
0.0
220
0.0
230
1.0
 70
               0
 71
               3
 72
               0
 73
               0
 74
               5
 44
0.000001
 12
0.3364388437983802
 22
0.9417053171685976
 32
0.0
 13
-0.3364388427479146
 23
0.9417053175438929
 33
0.0
 11
-3.7786327651863445
 21
3.0
 31
0.0
 11
-3.6465958195026329
 21
3.4918647609869726
 31
0.0
 11
-3.5999999999999943
 21
3.9999999905192709
 31
0.0
 11
-3.646595814828685
 21
4.5081352489173234
 31
0.0
 11
-3.7786327651863445
 21
5.0000000379677374
 31
0.0
  0
SPLINE
  5
2D1
100
AcDbEntity
  8
0
  6
CONTINUOUS
 62
               7
100
AcDbSpline
210
0.0
220
0.0
230
1.0
 70
               0
 71
               3
 72
               0
 73
               0
 74
               5
 44
0.000001
 12
0.3364388462345875
 22
0.9417053162982247
 32
0.0
 13
-0.3364388451841198
 23
0.9417053166735206
 33
0.0
 11
-3.7786327651863445
 21
0.9999999783630926
 31
0.0
 11
-3.6465958195313308
 21
1.4918647352132965
 31
0.0
 11
-3.5999999999999943
 21
1.9999999607169485
 31
0.0
 11
-3.6465958148573829
 21
2.5081352150863547
 31
0.0
 11
-3.7786327651863445
 21
3.0
 31
0.0
  0
SPLINE
  5
2D2
100
AcDbEntity
  8
0
  6
CONTINUOUS
 62
               7
100
AcDbSpline
210
0.0
220
0.0
230
1.0
 70
               0
 71
               3
 72
               0
 73
               0
 74
               5
 44
0.000001
 12
-0.3364388432731471
 22
0.9417053173562454
 32
0.0
 13
0.3364388432731469
 23
0.9417053173562454
 33
0.0
 11
-5.0213672348136527
 21
3.0
 31
0.0
 11
-5.153404182834338
 21
3.4918647750186933
 31
0.0
 11
-5.2000000000000028
 21
4.0000000189838687
 31
0.0
 11
-5.153404182834338
 21
4.5081352629490441
 31
0.0
 11
-5.0213672348136527
 21
5.0000000379677374
 31
0.0
  0
SPLINE
  5
2D3
100
AcDbEntity
  8
0
  6
CONTINUOUS
 62
               7
100
AcDbSpline
210
0.0
220
0.0
230
1.0
 70
               0
 71
               3
 72
               0
 73
               0
 74
               5
 44
0.000001
 12
-0.3364388457093553
 22
0.9417053164858721
 32
0.0
 13
0.3364388457093551
 23
0.9417053164858722
 33
0.0
 11
-5.0213672348136527
 21
0.9999999783630926
 31
0.0
 11
-5.1534041828056401
 21
1.4918647492450172
 31
0.0
 11
-5.2000000000000028
 21
1.9999999891815463
 31
0.0
 11
-5.1534041828056401
 21
2.5081352291180754
 31
0.0
 11
-5.0213672348136527
 21
3.0000000000000004
 31
0.0
  0
SPLINE
  5
2D4
100
AcDbEntity
  8
0
  6
CONTINUOUS
 62
               7
100
AcDbSpline
210
0.0
220
0.0
230
1.0
 70
               0
 71
               3
 72
               0
 73
               0
 74
               5
 44
0.000001
 12
-0.3364388437983803
 22
0.9417053171685976
 32
0.0
 13
0.3364388427479147
 23
0.9417053175438928
 33
0.0
 11
-3.4213672348136583
 21
3.0
 31
0.0
 11
-3.5534041804973628
 21
3.4918647609869726
 31
0.0
 11
-3.5999999999999943
 21
3.9999999905192709
 31
0.0
 11
-3.5534041851713107
 21
4.5081352489173234
 31
0.0
 11
-3.4213672348136583
 21
5.0000000379677374
 31
0.0
  0
SPLINE
  5
2D5
100
AcDbEntity
  8
0
  6
CONTINUOUS
 62
               7
100
AcDbSpline
210
0.0
220
0.0
230
1.0
 70
               0
 71
               3
 72
               0
 73
               0
 74
               5
 44
0.000001
 12
-0.3364388462345876
 22
0.9417053162982247
 32
0.0
 13
0.3364388451841199
 23
0.9417053166735206
 33
0.0
 11
-3.4213672348136583
 21
0.9999999783630926
 31
0.0
 11
-3.5534041804686649
 21
1.4918647352132965
 31
0.0
 11
-3.5999999999999943
 21
1.9999999607169485
 31
0.0
 11
-3.5534041851426128
 21
2.5081352150863547
 31
0.0
 11
-3.4213672348136583
 21
3.0
 31
0.0
  0
SPLINE
  5
2D6
100
AcDbEntity
  8
0
  6
CONTINUOUS
 62
               7
100
AcDbSpline
210
0.0
220
0.0
230
1.0
 70
               0
 71
               3
 72
               0
 73
               0
 74
               5
 44
0.000001
 12
0.3364388432731469
 22
0.9417053173562454
 32
0.0
 13
-0.3364388432731468
 23
0.9417053173562454
 33
0.0
 11
-2.178632765186336
 21
3.0
 31
0.0
 11
-2.0465958171656577
 21
3.4918647750186933
 31
0.0
 11
-2.0
 21
4.0000000189838687
 31
0.0
 11
-2.0465958171656577
 21
4.5081352629490441
 31
0.0
 11
-2.178632765186336
 21
5.0000000379677374
 31
0.0
  0
SPLINE
  5
2D7
100
AcDbEntity
  8
0
  6
CONTINUOUS
 62
               7
100
AcDbSpline
210
0.0
220
0.0
230
1.0
 70
               0
 71
               3
 72
               0
 73
               0
 74
               5
 44
0.000001
 12
0.3364388457093553
 22
0.9417053164858722
 32
0.0
 13
-0.3364388457093552
 23
0.9417053164858722
 33
0.0
 11
-2.178632765186336
 21
0.9999999783630926
 31
0.0
 11
-2.0465958171943552
 21
1.4918647492450172
 31
0.0
 11
-2.0
 21
1.9999999891815463
 31
0.0
 11
-2.0465958171943552
 21
2.5081352291180754
 31
0.0
 11
-2.178632765186336
 21
3.0000000000000004
 31
0.0
  0
LINE
  5
2D8
100
AcDbEntity
  8
0
  6
CONTINUOUS
 62
               7
100
AcDbLine
 10
-2.0
 20
4.0
 30
0.0
 11
0.0
 21
4.0
 31
0.0
  0
LINE
  5
2D9
100
AcDbEntity
  8
0
  6
CONTINUOUS
 62
               7
100
AcDbLine
 10
-2.0
 20
2.0
 30
0.0
 11
0.0
 21
2.0
 31
0.0
  0
LINE
  5
2DA
100
AcDbEntity
  8
0
  6
CONTINUOUS
 62
               2
100
AcDbLine
 10
-1.0
 20
3.7000000000000028
 30
0.0
 11
-0.4803847577293539
 21
4.0
 31
0.0
  0
LINE
  5
2DB
100
AcDbEntity
  8
0
  6
CONTINUOUS
 62
               2
100
AcDbLine
 10
-1.0
 20
2.2999999999999972
 30
0.0
 11
-0.4803847577293539
 21
2.0
 31
0.0
  0
LINE
  5
2DC
100
AcDbEntity
  8
0
  6
CONTINUOUS
 62
               7
100
AcDbLine
 10
-3.7786327651863445
 20
3.0
 30
0.0
 11
-5.0213672348136527
 21
3.0
 31
0.0
  0
LINE
  5
2DD
100
AcDbEntity
  8
0
  6
CONTINUOUS
 62
               7
100
AcDbLine
 10
-3.4213672348136583
 20
3.0
 30
0.0
 11
-2.178632765186336
 21
3.0
 31
0.0
  0
LINE
  5
2DE
100
AcDbEntity
  8
0
  6
CONTINUOUS
 62
               7
100
AcDbLine
 10
-5.2000000000000028
 20
5.0000000379677374
 30
0.0
 11
-2.0
 21
5.0000000379677374
 31
0.0
  0
LINE
  5
2DF
100
AcDbEntity
  8
0
  6
CONTINUOUS
 62
               7
100
AcDbLine
 10
-5.2000000000000028
 20
0.9999999783630926
 30
0.0
 11
-2.0
 21
0.9999999783630926
 31
0.0
  0
LINE
  5
2E0
100
AcDbEntity
  8
0
  6
CONTINUOUS
 62
               7
100
AcDbLine
 10
-6.7000000000000171
 20
2.0
 30
0.0
 11
-5.2000000000000028
 21
2.0
 31
0.0
  0
LINE
  5
2E1
100
AcDbEntity
  8
0
  6
CONTINUOUS
 62
               7
100
AcDbLine
 10
-7.0
 20
2.2999999999999972
 30
0.0
 11
-7.0
 21
3.7000000000000028
 31
0.0
  0
LINE
  5
2E2
100
AcDbEntity
  8
0
  6
CONTINUOUS
 62
               2
100
AcDbLine
 10
-7.0
 20
2.2999999999999972
 30
0.0
 11
-5.2000000000000028
 21
2.2999999999999972
 31
0.0
  0
LINE
  5
2E3
100
AcDbEntity
  8
0
  6
CONTINUOUS
 62
               7
100
AcDbLine
 10
-1.0
 20
2.0
 30
0.0
 11
-1.0
 21
4.0
 31
0.0
  0
LINE
  5
2E4
100
AcDbEntity
  8
0
  6
CONTINUOUS
 62
               7
100
AcDbLine
 10
-6.7000000000000171
 20
2.0
 30
0.0
 11
-7.0
 21
2.2999999999999972
 31
0.0
  0
LINE
  5
2E5
100
AcDbEntity
  8
0
  6
CONTINUOUS
 62
               7
100
AcDbLine
 10
-6.7000000000000171
 20
2.0
 30
0.0
 11
-6.7000000000000171
 21
4.0
 31
0.0
  0
LINE
  5
2E6
100
AcDbEntity
  8
0
  6
CONTINUOUS
 62
               7
100
AcDbLine
 10
-6.7000000000000171
 20
4.0
 30
0.0
 11
-5.2000000000000028
 21
4.0
 31
0.0
  0
LINE
  5
2E7
100
AcDbEntity
  8
0
  6
CONTINUOUS
 62
               2
100
AcDbLine
 10
-7.0
 20
3.7000000000000028
 30
0.0
 11
-5.2000000000000028
 21
3.7000000000000028
 31
0.0
  0
LINE
  5
2E8
100
AcDbEntity
  8
0
  6
CONTINUOUS
 62
               7
100
AcDbLine
 10
-6.7000000000000171
 20
4.0
 30
0.0
 11
-7.0
 21
3.7000000000000028
 31
0.0
  0
LINE
  5
2E9
100
AcDbEntity
  8
0
  6
CONTINUOUS
 62
               2
100
AcDbLine
 10
-2.0
 20
2.2999999999999972
 30
0.0
 11
-1.0
 21
2.2999999999999972
 31
0.0
  0
LINE
  5
2EA
100
AcDbEntity
  8
0
  6
CONTINUOUS
 62
               2
100
AcDbLine
 10
-2.0
 20
3.7000000000000028
 30
0.0
 11
-1.0
 21
3.7000000000000028
 31
0.0
  0
LINE
  5
2EB
100
AcDbEntity
  8
0
  6
CONTINUOUS
 62
               7
100
AcDbLine
 10
-2.0
 20
5.0000000379677374
 30
0.0
 11
-2.0
 21
0.9999999783630926
 31
0.0
  0
LINE
  5
2EC
100
AcDbEntity
  8
0
  6
CONTINUOUS
 62
               7
100
AcDbLine
 10
-3.5999999999999943
 20
5.0000000379677374
 30
0.0
 11
-3.5999999999999943
 21
0.9999999783630926
 31
0.0
  0
LINE
  5
2ED
100
AcDbEntity
  8
0
  6
CONTINUOUS
 62
               7
100
AcDbLine
 10
-5.2000000000000028
 20
5.0000000379677374
 30
0.0
 11
-5.2000000000000028
 21
0.9999999783630926
 31
0.0
  0
LINE
  5
2EE
100
AcDbEntity
  8
0
  6
CONTINUOUS
 62
               7
100
AcDbLine
 10
32.000000000000114
 20
9.7627416913198033
 30
0.0
 11
34.000000000000114
 21
9.7627416913198033
 31
0.0
  0
LINE
  5
2EF
100
AcDbEntity
  8
0
  6
CONTINUOUS
 62
               7
100
AcDbLine
 10
21.599999977952251
 20
11.0
 30
0.0
 11
34.000000000000114
 21
11.0
 31
0.0
  0
LINE
  5
2F0
100
AcDbEntity
  8
0
  6
CENTER
 62
               2
100
AcDbLine
 10
9.0
 20
1.5
 30
0.0
 11
9.0
 21
-1.5
 31
0.0
  0
ENDBLK
  5
2F1
100
AcDbEntity
  8
0
100
AcDbBlockEnd
  0
BLOCK
  5
2F4
100
AcDbEntity
  8
0
  6
ByBlock
 62
               0
100
AcDbBlockBegin
  2
_OPEN30
 70
               2
 10
0.0
 20
0.0
 30
0.0
  3
_OPEN30
  1

  0
LINE
  5
2F5
100
AcDbEntity
  8
0
  6
ByBlock
 62
               0
100
AcDbLine
 10
-1.0
 20
0.267949
 30
0.0
 11
0.0
 21
0.0
 31
0.0
  0
LINE
  5
2F6
100
AcDbEntity
  8
0
  6
ByBlock
 62
               0
100
AcDbLine
 10
0.0
 20
0.0
 30
0.0
 11
-1.0
 21
-0.267949
 31
0.0
  0
LINE
  5
2F7
100
AcDbEntity
  8
0
  6
ByBlock
 62
               0
100
AcDbLine
 10
0.0
 20
0.0
 30
0.0
 11
-1.0
 21
0.0
 31
0.0
  0
ENDBLK
  5
2F8
100
AcDbEntity
  8
0
  6
ByBlock
 62
               0
100
AcDbBlockEnd
  0
ENDSEC
  0
SECTION
  2
ENTITIES
  0
LEADER
  5
2F2
100
AcDbEntity
  8
0
 62
               2
100
AcDbLeader
  3
MXDIMSTYLE
 73
               3
 74
               0
 75
               0
 40
0.0
 76
               3
 10
77.217541573033728
 20
48.74748529668787
 30
0.0
 10
72.462475287907111
 20
56.983501695884996
 30
0.0
 10
67.345566387467372
 20
56.983501695884996
 30
0.0
 77
               2
1001
ACAD
1000
DSTYLE
1002
{
1070
               6
1000
_OPEN30
1070
               7
1000
_OPEN30
1070
              41
1040
2.77
1070
             173
1070
               1
1002
}
  0
MTEXT
  5
2F9
100
AcDbEntity
  8
0
 62
               2
100
AcDbMText
 10
67.345566387467372
 20
60.014751695884996
 30
0.0
 40
2.5
 41
0.0
 71
               4
 72
               1
  1
\A1;-L
  7
MX_NOTE_STANDARD
  0
LEADER
  5
2FA
100
AcDbEntity
  8
0
 62
               2
100
AcDbLeader
  3
MXDIMSTYLE
 73
               3
 74
               0
 75
               0
 40
0.0
 76
               3
 10
77.217541573033728
 20
-31.652514703312136
 30
0.0
 10
72.462475287907111
 20
-23.416498304115009
 30
0.0
 10
67.345566387467372
 20
-23.416498304115009
 30
0.0
 77
               2
1001
ACAD
1000
DSTYLE
1002
{
1070
               6
1000
_OPEN30
1070
               7
1000
_OPEN30
1070
              41
1040
2.77
1070
             173
1070
               1
1002
}
  0
MTEXT
  5
2FB
100
AcDbEntity
  8
0
 62
               2
100
AcDbMText
 10
67.345566387467372
 20
-20.385248304115009
 30
0.0
 40
2.5
 41
0.0
 71
               4
 72
               1
  1
\A1;-R
  7
MX_NOTE_STANDARD
  0
LINE
  5
2FC
100
AcDbEntity
  8
0
  6
CONTINUOUS
 62
               7
100
AcDbLine
 10
-0.024993896484375
 20
84.5
 30
0.0
 11
-0.024993896484375
 21
-84.800003051757813
 31
0.0
  0
MTEXT
  5
2FD
100
AcDbEntity
  8
0
  6
CONTINUOUS
 62
               3
100
AcDbMText
 10
81.368213709567939
 20
27.496707571959433
 30
0.0
 40
3.2000000476837158
 41
0.0
 71
               4
 72
               1
  1
\W1.065;\A1;STRETCH LINE
  7
MX_NOTE_STANDARD
  0
LEADER
  5
2FE
100
AcDbEntity
  8
0
 62
               2
100
AcDbLeader
  3
MXDIMSTYLE
 73
               3
 74
               0
 75
               0
 40
0.0
 76
               3
 10
-67.782458426966272
 20
-31.652514703312136
 30
0.0
 10
-72.537524712092889
 20
-23.416498304115009
 30
0.0
 10
-77.654433612532628
 20
-23.416498304115009
 30
0.0
 77
               2
1001
ACAD
1000
DSTYLE
1002
{
1070
               6
1000
_OPEN30
1070
               7
1000
_OPEN30
1070
              41
1040
2.77
1070
             173
1070
               1
1002
}
  0
MTEXT
  5
2FF
100
AcDbEntity
  8
0
 62
               2
100
AcDbMText
 10
-77.654433612532628
 20
-20.385248304115009
 30
0.0
 40
2.5
 41
0.0
 71
               4
 72
               1
  1
\A1;-R
  7
MX_NOTE_STANDARD
  0
LEADER
  5
300
100
AcDbEntity
  8
0
 62
               2
100
AcDbLeader
  3
MXDIMSTYLE
 73
               3
 74
               0
 75
               0
 40
0.0
 76
               3
 10
-67.782458426966272
 20
48.74748529668787
 30
0.0
 10
-72.537524712092889
 20
56.983501695884996
 30
0.0
 10
-77.654433612532628
 20
56.983501695884996
 30
0.0
 77
               2
1001
ACAD
1000
DSTYLE
1002
{
1070
               6
1000
_OPEN30
1070
               7
1000
_OPEN30
1070
              41
1040
2.77
1070
             173
1070
               1
1002
}
  0
MTEXT
  5
301
100
AcDbEntity
  8
0
 62
               2
100
AcDbMText
 10
-77.654433612532628
 20
60.014751695884996
 30
0.0
 40
2.5
 41
0.0
 71
               4
 72
               1
  1
\A1;-L
  7
MX_NOTE_STANDARD
  0
INSERT
  5
302
100
AcDbEntity
  8
0
100
AcDbBlockReference
  2
MS_8
 10
74.467541573033714
 20
-35.751552808988791
 30
0.0
  0
INSERT
  5
303
100
AcDbEntity
  8
0
100
AcDbBlockReference
  2
MS_7
 10
74.467541573033714
 20
39.248447191011209
 30
0.0
  0
INSERT
  5
304
100
AcDbEntity
  8
0
100
AcDbBlockReference
  2
MS_6
 10
33.467541573033714
 20
2.2484471910112092
 30
0.0
  0
INSERT
  5
305
100
AcDbEntity
  8
0
100
AcDbBlockReference
  2
MS_5
 10
74.467541573033714
 20
2.2484471910112092
 30
0.0
  0
INSERT
  5
306
100
AcDbEntity
  8
0
100
AcDbBlockReference
  2
MS_4
 10
-70.532458426966272
 20
-35.751552808988791
 30
0.0
  0
INSERT
  5
307
100
AcDbEntity
  8
0
100
AcDbBlockReference
  2
MS_3
 10
-70.532458426966272
 20
39.248447191011209
 30
0.0
  0
INSERT
  5
308
100
AcDbEntity
  8
0
100
AcDbBlockReference
  2
MS_2
 10
-111.53245842696629
 20
2.2484471910112092
 30
0.0
  0
INSERT
  5
309
100
AcDbEntity
  8
0
100
AcDbBlockReference
  2
MS_1
 10
-70.532458426966286
 20
2.2484471910112092
 30
0.0
  0
MTEXT
  5
30A
100
AcDbEntity
  8
0
  6
CONTINUOUS
 62
               3
100
AcDbMText
 10
-63.631786290432061
 20
62.73119033058012
 30
0.0
 40
3.2000000476837158
 41
0.0
 71
               4
 72
               1
  1
\W1.065;\A1;STRETCH LINE
  7
MX_NOTE_STANDARD
  0
LINE
  5
30B
100
AcDbEntity
  8
0
  6
CONTINUOUS
 62
               7
100
AcDbLine
 10
-133.39999389648437
 20
-89.800003051757812
 30
0.0
 11
-69.399993896484375
 21
-89.800003051757812
 31
0.0
  0
LINE
  5
30C
100
AcDbEntity
  8
0
  6
CONTINUOUS
 62
               7
100
AcDbLine
 10
-133.39999389648437
 20
-77.800003051757812
 30
0.0
 11
-133.39999389648437
 21
-89.800003051757812
 31
0.0
  0
LINE
  5
30D
100
AcDbEntity
  8
0
  6
CONTINUOUS
 62
               7
100
AcDbLine
 10
-133.39999389648437
 20
-83.800003051757813
 30
0.0
 11
-69.399993896484375
 21
-83.800003051757813
 31
0.0
  0
LINE
  5
30E
100
AcDbEntity
  8
0
  6
CONTINUOUS
 62
               7
100
AcDbLine
 10
-133.39999389648437
 20
-77.800003051757812
 30
0.0
 11
-69.399993896484375
 21
-77.800003051757812
 31
0.0
  0
MTEXT
  5
30F
100
AcDbEntity
  8
0
  6
CONTINUOUS
 62
               7
100
AcDbMText
 10
-129.6666606982549
 20
-80.800003051757813
 30
0.0
 40
3.2000000476837158
 41
0.0
 71
               4
 72
               1
  1
\A1;STROKE
  7
MX_NOTE_STANDARD
  0
MTEXT
  5
310
100
AcDbEntity
  8
0
  6
CONTINUOUS
 62
               7
100
AcDbMText
 10
-131.26666072209676
 20
-86.800003051757813
 30
0.0
 40
3.2000000476837158
 41
0.0
 71
               4
 72
               1
  1
\A1;STRETCH
  7
MX_NOTE_STANDARD
  0
LINE
  5
311
100
AcDbEntity
  8
0
  6
CONTINUOUS
 62
               7
100
AcDbLine
 10
-107.79999389648438
 20
-77.800003051757812
 30
0.0
 11
-107.79999389648438
 21
-89.800003051757812
 31
0.0
  0
LINE
  5
312
100
AcDbEntity
  8
0
  6
CONTINUOUS
 62
               7
100
AcDbLine
 10
-98.199993896484386
 20
-77.800003051757812
 30
0.0
 11
-98.199993896484386
 21
-89.800003051757812
 31
0.0
  0
LINE
  5
313
100
AcDbEntity
  8
0
  6
CONTINUOUS
 62
               7
100
AcDbLine
 10
-88.599993896484378
 20
-77.800003051757812
 30
0.0
 11
-88.599993896484378
 21
-89.800003051757812
 31
0.0
  0
LINE
  5
314
100
AcDbEntity
  8
0
  6
CONTINUOUS
 62
               7
100
AcDbLine
 10
-78.999993896484384
 20
-77.800003051757812
 30
0.0
 11
-78.999993896484384
 21
-89.800003051757812
 31
0.0
  0
LINE
  5
315
100
AcDbEntity
  8
0
  6
CONTINUOUS
 62
               7
100
AcDbLine
 10
-69.399993896484375
 20
-77.800003051757812
 30
0.0
 11
-69.399993896484375
 21
-89.800003051757812
 31
0.0
  0
MTEXT
  5
316
100
AcDbEntity
  8
0
  6
CONTINUOUS
 62
               7
100
AcDbMText
 10
-104.06666057904562
 20
-80.800003051757813
 30
0.0
 40
3.2000000476837158
 41
0.0
 71
               4
 72
               1
  1
\A1;4
  7
MX_NOTE_STANDARD
  0
MTEXT
  5
317
100
AcDbEntity
  8
0
  6
CONTINUOUS
 62
               7
100
AcDbMText
 10
-94.466660579045623
 20
-80.800003051757813
 30
0.0
 40
3.2000000476837158
 41
0.0
 71
               4
 72
               1
  1
\A1;6
  7
MX_NOTE_STANDARD
  0
MTEXT
  5
318
100
AcDbEntity
  8
0
  6
CONTINUOUS
 62
               7
100
AcDbMText
 10
-84.866660579045629
 20
-80.800003051757813
 30
0.0
 40
3.2000000476837158
 41
0.0
 71
               4
 72
               1
  1
\A1;8
  7
MX_NOTE_STANDARD
  0
MTEXT
  5
319
100
AcDbEntity
  8
0
  6
CONTINUOUS
 62
               7
100
AcDbMText
 10
-76.688882822460627
 20
-80.800003051757813
 30
0.0
 40
3.2000000476837158
 41
0.0
 71
               4
 72
               1
  1
\W1.333;\A1;10
  7
MX_NOTE_STANDARD
  0
MTEXT
  5
31A
100
AcDbEntity
  8
0
  6
CONTINUOUS
 62
               7
100
AcDbMText
 10
-75.159993895530732
 20
-86.800003051757813
 30
0.0
 40
3.2000000476837158
 41
0.0
 71
               4
 72
               1
  1
\W1.200;\A1;0
  7
MX_NOTE_STANDARD
  0
MTEXT
  5
31B
100
AcDbEntity
  8
0
  6
CONTINUOUS
 62
               7
100
AcDbMText
 10
-86.466660602887487
 20
-86.800003051757813
 30
0.0
 40
3.2000000476837158
 41
0.0
 71
               4
 72
               1
  1
\A1;-2
  7
MX_NOTE_STANDARD
  0
MTEXT
  5
31C
100
AcDbEntity
  8
0
  6
CONTINUOUS
 62
               7
100
AcDbMText
 10
-96.066660602887481
 20
-86.800003051757813
 30
0.0
 40
3.2000000476837158
 41
0.0
 71
               4
 72
               1
  1
\A1;-4
  7
MX_NOTE_STANDARD
  0
MTEXT
  5
31D
100
AcDbEntity
  8
0
  6
CONTINUOUS
 62
               7
100
AcDbMText
 10
-105.66666060288748
 20
-86.800003051757813
 30
0.0
 40
3.2000000476837158
 41
0.0
 71
               4
 72
               1
  1
\A1;-6
  7
MX_NOTE_STANDARD
  0
MTEXT
  5
31E
100
AcDbEntity
  8
0
  6
CONTINUOUS
 62
               7
100
AcDbMText
 10
-120.03194683784572
 20
-74.800003051757813
 30
0.0
 40
3.2000000476837158
 41
0.0
 71
               4
 72
               1
  1
\W1.065;\A1;STRETCH LIST
  7
MX_NOTE_STANDARD
  0
MTEXT
  5
31F
100
AcDbEntity
  8
0
  6
CONTINUOUS
 62
               7
100
AcDbMText
 10
-78.423993985366835
 20
-75.800003051757813
 30
0.0
 40
3.2000000476837158
 41
0.0
 71
               4
 72
               1
  1
\W1.200;\A1;(mm)
  7
MX_NOTE_STANDARD
  0
MTEXT
  5
320
100
AcDbEntity
  8
0
  6
CONTINUOUS
 62
               7
100
AcDbMText
 10
-130.90186156846724
 20
91.099999904632568
 30
0.0
 40
3.1999998092651367
 41
0.0
 71
               1
 72
               1
  1
\W1.121;\A1;MINIBIT CYLINDER
  7
MX_NOTE_STANDARD
  0
MTEXT
  5
321
100
AcDbEntity
  8
0
  6
CONTINUOUS
 62
               7
100
AcDbMText
 10
8.9568243447611149
 20
74.5
 30
0.0
 40
3.1999998092651367
 41
0.0
 71
               4
 72
               1
  1
\W1.091;\A1;MODEL:CS-MBDAS4.5*ST(10)-ZE235
  7
MX_NOTE_STANDARD
  0
MTEXT
  5
322
100
AcDbEntity
  8
0
  6
CONTINUOUS
 62
               7
100
AcDbMText
 10
88.908335494995129
 20
68.5
 30
0.0
 40
3.1999998092651367
 41
0.0
 71
               4
 72
               1
  1
\A1;ZE255
  7
MX_NOTE_STANDARD
  0
MTEXT
  5
323
100
AcDbEntity
  8
0
  6
CONTINUOUS
 62
               7
100
AcDbMText
 10
-49.428569271613128
 20
68.5
 30
0.0
 40
3.1999998092651367
 41
0.0
 71
               4
 72
               1
  1
\W1.071;\A1;ZE155
  7
MX_NOTE_STANDARD
  0
MTEXT
  5
324
100
AcDbEntity
  8
0
  6
CONTINUOUS
 62
               7
100
AcDbMText
 10
-129.41103678272972
 20
74.5
 30
0.0
 40
3.1999998092651367
 41
0.0
 71
               4
 72
               1
  1
\W1.104;\A1;MODEL:CS-MBDAS4.5*ST(10)-ZE135
  7
MX_NOTE_STANDARD
  0
LINE
  5
325
100
AcDbEntity
  8
0
  6
CONTINUOUS
 62
               7
100
AcDbLine
 10
-138.39999389648437
 20
94.5
 30
0.0
 11
138.35000610351562
 21
94.5
 31
0.0
  0
LINE
  5
326
100
AcDbEntity
  8
0
  6
CONTINUOUS
 62
               7
100
AcDbLine
 10
138.35000610351562
 20
94.5
 30
0.0
 11
138.35000610351562
 21
-94.800003051757812
 31
0.0
  0
LINE
  5
327
100
AcDbEntity
  8
0
  6
CONTINUOUS
 62
               7
100
AcDbLine
 10
-138.39999389648437
 20
-94.800003051757812
 30
0.0
 11
138.35000610351562
 21
-94.800003051757812
 31
0.0
  0
LINE
  5
328
100
AcDbEntity
  8
0
  6
CONTINUOUS
 62
               7
100
AcDbLine
 10
-138.39999389648437
 20
94.5
 30
0.0
 11
-138.39999389648437
 21
-94.800003051757812
 31
0.0
  0
LINE
  5
329
100
AcDbEntity
  8
0
  6
CONTINUOUS
 62
               7
100
AcDbLine
 10
73.350006103515625
 20
-84.800003051757813
 30
0.0
 11
138.35000610351562
 21
-84.800003051757813
 31
0.0
  0
LINE
  5
32A
100
AcDbEntity
  8
0
  6
CONTINUOUS
 62
               7
100
AcDbLine
 10
-138.39999389648437
 20
84.5
 30
0.0
 11
-73.399993896484375
 21
84.5
 31
0.0
  0
LINE
  5
32B
100
AcDbEntity
  8
0
  6
CONTINUOUS
 62
               7
100
AcDbLine
 10
73.350006103515625
 20
84.5
 30
0.0
 11
138.35000610351562
 21
84.5
 31
0.0
  0
LINE
  5
32C
100
AcDbEntity
  8
0
  6
CONTINUOUS
 62
               7
100
AcDbLine
 10
73.350006103515625
 20
-84.800003051757813
 30
0.0
 11
73.350006103515625
 21
-94.800003051757812
 31
0.0
  0
LINE
  5
32D
100
AcDbEntity
  8
0
  6
CONTINUOUS
 62
               7
100
AcDbLine
 10
73.350006103515625
 20
94.5
 30
0.0
 11
73.350006103515625
 21
84.5
 31
0.0
  0
LINE
  5
32E
100
AcDbEntity
  8
0
  6
CONTINUOUS
 62
               7
100
AcDbLine
 10
-73.399993896484375
 20
94.5
 30
0.0
 11
-73.399993896484375
 21
84.5
 31
0.0
  0
MTEXT
  5
32F
100
AcDbEntity
  8
0
  6
CONTINUOUS
 62
               7
100
AcDbMText
 10
77.440529363489745
 20
-89.800003051757812
 30
0.0
 40
4.5
 41
0.0
 71
               4
 72
               1
  1
\W1.121;\A1;KOGANEI CORP.
  7
MX_NOTE_STANDARD
  0
MTEXT
  5
330
100
AcDbEntity
  8
0
  6
CONTINUOUS
 62
               7
100
AcDbMText
 10
93.749460369842424
 20
89.5
 30
0.0
 40
3.1999998092651367
 41
0.0
 71
               4
 72
               1
  1
\W1.311;\A1;Ver. 1.0
  7
MX_NOTE_STANDARD
  0
ENDSEC
  0
SECTION
  2
OBJECTS
  0
DICTIONARY
  5
19
100
AcDbDictionary
  3
ACAD_GROUP
350
1A
  3
ACAD_MLINESTYLE
350
1B
  0
DICTIONARY
  5
1A
102
{ACAD_REACTORS
330
19
102
}
100
AcDbDictionary
  0
DICTIONARY
  5
1B
102
{ACAD_REACTORS
330
19
102
}
100
AcDbDictionary
  3
STANDARD
350
1C
  0
MLINESTYLE
  5
1C
102
{ACAD_REACTORS
330
1B
102
}
100
AcDbMlineStyle
  2
Standard
 70
               0
  3

 62
               0
 51
90.0
 52
90.0
 71
               2
 49
0.5
 62
             256
  6
ByLayer
 49
-0.5
 62
             256
  6
ByLayer
  0
ENDSEC
  0
EOF
