  0
SECTION
  2
HEADER
  9
$ACADVER
  1
AC1012
  9
$DWGCODEPAGE
  3
dos932
  9
$INSBASE
 10
0.0
 20
0.0
 30
0.0
  9
$EXTMIN
 10
-138.39999389648437
 20
-94.800003051757812
 30
0.0
  9
$EXTMAX
 10
138.35000610351562
 20
94.5
 30
0.0
  9
$LIMMIN
 10
-138.39999389648437
 20
-94.800003051757812
  9
$LIMMAX
 10
138.35000610351562
 20
94.5
  9
$ORTHOMODE
 70
               0
  9
$REGENMODE
 70
               1
  9
$FILLMODE
 70
               1
  9
$QTEXTMODE
 70
               0
  9
$MIRRTEXT
 70
               1
  9
$DRAGMODE
 70
               2
  9
$LTSCALE
 40
1.0
  9
$OSMODE
 70
               0
  9
$ATTMODE
 70
               1
  9
$TEXTSIZE
 40
3.2000000476837158
  9
$TRACEWID
 40
0.05
  9
$TEXTSTYLE
  7
MX_NOTE_STANDARD
  9
$CLAYER
  8
0
  9
$CELTYPE
  6
CONTINUOUS
  9
$CECOLOR
 62
             256
  9
$CELTSCALE
 40
1.0
  9
$DELOBJ
 70
               1
  9
$DISPSILH
 70
               0
  9
$DIMSCALE
 40
1.0
  9
$DIMASZ
 40
2.5
  9
$DIMEXO
 40
1.5
  9
$DIMDLI
 40
3.75
  9
$DIMRND
 40
0.0
  9
$DIMDLE
 40
0.0
  9
$DIMEXE
 40
1.5
  9
$DIMTP
 40
0.0
  9
$DIMTM
 40
0.0
  9
$DIMTXT
 40
3.2000000476837158
  9
$DIMCEN
 40
2.5
  9
$DIMTSZ
 40
0.0
  9
$DIMTOL
 70
               0
  9
$DIMLIM
 70
               0
  9
$DIMTIH
 70
               0
  9
$DIMTOH
 70
               0
  9
$DIMSE1
 70
               0
  9
$DIMSE2
 70
               0
  9
$DIMTAD
 70
               1
  9
$DIMZIN
 70
               8
  9
$DIMBLK
  1

  9
$DIMASO
 70
               1
  9
$DIMSHO
 70
               1
  9
$DIMPOST
  1

  9
$DIMAPOST
  1

  9
$DIMALT
 70
               0
  9
$DIMALTD
 70
               4
  9
$DIMALTF
 40
0.0394
  9
$DIMLFAC
 40
1.0
  9
$DIMTOFL
 70
               1
  9
$DIMTVP
 40
0.0
  9
$DIMTIX
 70
               0
  9
$DIMSOXD
 70
               0
  9
$DIMSAH
 70
               0
  9
$DIMBLK1
  1

  9
$DIMBLK2
  1

  9
$DIMSTYLE
  2
MXDIMSTYLE
  9
$DIMCLRD
 70
               0
  9
$DIMCLRE
 70
               0
  9
$DIMCLRT
 70
               0
  9
$DIMTFAC
 40
1.0
  9
$DIMGAP
 40
1.0
  9
$DIMJUST
 70
               0
  9
$DIMSD1
 70
               0
  9
$DIMSD2
 70
               0
  9
$DIMTOLJ
 70
               1
  9
$DIMTZIN
 70
               0
  9
$DIMALTZ
 70
               0
  9
$DIMALTTZ
 70
               0
  9
$DIMFIT
 70
               3
  9
$DIMUPT
 70
               1
  9
$DIMUNIT
 70
               2
  9
$DIMDEC
 70
               4
  9
$DIMTDEC
 70
               4
  9
$DIMALTU
 70
               8
  9
$DIMALTTD
 70
               4
  9
$DIMTXSTY
  7
MX_NOTE_STANDARD
  9
$DIMAUNIT
 70
               0
  9
$LUNITS
 70
               2
  9
$LUPREC
 70
               4
  9
$SKETCHINC
 40
0.1
  9
$FILLETRAD
 40
0.0
  9
$AUNITS
 70
               0
  9
$AUPREC
 70
               0
  9
$MENU
  1
acad
  9
$ELEVATION
 40
0.0
  9
$PELEVATION
 40
0.0
  9
$THICKNESS
 40
0.0
  9
$LIMCHECK
 70
               0
  9
$BLIPMODE
 70
               1
  9
$CHAMFERA
 40
0.0
  9
$CHAMFERB
 40
0.0
  9
$CHAMFERC
 40
0.0
  9
$CHAMFERD
 40
0.0
  9
$SKPOLY
 70
               0
  9
$TDCREATE
 40
2452209.493182871
  9
$TDUPDATE
 40
2452209.493182871
  9
$TDINDWG
 40
0.0000000000
  9
$TDUSRTIMER
 40
0.0000000000
  9
$USRTIMER
 70
               1
  9
$ANGBASE
 50
0.0
  9
$ANGDIR
 70
               0
  9
$PDMODE
 70
               0
  9
$PDSIZE
 40
0.0
  9
$PLINEWID
 40
0.0
  9
$COORDS
 70
               1
  9
$SPLFRAME
 70
               0
  9
$SPLINETYPE
 70
               6
  9
$SPLINESEGS
 70
               8
  9
$ATTDIA
 70
               0
  9
$ATTREQ
 70
               1
  9
$HANDLING
 70
               1
  9
$HANDSEED
  5
D9
  9
$SURFTAB1
 70
               6
  9
$SURFTAB2
 70
               6
  9
$SURFTYPE
 70
               6
  9
$SURFU
 70
               6
  9
$SURFV
 70
               6
  9
$UCSNAME
  2

  9
$UCSORG
 10
0.0
 20
0.0
 30
0.0
  9
$UCSXDIR
 10
1.0
 20
0.0
 30
0.0
  9
$UCSYDIR
 10
0.0
 20
1.0
 30
0.0
  9
$PUCSNAME
  2

  9
$PUCSORG
 10
0.0
 20
0.0
 30
0.0
  9
$PUCSXDIR
 10
1.0
 20
0.0
 30
0.0
  9
$PUCSYDIR
 10
0.0
 20
1.0
 30
0.0
  9
$USERI1
 70
               0
  9
$USERI2
 70
               0
  9
$USERI3
 70
               0
  9
$USERI4
 70
               0
  9
$USERI5
 70
               0
  9
$USERR1
 40
0.0
  9
$USERR2
 40
0.0
  9
$USERR3
 40
0.0
  9
$USERR4
 40
0.0
  9
$USERR5
 40
0.0
  9
$WORLDVIEW
 70
               1
  9
$SHADEDGE
 70
               3
  9
$SHADEDIF
 70
              70
  9
$TILEMODE
 70
               1
  9
$MAXACTVP
 70
              16
  9
$PINSBASE
 10
0.0
 20
0.0
 30
0.0
  9
$PLIMCHECK
 70
               0
  9
$PEXTMIN
 10
1.0000000000000000E+20
 20
1.0000000000000000E+20
 30
1.0000000000000000E+20
  9
$PEXTMAX
 10
-1.0000000000000000E+20
 20
-1.0000000000000000E+20
 30
-1.0000000000000000E+20
  9
$PLIMMIN
 10
0.0
 20
0.0
  9
$PLIMMAX
 10
12.0
 20
9.0
  9
$UNITMODE
 70
               0
  9
$VISRETAIN
 70
               0
  9
$PLINEGEN
 70
               1
  9
$PSLTSCALE
 70
               0
  9
$TREEDEPTH
 70
            3020
  9
$PICKSTYLE
 70
               1
  9
$CMLSTYLE
  2
Standard
  9
$CMLJUST
 70
               0
  9
$CMLSCALE
 40
1.0
  9
$SAVEIMAGES
 70
               0
  0
ENDSEC
  0
SECTION
  2
CLASSES
  0
CLASS
  1
LWPOLYLINE
  2
AcDbPolyline
  3
"AutoCAD"
 90
        0
280
               0
281
               1
  0
CLASS
  1
IMAGE
  2
AcDbRasterImage
  3
ISM
 90
      127
280
               0
281
               1
  0
CLASS
  1
OLE2FRAME
  2
AcDbOle2Frame
  3
""
 90
        0
280
               0
281
               1
  0
CLASS
  1
HATCH
  2
AcDbHatch
  3
"ACAD_SEDONA"
 90
        0
280
               0
281
               1
  0
CLASS
  1
DICTIONARYVAR
  2
AcDbDictionaryVar
  3
"AutoCAD"
 90
        0
280
               0
281
               0
  0
CLASS
  1
RASTERVARIABLES
  2
AcDbRasterVariables
  3
ISM
 90
        0
280
               0
281
               0
  0
CLASS
  1
IMAGEDEF
  2
AcDbRasterImageDef
  3
ISM
 90
        0
280
               0
281
               0
  0
CLASS
  1
IMAGEDEF_REACTOR
  2
AcDbRasterImageDefReactor
  3
ISM
 90
        1
280
               0
281
               0
  0
CLASS
  1
IDBUFFER
  2
AcDbIdBuffer
  3
"Acad"
 90
        0
280
               0
281
               0
  0
CLASS
  1
SPATIAL_FILTER
  2
AcDbSpatialFilter
  3
"Acad"
 90
        0
280
               0
281
               0
  0
CLASS
  1
XRECORD
  2
AcDbXrecord
  3
"<Built In>"
 90
        0
280
               0
281
               0
  0
CLASS
  1
SORTENTSTABLE
  2
AcDbSortentsTable
  3
"AutoCAD"
 90
        0
280
               0
281
               0
  0
CLASS
  1
LAYER_INDEX
  2
AcDbLayerIndex
  3
"Acad"
 90
        0
280
               0
281
               0
  0
CLASS
  1
SPATIAL_INDEX
  2
AcDbSpatialIndex
  3
"Acad"
 90
        0
280
               0
281
               0
  0
CLASS
  1
OBJECT_PTR
  2
CAseDLPNTableRecord
  3
"ASE-LPNTableRecord"
 90
        1
280
               0
281
               0
  0
CLASS
  1
LAYOUT
  2
AcDbLayout
  3
"AutoCAD 2000"
 90
        1
280
               0
281
               0
  0
CLASS
  1
PLOTSETTINGS
  2
AcDbPlotSettings
  3
"AutoCAD 2000"
 90
        1
280
               0
281
               0
  0
CLASS
  1
ACDBDICTIONARYWDFLT
  2
AcDbDictionaryWithDefault
  3
"AutoCAD 2000"
 90
        1
280
               0
281
               0
  0
CLASS
  1
ACDBPLACEHOLDER
  2
AcDbPlaceHolder
  3
"AutoCAD 2000"
 90
        1
280
               0
281
               0
  0
CLASS
  1
VBA_PROJECT
  2
AcDbVbaProject
  3
"acadvba"
 90
        1
280
               0
281
               0
  0
CLASS
  1
WIPEOUT
  2
AcDbWipeout
  3
WipeOut|AutoCAD Express Tool|expresstools@autodesk.com
 90
      127
280
               0
281
               1
  0
CLASS
  1
WIPEOUTVARIABLES
  2
AcDbWipeoutVariables
  3
WipeOut|AutoCAD Express Tool|expresstools@autodesk.com
 90
        0
280
               0
281
               0
  0
CLASS
  1
RTEXT
  2
RText
  3
RText|AutoCAD Express Tool|expresstools@autodesk.com
 90
        0
280
               0
281
               1
  0
CLASS
  1
ARCALIGNEDTEXT
  2
AcDbArcAlignedText
  3
ATEXT|AutoCAD Express Tool|expresstools@autodesk.com
 90
        0
280
               0
281
               1
  0
ENDSEC
  0
SECTION
  2
TABLES
  0
TABLE
  2
VPORT
  5
7
100
AcDbSymbolTable
 70
               1
  0
VPORT
  5
15
100
AcDbSymbolTableRecord
100
AcDbViewportTableRecord
  2
*ACTIVE
 70
               0
 10
0.0
 20
0.0
 11
1.0
 21
1.0
 12
-0.024993896484375
 22
-0.1500015258789063
 13
0.0
 23
0.0
 14
1.0
 24
1.0
 15
0.0
 25
0.0
 16
0.0
 26
0.0
 36
1.0
 17
0.0
 27
0.0
 37
0.0
 40
191.1930030822754
 41
1.7320508075688772
 42
50.0
 43
0.0
 44
0.0
 50
0.0
 51
0.0
 71
               0
 72
             100
 73
               1
 74
               1
 75
               0
 76
               0
 77
               0
 78
               0
  0
ENDTAB
  0
TABLE
  2
LTYPE
  5
4
100
AcDbSymbolTable
 70
               5
  0
LTYPE
  5
11
100
AcDbSymbolTableRecord
100
AcDbLinetypeTableRecord
  2
BYBLOCK
 70
              64
  3

 72
              65
 73
               0
 40
0.0
  0
LTYPE
  5
12
100
AcDbSymbolTableRecord
100
AcDbLinetypeTableRecord
  2
BYLAYER
 70
              64
  3

 72
              65
 73
               0
 40
0.0
  0
LTYPE
  5
13
100
AcDbSymbolTableRecord
100
AcDbLinetypeTableRecord
  2
CONTINUOUS
 70
              64
  3
Solid line
 72
              65
 73
               0
 40
0.0
  0
LTYPE
  5
4B
100
AcDbSymbolTableRecord
100
AcDbLinetypeTableRecord
  2
CENTER
 70
              64
  3
Center ____ _ ____ _ ____ _ ____ _ ____ _ ____
 72
              65
 73
               4
 40
50.800000000000004
 49
31.75
 74
               0
 49
-6.3499999999999996
 74
               0
 49
6.3499999999999996
 74
               0
 49
-6.3499999999999996
 74
               0
  0
LTYPE
  5
5E
100
AcDbSymbolTableRecord
100
AcDbLinetypeTableRecord
  2
PHANTOM
 70
              64
  3
Phantom ______  __  __  ______  __  __  ______
 72
              65
 73
               6
 40
63.500000000000007
 49
31.75
 74
               0
 49
-6.3499999999999996
 74
               0
 49
6.3499999999999996
 74
               0
 49
-6.3499999999999996
 74
               0
 49
6.3499999999999996
 74
               0
 49
-6.3499999999999996
 74
               0
  0
ENDTAB
  0
TABLE
  2
LAYER
  5
2
100
AcDbSymbolTable
 70
               2
  0
LAYER
  5
14
100
AcDbSymbolTableRecord
100
AcDbLayerTableRecord
  2
0
 70
               0
 62
               7
  6
CONTINUOUS
  0
LAYER
  5
1D
100
AcDbSymbolTableRecord
100
AcDbLayerTableRecord
  2
DEFPOINTS
 70
               0
 62
               7
  6
CONTINUOUS
  0
ENDTAB
  0
TABLE
  2
STYLE
  5
3
100
AcDbSymbolTable
 70
               1
  0
STYLE
  5
17
100
AcDbSymbolTableRecord
100
AcDbTextStyleTableRecord
  2
MX_NOTE_STANDARD
 70
               0
 40
3.2000000476837158
 41
1.0
 50
0.0
 71
               0
 42
3.2000000476837158
  3
txt.shx
  4
extfont.shx
  0
ENDTAB
  0
TABLE
  2
VIEW
  5
5
100
AcDbSymbolTable
 70
               0
  0
ENDTAB
  0
TABLE
  2
UCS
  5
6
100
AcDbSymbolTable
 70
               0
  0
ENDTAB
  0
TABLE
  2
APPID
  5
8
100
AcDbSymbolTable
 70
               1
  0
APPID
  5
16
100
AcDbSymbolTableRecord
100
AcDbRegAppTableRecord
  2
ACAD
 70
               0
  0
ENDTAB
  0
TABLE
  2
DIMSTYLE
  5
9
100
AcDbSymbolTable
 70
               1
  0
DIMSTYLE
105
18
100
AcDbSymbolTableRecord
100
AcDbDimStyleTableRecord
  2
MXDIMSTYLE
 70
               0
  3

  4

  5

  6

  7

 40
1.0
 41
2.5
 42
1.5
 43
3.75
 44
1.5
 45
0.0
 46
0.0
 47
0.0
 48
0.0
 71
               0
 72
               0
 73
               0
 74
               0
 75
               0
 76
               0
 77
               1
 78
               8
140
3.2000000476837158
141
2.5
142
0.0
143
0.0394
144
1.0
145
0.0
146
1.0
147
1.0
170
               0
171
               4
172
               1
173
               0
174
               0
175
               0
176
               0
177
               0
178
               0
270
               2
271
               4
272
               4
273
               8
274
               4
275
               0
280
               0
281
               0
282
               0
283
               1
284
               0
285
               0
286
               0
287
               3
288
               1
340
17
  0
ENDTAB
  0
TABLE
  2
BLOCK_RECORD
  5
1
100
AcDbSymbolTable
 70
               3
  0
BLOCK_RECORD
  5
A
100
AcDbSymbolTableRecord
100
AcDbBlockTableRecord
  2
*MODEL_SPACE
  0
BLOCK_RECORD
  5
B
100
AcDbSymbolTableRecord
100
AcDbBlockTableRecord
  2
*PAPER_SPACE
  0
BLOCK_RECORD
  5
1E
100
AcDbSymbolTableRecord
100
AcDbBlockTableRecord
  2
MS_1
  0
BLOCK_RECORD
  5
1F
100
AcDbSymbolTableRecord
100
AcDbBlockTableRecord
  2
MS_2
  0
BLOCK_RECORD
  5
20
100
AcDbSymbolTableRecord
100
AcDbBlockTableRecord
  2
MS_3
  0
ENDTAB
  0
ENDSEC
  0
SECTION
  2
BLOCKS
  0
BLOCK
  5
D
100
AcDbEntity
  8
0
100
AcDbBlockBegin
  2
*MODEL_SPACE
 70
               0
 10
0.0
 20
0.0
 30
0.0
  3
*MODEL_SPACE
  1

  0
ENDBLK
  5
E
100
AcDbEntity
  8
0
100
AcDbBlockEnd
  0
BLOCK
  5
F
100
AcDbEntity
 67
               1
  8
0
100
AcDbBlockBegin
  2
*PAPER_SPACE
 70
               0
 10
0.0
 20
0.0
 30
0.0
  3
*PAPER_SPACE
  1

  0
ENDBLK
  5
10
100
AcDbEntity
 67
               1
  8
0
100
AcDbBlockEnd
  0
BLOCK
  5
21
100
AcDbEntity
  8
0
100
AcDbBlockBegin
  2
MS_1
 70
               0
 10
0.0
 20
0.0
 30
0.0
  3
MS_1
  1

  0
SPLINE
  5
22
100
AcDbEntity
  8
0
  6
CONTINUOUS
 62
               7
100
AcDbSpline
210
0.0
220
0.0
230
1.0
 70
               0
 71
               3
 72
               0
 73
               0
 74
               5
 44
0.000001
 12
-0.5262037747144672
 22
-0.850358505264836
 32
0.0
 13
0.5262037632262534
 23
-0.8503585123737688
 33
0.0
 11
-4.0873925373957434
 21
4.0414519297817577
 31
0.0
 11
-4.3132616237683719
 21
3.5570844487105919
 31
0.0
 11
-4.4000000000000057
 21
3.0310889130591789
 31
0.0
 11
-4.3132616270737456
 21
2.5050933992850792
 31
0.0
 11
-4.0873925546021184
 21
2.0207259365011652
 31
0.0
  0
SPLINE
  5
23
100
AcDbEntity
  8
0
  6
CONTINUOUS
 62
               7
100
AcDbSpline
210
0.0
220
0.0
230
1.0
 70
               0
 71
               3
 72
               0
 73
               0
 74
               5
 44
0.000001
 12
0.5262037747144671
 22
-0.8503585052648361
 32
0.0
 13
-0.5262037632262535
 23
-0.8503585123737687
 33
0.0
 11
-2.3126074626042623
 21
4.0414519297817577
 31
0.0
 11
-2.0867383762316338
 21
3.5570844487105919
 31
0.0
 11
-2.0
 21
3.0310889130591789
 31
0.0
 11
-2.0867383729262601
 21
2.5050933992850792
 31
0.0
 11
-2.3126074453978873
 21
2.0207259365011652
 31
0.0
  0
SPLINE
  5
24
100
AcDbEntity
  8
0
  6
CONTINUOUS
 62
               7
100
AcDbSpline
210
0.0
220
0.0
230
1.0
 70
               0
 71
               3
 72
               0
 73
               0
 74
               5
 44
0.000001
 12
-0.5262037747144672
 22
0.850358505264836
 32
0.0
 13
0.5262037632262534
 23
0.8503585123737688
 33
0.0
 11
-4.0873925373957434
 21
-4.0414519297817577
 31
0.0
 11
-4.3132616237683719
 21
-3.5570844487105919
 31
0.0
 11
-4.4000000000000057
 21
-3.0310889130591789
 31
0.0
 11
-4.3132616270737456
 21
-2.5050933992850792
 31
0.0
 11
-4.0873925546021184
 21
-2.0207259365011652
 31
0.0
  0
SPLINE
  5
25
100
AcDbEntity
  8
0
  6
CONTINUOUS
 62
               7
100
AcDbSpline
210
0.0
220
0.0
230
1.0
 70
               0
 71
               3
 72
               0
 73
               0
 74
               5
 44
0.000001
 12
0.5262037747144671
 22
0.8503585052648361
 32
0.0
 13
-0.5262037632262535
 23
0.8503585123737687
 33
0.0
 11
-2.3126074626042623
 21
-4.0414519297817577
 31
0.0
 11
-2.0867383762316338
 21
-3.5570844487105919
 31
0.0
 11
-2.0
 21
-3.0310889130591789
 31
0.0
 11
-2.0867383729262601
 21
-2.5050933992850792
 31
0.0
 11
-2.3126074453978873
 21
-2.0207259365011652
 31
0.0
  0
SPLINE
  5
26
100
AcDbEntity
  8
0
  6
CONTINUOUS
 62
               7
100
AcDbSpline
210
0.0
220
0.0
230
1.0
 70
               0
 71
               3
 72
               0
 73
               0
 74
               5
 44
0.000001
 12
-0.295576775765892
 22
-0.9553189884158273
 32
0.0
 13
0.2955767757658919
 23
-0.9553189884158273
 33
0.0
 11
-4.0873925546021184
 21
2.0207259365011652
 31
0.0
 11
-4.3192443431715546
 21
1.0229863649462863
 31
0.0
 11
-4.4000000000000057
 21
0.0
 31
0.0
 11
-4.3192443431715546
 21
-1.0229863649462863
 31
0.0
 11
-4.0873925546021184
 21
-2.0207259365011652
 31
0.0
  0
SPLINE
  5
27
100
AcDbEntity
  8
0
  6
CONTINUOUS
 62
               7
100
AcDbSpline
210
0.0
220
0.0
230
1.0
 70
               0
 71
               3
 72
               0
 73
               0
 74
               5
 44
0.000001
 12
0.2955767757658921
 22
-0.9553189884158273
 32
0.0
 13
-0.295576775765892
 23
-0.9553189884158273
 33
0.0
 11
-2.3126074453978873
 21
2.0207259365011652
 31
0.0
 11
-2.0807556568284515
 21
1.0229863649462863
 31
0.0
 11
-2.0
 21
0.0
 31
0.0
 11
-2.0807556568284515
 21
-1.0229863649462863
 31
0.0
 11
-2.3126074453978873
 21
-2.0207259365011652
 31
0.0
  0
SPLINE
  5
28
100
AcDbEntity
  8
0
  6
CONTINUOUS
 62
               7
100
AcDbSpline
210
0.0
220
0.0
230
1.0
 70
               0
 71
               3
 72
               0
 73
               0
 74
               5
 44
0.000001
 12
-0.295576775765892
 22
-0.9553189884158273
 32
0.0
 13
0.2955767757658919
 23
-0.9553189884158273
 33
0.0
 11
-6.4873925546021241
 21
2.0207259365011652
 31
0.0
 11
-6.7192443431715603
 21
1.0229863649462863
 31
0.0
 11
-6.8000000000000114
 21
0.0
 31
0.0
 11
-6.7192443431715603
 21
-1.0229863649462863
 31
0.0
 11
-6.4873925546021241
 21
-2.0207259365011652
 31
0.0
  0
SPLINE
  5
29
100
AcDbEntity
  8
0
  6
CONTINUOUS
 62
               7
100
AcDbSpline
210
0.0
220
0.0
230
1.0
 70
               0
 71
               3
 72
               0
 73
               0
 74
               5
 44
0.000001
 12
0.2955767757658921
 22
-0.9553189884158273
 32
0.0
 13
-0.295576775765892
 23
-0.9553189884158273
 33
0.0
 11
-4.712607445397893
 21
2.0207259365011652
 31
0.0
 11
-4.4807556568284568
 21
1.0229863649462863
 31
0.0
 11
-4.4000000000000057
 21
0.0
 31
0.0
 11
-4.4807556568284568
 21
-1.0229863649462863
 31
0.0
 11
-4.712607445397893
 21
-2.0207259365011652
 31
0.0
  0
SPLINE
  5
2A
100
AcDbEntity
  8
0
  6
CONTINUOUS
 62
               7
100
AcDbSpline
210
0.0
220
0.0
230
1.0
 70
               0
 71
               3
 72
               0
 73
               0
 74
               5
 44
0.000001
 12
-0.5262037747144672
 22
0.850358505264836
 32
0.0
 13
0.5262037632262534
 23
0.8503585123737688
 33
0.0
 11
-6.4873925373957491
 21
-4.0414519297817577
 31
0.0
 11
-6.7132616237683775
 21
-3.5570844487105919
 31
0.0
 11
-6.8000000000000114
 21
-3.0310889130591789
 31
0.0
 11
-6.7132616270737513
 21
-2.5050933992850792
 31
0.0
 11
-6.4873925546021241
 21
-2.0207259365011652
 31
0.0
  0
SPLINE
  5
2B
100
AcDbEntity
  8
0
  6
CONTINUOUS
 62
               7
100
AcDbSpline
210
0.0
220
0.0
230
1.0
 70
               0
 71
               3
 72
               0
 73
               0
 74
               5
 44
0.000001
 12
0.5262037747144671
 22
0.8503585052648361
 32
0.0
 13
-0.5262037632262535
 23
0.8503585123737687
 33
0.0
 11
-4.712607462604268
 21
-4.0414519297817577
 31
0.0
 11
-4.4867383762316395
 21
-3.5570844487105919
 31
0.0
 11
-4.4000000000000057
 21
-3.0310889130591789
 31
0.0
 11
-4.4867383729262658
 21
-2.5050933992850792
 31
0.0
 11
-4.712607445397893
 21
-2.0207259365011652
 31
0.0
  0
SPLINE
  5
2C
100
AcDbEntity
  8
0
  6
CONTINUOUS
 62
               7
100
AcDbSpline
210
0.0
220
0.0
230
1.0
 70
               0
 71
               3
 72
               0
 73
               0
 74
               5
 44
0.000001
 12
-0.5262037747144672
 22
-0.850358505264836
 32
0.0
 13
0.5262037632262534
 23
-0.8503585123737688
 33
0.0
 11
-6.4873925373957491
 21
4.0414519297817577
 31
0.0
 11
-6.7132616237683775
 21
3.5570844487105919
 31
0.0
 11
-6.8000000000000114
 21
3.0310889130591789
 31
0.0
 11
-6.7132616270737513
 21
2.5050933992850792
 31
0.0
 11
-6.4873925546021241
 21
2.0207259365011652
 31
0.0
  0
SPLINE
  5
2D
100
AcDbEntity
  8
0
  6
CONTINUOUS
 62
               7
100
AcDbSpline
210
0.0
220
0.0
230
1.0
 70
               0
 71
               3
 72
               0
 73
               0
 74
               5
 44
0.000001
 12
0.5262037747144671
 22
-0.8503585052648361
 32
0.0
 13
-0.5262037632262535
 23
-0.8503585123737687
 33
0.0
 11
-4.712607462604268
 21
4.0414519297817577
 31
0.0
 11
-4.4867383762316395
 21
3.5570844487105919
 31
0.0
 11
-4.4000000000000057
 21
3.0310889130591789
 31
0.0
 11
-4.4867383729262658
 21
2.5050933992850792
 31
0.0
 11
-4.712607445397893
 21
2.0207259365011652
 31
0.0
  0
LINE
  5
2E
100
AcDbEntity
  8
0
  6
CONTINUOUS
 62
               2
100
AcDbLine
 10
-2.0
 20
-1.7000000000000028
 30
0.0
 11
-1.0
 21
-1.7000000000000028
 31
0.0
  0
LINE
  5
2F
100
AcDbEntity
  8
0
  6
CONTINUOUS
 62
               7
100
AcDbLine
 10
-2.0
 20
-2.0
 30
0.0
 11
0.0
 21
-2.0
 31
0.0
  0
LINE
  5
30
100
AcDbEntity
  8
0
  6
CONTINUOUS
 62
               7
100
AcDbLine
 10
-2.0
 20
2.0
 30
0.0
 11
0.0
 21
2.0
 31
0.0
  0
LINE
  5
31
100
AcDbEntity
  8
0
  6
CONTINUOUS
 62
               2
100
AcDbLine
 10
-2.0
 20
1.7000000000000028
 30
0.0
 11
-1.0
 21
1.7000000000000028
 31
0.0
  0
LINE
  5
32
100
AcDbEntity
  8
0
  6
CONTINUOUS
 62
               7
100
AcDbLine
 10
-4.4000000000000057
 20
-3.4999999714156758
 30
0.0
 11
-4.4000000000000057
 21
3.4999999689796795
 31
0.0
  0
LINE
  5
33
100
AcDbEntity
  8
0
  6
CONTINUOUS
 62
               7
100
AcDbLine
 10
-4.0873925546021184
 20
4.0414519297817577
 30
0.0
 11
-2.3126074626042623
 21
4.0414519297817577
 31
0.0
  0
LINE
  5
34
100
AcDbEntity
  8
0
  6
CONTINUOUS
 62
               7
100
AcDbLine
 10
-4.0873925546021184
 20
2.0207259365011652
 30
0.0
 11
-2.3126074453978873
 21
2.0207259365011652
 31
0.0
  0
LINE
  5
35
100
AcDbEntity
  8
0
  6
CONTINUOUS
 62
               7
100
AcDbLine
 10
-4.3999999621720036
 20
3.5000000285843242
 30
0.0
 11
-4.0873925546021184
 21
4.0414518999794353
 31
0.0
  0
LINE
  5
36
100
AcDbEntity
  8
0
  6
CONTINUOUS
 62
               7
100
AcDbLine
 10
-2.0000000378280021
 20
3.5000000285843242
 30
0.0
 11
-2.3126074453978873
 21
4.0414518999794353
 31
0.0
  0
LINE
  5
37
100
AcDbEntity
  8
0
  6
CONTINUOUS
 62
               7
100
AcDbLine
 10
-2.0
 20
-3.4999999714156758
 30
0.0
 11
-2.0
 21
3.4999999689796795
 31
0.0
  0
LINE
  5
38
100
AcDbEntity
  8
0
  6
CONTINUOUS
 62
               7
100
AcDbLine
 10
-4.0873925546021184
 20
-4.0414519297817577
 30
0.0
 11
-2.3126074626042623
 21
-4.0414519297817577
 31
0.0
  0
LINE
  5
39
100
AcDbEntity
  8
0
  6
CONTINUOUS
 62
               7
100
AcDbLine
 10
-4.3999999621720036
 20
-3.5000000285843242
 30
0.0
 11
-4.0873925546021184
 21
-4.0414518999794353
 31
0.0
  0
LINE
  5
3A
100
AcDbEntity
  8
0
  6
CONTINUOUS
 62
               7
100
AcDbLine
 10
-2.0000000378280021
 20
-3.5000000285843242
 30
0.0
 11
-2.3126074453978873
 21
-4.0414518999794353
 31
0.0
  0
LINE
  5
3B
100
AcDbEntity
  8
0
  6
CONTINUOUS
 62
               7
100
AcDbLine
 10
-4.0873925546021184
 20
-2.0207259365011652
 30
0.0
 11
-2.3126074453978873
 21
-2.0207259365011652
 31
0.0
  0
LINE
  5
3C
100
AcDbEntity
  8
0
  6
CONTINUOUS
 62
               7
100
AcDbLine
 10
-4.712607445397893
 20
-2.0207259365011652
 30
0.0
 11
-6.4873925546021241
 21
-2.0207259365011652
 31
0.0
  0
LINE
  5
3D
100
AcDbEntity
  8
0
  6
CONTINUOUS
 62
               7
100
AcDbLine
 10
-6.7999999621720093
 20
-3.5000000285843242
 30
0.0
 11
-6.4873925546021241
 21
-4.0414518999794353
 31
0.0
  0
LINE
  5
3E
100
AcDbEntity
  8
0
  6
CONTINUOUS
 62
               7
100
AcDbLine
 10
-4.4000000378280077
 20
-3.5000000285843242
 30
0.0
 11
-4.712607445397893
 21
-4.0414518999794353
 31
0.0
  0
LINE
  5
3F
100
AcDbEntity
  8
0
  6
CONTINUOUS
 62
               7
100
AcDbLine
 10
-4.712607445397893
 20
-4.0414519297817577
 30
0.0
 11
-6.4873925373957491
 21
-4.0414519297817577
 31
0.0
  0
LINE
  5
40
100
AcDbEntity
  8
0
  6
CONTINUOUS
 62
               7
100
AcDbLine
 10
-6.8000000000000114
 20
-3.4999999714156758
 30
0.0
 11
-6.8000000000000114
 21
3.4999999689796795
 31
0.0
  0
LINE
  5
41
100
AcDbEntity
  8
0
  6
CONTINUOUS
 62
               7
100
AcDbLine
 10
-6.7999999621720093
 20
3.5000000285843242
 30
0.0
 11
-6.4873925546021241
 21
4.0414518999794353
 31
0.0
  0
LINE
  5
42
100
AcDbEntity
  8
0
  6
CONTINUOUS
 62
               7
100
AcDbLine
 10
-4.4000000378280077
 20
3.5000000285843242
 30
0.0
 11
-4.712607445397893
 21
4.0414518999794353
 31
0.0
  0
LINE
  5
43
100
AcDbEntity
  8
0
  6
CONTINUOUS
 62
               7
100
AcDbLine
 10
-4.712607445397893
 20
2.0207259365011652
 30
0.0
 11
-6.4873925546021241
 21
2.0207259365011652
 31
0.0
  0
LINE
  5
44
100
AcDbEntity
  8
0
  6
CONTINUOUS
 62
               7
100
AcDbLine
 10
-4.712607445397893
 20
4.0414519297817577
 30
0.0
 11
-6.4873925373957491
 21
4.0414519297817577
 31
0.0
  0
LINE
  5
45
100
AcDbEntity
  8
0
  6
CONTINUOUS
 62
               7
100
AcDbLine
 10
0.0
 20
11.5
 30
0.0
 11
25.0
 21
11.5
 31
0.0
  0
LINE
  5
46
100
AcDbEntity
  8
0
  6
CONTINUOUS
 62
               7
100
AcDbLine
 10
-0.0000000147648791
 20
-11.5
 30
0.0
 11
25.0
 21
-11.5
 31
0.0
  0
LINE
  5
47
100
AcDbEntity
  8
0
  6
CONTINUOUS
 62
               2
100
AcDbLine
 10
-10.0
 20
-1.7000000000000028
 30
0.0
 11
-6.8000000000000114
 21
-1.7000000000000028
 31
0.0
  0
LINE
  5
48
100
AcDbEntity
  8
0
  6
CONTINUOUS
 62
               7
100
AcDbLine
 10
-9.7000000000000171
 20
-2.0
 30
0.0
 11
-10.0
 21
-1.7000000000000028
 31
0.0
  0
LINE
  5
49
100
AcDbEntity
  8
0
  6
CONTINUOUS
 62
               2
100
AcDbLine
 10
-1.0
 20
-1.7000000000000028
 30
0.0
 11
-0.4803847577293539
 21
-2.0
 31
0.0
  0
LINE
  5
4A
100
AcDbEntity
  8
0
  6
CONTINUOUS
 62
               7
100
AcDbLine
 10
-9.7000000000000171
 20
-2.0
 30
0.0
 11
-6.8000000000000114
 21
-2.0
 31
0.0
  0
LINE
  5
4C
100
AcDbEntity
  8
0
  6
CENTER
 62
               2
100
AcDbLine
 10
5.5999999999999943
 20
-8.5
 30
0.0
 11
12.400000000000006
 21
-8.5
 31
0.0
  0
CIRCLE
  5
4D
100
AcDbEntity
  8
0
  6
CONTINUOUS
 62
               7
100
AcDbCircle
 10
9.0
 20
-8.5
 30
0.0
 40
1.3499999999999996
  0
CIRCLE
  5
4E
100
AcDbEntity
  8
0
  6
CONTINUOUS
 62
               7
100
AcDbCircle
 10
9.0
 20
-8.5
 30
0.0
 40
2.4000000000000004
  0
LINE
  5
4F
100
AcDbEntity
  8
0
  6
CENTER
 62
               2
100
AcDbLine
 10
9.0
 20
-11.899999999999999
 30
0.0
 11
9.0
 21
-5.1000000000000014
 31
0.0
  0
CIRCLE
  5
50
100
AcDbEntity
  8
0
  6
CONTINUOUS
 62
               7
100
AcDbCircle
 10
9.0
 20
8.5
 30
0.0
 40
1.3499999999999996
  0
CIRCLE
  5
51
100
AcDbEntity
  8
0
  6
CONTINUOUS
 62
               7
100
AcDbCircle
 10
9.0
 20
8.5
 30
0.0
 40
2.4000000000000004
  0
LINE
  5
52
100
AcDbEntity
  8
0
  6
CENTER
 62
               2
100
AcDbLine
 10
-11.864612918062932
 20
0.0
 30
0.0
 11
27.214095134118793
 21
0.0
 31
0.0
  0
LINE
  5
53
100
AcDbEntity
  8
0
  6
CONTINUOUS
 62
               7
100
AcDbLine
 10
0.0
 20
11.5
 30
0.0
 11
0.0
 21
-11.5
 31
0.0
  0
LINE
  5
54
100
AcDbEntity
  8
0
  6
CONTINUOUS
 62
               7
100
AcDbLine
 10
-9.7000000000000171
 20
2.0
 30
0.0
 11
-6.8000000000000114
 21
2.0
 31
0.0
  0
LINE
  5
55
100
AcDbEntity
  8
0
  6
CONTINUOUS
 62
               7
100
AcDbLine
 10
25.0
 20
11.5
 30
0.0
 11
25.0
 21
-11.5
 31
0.0
  0
LINE
  5
56
100
AcDbEntity
  8
0
  6
CENTER
 62
               2
100
AcDbLine
 10
5.5999999999999943
 20
8.5
 30
0.0
 11
12.400000000000006
 21
8.5
 31
0.0
  0
LINE
  5
57
100
AcDbEntity
  8
0
  6
CENTER
 62
               2
100
AcDbLine
 10
9.0
 20
11.899999999999999
 30
0.0
 11
9.0
 21
5.1000000000000014
 31
0.0
  0
LINE
  5
58
100
AcDbEntity
  8
0
  6
CONTINUOUS
 62
               7
100
AcDbLine
 10
-10.0
 20
-1.7000000000000028
 30
0.0
 11
-10.0
 21
1.7000000000000028
 31
0.0
  0
LINE
  5
59
100
AcDbEntity
  8
0
  6
CONTINUOUS
 62
               7
100
AcDbLine
 10
-1.0
 20
-2.0
 30
0.0
 11
-1.0
 21
2.0
 31
0.0
  0
LINE
  5
5A
100
AcDbEntity
  8
0
  6
CONTINUOUS
 62
               7
100
AcDbLine
 10
-9.7000000000000171
 20
-2.0
 30
0.0
 11
-9.7000000000000171
 21
2.0
 31
0.0
  0
LINE
  5
5B
100
AcDbEntity
  8
0
  6
CONTINUOUS
 62
               2
100
AcDbLine
 10
-1.0
 20
1.7000000000000028
 30
0.0
 11
-0.4803847577293539
 21
2.0
 31
0.0
  0
LINE
  5
5C
100
AcDbEntity
  8
0
  6
CONTINUOUS
 62
               7
100
AcDbLine
 10
-9.7000000000000171
 20
2.0
 30
0.0
 11
-10.0
 21
1.7000000000000028
 31
0.0
  0
LINE
  5
5D
100
AcDbEntity
  8
0
  6
CONTINUOUS
 62
               2
100
AcDbLine
 10
-10.0
 20
1.7000000000000028
 30
0.0
 11
-6.8000000000000114
 21
1.7000000000000028
 31
0.0
  0
LINE
  5
5F
100
AcDbEntity
  8
0
  6
PHANTOM
 62
               3
100
AcDbLine
 10
18.029302129986313
 20
-33.717947471824857
 30
0.0
 11
18.029302129986313
 21
16.266593039035797
 31
0.0
  0
ENDBLK
  5
60
100
AcDbEntity
  8
0
100
AcDbBlockEnd
  0
BLOCK
  5
61
100
AcDbEntity
  8
0
100
AcDbBlockBegin
  2
MS_2
 70
               0
 10
0.0
 20
0.0
 30
0.0
  3
MS_2
  1

  0
ARC
  5
62
100
AcDbEntity
  8
0
  6
CONTINUOUS
 62
               7
100
AcDbCircle
 10
11.600000000000009
 20
-11.100000000000001
 30
0.0
 40
0.4
100
AcDbArc
 50
269.99999999999937
 51
0.0
  0
ARC
  5
63
100
AcDbEntity
  8
0
  6
CONTINUOUS
 62
               7
100
AcDbCircle
 10
0.4000000000000057
 20
-11.100000000000001
 30
0.0
 40
0.4
100
AcDbArc
 50
179.9999999999996
 51
269.99999999999937
  0
ARC
  5
64
100
AcDbEntity
  8
0
  6
CONTINUOUS
 62
               7
100
AcDbCircle
 10
0.4000000000000057
 20
11.100000000000001
 30
0.0
 40
0.4
100
AcDbArc
 50
89.999999999999801
 51
179.9999999999996
  0
ARC
  5
65
100
AcDbEntity
  8
0
  6
CONTINUOUS
 62
               7
100
AcDbCircle
 10
11.600000000000009
 20
11.100000000000001
 30
0.0
 40
0.4
100
AcDbArc
 50
0.0
 51
89.999999999999801
  0
CIRCLE
  5
66
100
AcDbEntity
  8
0
  6
CONTINUOUS
 62
               7
100
AcDbCircle
 10
6.0
 20
0.0
 30
0.0
 40
3.5
  0
LINE
  5
67
100
AcDbEntity
  8
0
  6
CONTINUOUS
 62
               7
100
AcDbLine
 10
2.5000000147587116
 20
2.0207259559744557
 30
0.0
 11
6.000000069567065
 21
4.0414519297817577
 31
0.0
  0
LINE
  5
68
100
AcDbEntity
  8
0
  6
CONTINUOUS
 62
               7
100
AcDbLine
 10
2.4999999954188894
 20
-2.0207259224768919
 30
0.0
 11
2.4999999954188894
 21
2.0207260251377193
 31
0.0
  0
LINE
  5
69
100
AcDbEntity
  8
0
  6
CONTINUOUS
 62
               7
100
AcDbLine
 10
5.9999999806601778
 20
-4.0414518784513476
 30
0.0
 11
2.4999999258518386
 21
-2.0207259046440385
 31
0.0
  0
LINE
  5
6A
100
AcDbEntity
  8
0
  6
CONTINUOUS
 62
               7
100
AcDbLine
 10
9.4999999852413026
 20
-2.0207259559744628
 30
0.0
 11
5.9999999304329492
 21
-4.0414519297817577
 31
0.0
  0
LINE
  5
6B
100
AcDbEntity
  8
0
  6
CONTINUOUS
 62
               7
100
AcDbLine
 10
9.5000000045811248
 20
2.0207259224768848
 30
0.0
 11
9.5000000045811248
 21
-2.0207260251377193
 31
0.0
  0
LINE
  5
6C
100
AcDbEntity
  8
0
  6
CONTINUOUS
 62
               7
100
AcDbLine
 10
6.0000000193398364
 20
4.0414518784513405
 30
0.0
 11
9.5000000741481756
 21
2.0207259046440385
 31
0.0
  0
LINE
  5
6D
100
AcDbEntity
  8
0
  6
CONTINUOUS
 62
               7
100
AcDbLine
 10
0.4000000000000057
 20
-11.5
 30
0.0
 11
11.600000000000009
 21
-11.5
 31
0.0
  0
LINE
  5
6E
100
AcDbEntity
  8
0
  6
CONTINUOUS
 62
               7
100
AcDbLine
 10
0.4000000000000057
 20
11.5
 30
0.0
 11
11.600000000000009
 21
11.5
 31
0.0
  0
LINE
  5
6F
100
AcDbEntity
  8
0
  6
CENTER
 62
               2
100
AcDbLine
 10
-1.5
 20
0.0
 30
0.0
 11
13.5
 21
0.0
 31
0.0
  0
LINE
  5
70
100
AcDbEntity
  8
0
  6
CENTER
 62
               2
100
AcDbLine
 10
6.0
 20
-13.0
 30
0.0
 11
6.0
 21
13.0
 31
0.0
  0
LINE
  5
71
100
AcDbEntity
  8
0
  6
CONTINUOUS
 62
               7
100
AcDbLine
 10
12.0
 20
-11.100000000000001
 30
0.0
 11
12.0
 21
11.100000000000001
 31
0.0
  0
LINE
  5
72
100
AcDbEntity
  8
0
  6
CONTINUOUS
 62
               7
100
AcDbLine
 10
0.0
 20
-11.100000000000001
 30
0.0
 11
0.0
 21
11.100000000000001
 31
0.0
  0
CIRCLE
  5
73
100
AcDbEntity
  8
0
  6
CONTINUOUS
 62
               7
100
AcDbCircle
 10
6.0
 20
0.0
 30
0.0
 40
2.0
  0
CIRCLE
  5
74
100
AcDbEntity
  8
0
  6
CONTINUOUS
 62
               2
100
AcDbCircle
 10
6.0
 20
0.0
 30
0.0
 40
1.7000000000000028
  0
CIRCLE
  5
75
100
AcDbEntity
  8
0
  6
CONTINUOUS
 62
               7
100
AcDbCircle
 10
6.0
 20
0.0
 30
0.0
 40
5.5499999999999901
  0
CIRCLE
  5
76
100
AcDbEntity
  8
0
  6
CONTINUOUS
 62
               7
100
AcDbCircle
 10
6.0
 20
0.0
 30
0.0
 40
5.1499999999999844
  0
ENDBLK
  5
77
100
AcDbEntity
  8
0
100
AcDbBlockEnd
  0
BLOCK
  5
78
100
AcDbEntity
  8
0
100
AcDbBlockBegin
  2
MS_3
 70
               0
 10
0.0
 20
0.0
 30
0.0
  3
MS_3
  1

  0
SPLINE
  5
79
100
AcDbEntity
  8
0
  6
CONTINUOUS
 62
               7
100
AcDbSpline
210
0.0
220
0.0
230
1.0
 70
               0
 71
               3
 72
               0
 73
               0
 74
               5
 44
0.000001
 12
-0.3364389663850757
 22
-0.9417052733725887
 32
0.0
 13
0.3364389571584284
 23
-0.9417052766689529
 33
0.0
 11
-4.0873925226308572
 21
9.4999999630643117
 31
0.0
 11
-4.3184572685291984
 21
8.639236642840407
 31
0.0
 11
-4.3999999852351266
 21
7.7499999815321559
 31
0.0
 11
-4.318457277020018
 21
6.8607633209806309
 31
0.0
 11
-4.0873925398372393
 21
6.0
 31
0.0
  0
SPLINE
  5
7A
100
AcDbEntity
  8
0
  6
CONTINUOUS
 62
               7
100
AcDbSpline
210
0.0
220
0.0
230
1.0
 70
               0
 71
               3
 72
               0
 73
               0
 74
               5
 44
0.000001
 12
0.3364389663850756
 22
-0.9417052733725887
 32
0.0
 13
-0.3364389571584283
 23
-0.941705276668953
 33
0.0
 11
-2.3126074478393903
 21
9.4999999630643117
 31
0.0
 11
-2.0815427019410495
 21
8.639236642840407
 31
0.0
 11
-1.9999999852351209
 21
7.7499999815321559
 31
0.0
 11
-2.0815426934502295
 21
6.8607633209806309
 31
0.0
 11
-2.3126074306330082
 21
6.0
 31
0.0
  0
SPLINE
  5
7B
100
AcDbEntity
  8
0
  6
CONTINUOUS
 62
               7
100
AcDbSpline
210
0.0
220
0.0
230
1.0
 70
               0
 71
               3
 72
               0
 73
               0
 74
               5
 44
0.000001
 12
0.3364389663850756
 22
0.9417052733725887
 32
0.0
 13
-0.3364389571584283
 23
0.941705276668953
 33
0.0
 11
-2.3126074478393903
 21
2.5000000369356883
 31
0.0
 11
-2.0815427019410495
 21
3.3607633571595934
 31
0.0
 11
-1.9999999852351209
 21
4.2500000184678441
 31
0.0
 11
-2.0815426934502295
 21
5.1392366790193691
 31
0.0
 11
-2.3126074306330082
 21
6.0
 31
0.0
  0
SPLINE
  5
7C
100
AcDbEntity
  8
0
  6
CONTINUOUS
 62
               7
100
AcDbSpline
210
0.0
220
0.0
230
1.0
 70
               0
 71
               3
 72
               0
 73
               0
 74
               5
 44
0.000001
 12
-0.3364389663850757
 22
0.9417052733725887
 32
0.0
 13
0.3364389571584284
 23
0.9417052766689529
 33
0.0
 11
-4.0873925226308572
 21
2.5000000369356883
 31
0.0
 11
-4.3184572685291984
 21
3.3607633571595934
 31
0.0
 11
-4.3999999852351266
 21
4.2500000184678441
 31
0.0
 11
-4.318457277020018
 21
5.1392366790193691
 31
0.0
 11
-4.0873925398372393
 21
6.0
 31
0.0
  0
SPLINE
  5
7D
100
AcDbEntity
  8
0
  6
CONTINUOUS
 62
               7
100
AcDbSpline
210
0.0
220
0.0
230
1.0
 70
               0
 71
               3
 72
               0
 73
               0
 74
               5
 44
0.000001
 12
0.3364389663850756
 22
0.9417052733725887
 32
0.0
 13
-0.3364389571584283
 23
0.941705276668953
 33
0.0
 11
-4.712607447839396
 21
2.5000000369356883
 31
0.0
 11
-4.4815427019410548
 21
3.3607633571595934
 31
0.0
 11
-4.3999999852351266
 21
4.2500000184678441
 31
0.0
 11
-4.4815426934502351
 21
5.1392366790193691
 31
0.0
 11
-4.7126074306330139
 21
6.0
 31
0.0
  0
SPLINE
  5
7E
100
AcDbEntity
  8
0
  6
CONTINUOUS
 62
               7
100
AcDbSpline
210
0.0
220
0.0
230
1.0
 70
               0
 71
               3
 72
               0
 73
               0
 74
               5
 44
0.000001
 12
-0.3364389663850757
 22
0.9417052733725887
 32
0.0
 13
0.3364389571584284
 23
0.9417052766689529
 33
0.0
 11
-6.4873925226308629
 21
2.5000000369356883
 31
0.0
 11
-6.7184572685292041
 21
3.3607633571595934
 31
0.0
 11
-6.7999999852351323
 21
4.2500000184678441
 31
0.0
 11
-6.7184572770200237
 21
5.1392366790193691
 31
0.0
 11
-6.487392539837245
 21
6.0
 31
0.0
  0
SPLINE
  5
7F
100
AcDbEntity
  8
0
  6
CONTINUOUS
 62
               7
100
AcDbSpline
210
0.0
220
0.0
230
1.0
 70
               0
 71
               3
 72
               0
 73
               0
 74
               5
 44
0.000001
 12
-0.3364389663850757
 22
-0.9417052733725887
 32
0.0
 13
0.3364389571584284
 23
-0.9417052766689529
 33
0.0
 11
-6.4873925226308629
 21
9.4999999630643117
 31
0.0
 11
-6.7184572685292041
 21
8.639236642840407
 31
0.0
 11
-6.7999999852351323
 21
7.7499999815321559
 31
0.0
 11
-6.7184572770200237
 21
6.8607633209806309
 31
0.0
 11
-6.487392539837245
 21
6.0
 31
0.0
  0
SPLINE
  5
80
100
AcDbEntity
  8
0
  6
CONTINUOUS
 62
               7
100
AcDbSpline
210
0.0
220
0.0
230
1.0
 70
               0
 71
               3
 72
               0
 73
               0
 74
               5
 44
0.000001
 12
0.3364389663850756
 22
-0.9417052733725887
 32
0.0
 13
-0.3364389571584283
 23
-0.941705276668953
 33
0.0
 11
-4.712607447839396
 21
9.4999999630643117
 31
0.0
 11
-4.4815427019410548
 21
8.639236642840407
 31
0.0
 11
-4.3999999852351266
 21
7.7499999815321559
 31
0.0
 11
-4.4815426934502351
 21
6.8607633209806309
 31
0.0
 11
-4.7126074306330139
 21
6.0
 31
0.0
  0
CIRCLE
  5
81
100
AcDbEntity
  8
0
  6
CONTINUOUS
 62
               7
100
AcDbCircle
 10
3.5
 20
6.0
 30
0.0
 40
1.2
  0
CIRCLE
  5
82
100
AcDbEntity
  8
0
  6
CONTINUOUS
 62
               2
100
AcDbCircle
 10
3.5
 20
6.0
 30
0.0
 40
1.5
  0
LINE
  5
83
100
AcDbEntity
  8
0
  6
CENTER
 62
               2
100
AcDbLine
 10
3.5
 20
3.5
 30
0.0
 11
3.5
 21
8.5
 31
0.0
  0
LINE
  5
84
100
AcDbEntity
  8
0
  6
CONTINUOUS
 62
               2
100
AcDbLine
 10
-1.9999999852351209
 20
4.2999999999999972
 30
0.0
 11
-0.9999999852351209
 21
4.2999999999999972
 31
0.0
  0
LINE
  5
85
100
AcDbEntity
  8
0
  6
CONTINUOUS
 62
               7
100
AcDbLine
 10
-1.9999999852351209
 20
4.0
 30
0.0
 11
0.0
 21
4.0
 31
0.0
  0
LINE
  5
86
100
AcDbEntity
  8
0
  6
CONTINUOUS
 62
               2
100
AcDbLine
 10
-1.9999999852351209
 20
7.7000000000000028
 30
0.0
 11
-0.9999999852351209
 21
7.7000000000000028
 31
0.0
  0
LINE
  5
87
100
AcDbEntity
  8
0
  6
CONTINUOUS
 62
               7
100
AcDbLine
 10
-1.9999999852351209
 20
8.0
 30
0.0
 11
0.0
 21
8.0
 31
0.0
  0
LINE
  5
88
100
AcDbEntity
  8
0
  6
CONTINUOUS
 62
               7
100
AcDbLine
 10
-4.0873925398372393
 20
6.0
 30
0.0
 11
-2.3126074306330082
 21
6.0
 31
0.0
  0
LINE
  5
89
100
AcDbEntity
  8
0
  6
CONTINUOUS
 62
               7
100
AcDbLine
 10
-1.9999999852351209
 20
2.5000000285843242
 30
0.0
 11
-1.9999999852351209
 21
9.4999999689796795
 31
0.0
  0
LINE
  5
8A
100
AcDbEntity
  8
0
  6
CONTINUOUS
 62
               7
100
AcDbLine
 10
-4.3999999852351266
 20
2.5000000285843242
 30
0.0
 11
-4.3999999852351266
 21
9.4999999689796795
 31
0.0
  0
LINE
  5
8B
100
AcDbEntity
  8
0
  6
CONTINUOUS
 62
               7
100
AcDbLine
 10
-4.3999999852351266
 20
9.4999999630643117
 30
0.0
 11
-1.9999999852351209
 21
9.4999999630643117
 31
0.0
  0
LINE
  5
8C
100
AcDbEntity
  8
0
  6
CONTINUOUS
 62
               7
100
AcDbLine
 10
-4.3999999852351266
 20
2.5000000369356954
 30
0.0
 11
-1.9999999852351209
 21
2.5000000369356954
 31
0.0
  0
LINE
  5
8D
100
AcDbEntity
  8
0
  6
CONTINUOUS
 62
               7
100
AcDbLine
 10
-4.3999999852351266
 20
2.5000000369356954
 30
0.0
 11
-6.7999999852351323
 21
2.5000000369356954
 31
0.0
  0
LINE
  5
8E
100
AcDbEntity
  8
0
  6
CONTINUOUS
 62
               7
100
AcDbLine
 10
-4.3999999852351266
 20
9.4999999630643117
 30
0.0
 11
-6.7999999852351323
 21
9.4999999630643117
 31
0.0
  0
LINE
  5
8F
100
AcDbEntity
  8
0
  6
CONTINUOUS
 62
               7
100
AcDbLine
 10
-6.7999999852351323
 20
2.5000000285843242
 30
0.0
 11
-6.7999999852351323
 21
9.4999999689796795
 31
0.0
  0
LINE
  5
90
100
AcDbEntity
  8
0
  6
CONTINUOUS
 62
               7
100
AcDbLine
 10
-4.7126074306330139
 20
6.0
 30
0.0
 11
-6.487392539837245
 21
6.0
 31
0.0
  0
LINE
  5
91
100
AcDbEntity
  8
0
  6
CONTINUOUS
 62
               7
100
AcDbLine
 10
0.0
 20
12.0
 30
0.0
 11
25.000000014764879
 21
12.0
 31
0.0
  0
LINE
  5
92
100
AcDbEntity
  8
0
  6
CENTER
 62
               2
100
AcDbLine
 10
22.000000014764879
 20
3.5
 30
0.0
 11
22.000000014764879
 21
8.5
 31
0.0
  0
CIRCLE
  5
93
100
AcDbEntity
  8
0
  6
CONTINUOUS
 62
               2
100
AcDbCircle
 10
22.000000014764879
 20
6.0
 30
0.0
 40
1.5
  0
CIRCLE
  5
94
100
AcDbEntity
  8
0
  6
CONTINUOUS
 62
               7
100
AcDbCircle
 10
22.000000014764879
 20
6.0
 30
0.0
 40
1.2
  0
CIRCLE
  5
95
100
AcDbEntity
  8
0
  6
CONTINUOUS
 62
               7
100
AcDbCircle
 10
14.000000014764879
 20
6.0
 30
0.0
 40
1.2
  0
CIRCLE
  5
96
100
AcDbEntity
  8
0
  6
CONTINUOUS
 62
               2
100
AcDbCircle
 10
14.000000014764879
 20
6.0
 30
0.0
 40
1.5
  0
LINE
  5
97
100
AcDbEntity
  8
0
  6
CONTINUOUS
 62
               2
100
AcDbLine
 10
-9.9999999852351209
 20
7.7000000000000028
 30
0.0
 11
-6.7999999852351323
 21
7.7000000000000028
 31
0.0
  0
LINE
  5
98
100
AcDbEntity
  8
0
  6
CONTINUOUS
 62
               7
100
AcDbLine
 10
-9.699999985235138
 20
8.0
 30
0.0
 11
-9.9999999852351209
 21
7.7000000000000028
 31
0.0
  0
LINE
  5
99
100
AcDbEntity
  8
0
  6
CONTINUOUS
 62
               2
100
AcDbLine
 10
-0.9999999852351209
 20
7.7000000000000028
 30
0.0
 11
-0.4803847429644748
 21
8.0
 31
0.0
  0
LINE
  5
9A
100
AcDbEntity
  8
0
  6
CONTINUOUS
 62
               7
100
AcDbLine
 10
-9.699999985235138
 20
4.0
 30
0.0
 11
-9.699999985235138
 21
8.0
 31
0.0
  0
LINE
  5
9B
100
AcDbEntity
  8
0
  6
CONTINUOUS
 62
               7
100
AcDbLine
 10
-0.9999999852351209
 20
4.0
 30
0.0
 11
-0.9999999852351209
 21
8.0
 31
0.0
  0
LINE
  5
9C
100
AcDbEntity
  8
0
  6
CONTINUOUS
 62
               7
100
AcDbLine
 10
-9.9999999852351209
 20
4.2999999999999972
 30
0.0
 11
-9.9999999852351209
 21
7.7000000000000028
 31
0.0
  0
LINE
  5
9D
100
AcDbEntity
  8
0
  6
CONTINUOUS
 62
               2
100
AcDbLine
 10
-0.9999999852351209
 20
4.2999999999999972
 30
0.0
 11
-0.4803847429644748
 21
4.0
 31
0.0
  0
LINE
  5
9E
100
AcDbEntity
  8
0
  6
CONTINUOUS
 62
               7
100
AcDbLine
 10
-9.699999985235138
 20
4.0
 30
0.0
 11
-9.9999999852351209
 21
4.2999999999999972
 31
0.0
  0
LINE
  5
9F
100
AcDbEntity
  8
0
  6
CONTINUOUS
 62
               2
100
AcDbLine
 10
-9.9999999852351209
 20
4.2999999999999972
 30
0.0
 11
-6.7999999852351323
 21
4.2999999999999972
 31
0.0
  0
LINE
  5
A0
100
AcDbEntity
  8
0
  6
CONTINUOUS
 62
               7
100
AcDbLine
 10
-9.699999985235138
 20
4.0
 30
0.0
 11
-6.7999999852351323
 21
4.0
 31
0.0
  0
LINE
  5
A1
100
AcDbEntity
  8
0
  6
CENTER
 62
               2
100
AcDbLine
 10
-11.096987471272001
 20
6.0
 30
0.0
 11
26.239086527694099
 21
6.0
 31
0.0
  0
LINE
  5
A2
100
AcDbEntity
  8
0
  6
CONTINUOUS
 62
               7
100
AcDbLine
 10
-9.699999985235138
 20
8.0
 30
0.0
 11
-6.7999999852351323
 21
8.0
 31
0.0
  0
LINE
  5
A3
100
AcDbEntity
  8
0
  6
CENTER
 62
               2
100
AcDbLine
 10
14.000000014764879
 20
3.5
 30
0.0
 11
14.000000014764879
 21
8.5
 31
0.0
  0
LINE
  5
A4
100
AcDbEntity
  8
0
  6
CONTINUOUS
 62
               7
100
AcDbLine
 10
0.0
 20
0.0
 30
0.0
 11
25.000000014764879
 21
0.0
 31
0.0
  0
LINE
  5
A5
100
AcDbEntity
  8
0
  6
CONTINUOUS
 62
               7
100
AcDbLine
 10
0.0
 20
0.0
 30
0.0
 11
0.0
 21
12.0
 31
0.0
  0
LINE
  5
A6
100
AcDbEntity
  8
0
  6
CONTINUOUS
 62
               7
100
AcDbLine
 10
25.000000014764879
 20
0.0
 30
0.0
 11
25.000000014764879
 21
12.0
 31
0.0
  0
LINE
  5
A7
100
AcDbEntity
  8
0
  6
CENTER
 62
               2
100
AcDbLine
 10
9.0
 20
-1.5
 30
0.0
 11
9.0
 21
1.5
 31
0.0
  0
LINE
  5
A8
100
AcDbEntity
  8
0
  6
PHANTOM
 62
               3
100
AcDbLine
 10
18.029302129986327
 20
-4.6176231475005238
 30
0.0
 11
18.029302129986327
 21
39.782052528175143
 31
0.0
  0
ENDBLK
  5
A9
100
AcDbEntity
  8
0
100
AcDbBlockEnd
  0
ENDSEC
  0
SECTION
  2
ENTITIES
  0
INSERT
  5
AA
100
AcDbEntity
  8
0
100
AcDbBlockReference
  2
MS_3
 10
30.000000014764879
 20
-37.0
 30
0.0
  0
INSERT
  5
AB
100
AcDbEntity
  8
0
100
AcDbBlockReference
  2
MS_2
 10
-41.999999985235121
 20
36.5
 30
0.0
  0
INSERT
  5
AC
100
AcDbEntity
  8
0
100
AcDbBlockReference
  2
MS_1
 10
30.000000014764893
 20
36.5
 30
0.0
  0
MTEXT
  5
AD
100
AcDbEntity
  8
0
  6
CONTINUOUS
 62
               3
100
AcDbMText
 10
29.397349203389851
 20
57.766593039035797
 30
0.0
 40
3.2000000476837158
 41
0.0
 71
               4
 72
               1
  1
\W1.065;\A1;STRETCH LINE
  7
MX_NOTE_STANDARD
  0
MTEXT
  5
AE
100
AcDbEntity
  8
0
  6
CONTINUOUS
 62
               7
100
AcDbMText
 10
-57.618175747374892
 20
-80.800003051757813
 30
0.0
 40
3.2000000476837158
 41
0.0
 71
               4
 72
               1
  1
\W1.091;\A1;20
  7
MX_NOTE_STANDARD
  0
LINE
  5
AF
100
AcDbEntity
  8
0
  6
CONTINUOUS
 62
               7
100
AcDbLine
 10
-59.799993896484395
 20
-77.800003051757812
 30
0.0
 11
-59.799993896484395
 21
-89.800003051757812
 31
0.0
  0
MTEXT
  5
B0
100
AcDbEntity
  8
0
  6
CONTINUOUS
 62
               7
100
AcDbMText
 10
-57.559993942260782
 20
-86.800003051757813
 30
0.0
 40
3.2000000476837158
 41
0.0
 71
               4
 72
               1
  1
\W1.200;\A1;16
  7
MX_NOTE_STANDARD
  0
MTEXT
  5
B1
100
AcDbEntity
  8
0
  6
CONTINUOUS
 62
               7
100
AcDbMText
 10
-67.159993942260769
 20
-80.800003051757813
 30
0.0
 40
3.2000000476837158
 41
0.0
 71
               4
 72
               1
  1
\W1.200;\A1;15
  7
MX_NOTE_STANDARD
  0
LINE
  5
B2
100
AcDbEntity
  8
0
  6
CONTINUOUS
 62
               7
100
AcDbLine
 10
-69.399993896484389
 20
-77.800003051757812
 30
0.0
 11
-69.399993896484389
 21
-89.800003051757812
 31
0.0
  0
MTEXT
  5
B3
100
AcDbEntity
  8
0
  6
CONTINUOUS
 62
               7
100
AcDbMText
 10
-66.999993956089057
 20
-86.800003051757813
 30
0.0
 40
3.2000000476837158
 41
0.0
 71
               4
 72
               1
  1
\W1.500;\A1;11
  7
MX_NOTE_STANDARD
  0
LINE
  5
B4
100
AcDbEntity
  8
0
  6
CONTINUOUS
 62
               7
100
AcDbLine
 10
-133.39999389648437
 20
-89.800003051757812
 30
0.0
 11
-50.199993896484372
 21
-89.800003051757812
 31
0.0
  0
LINE
  5
B5
100
AcDbEntity
  8
0
  6
CONTINUOUS
 62
               7
100
AcDbLine
 10
-133.39999389648437
 20
-77.800003051757812
 30
0.0
 11
-133.39999389648437
 21
-89.800003051757812
 31
0.0
  0
LINE
  5
B6
100
AcDbEntity
  8
0
  6
CONTINUOUS
 62
               7
100
AcDbLine
 10
-133.39999389648437
 20
-83.800003051757813
 30
0.0
 11
-50.199993896484372
 21
-83.800003051757813
 31
0.0
  0
LINE
  5
B7
100
AcDbEntity
  8
0
  6
CONTINUOUS
 62
               7
100
AcDbLine
 10
-133.39999389648437
 20
-77.800003051757812
 30
0.0
 11
-50.199993896484372
 21
-77.800003051757812
 31
0.0
  0
MTEXT
  5
B8
100
AcDbEntity
  8
0
  6
CONTINUOUS
 62
               7
100
AcDbMText
 10
-129.6666606982549
 20
-80.800003051757813
 30
0.0
 40
3.2000000476837158
 41
0.0
 71
               4
 72
               1
  1
\A1;STROKE
  7
MX_NOTE_STANDARD
  0
MTEXT
  5
B9
100
AcDbEntity
  8
0
  6
CONTINUOUS
 62
               7
100
AcDbMText
 10
-131.26666072209676
 20
-86.800003051757813
 30
0.0
 40
3.2000000476837158
 41
0.0
 71
               4
 72
               1
  1
\A1;STRETCH
  7
MX_NOTE_STANDARD
  0
LINE
  5
BA
100
AcDbEntity
  8
0
  6
CONTINUOUS
 62
               7
100
AcDbLine
 10
-107.79999389648438
 20
-77.800003051757812
 30
0.0
 11
-107.79999389648438
 21
-89.800003051757812
 31
0.0
  0
LINE
  5
BB
100
AcDbEntity
  8
0
  6
CONTINUOUS
 62
               7
100
AcDbLine
 10
-98.199993896484386
 20
-77.800003051757812
 30
0.0
 11
-98.199993896484386
 21
-89.800003051757812
 31
0.0
  0
LINE
  5
BC
100
AcDbEntity
  8
0
  6
CONTINUOUS
 62
               7
100
AcDbLine
 10
-88.599993896484378
 20
-77.800003051757812
 30
0.0
 11
-88.599993896484378
 21
-89.800003051757812
 31
0.0
  0
LINE
  5
BD
100
AcDbEntity
  8
0
  6
CONTINUOUS
 62
               7
100
AcDbLine
 10
-78.999993896484384
 20
-77.800003051757812
 30
0.0
 11
-78.999993896484384
 21
-89.800003051757812
 31
0.0
  0
LINE
  5
BE
100
AcDbEntity
  8
0
  6
CONTINUOUS
 62
               7
100
AcDbLine
 10
-50.199993896484372
 20
-77.800003051757812
 30
0.0
 11
-50.199993896484372
 21
-89.800003051757812
 31
0.0
  0
MTEXT
  5
BF
100
AcDbEntity
  8
0
  6
CONTINUOUS
 62
               7
100
AcDbMText
 10
-104.06666057904562
 20
-80.800003051757813
 30
0.0
 40
3.2000000476837158
 41
0.0
 71
               4
 72
               1
  1
\A1;4
  7
MX_NOTE_STANDARD
  0
MTEXT
  5
C0
100
AcDbEntity
  8
0
  6
CONTINUOUS
 62
               7
100
AcDbMText
 10
-94.466660579045623
 20
-80.800003051757813
 30
0.0
 40
3.2000000476837158
 41
0.0
 71
               4
 72
               1
  1
\A1;6
  7
MX_NOTE_STANDARD
  0
MTEXT
  5
C1
100
AcDbEntity
  8
0
  6
CONTINUOUS
 62
               7
100
AcDbMText
 10
-84.866660579045629
 20
-80.800003051757813
 30
0.0
 40
3.2000000476837158
 41
0.0
 71
               4
 72
               1
  1
\A1;8
  7
MX_NOTE_STANDARD
  0
MTEXT
  5
C2
100
AcDbEntity
  8
0
  6
CONTINUOUS
 62
               7
100
AcDbMText
 10
-76.688882822460627
 20
-80.800003051757813
 30
0.0
 40
3.2000000476837158
 41
0.0
 71
               4
 72
               1
  1
\W1.333;\A1;10
  7
MX_NOTE_STANDARD
  0
MTEXT
  5
C3
100
AcDbEntity
  8
0
  6
CONTINUOUS
 62
               7
100
AcDbMText
 10
-75.266660579045634
 20
-86.800003051757813
 30
0.0
 40
3.2000000476837158
 41
0.0
 71
               4
 72
               1
  1
\A1;6
  7
MX_NOTE_STANDARD
  0
MTEXT
  5
C4
100
AcDbEntity
  8
0
  6
CONTINUOUS
 62
               7
100
AcDbMText
 10
-84.866660579045629
 20
-86.800003051757813
 30
0.0
 40
3.2000000476837158
 41
0.0
 71
               4
 72
               1
  1
\A1;4
  7
MX_NOTE_STANDARD
  0
MTEXT
  5
C5
100
AcDbEntity
  8
0
  6
CONTINUOUS
 62
               7
100
AcDbMText
 10
-94.466660579045623
 20
-86.800003051757813
 30
0.0
 40
3.2000000476837158
 41
0.0
 71
               4
 72
               1
  1
\A1;2
  7
MX_NOTE_STANDARD
  0
MTEXT
  5
C6
100
AcDbEntity
  8
0
  6
CONTINUOUS
 62
               7
100
AcDbMText
 10
-103.95999389553072
 20
-86.800003051757813
 30
0.0
 40
3.2000000476837158
 41
0.0
 71
               4
 72
               1
  1
\W1.200;\A1;0
  7
MX_NOTE_STANDARD
  0
MTEXT
  5
C7
100
AcDbEntity
  8
0
  6
CONTINUOUS
 62
               7
100
AcDbMText
 10
-110.43194683784573
 20
-74.800003051757813
 30
0.0
 40
3.2000000476837158
 41
0.0
 71
               4
 72
               1
  1
\W1.065;\A1;STRETCH LIST
  7
MX_NOTE_STANDARD
  0
MTEXT
  5
C8
100
AcDbEntity
  8
0
  6
CONTINUOUS
 62
               7
100
AcDbMText
 10
-59.223993985366832
 20
-75.800003051757813
 30
0.0
 40
3.2000000476837158
 41
0.0
 71
               4
 72
               1
  1
\W1.200;\A1;(mm)
  7
MX_NOTE_STANDARD
  0
MTEXT
  5
C9
100
AcDbEntity
  8
0
  6
CONTINUOUS
 62
               7
100
AcDbMText
 10
-130.90186156846724
 20
91.099999904632568
 30
0.0
 40
3.1999998092651367
 41
0.0
 71
               1
 72
               1
  1
\W1.121;\A1;MINIBIT CYLINDER
  7
MX_NOTE_STANDARD
  0
MTEXT
  5
CA
100
AcDbEntity
  8
0
  6
CONTINUOUS
 62
               7
100
AcDbMText
 10
-129.41564601137418
 20
74.5
 30
0.0
 40
3.1999998092651367
 41
0.0
 71
               4
 72
               1
  1
\W1.096;\A1;MODEL:CS-MBDA10*ST(4)
  7
MX_NOTE_STANDARD
  0
LINE
  5
CB
100
AcDbEntity
  8
0
  6
CONTINUOUS
 62
               7
100
AcDbLine
 10
-138.39999389648437
 20
94.5
 30
0.0
 11
138.35000610351562
 21
94.5
 31
0.0
  0
LINE
  5
CC
100
AcDbEntity
  8
0
  6
CONTINUOUS
 62
               7
100
AcDbLine
 10
138.35000610351562
 20
94.5
 30
0.0
 11
138.35000610351562
 21
-94.800003051757812
 31
0.0
  0
LINE
  5
CD
100
AcDbEntity
  8
0
  6
CONTINUOUS
 62
               7
100
AcDbLine
 10
-138.39999389648437
 20
-94.800003051757812
 30
0.0
 11
138.35000610351562
 21
-94.800003051757812
 31
0.0
  0
LINE
  5
CE
100
AcDbEntity
  8
0
  6
CONTINUOUS
 62
               7
100
AcDbLine
 10
-138.39999389648437
 20
94.5
 30
0.0
 11
-138.39999389648437
 21
-94.800003051757812
 31
0.0
  0
LINE
  5
CF
100
AcDbEntity
  8
0
  6
CONTINUOUS
 62
               7
100
AcDbLine
 10
73.350006103515625
 20
-84.800003051757813
 30
0.0
 11
138.35000610351562
 21
-84.800003051757813
 31
0.0
  0
LINE
  5
D0
100
AcDbEntity
  8
0
  6
CONTINUOUS
 62
               7
100
AcDbLine
 10
-138.39999389648437
 20
84.5
 30
0.0
 11
-73.399993896484375
 21
84.5
 31
0.0
  0
LINE
  5
D1
100
AcDbEntity
  8
0
  6
CONTINUOUS
 62
               7
100
AcDbLine
 10
73.350006103515625
 20
84.5
 30
0.0
 11
138.35000610351562
 21
84.5
 31
0.0
  0
LINE
  5
D2
100
AcDbEntity
  8
0
  6
CONTINUOUS
 62
               7
100
AcDbLine
 10
73.350006103515625
 20
-84.800003051757813
 30
0.0
 11
73.350006103515625
 21
-94.800003051757812
 31
0.0
  0
LINE
  5
D3
100
AcDbEntity
  8
0
  6
CONTINUOUS
 62
               7
100
AcDbLine
 10
73.350006103515625
 20
94.5
 30
0.0
 11
73.350006103515625
 21
84.5
 31
0.0
  0
LINE
  5
D4
100
AcDbEntity
  8
0
  6
CONTINUOUS
 62
               7
100
AcDbLine
 10
-73.399993896484375
 20
94.5
 30
0.0
 11
-73.399993896484375
 21
84.5
 31
0.0
  0
MTEXT
  5
D5
100
AcDbEntity
  8
0
  6
CONTINUOUS
 62
               7
100
AcDbMText
 10
77.440529363489745
 20
-89.800003051757812
 30
0.0
 40
4.5
 41
0.0
 71
               4
 72
               1
  1
\W1.121;\A1;KOGANEI CORP.
  7
MX_NOTE_STANDARD
  0
MTEXT
  5
D6
100
AcDbEntity
  8
0
  6
CONTINUOUS
 62
               7
100
AcDbMText
 10
93.749460369842424
 20
89.5
 30
0.0
 40
3.1999998092651367
 41
0.0
 71
               4
 72
               1
  1
\W1.311;\A1;Ver. 1.0
  7
MX_NOTE_STANDARD
  0
ENDSEC
  0
SECTION
  2
OBJECTS
  0
DICTIONARY
  5
19
100
AcDbDictionary
  3
ACAD_GROUP
350
1A
  3
ACAD_MLINESTYLE
350
1B
  0
DICTIONARY
  5
1A
102
{ACAD_REACTORS
330
19
102
}
100
AcDbDictionary
  0
DICTIONARY
  5
1B
102
{ACAD_REACTORS
330
19
102
}
100
AcDbDictionary
  3
STANDARD
350
1C
  0
MLINESTYLE
  5
1C
102
{ACAD_REACTORS
330
1B
102
}
100
AcDbMlineStyle
  2
Standard
 70
               0
  3

 62
               0
 51
90.0
 52
90.0
 71
               2
 49
0.5
 62
             256
  6
ByLayer
 49
-0.5
 62
             256
  6
ByLayer
  0
ENDSEC
  0
EOF
