  0
SECTION
  2
HEADER
  9
$ACADVER
  1
AC1012
  9
$DWGCODEPAGE
  3
dos932
  9
$INSBASE
 10
0.0
 20
0.0
 30
0.0
  9
$EXTMIN
 10
-138.399994
 20
-94.800003
 30
0.0
  9
$EXTMAX
 10
138.350006
 20
94.5
 30
0.0
  9
$LIMMIN
 10
-138.399994
 20
-94.800003
  9
$LIMMAX
 10
138.350006
 20
94.5
  9
$ORTHOMODE
 70
     0
  9
$REGENMODE
 70
     1
  9
$FILLMODE
 70
     1
  9
$QTEXTMODE
 70
     0
  9
$MIRRTEXT
 70
     1
  9
$DRAGMODE
 70
     2
  9
$LTSCALE
 40
1.0
  9
$OSMODE
 70
     0
  9
$ATTMODE
 70
     1
  9
$TEXTSIZE
 40
3.2
  9
$TRACEWID
 40
0.05
  9
$TEXTSTYLE
  7
MX_NOTE_STANDARD
  9
$CLAYER
  8
0
  9
$CELTYPE
  6
CONTINUOUS
  9
$CECOLOR
 62
   256
  9
$CELTSCALE
 40
1.0
  9
$DELOBJ
 70
     1
  9
$DISPSILH
 70
     0
  9
$DIMSCALE
 40
1.0
  9
$DIMASZ
 40
2.5
  9
$DIMEXO
 40
1.5
  9
$DIMDLI
 40
3.75
  9
$DIMRND
 40
0.0
  9
$DIMDLE
 40
0.0
  9
$DIMEXE
 40
1.5
  9
$DIMTP
 40
0.0
  9
$DIMTM
 40
0.0
  9
$DIMTXT
 40
3.2
  9
$DIMCEN
 40
2.5
  9
$DIMTSZ
 40
0.0
  9
$DIMTOL
 70
     0
  9
$DIMLIM
 70
     0
  9
$DIMTIH
 70
     0
  9
$DIMTOH
 70
     0
  9
$DIMSE1
 70
     0
  9
$DIMSE2
 70
     0
  9
$DIMTAD
 70
     1
  9
$DIMZIN
 70
     8
  9
$DIMBLK
  1

  9
$DIMASO
 70
     1
  9
$DIMSHO
 70
     1
  9
$DIMPOST
  1

  9
$DIMAPOST
  1

  9
$DIMALT
 70
     0
  9
$DIMALTD
 70
     4
  9
$DIMALTF
 40
0.0394
  9
$DIMLFAC
 40
1.0
  9
$DIMTOFL
 70
     1
  9
$DIMTVP
 40
0.0
  9
$DIMTIX
 70
     0
  9
$DIMSOXD
 70
     0
  9
$DIMSAH
 70
     0
  9
$DIMBLK1
  1

  9
$DIMBLK2
  1

  9
$DIMSTYLE
  2
MXDIMSTYLE
  9
$DIMCLRD
 70
     0
  9
$DIMCLRE
 70
     0
  9
$DIMCLRT
 70
     0
  9
$DIMTFAC
 40
1.0
  9
$DIMGAP
 40
1.0
  9
$DIMJUST
 70
     0
  9
$DIMSD1
 70
     0
  9
$DIMSD2
 70
     0
  9
$DIMTOLJ
 70
     1
  9
$DIMTZIN
 70
     0
  9
$DIMALTZ
 70
     0
  9
$DIMALTTZ
 70
     0
  9
$DIMFIT
 70
     3
  9
$DIMUPT
 70
     1
  9
$DIMUNIT
 70
     2
  9
$DIMDEC
 70
     4
  9
$DIMTDEC
 70
     4
  9
$DIMALTU
 70
     8
  9
$DIMALTTD
 70
     4
  9
$DIMTXSTY
  7
MX_NOTE_STANDARD
  9
$DIMAUNIT
 70
     0
  9
$LUNITS
 70
     2
  9
$LUPREC
 70
     4
  9
$SKETCHINC
 40
0.1
  9
$FILLETRAD
 40
0.0
  9
$AUNITS
 70
     0
  9
$AUPREC
 70
     0
  9
$MENU
  1
acad
  9
$ELEVATION
 40
0.0
  9
$PELEVATION
 40
0.0
  9
$THICKNESS
 40
0.0
  9
$LIMCHECK
 70
     0
  9
$BLIPMODE
 70
     1
  9
$CHAMFERA
 40
0.0
  9
$CHAMFERB
 40
0.0
  9
$CHAMFERC
 40
0.0
  9
$CHAMFERD
 40
0.0
  9
$SKPOLY
 70
     0
  9
$TDCREATE
 40
2452094.392731482
  9
$TDUPDATE
 40
2452094.392731482
  9
$TDINDWG
 40
0.0000000000
  9
$TDUSRTIMER
 40
0.0000000000
  9
$USRTIMER
 70
     1
  9
$ANGBASE
 50
0.0
  9
$ANGDIR
 70
     0
  9
$PDMODE
 70
     0
  9
$PDSIZE
 40
0.0
  9
$PLINEWID
 40
0.0
  9
$COORDS
 70
     1
  9
$SPLFRAME
 70
     0
  9
$SPLINETYPE
 70
     6
  9
$SPLINESEGS
 70
     8
  9
$ATTDIA
 70
     0
  9
$ATTREQ
 70
     1
  9
$HANDLING
 70
     1
  9
$HANDSEED
  5
124
  9
$SURFTAB1
 70
     6
  9
$SURFTAB2
 70
     6
  9
$SURFTYPE
 70
     6
  9
$SURFU
 70
     6
  9
$SURFV
 70
     6
  9
$UCSNAME
  2

  9
$UCSORG
 10
0.0
 20
0.0
 30
0.0
  9
$UCSXDIR
 10
1.0
 20
0.0
 30
0.0
  9
$UCSYDIR
 10
0.0
 20
1.0
 30
0.0
  9
$PUCSNAME
  2

  9
$PUCSORG
 10
0.0
 20
0.0
 30
0.0
  9
$PUCSXDIR
 10
1.0
 20
0.0
 30
0.0
  9
$PUCSYDIR
 10
0.0
 20
1.0
 30
0.0
  9
$USERI1
 70
     0
  9
$USERI2
 70
     0
  9
$USERI3
 70
     0
  9
$USERI4
 70
     0
  9
$USERI5
 70
     0
  9
$USERR1
 40
0.0
  9
$USERR2
 40
0.0
  9
$USERR3
 40
0.0
  9
$USERR4
 40
0.0
  9
$USERR5
 40
0.0
  9
$WORLDVIEW
 70
     1
  9
$SHADEDGE
 70
     3
  9
$SHADEDIF
 70
    70
  9
$TILEMODE
 70
     1
  9
$MAXACTVP
 70
    16
  9
$PINSBASE
 10
0.0
 20
0.0
 30
0.0
  9
$PLIMCHECK
 70
     0
  9
$PEXTMIN
 10
1.000000E+20
 20
1.000000E+20
 30
1.000000E+20
  9
$PEXTMAX
 10
-1.000000E+20
 20
-1.000000E+20
 30
-1.000000E+20
  9
$PLIMMIN
 10
0.0
 20
0.0
  9
$PLIMMAX
 10
12.0
 20
9.0
  9
$UNITMODE
 70
     0
  9
$VISRETAIN
 70
     0
  9
$PLINEGEN
 70
     1
  9
$PSLTSCALE
 70
     0
  9
$TREEDEPTH
 70
  3020
  9
$PICKSTYLE
 70
     1
  9
$CMLSTYLE
  2
Standard
  9
$CMLJUST
 70
     0
  9
$CMLSCALE
 40
1.0
  9
$SAVEIMAGES
 70
     0
  0
ENDSEC
  0
SECTION
  2
CLASSES
  0
CLASS
  1
LWPOLYLINE
  2
AcDbPolyline
  3
"AutoCAD"
 90
        0
280
     0
281
     1
  0
CLASS
  1
IMAGE
  2
AcDbRasterImage
  3
ISM
 90
      127
280
     0
281
     1
  0
CLASS
  1
OLE2FRAME
  2
AcDbOle2Frame
  3
""
 90
        0
280
     0
281
     1
  0
CLASS
  1
HATCH
  2
AcDbHatch
  3
"ACAD_SEDONA"
 90
        0
280
     0
281
     1
  0
CLASS
  1
DICTIONARYVAR
  2
AcDbDictionaryVar
  3
"AutoCAD"
 90
        0
280
     0
281
     0
  0
CLASS
  1
RASTERVARIABLES
  2
AcDbRasterVariables
  3
ISM
 90
        0
280
     0
281
     0
  0
CLASS
  1
IMAGEDEF
  2
AcDbRasterImageDef
  3
ISM
 90
        0
280
     0
281
     0
  0
CLASS
  1
IMAGEDEF_REACTOR
  2
AcDbRasterImageDefReactor
  3
ISM
 90
        1
280
     0
281
     0
  0
CLASS
  1
IDBUFFER
  2
AcDbIdBuffer
  3
"Acad"
 90
        0
280
     0
281
     0
  0
CLASS
  1
SPATIAL_FILTER
  2
AcDbSpatialFilter
  3
"Acad"
 90
        0
280
     0
281
     0
  0
CLASS
  1
XRECORD
  2
AcDbXrecord
  3
"<Built In>"
 90
        0
280
     0
281
     0
  0
CLASS
  1
SORTENTSTABLE
  2
AcDbSortentsTable
  3
"AutoCAD"
 90
        0
280
     0
281
     0
  0
CLASS
  1
LAYER_INDEX
  2
AcDbLayerIndex
  3
"Acad"
 90
        0
280
     0
281
     0
  0
CLASS
  1
SPATIAL_INDEX
  2
AcDbSpatialIndex
  3
"Acad"
 90
        0
280
     0
281
     0
  0
CLASS
  1
OBJECT_PTR
  2
CAseDLPNTableRecord
  3
"ASE-LPNTableRecord"
 90
        1
280
     0
281
     0
  0
CLASS
  1
LAYOUT
  2
AcDbLayout
  3
"AutoCAD 2000"
 90
        1
280
     0
281
     0
  0
CLASS
  1
PLOTSETTINGS
  2
AcDbPlotSettings
  3
"AutoCAD 2000"
 90
        1
280
     0
281
     0
  0
CLASS
  1
ACDBDICTIONARYWDFLT
  2
AcDbDictionaryWithDefault
  3
"AutoCAD 2000"
 90
        1
280
     0
281
     0
  0
CLASS
  1
ACDBPLACEHOLDER
  2
AcDbPlaceHolder
  3
"AutoCAD 2000"
 90
        1
280
     0
281
     0
  0
CLASS
  1
VBA_PROJECT
  2
AcDbVbaProject
  3
"acadvba"
 90
        1
280
     0
281
     0
  0
CLASS
  1
WIPEOUT
  2
AcDbWipeout
  3
WipeOut|AutoCAD Express Tool|expresstools@autodesk.com
 90
      127
280
     0
281
     1
  0
CLASS
  1
WIPEOUTVARIABLES
  2
AcDbWipeoutVariables
  3
WipeOut|AutoCAD Express Tool|expresstools@autodesk.com
 90
        0
280
     0
281
     0
  0
CLASS
  1
RTEXT
  2
RText
  3
RText|AutoCAD Express Tool|expresstools@autodesk.com
 90
        0
280
     0
281
     1
  0
CLASS
  1
ARCALIGNEDTEXT
  2
AcDbArcAlignedText
  3
ATEXT|AutoCAD Express Tool|expresstools@autodesk.com
 90
        0
280
     0
281
     1
  0
ENDSEC
  0
SECTION
  2
TABLES
  0
TABLE
  2
VPORT
  5
7
100
AcDbSymbolTable
 70
     1
  0
VPORT
  5
15
100
AcDbSymbolTableRecord
100
AcDbViewportTableRecord
  2
*ACTIVE
 70
     0
 10
0.0
 20
0.0
 11
1.0
 21
1.0
 12
-0.024994
 22
-0.150002
 13
0.0
 23
0.0
 14
1.0
 24
1.0
 15
0.0
 25
0.0
 16
0.0
 26
0.0
 36
1.0
 17
0.0
 27
0.0
 37
0.0
 40
191.193003
 41
1.732051
 42
50.0
 43
0.0
 44
0.0
 50
0.0
 51
0.0
 71
     0
 72
   100
 73
     1
 74
     1
 75
     0
 76
     0
 77
     0
 78
     0
  0
ENDTAB
  0
TABLE
  2
LTYPE
  5
4
100
AcDbSymbolTable
 70
     5
  0
LTYPE
  5
11
100
AcDbSymbolTableRecord
100
AcDbLinetypeTableRecord
  2
BYBLOCK
 70
    64
  3

 72
    65
 73
     0
 40
0.0
  0
LTYPE
  5
12
100
AcDbSymbolTableRecord
100
AcDbLinetypeTableRecord
  2
BYLAYER
 70
    64
  3

 72
    65
 73
     0
 40
0.0
  0
LTYPE
  5
13
100
AcDbSymbolTableRecord
100
AcDbLinetypeTableRecord
  2
CONTINUOUS
 70
    64
  3
Solid line
 72
    65
 73
     0
 40
0.0
  0
LTYPE
  5
70
100
AcDbSymbolTableRecord
100
AcDbLinetypeTableRecord
  2
CENTER
 70
    64
  3
Center ____ _ ____ _ ____ _ ____ _ ____ _ ____
 72
    65
 73
     4
 40
50.8
 49
31.75
 74
     0
 49
-6.35
 74
     0
 49
6.35
 74
     0
 49
-6.35
 74
     0
  0
LTYPE
  5
108
100
AcDbSymbolTableRecord
100
AcDbLinetypeTableRecord
  2
DASHED
 70
    64
  3
Dashed __ __ __ __ __ __ __ __ __ __ __ __ __ _
 72
    65
 73
     2
 40
19.05
 49
12.7
 74
     0
 49
-6.35
 74
     0
  0
ENDTAB
  0
TABLE
  2
LAYER
  5
2
100
AcDbSymbolTable
 70
     2
  0
LAYER
  5
14
100
AcDbSymbolTableRecord
100
AcDbLayerTableRecord
  2
0
 70
     0
 62
     7
  6
CONTINUOUS
  0
LAYER
  5
1D
100
AcDbSymbolTableRecord
100
AcDbLayerTableRecord
  2
DEFPOINTS
 70
     0
 62
     7
  6
CONTINUOUS
  0
ENDTAB
  0
TABLE
  2
STYLE
  5
3
100
AcDbSymbolTable
 70
     1
  0
STYLE
  5
17
100
AcDbSymbolTableRecord
100
AcDbTextStyleTableRecord
  2
MX_NOTE_STANDARD
 70
     0
 40
3.2
 41
1.0
 50
0.0
 71
     0
 42
3.2
  3
txt.shx
  4
extfont.shx
  0
ENDTAB
  0
TABLE
  2
VIEW
  5
5
100
AcDbSymbolTable
 70
     0
  0
ENDTAB
  0
TABLE
  2
UCS
  5
6
100
AcDbSymbolTable
 70
     0
  0
ENDTAB
  0
TABLE
  2
APPID
  5
8
100
AcDbSymbolTable
 70
     1
  0
APPID
  5
16
100
AcDbSymbolTableRecord
100
AcDbRegAppTableRecord
  2
ACAD
 70
     0
  0
ENDTAB
  0
TABLE
  2
DIMSTYLE
  5
9
100
AcDbSymbolTable
 70
     1
  0
DIMSTYLE
105
18
100
AcDbSymbolTableRecord
100
AcDbDimStyleTableRecord
  2
MXDIMSTYLE
 70
     0
  3

  4

  5

  6

  7

 40
1.0
 41
2.5
 42
1.5
 43
3.75
 44
1.5
 45
0.0
 46
0.0
 47
0.0
 48
0.0
 71
     0
 72
     0
 73
     0
 74
     0
 75
     0
 76
     0
 77
     1
 78
     8
140
3.2
141
2.5
142
0.0
143
0.0394
144
1.0
145
0.0
146
1.0
147
1.0
170
     0
171
     4
172
     1
173
     0
174
     0
175
     0
176
     0
177
     0
178
     0
270
     2
271
     4
272
     4
273
     8
274
     4
275
     0
280
     0
281
     0
282
     0
283
     1
284
     0
285
     0
286
     0
287
     3
288
     1
340
17
  0
ENDTAB
  0
TABLE
  2
BLOCK_RECORD
  5
1
100
AcDbSymbolTable
 70
     5
  0
BLOCK_RECORD
  5
A
100
AcDbSymbolTableRecord
100
AcDbBlockTableRecord
  2
*MODEL_SPACE
  0
BLOCK_RECORD
  5
B
100
AcDbSymbolTableRecord
100
AcDbBlockTableRecord
  2
*PAPER_SPACE
  0
BLOCK_RECORD
  5
1E
100
AcDbSymbolTableRecord
100
AcDbBlockTableRecord
  2
MS_1
  0
BLOCK_RECORD
  5
1F
100
AcDbSymbolTableRecord
100
AcDbBlockTableRecord
  2
MS_2
  0
BLOCK_RECORD
  5
20
100
AcDbSymbolTableRecord
100
AcDbBlockTableRecord
  2
MS_3
  0
BLOCK_RECORD
  5
21
100
AcDbSymbolTableRecord
100
AcDbBlockTableRecord
  2
MS_4
  0
BLOCK_RECORD
  5
22
100
AcDbSymbolTableRecord
100
AcDbBlockTableRecord
  2
MS_5
  0
ENDTAB
  0
ENDSEC
  0
SECTION
  2
BLOCKS
  0
BLOCK
  5
D
100
AcDbEntity
  8
0
100
AcDbBlockBegin
  2
*MODEL_SPACE
 70
     0
 10
0.0
 20
0.0
 30
0.0
  3
*MODEL_SPACE
  1

  0
ENDBLK
  5
E
100
AcDbEntity
  8
0
100
AcDbBlockEnd
  0
BLOCK
  5
F
100
AcDbEntity
 67
     1
  8
0
100
AcDbBlockBegin
  2
*PAPER_SPACE
 70
     0
 10
0.0
 20
0.0
 30
0.0
  3
*PAPER_SPACE
  1

  0
ENDBLK
  5
10
100
AcDbEntity
 67
     1
  8
0
100
AcDbBlockEnd
  0
BLOCK
  5
23
100
AcDbEntity
  8
0
100
AcDbBlockBegin
  2
MS_1
 70
     0
 10
0.0
 20
0.0
 30
0.0
  3
MS_1
  1

  0
LINE
  5
24
100
AcDbEntity
  8
0
  6
CONTINUOUS
 62
     4
100
AcDbLine
 10
12.47
 20
-3.47
 30
0.0
 11
10.54
 21
-3.47
 31
0.0
  0
LINE
  5
25
100
AcDbEntity
  8
0
  6
CONTINUOUS
 62
     4
100
AcDbLine
 10
10.0
 20
-6.0
 30
0.0
 11
10.54
 21
-6.93
 31
0.0
  0
LINE
  5
26
100
AcDbEntity
  8
0
  6
CONTINUOUS
 62
     4
100
AcDbLine
 10
10.54
 20
-6.93
 30
0.0
 11
12.47
 21
-6.93
 31
0.0
  0
LINE
  5
27
100
AcDbEntity
  8
0
  6
CONTINUOUS
 62
     4
100
AcDbLine
 10
13.0
 20
-6.0
 30
0.0
 11
12.47
 21
-6.93
 31
0.0
  0
ARC
  5
28
100
AcDbEntity
  8
0
  6
CONTINUOUS
 62
     4
100
AcDbCircle
 10
13.066786
 20
-5.198566
 30
0.0
 40
3.061468
100
AcDbArc
 50
145.624103
 51
205.778971
  0
ARC
  5
29
100
AcDbEntity
  8
0
  6
CONTINUOUS
 62
     4
100
AcDbCircle
 10
9.933294
 20
-5.199311
 30
0.0
 40
3.070081
100
AcDbArc
 50
-25.685925
 51
34.28285
  0
ARC
  5
2A
100
AcDbEntity
  8
0
  6
CONTINUOUS
 62
     4
100
AcDbCircle
 10
21.46417
 20
-0.005
 30
0.0
 40
11.460529
100
AcDbArc
 50
162.401672
 51
197.598328
  0
ARC
  5
2B
100
AcDbEntity
  8
0
  6
CONTINUOUS
 62
     4
100
AcDbCircle
 10
1.535854
 20
-0.005
 30
0.0
 40
11.470038
100
AcDbArc
 50
-17.583262
 51
17.583262
  0
LINE
  5
2C
100
AcDbEntity
  8
0
  6
CONTINUOUS
 62
     4
100
AcDbLine
 10
12.47
 20
3.46
 30
0.0
 11
10.54
 21
3.46
 31
0.0
  0
LINE
  5
2D
100
AcDbEntity
  8
0
  6
CONTINUOUS
 62
     4
100
AcDbLine
 10
10.54
 20
6.92
 30
0.0
 11
12.47
 21
6.92
 31
0.0
  0
LINE
  5
2E
100
AcDbEntity
  8
0
  6
CONTINUOUS
 62
     4
100
AcDbLine
 10
10.0
 20
6.0
 30
0.0
 11
10.54
 21
6.92
 31
0.0
  0
LINE
  5
2F
100
AcDbEntity
  8
0
  6
CONTINUOUS
 62
     4
100
AcDbLine
 10
13.0
 20
6.0
 30
0.0
 11
12.47
 21
6.92
 31
0.0
  0
LINE
  5
30
100
AcDbEntity
  8
0
  6
CONTINUOUS
 62
     4
100
AcDbLine
 10
13.0
 20
6.0
 30
0.0
 11
13.0
 21
-6.0
 31
0.0
  0
LINE
  5
31
100
AcDbEntity
  8
0
  6
CONTINUOUS
 62
     4
100
AcDbLine
 10
10.0
 20
6.0
 30
0.0
 11
10.0
 21
-6.0
 31
0.0
  0
ARC
  5
32
100
AcDbEntity
  8
0
  6
CONTINUOUS
 62
     4
100
AcDbCircle
 10
13.067588
 20
5.188626
 30
0.0
 40
3.062164
100
AcDbArc
 50
154.228575
 51
214.368351
  0
ARC
  5
33
100
AcDbEntity
  8
0
  6
CONTINUOUS
 62
     4
100
AcDbCircle
 10
9.932494
 20
5.189371
 30
0.0
 40
3.070776
100
AcDbArc
 50
-34.275366
 51
25.678441
  0
LINE
  5
34
100
AcDbEntity
  8
0
  6
CONTINUOUS
 62
     7
100
AcDbLine
 10
-7.480385
 20
1.5
 30
0.0
 11
-7.480385
 21
-1.5
 31
0.0
  0
LINE
  5
35
100
AcDbEntity
  8
0
  6
CONTINUOUS
 62
     7
100
AcDbLine
 10
-8.0
 20
-1.2
 30
0.0
 11
-7.480385
 21
-1.5
 31
0.0
  0
LINE
  5
36
100
AcDbEntity
  8
0
  6
CONTINUOUS
 62
     7
100
AcDbLine
 10
-8.0
 20
1.2
 30
0.0
 11
-7.480385
 21
1.5
 31
0.0
  0
LINE
  5
37
100
AcDbEntity
  8
0
  6
CONTINUOUS
 62
     7
100
AcDbLine
 10
16.0
 20
-5.0
 30
0.0
 11
39.25
 21
-5.0
 31
0.0
  0
LINE
  5
38
100
AcDbEntity
  8
0
  6
CONTINUOUS
 62
     2
100
AcDbLine
 10
16.0
 20
-4.4585
 30
0.0
 11
39.7915
 21
-4.4585
 31
0.0
  0
LINE
  5
39
100
AcDbEntity
  8
0
  6
CONTINUOUS
 62
     2
100
AcDbLine
 10
16.0
 20
4.4585
 30
0.0
 11
39.7915
 21
4.4585
 31
0.0
  0
LINE
  5
3A
100
AcDbEntity
  8
0
  6
CONTINUOUS
 62
     7
100
AcDbLine
 10
16.0
 20
5.0
 30
0.0
 11
39.25
 21
5.0
 31
0.0
  0
LINE
  5
3B
100
AcDbEntity
  8
0
  6
CONTINUOUS
 62
     4
100
AcDbLine
 10
13.0
 20
6.0
 30
0.0
 11
13.0
 21
-6.0
 31
0.0
  0
LINE
  5
3C
100
AcDbEntity
  8
0
  6
CONTINUOUS
 62
     4
100
AcDbLine
 10
16.0
 20
6.0
 30
0.0
 11
16.0
 21
-6.0
 31
0.0
  0
LINE
  5
3D
100
AcDbEntity
  8
0
  6
CONTINUOUS
 62
     4
100
AcDbLine
 10
13.0
 20
6.0
 30
0.0
 11
13.53
 21
6.92
 31
0.0
  0
LINE
  5
3E
100
AcDbEntity
  8
0
  6
CONTINUOUS
 62
     4
100
AcDbLine
 10
13.0
 20
-6.0
 30
0.0
 11
13.53
 21
-6.93
 31
0.0
  0
LINE
  5
3F
100
AcDbEntity
  8
0
  6
CONTINUOUS
 62
     4
100
AcDbLine
 10
15.46
 20
-6.93
 30
0.0
 11
13.53
 21
-6.93
 31
0.0
  0
LINE
  5
40
100
AcDbEntity
  8
0
  6
CONTINUOUS
 62
     4
100
AcDbLine
 10
16.0
 20
6.0
 30
0.0
 11
15.46
 21
6.92
 31
0.0
  0
LINE
  5
41
100
AcDbEntity
  8
0
  6
CONTINUOUS
 62
     4
100
AcDbLine
 10
15.46
 20
6.92
 30
0.0
 11
13.53
 21
6.92
 31
0.0
  0
LINE
  5
42
100
AcDbEntity
  8
0
  6
CONTINUOUS
 62
     4
100
AcDbLine
 10
16.0
 20
-6.0
 30
0.0
 11
15.46
 21
-6.93
 31
0.0
  0
LINE
  5
43
100
AcDbEntity
  8
0
  6
CONTINUOUS
 62
     4
100
AcDbLine
 10
13.53
 20
3.46
 30
0.0
 11
15.46
 21
3.46
 31
0.0
  0
LINE
  5
44
100
AcDbEntity
  8
0
  6
CONTINUOUS
 62
     4
100
AcDbLine
 10
13.53
 20
-3.47
 30
0.0
 11
15.46
 21
-3.47
 31
0.0
  0
ARC
  5
45
100
AcDbEntity
  8
0
  6
CONTINUOUS
 62
     4
100
AcDbCircle
 10
12.932412
 20
5.188626
 30
0.0
 40
3.062164
100
AcDbArc
 50
325.631649
 51
25.771425
  0
ARC
  5
46
100
AcDbEntity
  8
0
  6
CONTINUOUS
 62
     4
100
AcDbCircle
 10
4.53583
 20
-0.005
 30
0.0
 40
11.460529
100
AcDbArc
 50
342.401672
 51
17.598328
  0
ARC
  5
47
100
AcDbEntity
  8
0
  6
CONTINUOUS
 62
     4
100
AcDbCircle
 10
12.933214
 20
-5.198566
 30
0.0
 40
3.061468
100
AcDbArc
 50
334.221029
 51
34.375897
  0
ARC
  5
48
100
AcDbEntity
  8
0
  6
CONTINUOUS
 62
     4
100
AcDbCircle
 10
16.067506
 20
5.189371
 30
0.0
 40
3.070776
100
AcDbArc
 50
154.321559
 51
214.275366
  0
ARC
  5
49
100
AcDbEntity
  8
0
  6
CONTINUOUS
 62
     4
100
AcDbCircle
 10
24.464146
 20
-0.005
 30
0.0
 40
11.470038
100
AcDbArc
 50
162.416738
 51
197.583262
  0
ARC
  5
4A
100
AcDbEntity
  8
0
  6
CONTINUOUS
 62
     4
100
AcDbCircle
 10
16.066706
 20
-5.199311
 30
0.0
 40
3.070081
100
AcDbArc
 50
145.71715
 51
205.685925
  0
LINE
  5
4B
100
AcDbEntity
  8
0
  6
CONTINUOUS
 62
     7
100
AcDbLine
 10
45.0
 20
3.95
 30
0.0
 11
45.0
 21
-3.95
 31
0.0
  0
LINE
  5
4C
100
AcDbEntity
  8
0
  6
CONTINUOUS
 62
     7
100
AcDbLine
 10
40.0
 20
-4.25
 30
0.0
 11
44.7
 21
-4.25
 31
0.0
  0
LINE
  5
4D
100
AcDbEntity
  8
0
  6
CONTINUOUS
 62
     7
100
AcDbLine
 10
40.0
 20
4.25
 30
0.0
 11
44.7
 21
4.25
 31
0.0
  0
LINE
  5
4E
100
AcDbEntity
  8
0
  6
CONTINUOUS
 62
     7
100
AcDbLine
 10
36.0
 20
2.179449
 30
0.0
 11
36.0
 21
-2.179449
 31
0.0
  0
LINE
  5
4F
100
AcDbEntity
  8
0
  6
CONTINUOUS
 62
     7
100
AcDbLine
 10
39.25
 20
-2.179449
 30
0.0
 11
36.0
 21
-2.179449
 31
0.0
  0
LINE
  5
50
100
AcDbEntity
  8
0
  6
CONTINUOUS
 62
     7
100
AcDbLine
 10
39.25
 20
2.179449
 30
0.0
 11
36.0
 21
2.179449
 31
0.0
  0
LINE
  5
51
100
AcDbEntity
  8
0
  6
CONTINUOUS
 62
     7
100
AcDbLine
 10
40.0
 20
-4.25
 30
0.0
 11
40.0
 21
4.25
 31
0.0
  0
LINE
  5
52
100
AcDbEntity
  8
0
  6
CONTINUOUS
 62
     7
100
AcDbLine
 10
2.75
 20
5.0
 30
0.0
 11
10.0
 21
5.0
 31
0.0
  0
LINE
  5
53
100
AcDbEntity
  8
0
  6
CONTINUOUS
 62
     7
100
AcDbLine
 10
2.75
 20
-5.0
 30
0.0
 11
10.0
 21
-5.0
 31
0.0
  0
LINE
  5
54
100
AcDbEntity
  8
0
  6
CONTINUOUS
 62
     7
100
AcDbLine
 10
40.0
 20
4.25
 30
0.0
 11
39.25
 21
5.0
 31
0.0
  0
LINE
  5
55
100
AcDbEntity
  8
0
  6
CONTINUOUS
 62
     7
100
AcDbLine
 10
39.25
 20
-5.0
 30
0.0
 11
40.0
 21
-4.25
 31
0.0
  0
LINE
  5
56
100
AcDbEntity
  8
0
  6
CONTINUOUS
 62
     7
100
AcDbLine
 10
39.25
 20
5.0
 30
0.0
 11
39.25
 21
2.179449
 31
0.0
  0
LINE
  5
57
100
AcDbEntity
  8
0
  6
CONTINUOUS
 62
     7
100
AcDbLine
 10
39.25
 20
-5.0
 30
0.0
 11
39.25
 21
-2.179449
 31
0.0
  0
LINE
  5
58
100
AcDbEntity
  8
0
  6
CONTINUOUS
 62
     2
100
AcDbLine
 10
2.2085
 20
4.4585
 30
0.0
 11
10.0
 21
4.4585
 31
0.0
  0
LINE
  5
59
100
AcDbEntity
  8
0
  6
CONTINUOUS
 62
     2
100
AcDbLine
 10
2.2085
 20
-4.4585
 30
0.0
 11
10.0
 21
-4.4585
 31
0.0
  0
LINE
  5
5A
100
AcDbEntity
  8
0
  6
CONTINUOUS
 62
     2
100
AcDbLine
 10
39.25
 20
-2.179449
 30
0.0
 11
36.0
 21
2.179449
 31
0.0
  0
LINE
  5
5B
100
AcDbEntity
  8
0
  6
CONTINUOUS
 62
     2
100
AcDbLine
 10
36.0
 20
-2.179449
 30
0.0
 11
39.25
 21
2.179449
 31
0.0
  0
LINE
  5
5C
100
AcDbEntity
  8
0
  6
CONTINUOUS
 62
     7
100
AcDbLine
 10
44.7
 20
4.25
 30
0.0
 11
45.0
 21
3.95
 31
0.0
  0
LINE
  5
5D
100
AcDbEntity
  8
0
  6
CONTINUOUS
 62
     7
100
AcDbLine
 10
44.7
 20
-4.25
 30
0.0
 11
45.0
 21
-3.95
 31
0.0
  0
LINE
  5
5E
100
AcDbEntity
  8
0
  6
CONTINUOUS
 62
     7
100
AcDbLine
 10
44.7
 20
-4.25
 30
0.0
 11
44.7
 21
4.25
 31
0.0
  0
SPLINE
  5
5F
100
AcDbEntity
  8
0
  6
CONTINUOUS
 62
     7
100
AcDbSpline
210
0.0
220
0.0
230
1.0
 70
     0
 71
     3
 72
     0
 73
     0
 74
     5
 44
0.000001
 12
-0.4170288281141489
 22
0.9088932591463861
 32
0.0
 13
0.4170288281141492
 23
0.908893259146386
 33
0.0
 11
36.0
 21
-2.1794494717703401
 31
0.0
 11
35.633436898969961
 21
-1.1173064283903642
 31
0.0
 11
35.5
 21
-0.0000000000000071
 31
0.0
 11
35.633436898969961
 21
1.1173064283903538
 31
0.0
 11
36.0
 21
2.1794494717703325
 31
0.0
  0
SPLINE
  5
60
100
AcDbEntity
  8
0
  6
CONTINUOUS
 62
     7
100
AcDbSpline
210
0.0
220
0.0
230
1.0
 70
     0
 71
     3
 72
     0
 73
     0
 74
     5
 44
0.000001
 12
0.417028828114149
 22
0.908893259146386
 32
0.0
 13
-0.4170288281141489
 23
0.9088932591463861
 33
0.0
 11
39.25
 21
-2.1794494717703401
 31
0.0
 11
39.616563101030039
 21
-1.1173064283903646
 31
0.0
 11
39.75
 21
-0.0000000000000071
 31
0.0
 11
39.616563101030039
 21
1.1173064283903542
 31
0.0
 11
39.25
 21
2.1794494717703334
 31
0.0
  0
LINE
  5
61
100
AcDbEntity
  8
0
  6
CONTINUOUS
 62
     7
100
AcDbLine
 10
2.0
 20
4.25
 30
0.0
 11
2.0
 21
-4.25
 31
0.0
  0
LINE
  5
62
100
AcDbEntity
  8
0
  6
CONTINUOUS
 62
     7
100
AcDbLine
 10
2.75
 20
5.0
 30
0.0
 11
2.75
 21
-5.0
 31
0.0
  0
LINE
  5
63
100
AcDbEntity
  8
0
  6
CONTINUOUS
 62
     7
100
AcDbLine
 10
-7.480385
 20
-1.5
 30
0.0
 11
0.0
 21
-1.5
 31
0.0
  0
LINE
  5
64
100
AcDbEntity
  8
0
  6
CONTINUOUS
 62
     7
100
AcDbLine
 10
0.2
 20
-4.25
 30
0.0
 11
2.0
 21
-4.25
 31
0.0
  0
LINE
  5
65
100
AcDbEntity
  8
0
  6
CONTINUOUS
 62
     7
100
AcDbLine
 10
0.2
 20
4.25
 30
0.0
 11
2.0
 21
4.25
 31
0.0
  0
LINE
  5
66
100
AcDbEntity
  8
0
  6
CONTINUOUS
 62
     7
100
AcDbLine
 10
2.0
 20
-4.25
 30
0.0
 11
2.75
 21
-5.0
 31
0.0
  0
LINE
  5
67
100
AcDbEntity
  8
0
  6
CONTINUOUS
 62
     7
100
AcDbLine
 10
2.0
 20
4.25
 30
0.0
 11
2.75
 21
5.0
 31
0.0
  0
LINE
  5
68
100
AcDbEntity
  8
0
  6
CONTINUOUS
 62
     7
100
AcDbLine
 10
0.8
 20
4.25
 30
0.0
 11
0.8
 21
-4.25
 31
0.0
  0
LINE
  5
69
100
AcDbEntity
  8
0
  6
CONTINUOUS
 62
     7
100
AcDbLine
 10
0.1
 20
4.25
 30
0.0
 11
0.8
 21
4.25
 31
0.0
  0
LINE
  5
6A
100
AcDbEntity
  8
0
  6
CONTINUOUS
 62
     7
100
AcDbLine
 10
0.0
 20
-4.15
 30
0.0
 11
0.0
 21
4.15
 31
0.0
  0
LINE
  5
6B
100
AcDbEntity
  8
0
  6
CONTINUOUS
 62
     7
100
AcDbLine
 10
0.1
 20
4.25
 30
0.0
 11
0.0
 21
4.15
 31
0.0
  0
LINE
  5
6C
100
AcDbEntity
  8
0
  6
CONTINUOUS
 62
     7
100
AcDbLine
 10
0.0
 20
-4.15
 30
0.0
 11
0.1
 21
-4.25
 31
0.0
  0
LINE
  5
6D
100
AcDbEntity
  8
0
  6
CONTINUOUS
 62
     7
100
AcDbLine
 10
0.1
 20
-4.25
 30
0.0
 11
0.8
 21
-4.25
 31
0.0
  0
LINE
  5
6E
100
AcDbEntity
  8
0
  6
CONTINUOUS
 62
     7
100
AcDbLine
 10
-7.480385
 20
1.5
 30
0.0
 11
0.0
 21
1.5
 31
0.0
  0
LINE
  5
6F
100
AcDbEntity
  8
0
  6
CONTINUOUS
 62
     7
100
AcDbLine
 10
-8.0
 20
-1.2
 30
0.0
 11
-8.0
 21
1.2
 31
0.0
  0
LINE
  5
71
100
AcDbEntity
  8
0
  6
CENTER
 62
     2
100
AcDbLine
 10
-11.057391
 20
0.0
 30
0.0
 11
46.17
 21
0.0
 31
0.0
  0
ENDBLK
  5
72
100
AcDbEntity
  8
0
100
AcDbBlockEnd
  0
BLOCK
  5
73
100
AcDbEntity
  8
0
100
AcDbBlockBegin
  2
MS_2
 70
     0
 10
0.0
 20
0.0
 30
0.0
  3
MS_2
  1

  0
CIRCLE
  5
74
100
AcDbEntity
  8
0
  6
CONTINUOUS
 62
     2
100
AcDbCircle
 10
0.0
 20
0.0
 30
0.0
 40
4.4585
  0
LINE
  5
75
100
AcDbEntity
  8
0
  6
CONTINUOUS
 62
     7
100
AcDbLine
 10
-4.5
 20
2.179449
 30
0.0
 11
-4.5
 21
-2.179449
 31
0.0
  0
LINE
  5
76
100
AcDbEntity
  8
0
  6
CONTINUOUS
 62
     7
100
AcDbLine
 10
4.5
 20
2.179449
 30
0.0
 11
4.5
 21
-2.179449
 31
0.0
  0
CIRCLE
  5
77
100
AcDbEntity
  8
0
  6
CONTINUOUS
 62
     7
100
AcDbCircle
 10
0.0
 20
0.0
 30
0.0
 40
3.95
  0
LINE
  5
78
100
AcDbEntity
  8
0
  6
CONTINUOUS
 62
     2
100
AcDbLine
 10
-0.99
 20
0.565
 30
0.0
 11
-0.71
 21
0.28
 31
0.0
  0
LINE
  5
79
100
AcDbEntity
  8
0
  6
CONTINUOUS
 62
     2
100
AcDbLine
 10
-0.57
 20
0.99
 30
0.0
 11
-0.285
 21
0.705
 31
0.0
  0
LINE
  5
7A
100
AcDbEntity
  8
0
  6
CONTINUOUS
 62
     2
100
AcDbLine
 10
-0.99
 20
-0.57
 30
0.0
 11
-0.71
 21
-0.285
 31
0.0
  0
LINE
  5
7B
100
AcDbEntity
  8
0
  6
CONTINUOUS
 62
     2
100
AcDbLine
 10
-0.57
 20
-0.99
 30
0.0
 11
-0.285
 21
-0.71
 31
0.0
  0
LINE
  5
7C
100
AcDbEntity
  8
0
  6
CONTINUOUS
 62
     2
100
AcDbLine
 10
-0.99
 20
0.565
 30
0.0
 11
-0.57
 21
0.99
 31
0.0
  0
LINE
  5
7D
100
AcDbEntity
  8
0
  6
CONTINUOUS
 62
     2
100
AcDbLine
 10
0.565
 20
0.99
 30
0.0
 11
0.99
 21
0.565
 31
0.0
  0
LINE
  5
7E
100
AcDbEntity
  8
0
  6
CONTINUOUS
 62
     2
100
AcDbLine
 10
-0.99
 20
-0.57
 30
0.0
 11
-0.57
 21
-0.99
 31
0.0
  0
LINE
  5
7F
100
AcDbEntity
  8
0
  6
CONTINUOUS
 62
     2
100
AcDbLine
 10
0.565
 20
-0.99
 30
0.0
 11
0.99
 21
-0.57
 31
0.0
  0
LINE
  5
80
100
AcDbEntity
  8
0
  6
CONTINUOUS
 62
     2
100
AcDbLine
 10
0.28
 20
-0.71
 30
0.0
 11
0.565
 21
-0.99
 31
0.0
  0
LINE
  5
81
100
AcDbEntity
  8
0
  6
CONTINUOUS
 62
     2
100
AcDbLine
 10
0.705
 20
-0.285
 30
0.0
 11
0.99
 21
-0.57
 31
0.0
  0
LINE
  5
82
100
AcDbEntity
  8
0
  6
CONTINUOUS
 62
     2
100
AcDbLine
 10
0.28
 20
0.705
 30
0.0
 11
0.565
 21
0.99
 31
0.0
  0
LINE
  5
83
100
AcDbEntity
  8
0
  6
CONTINUOUS
 62
     2
100
AcDbLine
 10
0.705
 20
0.28
 30
0.0
 11
0.99
 21
0.565
 31
0.0
  0
CIRCLE
  5
84
100
AcDbEntity
  8
0
  6
CONTINUOUS
 62
     7
100
AcDbCircle
 10
0.0
 20
0.0
 30
0.0
 40
2.25
  0
CIRCLE
  5
85
100
AcDbEntity
  8
0
  6
CONTINUOUS
 62
     7
100
AcDbCircle
 10
0.0
 20
0.0
 30
0.0
 40
2.15
  0
ARC
  5
86
100
AcDbEntity
  8
0
  6
CONTINUOUS
 62
     2
100
AcDbCircle
 10
-0.989958
 20
-0.0025
 30
0.0
 40
0.397722
100
AcDbArc
 50
314.741014
 51
45.258986
  0
ARC
  5
87
100
AcDbEntity
  8
0
  6
CONTINUOUS
 62
     2
100
AcDbCircle
 10
-0.0025
 20
-0.989958
 30
0.0
 40
0.397722
100
AcDbArc
 50
44.741017
 51
135.258983
  0
ARC
  5
88
100
AcDbEntity
  8
0
  6
CONTINUOUS
 62
     2
100
AcDbCircle
 10
0.98995
 20
-0.0025
 30
0.0
 40
0.401251
100
AcDbArc
 50
135.247375
 51
224.752625
  0
ARC
  5
89
100
AcDbEntity
  8
0
  6
CONTINUOUS
 62
     2
100
AcDbCircle
 10
-0.0025
 20
0.98995
 30
0.0
 40
0.401251
100
AcDbArc
 50
225.247375
 51
314.752625
  0
CIRCLE
  5
8A
100
AcDbEntity
  8
0
  6
CONTINUOUS
 62
     7
100
AcDbCircle
 10
0.0
 20
0.0
 30
0.0
 40
2.75
  0
CIRCLE
  5
8B
100
AcDbEntity
  8
0
  6
CONTINUOUS
 62
     4
100
AcDbCircle
 10
0.0
 20
0.0
 30
0.0
 40
6.0
  0
CIRCLE
  5
8C
100
AcDbEntity
  8
0
  6
CONTINUOUS
 62
     7
100
AcDbCircle
 10
0.0
 20
0.0
 30
0.0
 40
5.0
  0
CIRCLE
  5
8D
100
AcDbEntity
  8
0
  6
CONTINUOUS
 62
     7
100
AcDbCircle
 10
0.0
 20
0.0
 30
0.0
 40
4.25
  0
LINE
  5
8E
100
AcDbEntity
  8
0
  6
CONTINUOUS
 62
     4
100
AcDbLine
 10
6.0
 20
3.46
 30
0.0
 11
6.0
 21
-3.47
 31
0.0
  0
LINE
  5
8F
100
AcDbEntity
  8
0
  6
CONTINUOUS
 62
     4
100
AcDbLine
 10
-6.0
 20
3.46
 30
0.0
 11
-6.0
 21
-3.47
 31
0.0
  0
LINE
  5
90
100
AcDbEntity
  8
0
  6
CONTINUOUS
 62
     4
100
AcDbLine
 10
0.0
 20
-6.93
 30
0.0
 11
6.0
 21
-3.47
 31
0.0
  0
LINE
  5
91
100
AcDbEntity
  8
0
  6
CONTINUOUS
 62
     4
100
AcDbLine
 10
-6.0
 20
3.46
 30
0.0
 11
0.0
 21
6.92
 31
0.0
  0
LINE
  5
92
100
AcDbEntity
  8
0
  6
CONTINUOUS
 62
     4
100
AcDbLine
 10
-6.0
 20
-3.47
 30
0.0
 11
0.0
 21
-6.93
 31
0.0
  0
LINE
  5
93
100
AcDbEntity
  8
0
  6
CONTINUOUS
 62
     4
100
AcDbLine
 10
0.0
 20
6.92
 30
0.0
 11
6.0
 21
3.46
 31
0.0
  0
LINE
  5
94
100
AcDbEntity
  8
0
  6
CONTINUOUS
 62
     2
100
AcDbLine
 10
0.0
 20
8.0
 30
0.0
 11
0.0
 21
-8.0
 31
0.0
  0
LINE
  5
95
100
AcDbEntity
  8
0
  6
CONTINUOUS
 62
     2
100
AcDbLine
 10
-8.0
 20
0.0
 30
0.0
 11
8.0
 21
0.0
 31
0.0
  0
ENDBLK
  5
96
100
AcDbEntity
  8
0
100
AcDbBlockEnd
  0
BLOCK
  5
97
100
AcDbEntity
  8
0
100
AcDbBlockBegin
  2
MS_3
 70
     0
 10
0.0
 20
0.0
 30
0.0
  3
MS_3
  1

  0
LINE
  5
98
100
AcDbEntity
  8
0
  6
CONTINUOUS
 62
     4
100
AcDbLine
 10
13.0
 20
6.0
 30
0.0
 11
13.0
 21
-6.0
 31
0.0
  0
LINE
  5
99
100
AcDbEntity
  8
0
  6
CONTINUOUS
 62
     4
100
AcDbLine
 10
10.0
 20
6.0
 30
0.0
 11
10.0
 21
-6.0
 31
0.0
  0
LINE
  5
9A
100
AcDbEntity
  8
0
  6
CONTINUOUS
 62
     4
100
AcDbLine
 10
13.0
 20
6.0
 30
0.0
 11
12.47
 21
6.92
 31
0.0
  0
LINE
  5
9B
100
AcDbEntity
  8
0
  6
CONTINUOUS
 62
     4
100
AcDbLine
 10
13.0
 20
-6.0
 30
0.0
 11
12.47
 21
-6.93
 31
0.0
  0
LINE
  5
9C
100
AcDbEntity
  8
0
  6
CONTINUOUS
 62
     4
100
AcDbLine
 10
10.54
 20
-6.93
 30
0.0
 11
12.47
 21
-6.93
 31
0.0
  0
LINE
  5
9D
100
AcDbEntity
  8
0
  6
CONTINUOUS
 62
     4
100
AcDbLine
 10
10.0
 20
6.0
 30
0.0
 11
10.54
 21
6.92
 31
0.0
  0
LINE
  5
9E
100
AcDbEntity
  8
0
  6
CONTINUOUS
 62
     4
100
AcDbLine
 10
10.54
 20
6.92
 30
0.0
 11
12.47
 21
6.92
 31
0.0
  0
LINE
  5
9F
100
AcDbEntity
  8
0
  6
CONTINUOUS
 62
     4
100
AcDbLine
 10
10.0
 20
-6.0
 30
0.0
 11
10.54
 21
-6.93
 31
0.0
  0
LINE
  5
A0
100
AcDbEntity
  8
0
  6
CONTINUOUS
 62
     4
100
AcDbLine
 10
12.47
 20
3.46
 30
0.0
 11
10.54
 21
3.46
 31
0.0
  0
LINE
  5
A1
100
AcDbEntity
  8
0
  6
CONTINUOUS
 62
     4
100
AcDbLine
 10
12.47
 20
-3.47
 30
0.0
 11
10.54
 21
-3.47
 31
0.0
  0
ARC
  5
A2
100
AcDbEntity
  8
0
  6
CONTINUOUS
 62
     4
100
AcDbCircle
 10
13.067588
 20
5.188626
 30
0.0
 40
3.062164
100
AcDbArc
 50
154.228575
 51
214.368351
  0
ARC
  5
A3
100
AcDbEntity
  8
0
  6
CONTINUOUS
 62
     4
100
AcDbCircle
 10
21.46417
 20
-0.005
 30
0.0
 40
11.460529
100
AcDbArc
 50
162.401672
 51
197.598328
  0
ARC
  5
A4
100
AcDbEntity
  8
0
  6
CONTINUOUS
 62
     4
100
AcDbCircle
 10
13.066786
 20
-5.198566
 30
0.0
 40
3.061468
100
AcDbArc
 50
145.624103
 51
205.778971
  0
ARC
  5
A5
100
AcDbEntity
  8
0
  6
CONTINUOUS
 62
     4
100
AcDbCircle
 10
9.932494
 20
5.189371
 30
0.0
 40
3.070776
100
AcDbArc
 50
-34.275366
 51
25.678441
  0
ARC
  5
A6
100
AcDbEntity
  8
0
  6
CONTINUOUS
 62
     4
100
AcDbCircle
 10
1.535854
 20
-0.005
 30
0.0
 40
11.470038
100
AcDbArc
 50
-17.583262
 51
17.583262
  0
ARC
  5
A7
100
AcDbEntity
  8
0
  6
CONTINUOUS
 62
     4
100
AcDbCircle
 10
9.933294
 20
-5.199311
 30
0.0
 40
3.070081
100
AcDbArc
 50
-25.685925
 51
34.28285
  0
LINE
  5
A8
100
AcDbEntity
  8
0
  6
CONTINUOUS
 62
     4
100
AcDbLine
 10
-8.0
 20
-4.0
 30
0.0
 11
-8.0
 21
4.0
 31
0.0
  0
ARC
  5
A9
100
AcDbEntity
  8
0
  6
CONTINUOUS
 62
     4
100
AcDbCircle
 10
-8.0
 20
-0.0025
 30
0.0
 40
7.997947
100
AcDbArc
 50
160.517248
 51
199.482752
  0
LINE
  5
AA
100
AcDbEntity
  8
0
  6
CONTINUOUS
 62
     4
100
AcDbLine
 10
-13.655
 20
4.0
 30
0.0
 11
-8.0
 21
4.0
 31
0.0
  0
ARC
  5
AB
100
AcDbEntity
  8
0
  6
CONTINUOUS
 62
     4
100
AcDbCircle
 10
-13.654817
 20
2.001446
 30
0.0
 40
1.998554
100
AcDbArc
 50
90.005248
 51
160.608745
  0
LINE
  5
AC
100
AcDbEntity
  8
0
  6
CONTINUOUS
 62
     4
100
AcDbLine
 10
-13.655
 20
-4.0
 30
0.0
 11
-8.0
 21
-4.0
 31
0.0
  0
ARC
  5
AD
100
AcDbEntity
  8
0
  6
CONTINUOUS
 62
     4
100
AcDbCircle
 10
-13.655995
 20
-2.000611
 30
0.0
 40
1.99939
100
AcDbArc
 50
199.560186
 51
270.028499
  0
LINE
  5
AE
100
AcDbEntity
  8
0
  6
CONTINUOUS
 62
     7
100
AcDbLine
 10
-8.0
 20
1.5
 30
0.0
 11
0.0
 21
1.5
 31
0.0
  0
LINE
  5
AF
100
AcDbEntity
  8
0
  6
CONTINUOUS
 62
     7
100
AcDbLine
 10
0.1
 20
-4.25
 30
0.0
 11
0.8
 21
-4.25
 31
0.0
  0
LINE
  5
B0
100
AcDbEntity
  8
0
  6
CONTINUOUS
 62
     7
100
AcDbLine
 10
0.0
 20
-4.15
 30
0.0
 11
0.1
 21
-4.25
 31
0.0
  0
LINE
  5
B1
100
AcDbEntity
  8
0
  6
CONTINUOUS
 62
     7
100
AcDbLine
 10
0.1
 20
4.25
 30
0.0
 11
0.0
 21
4.15
 31
0.0
  0
LINE
  5
B2
100
AcDbEntity
  8
0
  6
CONTINUOUS
 62
     7
100
AcDbLine
 10
0.0
 20
-4.15
 30
0.0
 11
0.0
 21
4.15
 31
0.0
  0
LINE
  5
B3
100
AcDbEntity
  8
0
  6
CONTINUOUS
 62
     7
100
AcDbLine
 10
0.1
 20
4.25
 30
0.0
 11
0.8
 21
4.25
 31
0.0
  0
LINE
  5
B4
100
AcDbEntity
  8
0
  6
CONTINUOUS
 62
     7
100
AcDbLine
 10
0.8
 20
4.25
 30
0.0
 11
0.8
 21
-4.25
 31
0.0
  0
LINE
  5
B5
100
AcDbEntity
  8
0
  6
CONTINUOUS
 62
     7
100
AcDbLine
 10
2.0
 20
4.25
 30
0.0
 11
2.75
 21
5.0
 31
0.0
  0
LINE
  5
B6
100
AcDbEntity
  8
0
  6
CONTINUOUS
 62
     7
100
AcDbLine
 10
2.0
 20
-4.25
 30
0.0
 11
2.75
 21
-5.0
 31
0.0
  0
LINE
  5
B7
100
AcDbEntity
  8
0
  6
CONTINUOUS
 62
     7
100
AcDbLine
 10
0.2
 20
4.25
 30
0.0
 11
2.0
 21
4.25
 31
0.0
  0
LINE
  5
B8
100
AcDbEntity
  8
0
  6
CONTINUOUS
 62
     7
100
AcDbLine
 10
0.2
 20
-4.25
 30
0.0
 11
2.0
 21
-4.25
 31
0.0
  0
LINE
  5
B9
100
AcDbEntity
  8
0
  6
CONTINUOUS
 62
     7
100
AcDbLine
 10
-8.0
 20
-1.5
 30
0.0
 11
0.0
 21
-1.5
 31
0.0
  0
LINE
  5
BA
100
AcDbEntity
  8
0
  6
CONTINUOUS
 62
     7
100
AcDbLine
 10
2.75
 20
5.0
 30
0.0
 11
2.75
 21
-5.0
 31
0.0
  0
LINE
  5
BB
100
AcDbEntity
  8
0
  6
CONTINUOUS
 62
     7
100
AcDbLine
 10
2.0
 20
4.25
 30
0.0
 11
2.0
 21
-4.25
 31
0.0
  0
SPLINE
  5
BC
100
AcDbEntity
  8
0
  6
CONTINUOUS
 62
     7
100
AcDbSpline
210
0.0
220
0.0
230
1.0
 70
     0
 71
     3
 72
     0
 73
     0
 74
     5
 44
0.000001
 12
0.417028828114149
 22
0.908893259146386
 32
0.0
 13
-0.4170288281141489
 23
0.9088932591463861
 33
0.0
 11
39.25
 21
-2.1794494717703401
 31
0.0
 11
39.616563101030039
 21
-1.1173064283903646
 31
0.0
 11
39.75
 21
-0.0000000000000071
 31
0.0
 11
39.616563101030039
 21
1.1173064283903542
 31
0.0
 11
39.25
 21
2.1794494717703334
 31
0.0
  0
SPLINE
  5
BD
100
AcDbEntity
  8
0
  6
CONTINUOUS
 62
     7
100
AcDbSpline
210
0.0
220
0.0
230
1.0
 70
     0
 71
     3
 72
     0
 73
     0
 74
     5
 44
0.000001
 12
-0.4170288281141489
 22
0.9088932591463861
 32
0.0
 13
0.4170288281141492
 23
0.908893259146386
 33
0.0
 11
36.0
 21
-2.1794494717703401
 31
0.0
 11
35.633436898969961
 21
-1.1173064283903642
 31
0.0
 11
35.5
 21
-0.0000000000000071
 31
0.0
 11
35.633436898969961
 21
1.1173064283903538
 31
0.0
 11
36.0
 21
2.1794494717703325
 31
0.0
  0
LINE
  5
BE
100
AcDbEntity
  8
0
  6
CONTINUOUS
 62
     7
100
AcDbLine
 10
44.7
 20
-4.25
 30
0.0
 11
44.7
 21
4.25
 31
0.0
  0
LINE
  5
BF
100
AcDbEntity
  8
0
  6
CONTINUOUS
 62
     7
100
AcDbLine
 10
44.7
 20
-4.25
 30
0.0
 11
45.0
 21
-3.95
 31
0.0
  0
LINE
  5
C0
100
AcDbEntity
  8
0
  6
CONTINUOUS
 62
     7
100
AcDbLine
 10
44.7
 20
4.25
 30
0.0
 11
45.0
 21
3.95
 31
0.0
  0
LINE
  5
C1
100
AcDbEntity
  8
0
  6
CONTINUOUS
 62
     2
100
AcDbLine
 10
36.0
 20
-2.179449
 30
0.0
 11
39.25
 21
2.179449
 31
0.0
  0
LINE
  5
C2
100
AcDbEntity
  8
0
  6
CONTINUOUS
 62
     2
100
AcDbLine
 10
39.25
 20
-2.179449
 30
0.0
 11
36.0
 21
2.179449
 31
0.0
  0
LINE
  5
C3
100
AcDbEntity
  8
0
  6
CONTINUOUS
 62
     2
100
AcDbLine
 10
2.2085
 20
-4.4585
 30
0.0
 11
10.0
 21
-4.4585
 31
0.0
  0
LINE
  5
C4
100
AcDbEntity
  8
0
  6
CONTINUOUS
 62
     2
100
AcDbLine
 10
2.2085
 20
4.4585
 30
0.0
 11
10.0
 21
4.4585
 31
0.0
  0
LINE
  5
C5
100
AcDbEntity
  8
0
  6
CONTINUOUS
 62
     7
100
AcDbLine
 10
39.25
 20
-5.0
 30
0.0
 11
39.25
 21
-2.179449
 31
0.0
  0
LINE
  5
C6
100
AcDbEntity
  8
0
  6
CONTINUOUS
 62
     7
100
AcDbLine
 10
39.25
 20
5.0
 30
0.0
 11
39.25
 21
2.179449
 31
0.0
  0
LINE
  5
C7
100
AcDbEntity
  8
0
  6
CONTINUOUS
 62
     7
100
AcDbLine
 10
39.25
 20
-5.0
 30
0.0
 11
40.0
 21
-4.25
 31
0.0
  0
LINE
  5
C8
100
AcDbEntity
  8
0
  6
CONTINUOUS
 62
     7
100
AcDbLine
 10
40.0
 20
4.25
 30
0.0
 11
39.25
 21
5.0
 31
0.0
  0
LINE
  5
C9
100
AcDbEntity
  8
0
  6
CONTINUOUS
 62
     7
100
AcDbLine
 10
2.75
 20
-5.0
 30
0.0
 11
10.0
 21
-5.0
 31
0.0
  0
LINE
  5
CA
100
AcDbEntity
  8
0
  6
CONTINUOUS
 62
     7
100
AcDbLine
 10
2.75
 20
5.0
 30
0.0
 11
10.0
 21
5.0
 31
0.0
  0
LINE
  5
CB
100
AcDbEntity
  8
0
  6
CENTER
 62
     2
100
AcDbLine
 10
-17.347829
 20
0.0
 30
0.0
 11
46.17
 21
0.0
 31
0.0
  0
LINE
  5
CC
100
AcDbEntity
  8
0
  6
CONTINUOUS
 62
     7
100
AcDbLine
 10
40.0
 20
-4.25
 30
0.0
 11
40.0
 21
4.25
 31
0.0
  0
LINE
  5
CD
100
AcDbEntity
  8
0
  6
CONTINUOUS
 62
     7
100
AcDbLine
 10
39.25
 20
2.179449
 30
0.0
 11
36.0
 21
2.179449
 31
0.0
  0
LINE
  5
CE
100
AcDbEntity
  8
0
  6
CONTINUOUS
 62
     7
100
AcDbLine
 10
39.25
 20
-2.179449
 30
0.0
 11
36.0
 21
-2.179449
 31
0.0
  0
LINE
  5
CF
100
AcDbEntity
  8
0
  6
CONTINUOUS
 62
     7
100
AcDbLine
 10
36.0
 20
2.179449
 30
0.0
 11
36.0
 21
-2.179449
 31
0.0
  0
LINE
  5
D0
100
AcDbEntity
  8
0
  6
CONTINUOUS
 62
     7
100
AcDbLine
 10
40.0
 20
4.25
 30
0.0
 11
44.7
 21
4.25
 31
0.0
  0
LINE
  5
D1
100
AcDbEntity
  8
0
  6
CONTINUOUS
 62
     7
100
AcDbLine
 10
40.0
 20
-4.25
 30
0.0
 11
44.7
 21
-4.25
 31
0.0
  0
LINE
  5
D2
100
AcDbEntity
  8
0
  6
CONTINUOUS
 62
     7
100
AcDbLine
 10
45.0
 20
3.95
 30
0.0
 11
45.0
 21
-3.95
 31
0.0
  0
ARC
  5
D3
100
AcDbEntity
  8
0
  6
CONTINUOUS
 62
     4
100
AcDbCircle
 10
16.066706
 20
-5.199311
 30
0.0
 40
3.070081
100
AcDbArc
 50
145.71715
 51
205.685925
  0
ARC
  5
D4
100
AcDbEntity
  8
0
  6
CONTINUOUS
 62
     4
100
AcDbCircle
 10
24.464146
 20
-0.005
 30
0.0
 40
11.470038
100
AcDbArc
 50
162.416738
 51
197.583262
  0
ARC
  5
D5
100
AcDbEntity
  8
0
  6
CONTINUOUS
 62
     4
100
AcDbCircle
 10
16.067506
 20
5.189371
 30
0.0
 40
3.070776
100
AcDbArc
 50
154.321559
 51
214.275366
  0
ARC
  5
D6
100
AcDbEntity
  8
0
  6
CONTINUOUS
 62
     4
100
AcDbCircle
 10
12.933214
 20
-5.198566
 30
0.0
 40
3.061468
100
AcDbArc
 50
334.221029
 51
34.375897
  0
ARC
  5
D7
100
AcDbEntity
  8
0
  6
CONTINUOUS
 62
     4
100
AcDbCircle
 10
4.53583
 20
-0.005
 30
0.0
 40
11.460529
100
AcDbArc
 50
342.401672
 51
17.598328
  0
ARC
  5
D8
100
AcDbEntity
  8
0
  6
CONTINUOUS
 62
     4
100
AcDbCircle
 10
12.932412
 20
5.188626
 30
0.0
 40
3.062164
100
AcDbArc
 50
325.631649
 51
25.771425
  0
LINE
  5
D9
100
AcDbEntity
  8
0
  6
CONTINUOUS
 62
     4
100
AcDbLine
 10
13.53
 20
-3.47
 30
0.0
 11
15.46
 21
-3.47
 31
0.0
  0
LINE
  5
DA
100
AcDbEntity
  8
0
  6
CONTINUOUS
 62
     4
100
AcDbLine
 10
13.53
 20
3.46
 30
0.0
 11
15.46
 21
3.46
 31
0.0
  0
LINE
  5
DB
100
AcDbEntity
  8
0
  6
CONTINUOUS
 62
     4
100
AcDbLine
 10
16.0
 20
-6.0
 30
0.0
 11
15.46
 21
-6.93
 31
0.0
  0
LINE
  5
DC
100
AcDbEntity
  8
0
  6
CONTINUOUS
 62
     4
100
AcDbLine
 10
15.46
 20
6.92
 30
0.0
 11
13.53
 21
6.92
 31
0.0
  0
LINE
  5
DD
100
AcDbEntity
  8
0
  6
CONTINUOUS
 62
     4
100
AcDbLine
 10
16.0
 20
6.0
 30
0.0
 11
15.46
 21
6.92
 31
0.0
  0
LINE
  5
DE
100
AcDbEntity
  8
0
  6
CONTINUOUS
 62
     4
100
AcDbLine
 10
15.46
 20
-6.93
 30
0.0
 11
13.53
 21
-6.93
 31
0.0
  0
LINE
  5
DF
100
AcDbEntity
  8
0
  6
CONTINUOUS
 62
     4
100
AcDbLine
 10
13.0
 20
-6.0
 30
0.0
 11
13.53
 21
-6.93
 31
0.0
  0
LINE
  5
E0
100
AcDbEntity
  8
0
  6
CONTINUOUS
 62
     4
100
AcDbLine
 10
13.0
 20
6.0
 30
0.0
 11
13.53
 21
6.92
 31
0.0
  0
LINE
  5
E1
100
AcDbEntity
  8
0
  6
CONTINUOUS
 62
     4
100
AcDbLine
 10
16.0
 20
6.0
 30
0.0
 11
16.0
 21
-6.0
 31
0.0
  0
LINE
  5
E2
100
AcDbEntity
  8
0
  6
CONTINUOUS
 62
     4
100
AcDbLine
 10
13.0
 20
6.0
 30
0.0
 11
13.0
 21
-6.0
 31
0.0
  0
LINE
  5
E3
100
AcDbEntity
  8
0
  6
CONTINUOUS
 62
     7
100
AcDbLine
 10
16.0
 20
5.0
 30
0.0
 11
39.25
 21
5.0
 31
0.0
  0
LINE
  5
E4
100
AcDbEntity
  8
0
  6
CONTINUOUS
 62
     2
100
AcDbLine
 10
16.0
 20
4.4585
 30
0.0
 11
39.7915
 21
4.4585
 31
0.0
  0
LINE
  5
E5
100
AcDbEntity
  8
0
  6
CONTINUOUS
 62
     2
100
AcDbLine
 10
16.0
 20
-4.4585
 30
0.0
 11
39.7915
 21
-4.4585
 31
0.0
  0
LINE
  5
E6
100
AcDbEntity
  8
0
  6
CONTINUOUS
 62
     7
100
AcDbLine
 10
16.0
 20
-5.0
 30
0.0
 11
39.25
 21
-5.0
 31
0.0
  0
ENDBLK
  5
E7
100
AcDbEntity
  8
0
100
AcDbBlockEnd
  0
BLOCK
  5
E8
100
AcDbEntity
  8
0
100
AcDbBlockBegin
  2
MS_4
 70
     0
 10
0.0
 20
0.0
 30
0.0
  3
MS_4
  1

  0
LINE
  5
E9
100
AcDbEntity
  8
0
  6
CONTINUOUS
 62
     4
100
AcDbLine
 10
0.0
 20
6.0
 30
0.0
 11
0.254552
 21
6.95
 31
0.0
  0
LINE
  5
EA
100
AcDbEntity
  8
0
  6
CONTINUOUS
 62
     4
100
AcDbLine
 10
17.0
 20
-6.0
 30
0.0
 11
16.745448
 21
-6.95
 31
0.0
  0
ARC
  5
EB
100
AcDbEntity
  8
0
  6
CONTINUOUS
 62
     4
100
AcDbCircle
 10
14.180652
 20
-5.219474
 30
0.0
 40
2.819801
100
AcDbArc
 50
358.973309
 51
38.088534
  0
ARC
  5
EC
100
AcDbEntity
  8
0
  6
CONTINUOUS
 62
     4
100
AcDbCircle
 10
2.813364
 20
-5.217468
 30
0.0
 40
2.813854
100
AcDbArc
 50
141.868443
 51
181.069714
  0
ARC
  5
ED
100
AcDbEntity
  8
0
  6
CONTINUOUS
 62
     4
100
AcDbCircle
 10
6.496671
 20
-0.005
 30
0.0
 40
10.50806
100
AcDbArc
 50
340.631035
 51
19.368965
  0
ARC
  5
EE
100
AcDbEntity
  8
0
  6
CONTINUOUS
 62
     4
100
AcDbCircle
 10
14.177634
 20
5.210486
 30
0.0
 40
2.822801
100
AcDbArc
 50
321.933094
 51
1.005062
  0
ARC
  5
EF
100
AcDbEntity
  8
0
  6
CONTINUOUS
 62
     4
100
AcDbCircle
 10
2.816388
 20
5.208482
 30
0.0
 40
2.816859
100
AcDbArc
 50
178.952052
 51
218.109791
  0
ARC
  5
F0
100
AcDbEntity
  8
0
  6
CONTINUOUS
 62
     4
100
AcDbCircle
 10
10.496673
 20
-0.005
 30
0.0
 40
10.492348
100
AcDbArc
 50
160.600869
 51
199.399131
  0
LINE
  5
F1
100
AcDbEntity
  8
0
  6
CONTINUOUS
 62
     4
100
AcDbLine
 10
0.0
 20
-6.0
 30
0.0
 11
0.26
 21
-6.95
 31
0.0
  0
LINE
  5
F2
100
AcDbEntity
  8
0
  6
CONTINUOUS
 62
     4
100
AcDbLine
 10
17.0
 20
6.0
 30
0.0
 11
16.75
 21
6.95
 31
0.0
  0
LINE
  5
F3
100
AcDbEntity
  8
0
  6
CONTINUOUS
 62
     4
100
AcDbLine
 10
17.0
 20
6.0
 30
0.0
 11
17.0
 21
-6.0
 31
0.0
  0
LINE
  5
F4
100
AcDbEntity
  8
0
  6
CONTINUOUS
 62
     4
100
AcDbLine
 10
0.0
 20
6.0
 30
0.0
 11
0.0
 21
-6.0
 31
0.0
  0
LINE
  5
F5
100
AcDbEntity
  8
0
  6
CONTINUOUS
 62
     4
100
AcDbLine
 10
0.26
 20
-6.95
 30
0.0
 11
16.745448
 21
-6.95
 31
0.0
  0
LINE
  5
F6
100
AcDbEntity
  8
0
  6
CONTINUOUS
 62
     4
100
AcDbLine
 10
0.6
 20
-3.49
 30
0.0
 11
16.41
 21
-3.49
 31
0.0
  0
LINE
  5
F7
100
AcDbEntity
  8
0
  6
CONTINUOUS
 62
     4
100
AcDbLine
 10
0.6
 20
3.48
 30
0.0
 11
16.41
 21
3.48
 31
0.0
  0
LINE
  5
F8
100
AcDbEntity
  8
0
  6
CONTINUOUS
 62
     4
100
AcDbLine
 10
0.254552
 20
6.95
 30
0.0
 11
16.75
 21
6.95
 31
0.0
  0
LINE
  5
F9
100
AcDbEntity
  8
0
  6
CENTER
 62
   200
100
AcDbLine
 10
-2.64
 20
0.0
 30
0.0
 11
19.84
 21
0.0
 31
0.0
  0
ENDBLK
  5
FA
100
AcDbEntity
  8
0
100
AcDbBlockEnd
  0
BLOCK
  5
FB
100
AcDbEntity
  8
0
100
AcDbBlockBegin
  2
MS_5
 70
     0
 10
0.0
 20
0.0
 30
0.0
  3
MS_5
  1

  0
CIRCLE
  5
FC
100
AcDbEntity
  8
0
  6
CONTINUOUS
 62
     4
100
AcDbCircle
 10
0.006656
 20
0.0
 30
0.0
 40
4.5
  0
CIRCLE
  5
FD
100
AcDbEntity
  8
0
  6
CONTINUOUS
 62
   200
100
AcDbCircle
 10
0.006656
 20
0.0
 30
0.0
 40
5.0
  0
CIRCLE
  5
FE
100
AcDbEntity
  8
0
  6
CONTINUOUS
 62
     4
100
AcDbCircle
 10
0.006656
 20
0.0
 30
0.0
 40
6.0
  0
LINE
  5
FF
100
AcDbEntity
  8
0
  6
CONTINUOUS
 62
     4
100
AcDbLine
 10
-6.0
 20
-3.49
 30
0.0
 11
0.0
 21
-6.95
 31
0.0
  0
LINE
  5
100
100
AcDbEntity
  8
0
  6
CONTINUOUS
 62
     4
100
AcDbLine
 10
0.0
 20
6.95
 30
0.0
 11
6.0
 21
3.48
 31
0.0
  0
LINE
  5
101
100
AcDbEntity
  8
0
  6
CONTINUOUS
 62
     4
100
AcDbLine
 10
0.0
 20
-6.95
 30
0.0
 11
6.0
 21
-3.49
 31
0.0
  0
LINE
  5
102
100
AcDbEntity
  8
0
  6
CONTINUOUS
 62
     4
100
AcDbLine
 10
-6.0
 20
3.48
 30
0.0
 11
0.0
 21
6.95
 31
0.0
  0
LINE
  5
103
100
AcDbEntity
  8
0
  6
CONTINUOUS
 62
     4
100
AcDbLine
 10
-6.0
 20
3.48
 30
0.0
 11
-6.0
 21
-3.49
 31
0.0
  0
LINE
  5
104
100
AcDbEntity
  8
0
  6
CONTINUOUS
 62
     4
100
AcDbLine
 10
6.0
 20
3.48
 30
0.0
 11
6.0
 21
-3.49
 31
0.0
  0
LINE
  5
105
100
AcDbEntity
  8
0
  6
CENTER
 62
   200
100
AcDbLine
 10
-9.0
 20
0.0
 30
0.0
 11
8.97
 21
0.0
 31
0.0
  0
LINE
  5
106
100
AcDbEntity
  8
0
  6
CENTER
 62
   200
100
AcDbLine
 10
0.0
 20
10.0
 30
0.0
 11
0.0
 21
-10.2
 31
0.0
  0
ENDBLK
  5
107
100
AcDbEntity
  8
0
100
AcDbBlockEnd
  0
ENDSEC
  0
SECTION
  2
ENTITIES
  0
LINE
  5
109
100
AcDbEntity
  8
0
  6
DASHED
 62
     2
100
AcDbLine
 10
27.650006
 20
-94.800003
 30
0.0
 11
27.650006
 21
-0.150002
 31
0.0
  0
INSERT
  5
10A
100
AcDbEntity
  8
0
100
AcDbBlockReference
  2
MS_5
 10
105.433796
 20
-49.032435
 30
0.0
  0
INSERT
  5
10B
100
AcDbEntity
  8
0
100
AcDbBlockReference
  2
MS_4
 10
54.443796
 20
-49.032435
 30
0.0
  0
MTEXT
  5
10C
100
AcDbEntity
  8
0
  6
CONTINUOUS
 62
     7
100
AcDbMText
 10
-110.266662
 20
69.5
 30
0.0
 40
3.2
 41
0.0
 71
     4
 72
     1
  1
\A1;CS-KSHC6*8-EF
  7
MX_NOTE_STANDARD
  0
MTEXT
  5
10D
100
AcDbEntity
  8
0
  6
CONTINUOUS
 62
     7
100
AcDbMText
 10
-129.447267
 20
74.5
 30
0.0
 40
3.2
 41
0.0
 71
     4
 72
     1
  1
\W1.036;\A1;MODEL:CS-KSHC6*8-DE
  7
MX_NOTE_STANDARD
  0
LINE
  5
10E
100
AcDbEntity
  8
0
  6
CONTINUOUS
 62
     7
100
AcDbLine
 10
-138.399994
 20
-0.150002
 30
0.0
 11
138.350006
 21
-0.150002
 31
0.0
  0
MTEXT
  5
10F
100
AcDbEntity
  8
0
  6
CONTINUOUS
 62
     7
100
AcDbMText
 10
36.631012
 20
-10.150002
 30
0.0
 40
3.2
 41
0.0
 71
     4
 72
     1
  1
\W1.089;\A1;STOPER NUT:-S
  7
MX_NOTE_STANDARD
  0
INSERT
  5
110
100
AcDbEntity
  8
0
100
AcDbBlockReference
  2
MS_3
 10
-77.08121
 20
-50.990434
 30
0.0
  0
INSERT
  5
111
100
AcDbEntity
  8
0
100
AcDbBlockReference
  2
MS_2
 10
51.824195
 20
39.32562
 30
0.0
  0
INSERT
  5
112
100
AcDbEntity
  8
0
100
AcDbBlockReference
  2
MS_1
 10
-52.175805
 20
39.32562
 30
0.0
  0
MTEXT
  5
113
100
AcDbEntity
  8
0
  6
CONTINUOUS
 62
     7
100
AcDbMText
 10
-110.266662
 20
-15.150002
 30
0.0
 40
3.2
 41
0.0
 71
     4
 72
     1
  1
\A1;CS-KSHC6*8C-EF
  7
MX_NOTE_STANDARD
  0
LINE
  5
114
100
AcDbEntity
  8
0
  6
CONTINUOUS
 62
     7
100
AcDbLine
 10
-138.399994
 20
94.5
 30
0.0
 11
138.350006
 21
94.5
 31
0.0
  0
LINE
  5
115
100
AcDbEntity
  8
0
  6
CONTINUOUS
 62
     7
100
AcDbLine
 10
138.350006
 20
94.5
 30
0.0
 11
138.350006
 21
-94.800003
 31
0.0
  0
LINE
  5
116
100
AcDbEntity
  8
0
  6
CONTINUOUS
 62
     7
100
AcDbLine
 10
-138.399994
 20
-94.800003
 30
0.0
 11
138.350006
 21
-94.800003
 31
0.0
  0
LINE
  5
117
100
AcDbEntity
  8
0
  6
CONTINUOUS
 62
     7
100
AcDbLine
 10
-138.399994
 20
94.5
 30
0.0
 11
-138.399994
 21
-94.800003
 31
0.0
  0
LINE
  5
118
100
AcDbEntity
  8
0
  6
CONTINUOUS
 62
     7
100
AcDbLine
 10
73.350006
 20
-84.800003
 30
0.0
 11
138.350006
 21
-84.800003
 31
0.0
  0
LINE
  5
119
100
AcDbEntity
  8
0
  6
CONTINUOUS
 62
     7
100
AcDbLine
 10
-138.399994
 20
84.5
 30
0.0
 11
-73.399994
 21
84.5
 31
0.0
  0
LINE
  5
11A
100
AcDbEntity
  8
0
  6
CONTINUOUS
 62
     7
100
AcDbLine
 10
73.350006
 20
84.5
 30
0.0
 11
138.350006
 21
84.5
 31
0.0
  0
LINE
  5
11B
100
AcDbEntity
  8
0
  6
CONTINUOUS
 62
     7
100
AcDbLine
 10
73.350006
 20
-84.800003
 30
0.0
 11
73.350006
 21
-94.800003
 31
0.0
  0
LINE
  5
11C
100
AcDbEntity
  8
0
  6
CONTINUOUS
 62
     7
100
AcDbLine
 10
73.350006
 20
94.5
 30
0.0
 11
73.350006
 21
84.5
 31
0.0
  0
LINE
  5
11D
100
AcDbEntity
  8
0
  6
CONTINUOUS
 62
     7
100
AcDbLine
 10
-73.399994
 20
94.5
 30
0.0
 11
-73.399994
 21
84.5
 31
0.0
  0
MTEXT
  5
11E
100
AcDbEntity
  8
0
  6
CONTINUOUS
 62
     7
100
AcDbMText
 10
77.440523
 20
-89.800003
 30
0.0
 40
4.5
 41
0.0
 71
     4
 72
     1
  1
\W1.121;\A1;KOGANEI CORP.
  7
MX_NOTE_STANDARD
  0
MTEXT
  5
11F
100
AcDbEntity
  8
0
  6
CONTINUOUS
 62
     7
100
AcDbMText
 10
93.74946
 20
89.5
 30
0.0
 40
3.2
 41
0.0
 71
     4
 72
     1
  1
\W1.311;\A1;Ver. 1.0
  7
MX_NOTE_STANDARD
  0
MTEXT
  5
120
100
AcDbEntity
  8
0
  6
CONTINUOUS
 62
     7
100
AcDbMText
 10
-127.750973
 20
91.1
 30
0.0
 40
3.2
 41
0.0
 71
     1
 72
     1
  1
\W1.029;\A1;SHOCK ABSORBER
  7
MX_NOTE_STANDARD
  0
MTEXT
  5
121
100
AcDbEntity
  8
0
  6
CONTINUOUS
 62
     7
100
AcDbMText
 10
-129.44827
 20
-10.150002
 30
0.0
 40
3.2
 41
0.0
 71
     4
 72
     1
  1
\W1.034;\A1;MODEL:CS-KSHC6*8C-DE
  7
MX_NOTE_STANDARD
  0
ENDSEC
  0
SECTION
  2
OBJECTS
  0
DICTIONARY
  5
19
100
AcDbDictionary
  3
ACAD_GROUP
350
1A
  3
ACAD_MLINESTYLE
350
1B
  0
DICTIONARY
  5
1A
102
{ACAD_REACTORS
330
19
102
}
100
AcDbDictionary
  0
DICTIONARY
  5
1B
102
{ACAD_REACTORS
330
19
102
}
100
AcDbDictionary
  3
STANDARD
350
1C
  0
MLINESTYLE
  5
1C
102
{ACAD_REACTORS
330
1B
102
}
100
AcDbMlineStyle
  2
Standard
 70
     0
  3

 62
     0
 51
90.0
 52
90.0
 71
     2
 49
0.5
 62
   256
  6
ByLayer
 49
-0.5
 62
   256
  6
ByLayer
  0
ENDSEC
  0
EOF
