  0
SECTION
  2
HEADER
  9
$ACADVER
  1
AC1015
  9
$ACADMAINTVER
 70
               6
  9
$DWGCODEPAGE
  3
ANSI_932
  9
$INSBASE
 10
0.0
 20
0.0
 30
0.0
  9
$EXTMIN
 10
-19.975000000000005
 20
-3.5999999999999992
 30
0.0
  9
$EXTMAX
 10
35.47500000000003
 20
10.263138535000001
 30
0.0
  9
$LIMMIN
 10
-19.975000000000005
 20
-3.5999999999999992
  9
$LIMMAX
 10
35.47500000000003
 20
10.263138535000001
  9
$ORTHOMODE
 70
               0
  9
$REGENMODE
 70
               1
  9
$FILLMODE
 70
               1
  9
$QTEXTMODE
 70
               0
  9
$MIRRTEXT
 70
               1
  9
$LTSCALE
 40
1.0
  9
$ATTMODE
 70
               1
  9
$TEXTSIZE
 40
3.2000000476837158
  9
$TRACEWID
 40
0.05
  9
$TEXTSTYLE
  7
MX_NOTE_STANDARD
  9
$CLAYER
  8
LY_1
  9
$CELTYPE
  6
CONTINUOUS
  9
$CECOLOR
 62
             256
  9
$CELTSCALE
 40
1.0
  9
$DISPSILH
 70
               0
  9
$DIMSCALE
 40
1.0
  9
$DIMASZ
 40
2.5
  9
$DIMEXO
 40
0.5
  9
$DIMDLI
 40
3.75
  9
$DIMRND
 40
0.0
  9
$DIMDLE
 40
0.0
  9
$DIMEXE
 40
1.0
  9
$DIMTP
 40
0.0
  9
$DIMTM
 40
0.0
  9
$DIMTXT
 40
3.2000000476837158
  9
$DIMCEN
 40
2.5
  9
$DIMTSZ
 40
0.0
  9
$DIMTOL
 70
               0
  9
$DIMLIM
 70
               0
  9
$DIMTIH
 70
               0
  9
$DIMTOH
 70
               0
  9
$DIMSE1
 70
               0
  9
$DIMSE2
 70
               0
  9
$DIMTAD
 70
               1
  9
$DIMZIN
 70
               8
  9
$DIMBLK
  1

  9
$DIMASO
 70
               1
  9
$DIMSHO
 70
               1
  9
$DIMPOST
  1

  9
$DIMAPOST
  1

  9
$DIMALT
 70
               0
  9
$DIMALTD
 70
               4
  9
$DIMALTF
 40
0.03937007874016
  9
$DIMLFAC
 40
1.0
  9
$DIMTOFL
 70
               1
  9
$DIMTVP
 40
0.0
  9
$DIMTIX
 70
               0
  9
$DIMSOXD
 70
               0
  9
$DIMSAH
 70
               1
  9
$DIMBLK1
  1
_OPEN30
  9
$DIMBLK2
  1
_OPEN30
  9
$DIMSTYLE
  2
MXDIMSTYLE
  9
$DIMCLRD
 70
               0
  9
$DIMCLRE
 70
               0
  9
$DIMCLRT
 70
               0
  9
$DIMTFAC
 40
1.0
  9
$DIMGAP
 40
1.0
  9
$DIMJUST
 70
               0
  9
$DIMSD1
 70
               0
  9
$DIMSD2
 70
               0
  9
$DIMTOLJ
 70
               0
  9
$DIMTZIN
 70
               0
  9
$DIMALTZ
 70
               0
  9
$DIMALTTZ
 70
               0
  9
$DIMUPT
 70
               1
  9
$DIMDEC
 70
               2
  9
$DIMTDEC
 70
               2
  9
$DIMALTU
 70
               2
  9
$DIMALTTD
 70
               4
  9
$DIMTXSTY
  7
MX_NOTE_STANDARD
  9
$DIMAUNIT
 70
               0
  9
$DIMADEC
 70
               0
  9
$DIMALTRND
 40
0.0
  9
$DIMAZIN
 70
               0
  9
$DIMDSEP
 70
              46
  9
$DIMATFIT
 70
               3
  9
$DIMFRAC
 70
               0
  9
$DIMLDRBLK
  1
_OPEN30
  9
$DIMLUNIT
 70
               2
  9
$DIMLWD
 70
              -2
  9
$DIMLWE
 70
              -2
  9
$DIMTMOVE
 70
               0
  9
$LUNITS
 70
               2
  9
$LUPREC
 70
               4
  9
$SKETCHINC
 40
0.1
  9
$FILLETRAD
 40
0.0
  9
$AUNITS
 70
               0
  9
$AUPREC
 70
               0
  9
$MENU
  1
acad
  9
$ELEVATION
 40
0.0
  9
$PELEVATION
 40
0.0
  9
$THICKNESS
 40
0.0
  9
$LIMCHECK
 70
               0
  9
$CHAMFERA
 40
0.0
  9
$CHAMFERB
 40
0.0
  9
$CHAMFERC
 40
0.0
  9
$CHAMFERD
 40
0.0
  9
$SKPOLY
 70
               0
  9
$TDCREATE
 40
2454456.552546296
  9
$TDUCREATE
 40
0.000000000
  9
$TDUPDATE
 40
2454456.552546296
  9
$TDUUPDATE
 40
0.000000000
  9
$TDINDWG
 40
0.0000000000
  9
$TDUSRTIMER
 40
0.0000000000
  9
$USRTIMER
 70
               1
  9
$ANGBASE
 50
0.0
  9
$ANGDIR
 70
               0
  9
$PDMODE
 70
               0
  9
$PDSIZE
 40
0.0
  9
$PLINEWID
 40
0.0
  9
$SPLFRAME
 70
               0
  9
$SPLINETYPE
 70
               6
  9
$SPLINESEGS
 70
               8
  9
$HANDSEED
  5
163
  9
$SURFTAB1
 70
               6
  9
$SURFTAB2
 70
               6
  9
$SURFTYPE
 70
               6
  9
$SURFU
 70
               6
  9
$SURFV
 70
               6
  9
$UCSBASE
  2

  9
$UCSNAME
  2

  9
$UCSORG
 10
0.0
 20
0.0
 30
0.0
  9
$UCSXDIR
 10
1.0
 20
0.0
 30
0.0
  9
$UCSYDIR
 10
0.0
 20
1.0
 30
0.0
  9
$UCSORTHOREF
  2

  9
$UCSORTHOVIEW
 70
               0
  9
$UCSORGTOP
 10
0.0
 20
0.0
 30
0.0
  9
$UCSORGBOTTOM
 10
0.0
 20
0.0
 30
0.0
  9
$UCSORGLEFT
 10
0.0
 20
0.0
 30
0.0
  9
$UCSORGRIGHT
 10
0.0
 20
0.0
 30
0.0
  9
$UCSORGFRONT
 10
0.0
 20
0.0
 30
0.0
  9
$UCSORGBACK
 10
0.0
 20
0.0
 30
0.0
  9
$PUCSBASE
  2

  9
$PUCSNAME
  2

  9
$PUCSORG
 10
0.0
 20
0.0
 30
0.0
  9
$PUCSXDIR
 10
1.0
 20
0.0
 30
0.0
  9
$PUCSYDIR
 10
0.0
 20
1.0
 30
0.0
  9
$PUCSORTHOREF
  2

  9
$PUCSORTHOVIEW
 70
               0
  9
$PUCSORGTOP
 10
0.0
 20
0.0
 30
0.0
  9
$PUCSORGBOTTOM
 10
0.0
 20
0.0
 30
0.0
  9
$PUCSORGLEFT
 10
0.0
 20
0.0
 30
0.0
  9
$PUCSORGRIGHT
 10
0.0
 20
0.0
 30
0.0
  9
$PUCSORGFRONT
 10
0.0
 20
0.0
 30
0.0
  9
$PUCSORGBACK
 10
0.0
 20
0.0
 30
0.0
  9
$USERI1
 70
               0
  9
$USERI2
 70
               0
  9
$USERI3
 70
               0
  9
$USERI4
 70
               0
  9
$USERI5
 70
               0
  9
$USERR1
 40
0.0
  9
$USERR2
 40
0.0
  9
$USERR3
 40
0.0
  9
$USERR4
 40
0.0
  9
$USERR5
 40
0.0
  9
$WORLDVIEW
 70
               1
  9
$SHADEDGE
 70
               3
  9
$SHADEDIF
 70
              70
  9
$TILEMODE
 70
               1
  9
$MAXACTVP
 70
              16
  9
$PINSBASE
 10
0.0
 20
0.0
 30
0.0
  9
$PLIMCHECK
 70
               0
  9
$PEXTMIN
 10
1.0000000000000000E+20
 20
1.0000000000000000E+20
 30
1.0000000000000000E+20
  9
$PEXTMAX
 10
-1.0000000000000000E+20
 20
-1.0000000000000000E+20
 30
-1.0000000000000000E+20
  9
$PLIMMIN
 10
0.0
 20
0.0
  9
$PLIMMAX
 10
12.0
 20
9.0
  9
$UNITMODE
 70
               0
  9
$VISRETAIN
 70
               0
  9
$PLINEGEN
 70
               1
  9
$PSLTSCALE
 70
               0
  9
$TREEDEPTH
 70
            3020
  9
$CMLSTYLE
  2
Standard
  9
$CMLJUST
 70
               0
  9
$CMLSCALE
 40
1.0
  9
$PROXYGRAPHICS
 70
               0
  9
$MEASUREMENT
 70
               1
  9
$CELWEIGHT
370
               0
  9
$ENDCAPS
280
               0
  9
$JOINSTYLE
280
               0
  9
$LWDISPLAY
290
               0
  9
$INSUNITS
 70
               0
  9
$HYPERLINKBASE
  1

  9
$STYLESHEET
  1

  9
$XEDIT
290
               1
  9
$CEPSNTYPE
380
               0
  9
$PSTYLEMODE
290
               1
  9
$FINGERPRINTGUID
  2

  9
$VERSIONGUID
  2

  9
$EXTNAMES
290
               1
  9
$PSVPSCALE
 40
0.0
  0
ENDSEC
  0
SECTION
  2
CLASSES
  0
CLASS
  1
LWPOLYLINE
  2
AcDbPolyline
  3
AutoCAD 2000
 90
        0
280
               0
281
               1
  0
CLASS
  1
IMAGE
  2
AcDbRasterImage
  3
ISM
 90
      127
280
               0
281
               1
  0
CLASS
  1
OLE2FRAME
  2
AcDbOle2Frame
  3
AutoCAD 2000
 90
        0
280
               0
281
               1
  0
CLASS
  1
HATCH
  2
AcDbHatch
  3
AutoCAD 2000
 90
        0
280
               0
281
               1
  0
CLASS
  1
DICTIONARYVAR
  2
AcDbDictionaryVar
  3
AutoCAD 2000
 90
        0
280
               0
281
               0
  0
CLASS
  1
RASTERVARIABLES
  2
AcDbRasterVariables
  3
ISM
 90
        0
280
               0
281
               0
  0
CLASS
  1
IMAGEDEF
  2
AcDbRasterImageDef
  3
ISM
 90
        0
280
               0
281
               0
  0
CLASS
  1
IMAGEDEF_REACTOR
  2
AcDbRasterImageDefReactor
  3
ISM
 90
        1
280
               0
281
               0
  0
CLASS
  1
IDBUFFER
  2
AcDbIdBuffer
  3
AutoCAD 2000
 90
        0
280
               0
281
               0
  0
CLASS
  1
SPATIAL_FILTER
  2
AcDbSpatialFilter
  3
AutoCAD 2000
 90
        0
280
               0
281
               0
  0
CLASS
  1
XRECORD
  2
AcDbXrecord
  3
AutoCAD 2000
 90
        0
280
               0
281
               0
  0
CLASS
  1
SORTENTSTABLE
  2
AcDbSortentsTable
  3
AutoCAD 2000
 90
        0
280
               0
281
               0
  0
CLASS
  1
LAYER_INDEX
  2
AcDbLayerIndex
  3
AutoCAD 2000
 90
        0
280
               0
281
               0
  0
CLASS
  1
SPATIAL_INDEX
  2
AcDbSpatialIndex
  3
AutoCAD 2000
 90
        0
280
               0
281
               0
  0
CLASS
  1
OBJECT_PTR
  2
CAseDLPNTableRecord
  3
"ASE-LPNTableRecord"
 90
        1
280
               0
281
               0
  0
CLASS
  1
LAYOUT
  2
AcDbLayout
  3
AutoCAD 2000
 90
        0
280
               0
281
               0
  0
CLASS
  1
PLOTSETTINGS
  2
AcDbPlotSettings
  3
AutoCAD 2000
 90
        0
280
               0
281
               0
  0
CLASS
  1
ACDBDICTIONARYWDFLT
  2
AcDbDictionaryWithDefault
  3
AutoCAD 2000
 90
        0
280
               0
281
               0
  0
CLASS
  1
ACDBPLACEHOLDER
  2
AcDbPlaceHolder
  3
AutoCAD 2000
 90
        0
280
               0
281
               0
  0
ENDSEC
  0
SECTION
  2
TABLES
  0
TABLE
  2
VPORT
  5
7
100
AcDbSymbolTable
 70
               1
  0
VPORT
  5
15
100
AcDbSymbolTableRecord
100
AcDbViewportTableRecord
  2
*ACTIVE
 70
               0
 10
0.0
 20
0.0
 11
1.0
 21
1.0
 12
7.7500000000000107
 22
3.3315692675000013
 13
0.0
 23
0.0
 14
1.0
 24
1.0
 15
0.0
 25
0.0
 16
0.0
 26
0.0
 36
1.0
 17
0.0
 27
0.0
 37
0.0
 40
14.001769920350002
 41
1.7320508075688772
 42
50.0
 43
0.0
 44
0.0
 50
0.0
 51
0.0
 71
               0
 72
             100
 73
               1
 74
               1
 75
               0
 76
               0
 77
               0
 78
               0
281
               0
 65
               0
110
0.0
120
0.0
130
0.0
111
1.0
121
0.0
131
0.0
112
0.0
122
1.0
132
0.0
345
0
346
0
 79
               0
146
0.0
  0
ENDTAB
  0
TABLE
  2
LTYPE
  5
4
100
AcDbSymbolTable
 70
               3
  0
LTYPE
  5
11
100
AcDbSymbolTableRecord
100
AcDbLinetypeTableRecord
  2
BYBLOCK
 70
              64
  3

 72
              65
 73
               0
 40
0.0
  0
LTYPE
  5
12
100
AcDbSymbolTableRecord
100
AcDbLinetypeTableRecord
  2
BYLAYER
 70
              64
  3

 72
              65
 73
               0
 40
0.0
  0
LTYPE
  5
13
100
AcDbSymbolTableRecord
100
AcDbLinetypeTableRecord
  2
CONTINUOUS
 70
              64
  3
Solid line
 72
              65
 73
               0
 40
0.0
  0
ENDTAB
  0
TABLE
  2
LAYER
  5
2
100
AcDbSymbolTable
 70
               3
  0
LAYER
  5
14
100
AcDbSymbolTableRecord
100
AcDbLayerTableRecord
  2
0
 70
               0
 62
               7
  6
CONTINUOUS
290
               1
370
              -3
390
1D
  0
LAYER
  5
23
100
AcDbSymbolTableRecord
100
AcDbLayerTableRecord
  2
LY_1
 70
               0
 62
               7
  6
CONTINUOUS
290
               1
370
              -3
390
1D
  0
LAYER
  5
24
100
AcDbSymbolTableRecord
100
AcDbLayerTableRecord
  2
DEFPOINTS
 70
               0
 62
               7
  6
CONTINUOUS
290
               0
370
              -3
390
1D
  0
ENDTAB
  0
TABLE
  2
STYLE
  5
3
100
AcDbSymbolTable
 70
               1
  0
STYLE
  5
17
100
AcDbSymbolTableRecord
100
AcDbTextStyleTableRecord
  2
MX_NOTE_STANDARD
 70
               0
 40
0.0
 41
1.0
 50
0.0
 71
               0
 42
3.2000000476837158
  3
txt.shx
  4
extfont.shx
  0
ENDTAB
  0
TABLE
  2
VIEW
  5
5
100
AcDbSymbolTable
 70
               0
  0
ENDTAB
  0
TABLE
  2
UCS
  5
6
100
AcDbSymbolTable
 70
               0
  0
ENDTAB
  0
TABLE
  2
APPID
  5
8
100
AcDbSymbolTable
 70
               1
  0
APPID
  5
16
100
AcDbSymbolTableRecord
100
AcDbRegAppTableRecord
  2
ACAD
 70
               0
  0
ENDTAB
  0
TABLE
  2
DIMSTYLE
  5
9
100
AcDbSymbolTable
 70
               1
100
AcDbDimStyleTable
 71
               0
  0
DIMSTYLE
105
18
100
AcDbSymbolTableRecord
100
AcDbDimStyleTableRecord
  2
MXDIMSTYLE
 70
               0
  3

  4

 40
1.0
 41
2.5
 42
0.5
 43
3.75
 44
1.0
 45
0.0
 46
0.0
 47
0.0
 48
0.0
 71
               0
 72
               0
 73
               0
 74
               0
 75
               0
 76
               0
 77
               1
 78
               8
 79
               0
140
3.2000000476837158
141
2.5
142
0.0
143
0.03937007874016
144
1.0
145
0.0
146
1.0
147
1.0
148
0.0
170
               0
171
               4
172
               1
173
               1
174
               0
175
               0
176
               0
177
               0
178
               0
179
               0
271
               2
272
               2
273
               2
274
               4
275
               0
276
               0
277
               2
278
              46
279
               0
280
               0
281
               0
282
               0
283
               0
284
               0
285
               0
286
               0
288
               1
289
               3
340
17
341
29
342
0
343
29
344
29
371
              -2
372
              -2
  0
ENDTAB
  0
TABLE
  2
BLOCK_RECORD
  5
1
100
AcDbSymbolTable
 70
               5
  0
BLOCK_RECORD
  5
A
100
AcDbSymbolTableRecord
100
AcDbBlockTableRecord
  2
*MODEL_SPACE
340
20
  0
BLOCK_RECORD
  5
B
100
AcDbSymbolTableRecord
100
AcDbBlockTableRecord
  2
*PAPER_SPACE
340
21
  0
BLOCK_RECORD
  5
25
100
AcDbSymbolTableRecord
100
AcDbBlockTableRecord
  2
KSHJ4X3C-FV
340
0
102
{BLKREFS
331
162
102
}
  0
BLOCK_RECORD
  5
26
100
AcDbSymbolTableRecord
100
AcDbBlockTableRecord
  2
KSHJ4X3C-LV
340
0
102
{BLKREFS
331
161
102
}
  0
BLOCK_RECORD
  5
27
100
AcDbSymbolTableRecord
100
AcDbBlockTableRecord
  2
KSHJ4X3C-RV
340
0
102
{BLKREFS
331
160
102
}
  0
BLOCK_RECORD
  5
28
100
AcDbSymbolTableRecord
100
AcDbBlockTableRecord
  2
KSHJ4X3C-TV
340
0
102
{BLKREFS
331
15F
102
}
  0
BLOCK_RECORD
  5
29
100
AcDbSymbolTableRecord
100
AcDbBlockTableRecord
  2
_OPEN30
340
0
  0
ENDTAB
  0
ENDSEC
  0
SECTION
  2
BLOCKS
  0
BLOCK
  5
D
100
AcDbEntity
  8
0
390
0
100
AcDbBlockBegin
  2
*MODEL_SPACE
 70
               0
 10
0.0
 20
0.0
 30
0.0
  3
*MODEL_SPACE
  1

  0
ENDBLK
  5
E
100
AcDbEntity
  8
0
390
0
100
AcDbBlockEnd
  0
BLOCK
  5
F
100
AcDbEntity
 67
               1
  8
0
390
0
100
AcDbBlockBegin
  2
*PAPER_SPACE
 70
               0
 10
0.0
 20
0.0
 30
0.0
  3
*PAPER_SPACE
  1

  0
ENDBLK
  5
10
100
AcDbEntity
 67
               1
  8
0
390
0
100
AcDbBlockEnd
  0
BLOCK
  5
2F
100
AcDbEntity
  8
0
370
              -2
390
0
100
AcDbBlockBegin
  2
KSHJ4X3C-FV
 70
               0
 10
0.0
 20
0.0
 30
0.0
  3
KSHJ4X3C-FV
  1

  0
LINE
  5
30
100
AcDbEntity
  8
0
390
0
  6
CONTINUOUS
 62
               7
100
AcDbLine
 10
9.4999999900000009
 20
-3.1754252700000007
 30
0.0
 11
9.4999999900000009
 21
-1.5877134600000007
 31
0.0
  0
LINE
  5
31
100
AcDbEntity
  8
0
390
0
  6
CONTINUOUS
 62
               7
100
AcDbLine
 10
7.4999999899999992
 20
-3.1754252700000007
 30
0.0
 11
7.4999999899999992
 21
-1.5877134600000007
 31
0.0
  0
LINE
  5
32
100
AcDbEntity
  8
0
390
0
  6
CONTINUOUS
 62
               7
100
AcDbLine
 10
9.4999999900000009
 20
-3.1754252700000007
 30
0.0
 11
7.4999999899999992
 21
-3.1754252700000007
 31
0.0
  0
LINE
  5
33
100
AcDbEntity
  8
0
390
0
  6
CONTINUOUS
 62
               7
100
AcDbLine
 10
9.4999999900000009
 20
-1.5877134600000007
 30
0.0
 11
9.4999999900000009
 21
1.5877132399999998
 31
0.0
  0
LINE
  5
34
100
AcDbEntity
  8
0
390
0
  6
CONTINUOUS
 62
               7
100
AcDbLine
 10
7.4999999899999992
 20
-1.5877134600000007
 30
0.0
 11
7.4999999899999992
 21
1.5877132399999998
 31
0.0
  0
LINE
  5
35
100
AcDbEntity
  8
0
390
0
  6
CONTINUOUS
 62
               7
100
AcDbLine
 10
9.4999999900000009
 20
-1.5877134600000007
 30
0.0
 11
7.4999999899999992
 21
-1.5877134600000007
 31
0.0
  0
LINE
  5
36
100
AcDbEntity
  8
0
390
0
  6
CONTINUOUS
 62
               7
100
AcDbLine
 10
9.4999999900000009
 20
1.5877132399999998
 30
0.0
 11
9.4999999900000009
 21
3.1754265099999994
 31
0.0
  0
LINE
  5
37
100
AcDbEntity
  8
0
390
0
  6
CONTINUOUS
 62
               7
100
AcDbLine
 10
7.4999999899999992
 20
1.5877132399999998
 30
0.0
 11
7.4999999899999992
 21
3.1754265099999994
 31
0.0
  0
LINE
  5
38
100
AcDbEntity
  8
0
390
0
  6
CONTINUOUS
 62
               7
100
AcDbLine
 10
9.4999999900000009
 20
1.5877132399999998
 30
0.0
 11
7.4999999899999992
 21
1.5877132399999998
 31
0.0
  0
LINE
  5
39
100
AcDbEntity
  8
0
390
0
  6
CONTINUOUS
 62
               7
100
AcDbLine
 10
9.4999999900000009
 20
3.1754265099999994
 30
0.0
 11
7.4999999899999992
 21
3.1754265099999994
 31
0.0
  0
LINE
  5
3A
100
AcDbEntity
  8
0
390
0
  6
CONTINUOUS
 62
               7
100
AcDbLine
 10
5.4999999899999992
 20
-3.1754252700000007
 30
0.0
 11
5.4999999899999992
 21
-1.5877134600000007
 31
0.0
  0
LINE
  5
3B
100
AcDbEntity
  8
0
390
0
  6
CONTINUOUS
 62
               7
100
AcDbLine
 10
7.4999999900000009
 20
-3.1754252700000007
 30
0.0
 11
7.4999999900000009
 21
-1.5877134600000007
 31
0.0
  0
LINE
  5
3C
100
AcDbEntity
  8
0
390
0
  6
CONTINUOUS
 62
               7
100
AcDbLine
 10
7.4999999900000009
 20
-3.1754252700000007
 30
0.0
 11
5.4999999899999992
 21
-3.1754252700000007
 31
0.0
  0
LINE
  5
3D
100
AcDbEntity
  8
0
390
0
  6
CONTINUOUS
 62
               7
100
AcDbLine
 10
5.4999999899999992
 20
1.5877132399999998
 30
0.0
 11
5.4999999899999992
 21
3.1754265099999994
 31
0.0
  0
LINE
  5
3E
100
AcDbEntity
  8
0
390
0
  6
CONTINUOUS
 62
               7
100
AcDbLine
 10
7.4999999900000009
 20
1.5877132399999998
 30
0.0
 11
7.4999999900000009
 21
3.1754265099999994
 31
0.0
  0
LINE
  5
3F
100
AcDbEntity
  8
0
390
0
  6
CONTINUOUS
 62
               7
100
AcDbLine
 10
7.4999999900000009
 20
3.1754265099999994
 30
0.0
 11
5.4999999899999992
 21
3.1754265099999994
 31
0.0
  0
LINE
  5
40
100
AcDbEntity
  8
0
390
0
  6
CONTINUOUS
 62
               7
100
AcDbLine
 10
5.4999999899999992
 20
-1.5877134600000007
 30
0.0
 11
5.4999999899999992
 21
1.5877132399999998
 31
0.0
  0
LINE
  5
41
100
AcDbEntity
  8
0
390
0
  6
CONTINUOUS
 62
               7
100
AcDbLine
 10
7.4999999900000009
 20
-1.5877134600000007
 30
0.0
 11
7.4999999900000009
 21
1.5877132399999998
 31
0.0
  0
LINE
  5
42
100
AcDbEntity
  8
0
390
0
  6
CONTINUOUS
 62
               7
100
AcDbLine
 10
7.4999999900000009
 20
-1.5877134600000007
 30
0.0
 11
5.4999999899999992
 21
-1.5877134600000007
 31
0.0
  0
LINE
  5
43
100
AcDbEntity
  8
0
390
0
  6
CONTINUOUS
 62
               7
100
AcDbLine
 10
7.4999999900000009
 20
1.5877132399999998
 30
0.0
 11
5.4999999899999992
 21
1.5877132399999998
 31
0.0
  0
ARC
  5
44
100
AcDbEntity
  8
0
390
0
  6
CONTINUOUS
 62
               7
100
AcDbCircle
 10
-4.8999999999999986
 20
0.0
 30
0.0
 40
1.6000000000000001
100
AcDbArc
 50
90.0
 51
270.0
  0
LINE
  5
45
100
AcDbEntity
  8
0
390
0
  6
CONTINUOUS
 62
               2
100
AcDbLine
 10
-4.2000000000000002
 20
0.0
 30
0.0
 11
1.2000000000000002
 21
0.0
 31
0.0
  0
LINE
  5
46
100
AcDbEntity
  8
0
390
0
  6
CONTINUOUS
 62
               2
100
AcDbLine
 10
-5.6599999999999984
 20
0.0
 30
0.0
 11
-2.2400000000000007
 21
0.0
 31
0.0
  0
LINE
  5
47
100
AcDbEntity
  8
0
390
0
  6
CONTINUOUS
 62
               7
100
AcDbLine
 10
-0.0000000000000001
 20
0.6000000000000014
 30
0.0
 11
-3.0
 21
0.6000000000000014
 31
0.0
  0
LINE
  5
48
100
AcDbEntity
  8
0
390
0
  6
CONTINUOUS
 62
               7
100
AcDbLine
 10
-3.0
 20
-0.6000000000000014
 30
0.0
 11
-0.0000000000000001
 21
-0.6000000000000014
 31
0.0
  0
LINE
  5
49
100
AcDbEntity
  8
0
390
0
  6
CONTINUOUS
 62
               7
100
AcDbLine
 10
-3.0
 20
1.6000000000000014
 30
0.0
 11
-4.8999999999999986
 21
1.6000000000000014
 31
0.0
  0
LINE
  5
4A
100
AcDbEntity
  8
0
390
0
  6
CONTINUOUS
 62
               7
100
AcDbLine
 10
-4.8999999999999986
 20
-1.6000000000000014
 30
0.0
 11
-3.0
 21
-1.6000000000000014
 31
0.0
  0
LINE
  5
4B
100
AcDbEntity
  8
0
390
0
  6
CONTINUOUS
 62
               7
100
AcDbLine
 10
-3.0
 20
-1.6000000000000014
 30
0.0
 11
-3.0
 21
1.6000000000000014
 31
0.0
  0
LINE
  5
4C
100
AcDbEntity
  8
0
390
0
  6
CONTINUOUS
 62
               2
100
AcDbLine
 10
5.4999999900000001
 20
1.7289999999999996
 30
0.0
 11
0.8500000000000014
 21
1.7289999999999996
 31
0.0
  0
LINE
  5
4D
100
AcDbEntity
  8
0
390
0
  6
CONTINUOUS
 62
               2
100
AcDbLine
 10
18.600000000000001
 20
1.7289999999999996
 30
0.0
 11
9.4999999900000009
 21
1.7289999999999996
 31
0.0
  0
LINE
  5
4E
100
AcDbEntity
  8
0
390
0
  6
CONTINUOUS
 62
               2
100
AcDbLine
 10
9.4999999900000009
 20
-1.7289999999999996
 30
0.0
 11
18.600000000000001
 21
-1.7289999999999996
 31
0.0
  0
LINE
  5
4F
100
AcDbEntity
  8
0
390
0
  6
CONTINUOUS
 62
               2
100
AcDbLine
 10
0.8500000000000014
 20
-1.7289999999999996
 30
0.0
 11
5.4999999900000001
 21
-1.7289999999999996
 31
0.0
  0
LINE
  5
50
100
AcDbEntity
  8
0
390
0
  6
CONTINUOUS
 62
               2
100
AcDbLine
 10
-6.2499999999999991
 20
0.0
 30
0.0
 11
25.700000000000003
 21
0.0
 31
0.0
  0
LINE
  5
51
100
AcDbEntity
  8
0
390
0
  6
CONTINUOUS
 62
               2
100
AcDbLine
 10
-0.2
 20
0.0
 30
0.0
 11
0.7
 21
0.0
 31
0.0
  0
LINE
  5
52
100
AcDbEntity
  8
0
390
0
  6
CONTINUOUS
 62
               2
100
AcDbLine
 10
17.800000000000015
 20
0.0
 30
0.0
 11
23.200000000000024
 21
0.0
 31
0.0
  0
LINE
  5
53
100
AcDbEntity
  8
0
390
0
  6
CONTINUOUS
 62
               7
100
AcDbLine
 10
22.000000000000021
 20
-0.5000000000000001
 30
0.0
 11
22.000000000000021
 21
-1.5999999999999996
 31
0.0
  0
LINE
  5
54
100
AcDbEntity
  8
0
390
0
  6
CONTINUOUS
 62
               7
100
AcDbLine
 10
20.900000000000002
 20
-0.5
 30
0.0
 11
22.000000000000021
 21
-0.5
 31
0.0
  0
LINE
  5
55
100
AcDbEntity
  8
0
390
0
  6
CONTINUOUS
 62
               7
100
AcDbLine
 10
20.900000000000031
 20
0.4999999999998859
 30
0.0
 11
20.900000000000031
 21
-0.4999999999998853
 31
0.0
  0
LINE
  5
56
100
AcDbEntity
  8
0
390
0
  6
CONTINUOUS
 62
               7
100
AcDbLine
 10
22.0
 20
0.4999999999999996
 30
0.0
 11
20.900000000000002
 21
0.4999999999999996
 31
0.0
  0
LINE
  5
57
100
AcDbEntity
  8
0
390
0
  6
CONTINUOUS
 62
               7
100
AcDbLine
 10
22.000000000000021
 20
1.5999999999999996
 30
0.0
 11
19.000000000000018
 21
1.5999999999999996
 31
0.0
  0
LINE
  5
58
100
AcDbEntity
  8
0
390
0
  6
CONTINUOUS
 62
               7
100
AcDbLine
 10
19.000000000000018
 20
-1.5999999999999996
 30
0.0
 11
22.000000000000021
 21
-1.5999999999999996
 31
0.0
  0
LINE
  5
59
100
AcDbEntity
  8
0
390
0
  6
CONTINUOUS
 62
               7
100
AcDbLine
 10
22.000000000000021
 20
1.5999999999999996
 30
0.0
 11
22.000000000000021
 21
0.4999999999998859
 31
0.0
  0
LINE
  5
5A
100
AcDbEntity
  8
0
390
0
  6
CONTINUOUS
 62
               7
100
AcDbLine
 10
0.5
 20
1.6499999999999999
 30
0.0
 11
0.0
 21
1.6499999999999999
 31
0.0
  0
LINE
  5
5B
100
AcDbEntity
  8
0
390
0
  6
CONTINUOUS
 62
               7
100
AcDbLine
 10
0.0
 20
-1.6499999999999999
 30
0.0
 11
0.5
 21
-1.6499999999999999
 31
0.0
  0
LINE
  5
5C
100
AcDbEntity
  8
0
390
0
  6
CONTINUOUS
 62
               7
100
AcDbLine
 10
0.0
 20
-1.6499999999999999
 30
0.0
 11
0.0
 21
1.6499999999999999
 31
0.0
  0
LINE
  5
5D
100
AcDbEntity
  8
0
390
0
  6
CONTINUOUS
 62
               7
100
AcDbLine
 10
0.5
 20
-1.6499999999999999
 30
0.0
 11
0.8500000000000014
 21
-1.9999999999999996
 31
0.0
  0
LINE
  5
5E
100
AcDbEntity
  8
0
390
0
  6
CONTINUOUS
 62
               7
100
AcDbLine
 10
0.8500000000000014
 20
1.9999999999999996
 30
0.0
 11
0.5
 21
1.6499999999999999
 31
0.0
  0
LINE
  5
5F
100
AcDbEntity
  8
0
390
0
  6
CONTINUOUS
 62
               7
100
AcDbLine
 10
0.5
 20
-1.6499999999999999
 30
0.0
 11
0.5
 21
1.6499999999999999
 31
0.0
  0
LINE
  5
60
100
AcDbEntity
  8
0
390
0
  6
CONTINUOUS
 62
               7
100
AcDbLine
 10
19.000000000000018
 20
1.5999999999999823
 30
0.0
 11
18.600000000000001
 21
1.9999999999999996
 31
0.0
  0
LINE
  5
61
100
AcDbEntity
  8
0
390
0
  6
CONTINUOUS
 62
               7
100
AcDbLine
 10
18.600000000000001
 20
-1.9999999999999996
 30
0.0
 11
19.000000000000018
 21
-1.5999999999999823
 31
0.0
  0
LINE
  5
62
100
AcDbEntity
  8
0
390
0
  6
CONTINUOUS
 62
               7
100
AcDbLine
 10
19.000000000000018
 20
1.5999999999999996
 30
0.0
 11
19.000000000000018
 21
-1.5999999999999996
 31
0.0
  0
LINE
  5
63
100
AcDbEntity
  8
0
390
0
  6
CONTINUOUS
 62
               7
100
AcDbLine
 10
5.4999999900000001
 20
1.9999999999999996
 30
0.0
 11
0.8500000000000014
 21
1.9999999999999996
 31
0.0
  0
LINE
  5
64
100
AcDbEntity
  8
0
390
0
  6
CONTINUOUS
 62
               7
100
AcDbLine
 10
18.600000000000001
 20
1.9999999999999996
 30
0.0
 11
9.4999999900000009
 21
1.9999999999999996
 31
0.0
  0
LINE
  5
65
100
AcDbEntity
  8
0
390
0
  6
CONTINUOUS
 62
               7
100
AcDbLine
 10
9.4999999900000009
 20
-1.9999999999999996
 30
0.0
 11
18.600000000000001
 21
-1.9999999999999996
 31
0.0
  0
LINE
  5
66
100
AcDbEntity
  8
0
390
0
  6
CONTINUOUS
 62
               7
100
AcDbLine
 10
0.8500000000000014
 20
-1.9999999999999996
 30
0.0
 11
5.4999999900000001
 21
-1.9999999999999996
 31
0.0
  0
LINE
  5
67
100
AcDbEntity
  8
0
390
0
  6
CONTINUOUS
 62
               7
100
AcDbLine
 10
18.600000000000001
 20
-1.9999999999999996
 30
0.0
 11
18.600000000000001
 21
1.9999999999999996
 31
0.0
  0
LINE
  5
68
100
AcDbEntity
  8
0
390
0
  6
CONTINUOUS
 62
               7
100
AcDbLine
 10
0.8500000000000014
 20
-1.9999999999999996
 30
0.0
 11
0.8500000000000014
 21
1.9999999999999996
 31
0.0
  0
LINE
  5
69
100
AcDbEntity
  8
0
390
0
  6
CONTINUOUS
 62
               7
100
AcDbLine
 10
9.4999999900000009
 20
-3.1754252700000007
 30
0.0
 11
9.4999999900000009
 21
-1.5877134600000007
 31
0.0
  0
LINE
  5
6A
100
AcDbEntity
  8
0
390
0
  6
CONTINUOUS
 62
               7
100
AcDbLine
 10
7.4999999899999992
 20
-3.1754252700000007
 30
0.0
 11
7.4999999899999992
 21
-1.5877134600000007
 31
0.0
  0
LINE
  5
6B
100
AcDbEntity
  8
0
390
0
  6
CONTINUOUS
 62
               7
100
AcDbLine
 10
9.4999999900000009
 20
-3.1754252700000007
 30
0.0
 11
7.4999999899999992
 21
-3.1754252700000007
 31
0.0
  0
LINE
  5
6C
100
AcDbEntity
  8
0
390
0
  6
CONTINUOUS
 62
               7
100
AcDbLine
 10
9.4999999900000009
 20
-1.5877134600000007
 30
0.0
 11
9.4999999900000009
 21
1.5877132399999998
 31
0.0
  0
LINE
  5
6D
100
AcDbEntity
  8
0
390
0
  6
CONTINUOUS
 62
               7
100
AcDbLine
 10
7.4999999899999992
 20
-1.5877134600000007
 30
0.0
 11
7.4999999899999992
 21
1.5877132399999998
 31
0.0
  0
LINE
  5
6E
100
AcDbEntity
  8
0
390
0
  6
CONTINUOUS
 62
               7
100
AcDbLine
 10
9.4999999900000009
 20
-1.5877134600000007
 30
0.0
 11
7.4999999899999992
 21
-1.5877134600000007
 31
0.0
  0
LINE
  5
6F
100
AcDbEntity
  8
0
390
0
  6
CONTINUOUS
 62
               7
100
AcDbLine
 10
9.4999999900000009
 20
1.5877132399999998
 30
0.0
 11
9.4999999900000009
 21
3.1754265099999994
 31
0.0
  0
LINE
  5
70
100
AcDbEntity
  8
0
390
0
  6
CONTINUOUS
 62
               7
100
AcDbLine
 10
7.4999999899999992
 20
1.5877132399999998
 30
0.0
 11
7.4999999899999992
 21
3.1754265099999994
 31
0.0
  0
LINE
  5
71
100
AcDbEntity
  8
0
390
0
  6
CONTINUOUS
 62
               7
100
AcDbLine
 10
9.4999999900000009
 20
1.5877132399999998
 30
0.0
 11
7.4999999899999992
 21
1.5877132399999998
 31
0.0
  0
LINE
  5
72
100
AcDbEntity
  8
0
390
0
  6
CONTINUOUS
 62
               7
100
AcDbLine
 10
9.4999999900000009
 20
3.1754265099999994
 30
0.0
 11
7.4999999899999992
 21
3.1754265099999994
 31
0.0
  0
LINE
  5
73
100
AcDbEntity
  8
0
390
0
  6
CONTINUOUS
 62
               7
100
AcDbLine
 10
5.4999999899999992
 20
-3.1754252700000007
 30
0.0
 11
5.4999999899999992
 21
-1.5877134600000007
 31
0.0
  0
LINE
  5
74
100
AcDbEntity
  8
0
390
0
  6
CONTINUOUS
 62
               7
100
AcDbLine
 10
7.4999999900000009
 20
-3.1754252700000007
 30
0.0
 11
7.4999999900000009
 21
-1.5877134600000007
 31
0.0
  0
LINE
  5
75
100
AcDbEntity
  8
0
390
0
  6
CONTINUOUS
 62
               7
100
AcDbLine
 10
7.4999999900000009
 20
-3.1754252700000007
 30
0.0
 11
5.4999999899999992
 21
-3.1754252700000007
 31
0.0
  0
LINE
  5
76
100
AcDbEntity
  8
0
390
0
  6
CONTINUOUS
 62
               7
100
AcDbLine
 10
5.4999999899999992
 20
1.5877132399999998
 30
0.0
 11
5.4999999899999992
 21
3.1754265099999994
 31
0.0
  0
LINE
  5
77
100
AcDbEntity
  8
0
390
0
  6
CONTINUOUS
 62
               7
100
AcDbLine
 10
7.4999999900000009
 20
1.5877132399999998
 30
0.0
 11
7.4999999900000009
 21
3.1754265099999994
 31
0.0
  0
LINE
  5
78
100
AcDbEntity
  8
0
390
0
  6
CONTINUOUS
 62
               7
100
AcDbLine
 10
7.4999999900000009
 20
3.1754265099999994
 30
0.0
 11
5.4999999899999992
 21
3.1754265099999994
 31
0.0
  0
LINE
  5
79
100
AcDbEntity
  8
0
390
0
  6
CONTINUOUS
 62
               7
100
AcDbLine
 10
5.4999999899999992
 20
-1.5877134600000007
 30
0.0
 11
5.4999999899999992
 21
1.5877132399999998
 31
0.0
  0
LINE
  5
7A
100
AcDbEntity
  8
0
390
0
  6
CONTINUOUS
 62
               7
100
AcDbLine
 10
7.4999999900000009
 20
-1.5877134600000007
 30
0.0
 11
7.4999999900000009
 21
1.5877132399999998
 31
0.0
  0
LINE
  5
7B
100
AcDbEntity
  8
0
390
0
  6
CONTINUOUS
 62
               7
100
AcDbLine
 10
7.4999999900000009
 20
-1.5877134600000007
 30
0.0
 11
5.4999999899999992
 21
-1.5877134600000007
 31
0.0
  0
LINE
  5
7C
100
AcDbEntity
  8
0
390
0
  6
CONTINUOUS
 62
               7
100
AcDbLine
 10
7.4999999900000009
 20
1.5877132399999998
 30
0.0
 11
5.4999999899999992
 21
1.5877132399999998
 31
0.0
  0
ARC
  5
7D
100
AcDbEntity
  8
0
390
0
  6
CONTINUOUS
 62
               7
100
AcDbCircle
 10
-4.8999999999999986
 20
0.0
 30
0.0
 40
1.6000000000000001
100
AcDbArc
 50
90.0
 51
270.0
  0
LINE
  5
7E
100
AcDbEntity
  8
0
390
0
  6
CONTINUOUS
 62
               2
100
AcDbLine
 10
-4.2000000000000002
 20
0.0
 30
0.0
 11
1.2000000000000002
 21
0.0
 31
0.0
  0
LINE
  5
7F
100
AcDbEntity
  8
0
390
0
  6
CONTINUOUS
 62
               2
100
AcDbLine
 10
-5.6599999999999984
 20
0.0
 30
0.0
 11
-2.2400000000000007
 21
0.0
 31
0.0
  0
LINE
  5
80
100
AcDbEntity
  8
0
390
0
  6
CONTINUOUS
 62
               7
100
AcDbLine
 10
-0.0000000000000001
 20
0.6000000000000014
 30
0.0
 11
-3.0
 21
0.6000000000000014
 31
0.0
  0
LINE
  5
81
100
AcDbEntity
  8
0
390
0
  6
CONTINUOUS
 62
               7
100
AcDbLine
 10
-3.0
 20
-0.6000000000000014
 30
0.0
 11
-0.0000000000000001
 21
-0.6000000000000014
 31
0.0
  0
LINE
  5
82
100
AcDbEntity
  8
0
390
0
  6
CONTINUOUS
 62
               7
100
AcDbLine
 10
-3.0
 20
1.6000000000000014
 30
0.0
 11
-4.8999999999999986
 21
1.6000000000000014
 31
0.0
  0
LINE
  5
83
100
AcDbEntity
  8
0
390
0
  6
CONTINUOUS
 62
               7
100
AcDbLine
 10
-4.8999999999999986
 20
-1.6000000000000014
 30
0.0
 11
-3.0
 21
-1.6000000000000014
 31
0.0
  0
LINE
  5
84
100
AcDbEntity
  8
0
390
0
  6
CONTINUOUS
 62
               7
100
AcDbLine
 10
-3.0
 20
-1.6000000000000014
 30
0.0
 11
-3.0
 21
1.6000000000000014
 31
0.0
  0
LINE
  5
85
100
AcDbEntity
  8
0
390
0
  6
CONTINUOUS
 62
               2
100
AcDbLine
 10
5.4999999900000001
 20
1.7289999999999996
 30
0.0
 11
0.8500000000000014
 21
1.7289999999999996
 31
0.0
  0
LINE
  5
86
100
AcDbEntity
  8
0
390
0
  6
CONTINUOUS
 62
               2
100
AcDbLine
 10
18.600000000000001
 20
1.7289999999999996
 30
0.0
 11
9.4999999900000009
 21
1.7289999999999996
 31
0.0
  0
LINE
  5
87
100
AcDbEntity
  8
0
390
0
  6
CONTINUOUS
 62
               2
100
AcDbLine
 10
9.4999999900000009
 20
-1.7289999999999996
 30
0.0
 11
18.600000000000001
 21
-1.7289999999999996
 31
0.0
  0
LINE
  5
88
100
AcDbEntity
  8
0
390
0
  6
CONTINUOUS
 62
               2
100
AcDbLine
 10
0.8500000000000014
 20
-1.7289999999999996
 30
0.0
 11
5.4999999900000001
 21
-1.7289999999999996
 31
0.0
  0
LINE
  5
89
100
AcDbEntity
  8
0
390
0
  6
CONTINUOUS
 62
               2
100
AcDbLine
 10
-6.2499999999999991
 20
0.0
 30
0.0
 11
25.700000000000003
 21
0.0
 31
0.0
  0
LINE
  5
8A
100
AcDbEntity
  8
0
390
0
  6
CONTINUOUS
 62
               2
100
AcDbLine
 10
-0.2
 20
0.0
 30
0.0
 11
0.7
 21
0.0
 31
0.0
  0
LINE
  5
8B
100
AcDbEntity
  8
0
390
0
  6
CONTINUOUS
 62
               2
100
AcDbLine
 10
17.800000000000015
 20
0.0
 30
0.0
 11
23.200000000000024
 21
0.0
 31
0.0
  0
LINE
  5
8C
100
AcDbEntity
  8
0
390
0
  6
CONTINUOUS
 62
               7
100
AcDbLine
 10
22.000000000000021
 20
-0.5000000000000001
 30
0.0
 11
22.000000000000021
 21
-1.5999999999999996
 31
0.0
  0
LINE
  5
8D
100
AcDbEntity
  8
0
390
0
  6
CONTINUOUS
 62
               7
100
AcDbLine
 10
20.900000000000002
 20
-0.5
 30
0.0
 11
22.000000000000021
 21
-0.5
 31
0.0
  0
LINE
  5
8E
100
AcDbEntity
  8
0
390
0
  6
CONTINUOUS
 62
               7
100
AcDbLine
 10
20.900000000000031
 20
0.4999999999998859
 30
0.0
 11
20.900000000000031
 21
-0.4999999999998853
 31
0.0
  0
LINE
  5
8F
100
AcDbEntity
  8
0
390
0
  6
CONTINUOUS
 62
               7
100
AcDbLine
 10
22.0
 20
0.4999999999999996
 30
0.0
 11
20.900000000000002
 21
0.4999999999999996
 31
0.0
  0
LINE
  5
90
100
AcDbEntity
  8
0
390
0
  6
CONTINUOUS
 62
               7
100
AcDbLine
 10
22.000000000000021
 20
1.5999999999999996
 30
0.0
 11
19.000000000000018
 21
1.5999999999999996
 31
0.0
  0
LINE
  5
91
100
AcDbEntity
  8
0
390
0
  6
CONTINUOUS
 62
               7
100
AcDbLine
 10
19.000000000000018
 20
-1.5999999999999996
 30
0.0
 11
22.000000000000021
 21
-1.5999999999999996
 31
0.0
  0
LINE
  5
92
100
AcDbEntity
  8
0
390
0
  6
CONTINUOUS
 62
               7
100
AcDbLine
 10
22.000000000000021
 20
1.5999999999999996
 30
0.0
 11
22.000000000000021
 21
0.4999999999998859
 31
0.0
  0
LINE
  5
93
100
AcDbEntity
  8
0
390
0
  6
CONTINUOUS
 62
               7
100
AcDbLine
 10
0.5
 20
1.6499999999999999
 30
0.0
 11
0.0
 21
1.6499999999999999
 31
0.0
  0
LINE
  5
94
100
AcDbEntity
  8
0
390
0
  6
CONTINUOUS
 62
               7
100
AcDbLine
 10
0.0
 20
-1.6499999999999999
 30
0.0
 11
0.5
 21
-1.6499999999999999
 31
0.0
  0
LINE
  5
95
100
AcDbEntity
  8
0
390
0
  6
CONTINUOUS
 62
               7
100
AcDbLine
 10
0.0
 20
-1.6499999999999999
 30
0.0
 11
0.0
 21
1.6499999999999999
 31
0.0
  0
LINE
  5
96
100
AcDbEntity
  8
0
390
0
  6
CONTINUOUS
 62
               7
100
AcDbLine
 10
0.5
 20
-1.6499999999999999
 30
0.0
 11
0.8500000000000014
 21
-1.9999999999999996
 31
0.0
  0
LINE
  5
97
100
AcDbEntity
  8
0
390
0
  6
CONTINUOUS
 62
               7
100
AcDbLine
 10
0.8500000000000014
 20
1.9999999999999996
 30
0.0
 11
0.5
 21
1.6499999999999999
 31
0.0
  0
LINE
  5
98
100
AcDbEntity
  8
0
390
0
  6
CONTINUOUS
 62
               7
100
AcDbLine
 10
0.5
 20
-1.6499999999999999
 30
0.0
 11
0.5
 21
1.6499999999999999
 31
0.0
  0
LINE
  5
99
100
AcDbEntity
  8
0
390
0
  6
CONTINUOUS
 62
               7
100
AcDbLine
 10
19.000000000000018
 20
1.5999999999999823
 30
0.0
 11
18.600000000000001
 21
1.9999999999999996
 31
0.0
  0
LINE
  5
9A
100
AcDbEntity
  8
0
390
0
  6
CONTINUOUS
 62
               7
100
AcDbLine
 10
18.600000000000001
 20
-1.9999999999999996
 30
0.0
 11
19.000000000000018
 21
-1.5999999999999823
 31
0.0
  0
LINE
  5
9B
100
AcDbEntity
  8
0
390
0
  6
CONTINUOUS
 62
               7
100
AcDbLine
 10
19.000000000000018
 20
1.5999999999999996
 30
0.0
 11
19.000000000000018
 21
-1.5999999999999996
 31
0.0
  0
LINE
  5
9C
100
AcDbEntity
  8
0
390
0
  6
CONTINUOUS
 62
               7
100
AcDbLine
 10
5.4999999900000001
 20
1.9999999999999996
 30
0.0
 11
0.8500000000000014
 21
1.9999999999999996
 31
0.0
  0
LINE
  5
9D
100
AcDbEntity
  8
0
390
0
  6
CONTINUOUS
 62
               7
100
AcDbLine
 10
18.600000000000001
 20
1.9999999999999996
 30
0.0
 11
9.4999999900000009
 21
1.9999999999999996
 31
0.0
  0
LINE
  5
9E
100
AcDbEntity
  8
0
390
0
  6
CONTINUOUS
 62
               7
100
AcDbLine
 10
9.4999999900000009
 20
-1.9999999999999996
 30
0.0
 11
18.600000000000001
 21
-1.9999999999999996
 31
0.0
  0
LINE
  5
9F
100
AcDbEntity
  8
0
390
0
  6
CONTINUOUS
 62
               7
100
AcDbLine
 10
0.8500000000000014
 20
-1.9999999999999996
 30
0.0
 11
5.4999999900000001
 21
-1.9999999999999996
 31
0.0
  0
LINE
  5
A0
100
AcDbEntity
  8
0
390
0
  6
CONTINUOUS
 62
               7
100
AcDbLine
 10
18.600000000000001
 20
-1.9999999999999996
 30
0.0
 11
18.600000000000001
 21
1.9999999999999996
 31
0.0
  0
LINE
  5
A1
100
AcDbEntity
  8
0
390
0
  6
CONTINUOUS
 62
               7
100
AcDbLine
 10
0.8500000000000014
 20
-1.9999999999999996
 30
0.0
 11
0.8500000000000014
 21
1.9999999999999996
 31
0.0
  0
ENDBLK
  5
A2
100
AcDbEntity
  8
0
370
              -2
390
0
100
AcDbBlockEnd
  0
BLOCK
  5
A3
100
AcDbEntity
  8
0
370
              -2
390
0
100
AcDbBlockBegin
  2
KSHJ4X3C-LV
 70
               0
 10
0.0
 20
0.0
 30
0.0
  3
KSHJ4X3C-LV
  1

  0
LINE
  5
A4
100
AcDbEntity
  8
0
390
0
  6
CONTINUOUS
 62
               7
100
AcDbLine
 10
0.0000002299999981
 20
3.1754265099999994
 30
0.0
 11
-2.7499990800000016
 21
1.5877139299999996
 31
0.0
  0
LINE
  5
A5
100
AcDbEntity
  8
0
390
0
  6
CONTINUOUS
 62
               7
100
AcDbLine
 10
2.7499999100000001
 20
-1.5877134600000007
 30
0.0
 11
2.7500000000000004
 21
1.5877132399999998
 31
0.0
  0
LINE
  5
A6
100
AcDbEntity
  8
0
390
0
  6
CONTINUOUS
 62
               7
100
AcDbLine
 10
2.7500000000000004
 20
1.5877132399999998
 30
0.0
 11
0.0000002299999981
 21
3.1754265099999994
 31
0.0
  0
LINE
  5
A7
100
AcDbEntity
  8
0
390
0
  6
CONTINUOUS
 62
               7
100
AcDbLine
 10
-2.7499990800000016
 20
1.5877139299999996
 30
0.0
 11
-2.7499999999999996
 21
-1.5877132400000002
 31
0.0
  0
LINE
  5
A8
100
AcDbEntity
  8
0
390
0
  6
CONTINUOUS
 62
               7
100
AcDbLine
 10
-2.7499999999999996
 20
-1.5877132400000002
 30
0.0
 11
0.0000000000000003
 21
-3.1754252700000007
 31
0.0
  0
LINE
  5
A9
100
AcDbEntity
  8
0
390
0
  6
CONTINUOUS
 62
               7
100
AcDbLine
 10
0.0000000000000003
 20
-3.1754252700000007
 30
0.0
 11
2.7499999100000001
 21
-1.5877134600000007
 31
0.0
  0
ARC
  5
AA
100
AcDbEntity
  8
0
390
0
  6
CONTINUOUS
 62
               7
100
AcDbCircle
 10
-0.0000000000000003
 20
0.0
 30
0.0
 40
1.6000000000000014
100
AcDbArc
 50
90.0
 51
0.0
  0
ARC
  5
AB
100
AcDbEntity
  8
0
390
0
  6
CONTINUOUS
 62
               7
100
AcDbCircle
 10
-0.0000000000000003
 20
0.0
 30
0.0
 40
1.6000000000000014
100
AcDbArc
 50
0.0
 51
90.0
  0
LINE
  5
AC
100
AcDbEntity
  8
0
390
0
  6
CONTINUOUS
 62
               2
100
AcDbLine
 10
-2.8800000000000026
 20
0.0
 30
0.0
 11
2.8800000000000026
 21
0.0
 31
0.0
  0
LINE
  5
AD
100
AcDbEntity
  8
0
390
0
  6
CONTINUOUS
 62
               2
100
AcDbLine
 10
0.0
 20
-2.8800000000000026
 30
0.0
 11
0.0
 21
2.8800000000000026
 31
0.0
  0
CIRCLE
  5
AE
100
AcDbEntity
  8
0
390
0
  6
CONTINUOUS
 62
               2
100
AcDbCircle
 10
0.0000000000000001
 20
0.0
 30
0.0
 40
1.7289999999999996
  0
CIRCLE
  5
AF
100
AcDbEntity
  8
0
390
0
  6
CONTINUOUS
 62
               7
100
AcDbCircle
 10
0.0000000000000001
 20
0.0
 30
0.0
 40
1.9999999999999996
  0
CIRCLE
  5
B0
100
AcDbEntity
  8
0
390
0
  6
CONTINUOUS
 62
               7
100
AcDbCircle
 10
0.0
 20
0.0
 30
0.0
 40
1.6499999999999999
  0
LINE
  5
B1
100
AcDbEntity
  8
0
390
0
  6
CONTINUOUS
 62
               2
100
AcDbLine
 10
-3.5999999999999992
 20
0.0
 30
0.0
 11
3.5999999999999992
 21
0.0
 31
0.0
  0
LINE
  5
B2
100
AcDbEntity
  8
0
390
0
  6
CONTINUOUS
 62
               2
100
AcDbLine
 10
0.0
 20
-3.5999999999999992
 30
0.0
 11
0.0
 21
3.5999999999999992
 31
0.0
  0
LINE
  5
B3
100
AcDbEntity
  8
0
390
0
  6
CONTINUOUS
 62
               2
100
AcDbLine
 10
-2.9699999999999998
 20
0.0
 30
0.0
 11
2.9699999999999998
 21
0.0
 31
0.0
  0
LINE
  5
B4
100
AcDbEntity
  8
0
390
0
  6
CONTINUOUS
 62
               2
100
AcDbLine
 10
0.0
 20
-2.9699999999999998
 30
0.0
 11
0.0
 21
2.9699999999999998
 31
0.0
  0
LINE
  5
B5
100
AcDbEntity
  8
0
390
0
  6
CONTINUOUS
 62
               7
100
AcDbLine
 10
0.0000002299999981
 20
3.1754265099999994
 30
0.0
 11
-2.7499990800000016
 21
1.5877139299999996
 31
0.0
  0
LINE
  5
B6
100
AcDbEntity
  8
0
390
0
  6
CONTINUOUS
 62
               7
100
AcDbLine
 10
2.7499999100000001
 20
-1.5877134600000007
 30
0.0
 11
2.7500000000000004
 21
1.5877132399999998
 31
0.0
  0
LINE
  5
B7
100
AcDbEntity
  8
0
390
0
  6
CONTINUOUS
 62
               7
100
AcDbLine
 10
2.7500000000000004
 20
1.5877132399999998
 30
0.0
 11
0.0000002299999981
 21
3.1754265099999994
 31
0.0
  0
LINE
  5
B8
100
AcDbEntity
  8
0
390
0
  6
CONTINUOUS
 62
               7
100
AcDbLine
 10
-2.7499990800000016
 20
1.5877139299999996
 30
0.0
 11
-2.7499999999999996
 21
-1.5877132400000002
 31
0.0
  0
LINE
  5
B9
100
AcDbEntity
  8
0
390
0
  6
CONTINUOUS
 62
               7
100
AcDbLine
 10
-2.7499999999999996
 20
-1.5877132400000002
 30
0.0
 11
0.0000000000000003
 21
-3.1754252700000007
 31
0.0
  0
LINE
  5
BA
100
AcDbEntity
  8
0
390
0
  6
CONTINUOUS
 62
               7
100
AcDbLine
 10
0.0000000000000003
 20
-3.1754252700000007
 30
0.0
 11
2.7499999100000001
 21
-1.5877134600000007
 31
0.0
  0
ARC
  5
BB
100
AcDbEntity
  8
0
390
0
  6
CONTINUOUS
 62
               7
100
AcDbCircle
 10
-0.0000000000000003
 20
0.0
 30
0.0
 40
1.6000000000000014
100
AcDbArc
 50
90.0
 51
0.0
  0
ARC
  5
BC
100
AcDbEntity
  8
0
390
0
  6
CONTINUOUS
 62
               7
100
AcDbCircle
 10
-0.0000000000000003
 20
0.0
 30
0.0
 40
1.6000000000000014
100
AcDbArc
 50
0.0
 51
90.0
  0
LINE
  5
BD
100
AcDbEntity
  8
0
390
0
  6
CONTINUOUS
 62
               2
100
AcDbLine
 10
-2.8800000000000026
 20
0.0
 30
0.0
 11
2.8800000000000026
 21
0.0
 31
0.0
  0
LINE
  5
BE
100
AcDbEntity
  8
0
390
0
  6
CONTINUOUS
 62
               2
100
AcDbLine
 10
0.0
 20
-2.8800000000000026
 30
0.0
 11
0.0
 21
2.8800000000000026
 31
0.0
  0
CIRCLE
  5
BF
100
AcDbEntity
  8
0
390
0
  6
CONTINUOUS
 62
               2
100
AcDbCircle
 10
0.0000000000000001
 20
0.0
 30
0.0
 40
1.7289999999999996
  0
CIRCLE
  5
C0
100
AcDbEntity
  8
0
390
0
  6
CONTINUOUS
 62
               7
100
AcDbCircle
 10
0.0000000000000001
 20
0.0
 30
0.0
 40
1.9999999999999996
  0
CIRCLE
  5
C1
100
AcDbEntity
  8
0
390
0
  6
CONTINUOUS
 62
               7
100
AcDbCircle
 10
0.0
 20
0.0
 30
0.0
 40
1.6499999999999999
  0
LINE
  5
C2
100
AcDbEntity
  8
0
390
0
  6
CONTINUOUS
 62
               2
100
AcDbLine
 10
-3.5999999999999992
 20
0.0
 30
0.0
 11
3.5999999999999992
 21
0.0
 31
0.0
  0
LINE
  5
C3
100
AcDbEntity
  8
0
390
0
  6
CONTINUOUS
 62
               2
100
AcDbLine
 10
0.0
 20
-3.5999999999999992
 30
0.0
 11
0.0
 21
3.5999999999999992
 31
0.0
  0
LINE
  5
C4
100
AcDbEntity
  8
0
390
0
  6
CONTINUOUS
 62
               2
100
AcDbLine
 10
-2.9699999999999998
 20
0.0
 30
0.0
 11
2.9699999999999998
 21
0.0
 31
0.0
  0
LINE
  5
C5
100
AcDbEntity
  8
0
390
0
  6
CONTINUOUS
 62
               2
100
AcDbLine
 10
0.0
 20
-2.9699999999999998
 30
0.0
 11
0.0
 21
2.9699999999999998
 31
0.0
  0
ENDBLK
  5
C6
100
AcDbEntity
  8
0
370
              -2
390
0
100
AcDbBlockEnd
  0
BLOCK
  5
C7
100
AcDbEntity
  8
0
370
              -2
390
0
100
AcDbBlockBegin
  2
KSHJ4X3C-RV
 70
               0
 10
0.0
 20
0.0
 30
0.0
  3
KSHJ4X3C-RV
  1

  0
LINE
  5
C8
100
AcDbEntity
  8
0
390
0
  6
CONTINUOUS
 62
               7
100
AcDbLine
 10
-2.7500000000000004
 20
1.5877132399999998
 30
0.0
 11
-0.0000002299999982
 21
3.1754265099999994
 31
0.0
  0
LINE
  5
C9
100
AcDbEntity
  8
0
390
0
  6
CONTINUOUS
 62
               7
100
AcDbLine
 10
-2.7499999100000001
 20
-1.5877134600000007
 30
0.0
 11
-2.7500000000000004
 21
1.5877132399999998
 31
0.0
  0
LINE
  5
CA
100
AcDbEntity
  8
0
390
0
  6
CONTINUOUS
 62
               7
100
AcDbLine
 10
-0.0000000000000005
 20
-3.1754252700000007
 30
0.0
 11
-2.7499999100000001
 21
-1.5877134600000007
 31
0.0
  0
LINE
  5
CB
100
AcDbEntity
  8
0
390
0
  6
CONTINUOUS
 62
               7
100
AcDbLine
 10
2.7499999999999996
 20
-1.5877132400000002
 30
0.0
 11
-0.0000000000000005
 21
-3.1754252700000007
 31
0.0
  0
LINE
  5
CC
100
AcDbEntity
  8
0
390
0
  6
CONTINUOUS
 62
               7
100
AcDbLine
 10
2.7499990800000016
 20
1.5877139299999996
 30
0.0
 11
2.7499999999999996
 21
-1.5877132400000002
 31
0.0
  0
LINE
  5
CD
100
AcDbEntity
  8
0
390
0
  6
CONTINUOUS
 62
               7
100
AcDbLine
 10
-0.0000002299999982
 20
3.1754265099999994
 30
0.0
 11
2.7499990800000016
 21
1.5877139299999996
 31
0.0
  0
CIRCLE
  5
CE
100
AcDbEntity
  8
0
390
0
  6
CONTINUOUS
 62
               2
100
AcDbCircle
 10
-0.0000000000000011
 20
0.0
 30
0.0
 40
1.7289999999999996
  0
CIRCLE
  5
CF
100
AcDbEntity
  8
0
390
0
  6
CONTINUOUS
 62
               7
100
AcDbCircle
 10
-0.0000000000000011
 20
0.0
 30
0.0
 40
1.9999999999999996
  0
ARC
  5
D0
100
AcDbEntity
  8
0
390
0
  6
CONTINUOUS
 62
               7
100
AcDbCircle
 10
-0.0000000000000013
 20
0.0
 30
0.0
 40
1.5999999999999996
100
AcDbArc
 50
341.79004313572131
 51
18.209956864278706
  0
ARC
  5
D1
100
AcDbEntity
  8
0
390
0
  6
CONTINUOUS
 62
               7
100
AcDbCircle
 10
-0.0000000000000013
 20
0.0
 30
0.0
 40
1.5999999999999996
100
AcDbArc
 50
161.79004313572131
 51
198.20995686427869
  0
ARC
  5
D2
100
AcDbEntity
  8
0
390
0
  6
CONTINUOUS
 62
               7
100
AcDbCircle
 10
-0.0000000000000013
 20
0.0
 30
0.0
 40
1.5999999999999996
100
AcDbArc
 50
18.209956864278698
 51
161.79004313572133
  0
ARC
  5
D3
100
AcDbEntity
  8
0
390
0
  6
CONTINUOUS
 62
               7
100
AcDbCircle
 10
-0.0000000000000013
 20
0.0
 30
0.0
 40
1.5999999999999996
100
AcDbArc
 50
198.20995686428301
 51
341.79004313572131
  0
LINE
  5
D4
100
AcDbEntity
  8
0
390
0
  6
CONTINUOUS
 62
               2
100
AcDbLine
 10
-3.5999999999999992
 20
0.0
 30
0.0
 11
3.5999999999999992
 21
0.0
 31
0.0
  0
LINE
  5
D5
100
AcDbEntity
  8
0
390
0
  6
CONTINUOUS
 62
               2
100
AcDbLine
 10
0.0
 20
-3.5999999999999992
 30
0.0
 11
0.0
 21
3.5999999999999992
 31
0.0
  0
LINE
  5
D6
100
AcDbEntity
  8
0
390
0
  6
CONTINUOUS
 62
               2
100
AcDbLine
 10
-2.8800000000000621
 20
0.0
 30
0.0
 11
2.8799999999999368
 21
0.0
 31
0.0
  0
LINE
  5
D7
100
AcDbEntity
  8
0
390
0
  6
CONTINUOUS
 62
               2
100
AcDbLine
 10
-0.0000000000000624
 20
-2.8799999999999994
 30
0.0
 11
-0.0000000000000624
 21
2.8799999999999994
 31
0.0
  0
LINE
  5
D8
100
AcDbEntity
  8
0
390
0
  6
CONTINUOUS
 62
               7
100
AcDbLine
 10
1.5198684153574491
 20
0.4999999999999996
 30
0.0
 11
-1.5198684153574518
 21
0.4999999999999996
 31
0.0
  0
LINE
  5
D9
100
AcDbEntity
  8
0
390
0
  6
CONTINUOUS
 62
               7
100
AcDbLine
 10
1.5198684153574491
 20
-0.5
 30
0.0
 11
-1.5198684153570672
 21
-0.5
 31
0.0
  0
LINE
  5
DA
100
AcDbEntity
  8
0
390
0
  6
CONTINUOUS
 62
               7
100
AcDbLine
 10
-2.7500000000000004
 20
1.5877132399999998
 30
0.0
 11
-0.0000002299999982
 21
3.1754265099999994
 31
0.0
  0
LINE
  5
DB
100
AcDbEntity
  8
0
390
0
  6
CONTINUOUS
 62
               7
100
AcDbLine
 10
-2.7499999100000001
 20
-1.5877134600000007
 30
0.0
 11
-2.7500000000000004
 21
1.5877132399999998
 31
0.0
  0
LINE
  5
DC
100
AcDbEntity
  8
0
390
0
  6
CONTINUOUS
 62
               7
100
AcDbLine
 10
-0.0000000000000005
 20
-3.1754252700000007
 30
0.0
 11
-2.7499999100000001
 21
-1.5877134600000007
 31
0.0
  0
LINE
  5
DD
100
AcDbEntity
  8
0
390
0
  6
CONTINUOUS
 62
               7
100
AcDbLine
 10
2.7499999999999996
 20
-1.5877132400000002
 30
0.0
 11
-0.0000000000000005
 21
-3.1754252700000007
 31
0.0
  0
LINE
  5
DE
100
AcDbEntity
  8
0
390
0
  6
CONTINUOUS
 62
               7
100
AcDbLine
 10
2.7499990800000016
 20
1.5877139299999996
 30
0.0
 11
2.7499999999999996
 21
-1.5877132400000002
 31
0.0
  0
LINE
  5
DF
100
AcDbEntity
  8
0
390
0
  6
CONTINUOUS
 62
               7
100
AcDbLine
 10
-0.0000002299999982
 20
3.1754265099999994
 30
0.0
 11
2.7499990800000016
 21
1.5877139299999996
 31
0.0
  0
CIRCLE
  5
E0
100
AcDbEntity
  8
0
390
0
  6
CONTINUOUS
 62
               2
100
AcDbCircle
 10
-0.0000000000000011
 20
0.0
 30
0.0
 40
1.7289999999999996
  0
CIRCLE
  5
E1
100
AcDbEntity
  8
0
390
0
  6
CONTINUOUS
 62
               7
100
AcDbCircle
 10
-0.0000000000000011
 20
0.0
 30
0.0
 40
1.9999999999999996
  0
ARC
  5
E2
100
AcDbEntity
  8
0
390
0
  6
CONTINUOUS
 62
               7
100
AcDbCircle
 10
-0.0000000000000013
 20
0.0
 30
0.0
 40
1.5999999999999996
100
AcDbArc
 50
341.79004313572131
 51
18.209956864278706
  0
ARC
  5
E3
100
AcDbEntity
  8
0
390
0
  6
CONTINUOUS
 62
               7
100
AcDbCircle
 10
-0.0000000000000013
 20
0.0
 30
0.0
 40
1.5999999999999996
100
AcDbArc
 50
161.79004313572131
 51
198.20995686427869
  0
ARC
  5
E4
100
AcDbEntity
  8
0
390
0
  6
CONTINUOUS
 62
               7
100
AcDbCircle
 10
-0.0000000000000013
 20
0.0
 30
0.0
 40
1.5999999999999996
100
AcDbArc
 50
18.209956864278698
 51
161.79004313572133
  0
ARC
  5
E5
100
AcDbEntity
  8
0
390
0
  6
CONTINUOUS
 62
               7
100
AcDbCircle
 10
-0.0000000000000013
 20
0.0
 30
0.0
 40
1.5999999999999996
100
AcDbArc
 50
198.20995686428301
 51
341.79004313572131
  0
LINE
  5
E6
100
AcDbEntity
  8
0
390
0
  6
CONTINUOUS
 62
               2
100
AcDbLine
 10
-3.5999999999999992
 20
0.0
 30
0.0
 11
3.5999999999999992
 21
0.0
 31
0.0
  0
LINE
  5
E7
100
AcDbEntity
  8
0
390
0
  6
CONTINUOUS
 62
               2
100
AcDbLine
 10
0.0
 20
-3.5999999999999992
 30
0.0
 11
0.0
 21
3.5999999999999992
 31
0.0
  0
LINE
  5
E8
100
AcDbEntity
  8
0
390
0
  6
CONTINUOUS
 62
               2
100
AcDbLine
 10
-2.8800000000000621
 20
0.0
 30
0.0
 11
2.8799999999999368
 21
0.0
 31
0.0
  0
LINE
  5
E9
100
AcDbEntity
  8
0
390
0
  6
CONTINUOUS
 62
               2
100
AcDbLine
 10
-0.0000000000000624
 20
-2.8799999999999994
 30
0.0
 11
-0.0000000000000624
 21
2.8799999999999994
 31
0.0
  0
LINE
  5
EA
100
AcDbEntity
  8
0
390
0
  6
CONTINUOUS
 62
               7
100
AcDbLine
 10
1.5198684153574491
 20
0.4999999999999996
 30
0.0
 11
-1.5198684153574518
 21
0.4999999999999996
 31
0.0
  0
LINE
  5
EB
100
AcDbEntity
  8
0
390
0
  6
CONTINUOUS
 62
               7
100
AcDbLine
 10
1.5198684153574491
 20
-0.5
 30
0.0
 11
-1.5198684153570672
 21
-0.5
 31
0.0
  0
ENDBLK
  5
EC
100
AcDbEntity
  8
0
370
              -2
390
0
100
AcDbBlockEnd
  0
BLOCK
  5
ED
100
AcDbEntity
  8
0
370
              -2
390
0
100
AcDbBlockBegin
  2
KSHJ4X3C-TV
 70
               0
 10
0.0
 20
0.0
 30
0.0
  3
KSHJ4X3C-TV
  1

  0
LINE
  5
EE
100
AcDbEntity
  8
0
390
0
  6
CONTINUOUS
 62
               7
100
AcDbLine
 10
9.4999999900000009
 20
-0.0000002299999982
 30
0.0
 11
9.4999999900000009
 21
2.7499990800000016
 31
0.0
  0
LINE
  5
EF
100
AcDbEntity
  8
0
390
0
  6
CONTINUOUS
 62
               7
100
AcDbLine
 10
7.4999999899999992
 20
-0.0000002299999981
 30
0.0
 11
7.4999999899999992
 21
2.7499990800000016
 31
0.0
  0
LINE
  5
F0
100
AcDbEntity
  8
0
390
0
  6
CONTINUOUS
 62
               7
100
AcDbLine
 10
9.4999999900000009
 20
2.7499990800000016
 30
0.0
 11
7.4999999899999992
 21
2.7499990800000016
 31
0.0
  0
LINE
  5
F1
100
AcDbEntity
  8
0
390
0
  6
CONTINUOUS
 62
               7
100
AcDbLine
 10
9.4999999900000009
 20
-2.7500000000000004
 30
0.0
 11
9.4999999900000009
 21
-0.0000002299999982
 31
0.0
  0
LINE
  5
F2
100
AcDbEntity
  8
0
390
0
  6
CONTINUOUS
 62
               7
100
AcDbLine
 10
7.4999999899999992
 20
-2.7500000000000004
 30
0.0
 11
7.4999999899999992
 21
-0.0000002299999981
 31
0.0
  0
LINE
  5
F3
100
AcDbEntity
  8
0
390
0
  6
CONTINUOUS
 62
               7
100
AcDbLine
 10
9.4999999900000009
 20
-2.7500000000000004
 30
0.0
 11
7.4999999899999992
 21
-2.7500000000000004
 31
0.0
  0
LINE
  5
F4
100
AcDbEntity
  8
0
390
0
  6
CONTINUOUS
 62
               7
100
AcDbLine
 10
9.4999999900000009
 20
-0.0000002299999982
 30
0.0
 11
7.4999999899999992
 21
-0.0000002299999981
 31
0.0
  0
LINE
  5
F5
100
AcDbEntity
  8
0
390
0
  6
CONTINUOUS
 62
               7
100
AcDbLine
 10
7.4999999900000009
 20
-0.0000002299999982
 30
0.0
 11
7.4999999900000009
 21
2.7499990800000016
 31
0.0
  0
LINE
  5
F6
100
AcDbEntity
  8
0
390
0
  6
CONTINUOUS
 62
               7
100
AcDbLine
 10
5.4999999899999992
 20
-0.0000002299999981
 30
0.0
 11
5.4999999899999992
 21
2.7499990800000016
 31
0.0
  0
LINE
  5
F7
100
AcDbEntity
  8
0
390
0
  6
CONTINUOUS
 62
               7
100
AcDbLine
 10
7.4999999900000009
 20
2.7499990800000016
 30
0.0
 11
5.4999999899999992
 21
2.7499990800000016
 31
0.0
  0
LINE
  5
F8
100
AcDbEntity
  8
0
390
0
  6
CONTINUOUS
 62
               7
100
AcDbLine
 10
7.4999999900000009
 20
-2.7500000000000004
 30
0.0
 11
7.4999999900000009
 21
-0.0000002299999982
 31
0.0
  0
LINE
  5
F9
100
AcDbEntity
  8
0
390
0
  6
CONTINUOUS
 62
               7
100
AcDbLine
 10
5.4999999899999992
 20
-2.7500000000000004
 30
0.0
 11
5.4999999899999992
 21
-0.0000002299999981
 31
0.0
  0
LINE
  5
FA
100
AcDbEntity
  8
0
390
0
  6
CONTINUOUS
 62
               7
100
AcDbLine
 10
7.4999999900000009
 20
-2.7500000000000004
 30
0.0
 11
5.4999999899999992
 21
-2.7500000000000004
 31
0.0
  0
LINE
  5
FB
100
AcDbEntity
  8
0
390
0
  6
CONTINUOUS
 62
               7
100
AcDbLine
 10
7.4999999900000009
 20
-0.0000002299999982
 30
0.0
 11
5.4999999899999992
 21
-0.0000002299999981
 31
0.0
  0
ARC
  5
FC
100
AcDbEntity
  8
0
390
0
  6
CONTINUOUS
 62
               7
100
AcDbCircle
 10
-4.8999999999999986
 20
0.0000000000000003
 30
0.0
 40
1.6000000000000001
100
AcDbArc
 50
90.0
 51
270.0
  0
LINE
  5
FD
100
AcDbEntity
  8
0
390
0
  6
CONTINUOUS
 62
               2
100
AcDbLine
 10
-4.2000000000000002
 20
0.0
 30
0.0
 11
1.2000000000000002
 21
0.0
 31
0.0
  0
LINE
  5
FE
100
AcDbEntity
  8
0
390
0
  6
CONTINUOUS
 62
               2
100
AcDbLine
 10
-5.6599999999999984
 20
0.0
 30
0.0
 11
-2.2400000000000007
 21
0.0
 31
0.0
  0
LINE
  5
FF
100
AcDbEntity
  8
0
390
0
  6
CONTINUOUS
 62
               7
100
AcDbLine
 10
0.0
 20
0.6000000000000014
 30
0.0
 11
-3.0
 21
0.6000000000000016
 31
0.0
  0
LINE
  5
100
100
AcDbEntity
  8
0
390
0
  6
CONTINUOUS
 62
               7
100
AcDbLine
 10
-3.0
 20
-0.6000000000000012
 30
0.0
 11
0.0
 21
-0.6000000000000014
 31
0.0
  0
LINE
  5
101
100
AcDbEntity
  8
0
390
0
  6
CONTINUOUS
 62
               7
100
AcDbLine
 10
-3.0
 20
-0.0000000000000001
 30
0.0
 11
-3.0
 21
1.6000000000000016
 31
0.0
  0
LINE
  5
102
100
AcDbEntity
  8
0
390
0
  6
CONTINUOUS
 62
               7
100
AcDbLine
 10
-3.0
 20
1.6000000000000016
 30
0.0
 11
-4.8999999999999986
 21
1.6000000000000016
 31
0.0
  0
LINE
  5
103
100
AcDbEntity
  8
0
390
0
  6
CONTINUOUS
 62
               7
100
AcDbLine
 10
-4.8999999999999986
 20
-1.6000000000000012
 30
0.0
 11
-3.0
 21
-1.6000000000000012
 31
0.0
  0
LINE
  5
104
100
AcDbEntity
  8
0
390
0
  6
CONTINUOUS
 62
               7
100
AcDbLine
 10
-3.0
 20
-1.6000000000000012
 30
0.0
 11
-3.0
 21
-0.0000000000000001
 31
0.0
  0
LINE
  5
105
100
AcDbEntity
  8
0
390
0
  6
CONTINUOUS
 62
               2
100
AcDbLine
 10
5.4999999900000001
 20
1.7289999999999992
 30
0.0
 11
0.8500000000000015
 21
1.7289999999999996
 31
0.0
  0
LINE
  5
106
100
AcDbEntity
  8
0
390
0
  6
CONTINUOUS
 62
               2
100
AcDbLine
 10
18.600000000000001
 20
1.7289999999999983
 30
0.0
 11
9.4999999900000009
 21
1.7289999999999992
 31
0.0
  0
LINE
  5
107
100
AcDbEntity
  8
0
390
0
  6
CONTINUOUS
 62
               2
100
AcDbLine
 10
9.4999999900000009
 20
-1.7290000000000001
 30
0.0
 11
18.600000000000001
 21
-1.729000000000001
 31
0.0
  0
LINE
  5
108
100
AcDbEntity
  8
0
390
0
  6
CONTINUOUS
 62
               2
100
AcDbLine
 10
0.8500000000000013
 20
-1.7289999999999996
 30
0.0
 11
5.4999999900000001
 21
-1.7290000000000001
 31
0.0
  0
LINE
  5
109
100
AcDbEntity
  8
0
390
0
  6
CONTINUOUS
 62
               2
100
AcDbLine
 10
-6.2499999999999991
 20
0.0
 30
0.0
 11
25.700000000000003
 21
0.0
 31
0.0
  0
LINE
  5
10A
100
AcDbEntity
  8
0
390
0
  6
CONTINUOUS
 62
               2
100
AcDbLine
 10
-0.2000000000000002
 20
0.0
 30
0.0
 11
0.7000000000000002
 21
0.0
 31
0.0
  0
LINE
  5
10B
100
AcDbEntity
  8
0
390
0
  6
CONTINUOUS
 62
               2
100
AcDbLine
 10
18.240000000000013
 20
-0.0000000000000624
 30
0.0
 11
21.660000000000036
 21
-0.0000000000000624
 31
0.0
  0
LINE
  5
10C
100
AcDbEntity
  8
0
390
0
  6
CONTINUOUS
 62
               7
100
AcDbLine
 10
20.900000000000002
 20
1.5198684153574491
 30
0.0
 11
22.0
 21
1.5198684153574491
 31
0.0
  0
LINE
  5
10D
100
AcDbEntity
  8
0
390
0
  6
CONTINUOUS
 62
               7
100
AcDbLine
 10
20.900000000000031
 20
-1.5198684153571049
 30
0.0
 11
20.900000000000031
 21
-1.600000000000001
 31
0.0
  0
LINE
  5
10E
100
AcDbEntity
  8
0
390
0
  6
CONTINUOUS
 62
               7
100
AcDbLine
 10
22.0
 20
-1.5198684153574518
 30
0.0
 11
20.900000000000002
 21
-1.5198684153574518
 31
0.0
  0
LINE
  5
10F
100
AcDbEntity
  8
0
390
0
  6
CONTINUOUS
 62
               7
100
AcDbLine
 10
22.000000000000021
 20
1.5198684153571023
 30
0.0
 11
22.000000000000021
 21
-1.5198684153571049
 31
0.0
  0
LINE
  5
110
100
AcDbEntity
  8
0
390
0
  6
CONTINUOUS
 62
               7
100
AcDbLine
 10
20.900000000000031
 20
1.5999999999999983
 30
0.0
 11
19.000000000000018
 21
1.5999999999999985
 31
0.0
  0
LINE
  5
111
100
AcDbEntity
  8
0
390
0
  6
CONTINUOUS
 62
               7
100
AcDbLine
 10
19.000000000000018
 20
-1.6000000000000008
 30
0.0
 11
20.900000000000031
 21
-1.600000000000001
 31
0.0
  0
LINE
  5
112
100
AcDbEntity
  8
0
390
0
  6
CONTINUOUS
 62
               7
100
AcDbLine
 10
20.900000000000031
 20
1.5999999999999983
 30
0.0
 11
20.900000000000031
 21
1.5198684153571023
 31
0.0
  0
LINE
  5
113
100
AcDbEntity
  8
0
390
0
  6
CONTINUOUS
 62
               7
100
AcDbLine
 10
0.0
 20
-0.0000000000000003
 30
0.0
 11
0.0000000000000001
 21
1.6499999999999999
 31
0.0
  0
LINE
  5
114
100
AcDbEntity
  8
0
390
0
  6
CONTINUOUS
 62
               7
100
AcDbLine
 10
0.5000000000000001
 20
1.6499999999999999
 30
0.0
 11
0.0000000000000001
 21
1.6499999999999999
 31
0.0
  0
LINE
  5
115
100
AcDbEntity
  8
0
390
0
  6
CONTINUOUS
 62
               7
100
AcDbLine
 10
-0.0000000000000001
 20
-1.6499999999999999
 30
0.0
 11
0.4999999999999999
 21
-1.6499999999999999
 31
0.0
  0
LINE
  5
116
100
AcDbEntity
  8
0
390
0
  6
CONTINUOUS
 62
               7
100
AcDbLine
 10
-0.0000000000000001
 20
-1.6499999999999999
 30
0.0
 11
0.0
 21
-0.0000000000000003
 31
0.0
  0
LINE
  5
117
100
AcDbEntity
  8
0
390
0
  6
CONTINUOUS
 62
               7
100
AcDbLine
 10
5.4999999900000001
 20
1.9999999999999991
 30
0.0
 11
0.8500000000000015
 21
1.9999999999999996
 31
0.0
  0
LINE
  5
118
100
AcDbEntity
  8
0
390
0
  6
CONTINUOUS
 62
               7
100
AcDbLine
 10
18.600000000000001
 20
1.9999999999999982
 30
0.0
 11
9.4999999900000009
 21
1.9999999999999991
 31
0.0
  0
LINE
  5
119
100
AcDbEntity
  8
0
390
0
  6
CONTINUOUS
 62
               7
100
AcDbLine
 10
9.4999999900000009
 20
-2.0
 30
0.0
 11
18.600000000000001
 21
-2.0000000000000009
 31
0.0
  0
LINE
  5
11A
100
AcDbEntity
  8
0
390
0
  6
CONTINUOUS
 62
               7
100
AcDbLine
 10
0.8500000000000013
 20
-1.9999999999999996
 30
0.0
 11
5.4999999900000001
 21
-2.0
 31
0.0
  0
LINE
  5
11B
100
AcDbEntity
  8
0
390
0
  6
CONTINUOUS
 62
               7
100
AcDbLine
 10
18.600000000000001
 20
-0.0000000000000015
 30
0.0
 11
18.600000000000001
 21
1.9999999999999984
 31
0.0
  0
LINE
  5
11C
100
AcDbEntity
  8
0
390
0
  6
CONTINUOUS
 62
               7
100
AcDbLine
 10
19.000000000000018
 20
1.5999999999999812
 30
0.0
 11
18.600000000000001
 21
1.9999999999999982
 31
0.0
  0
LINE
  5
11D
100
AcDbEntity
  8
0
390
0
  6
CONTINUOUS
 62
               7
100
AcDbLine
 10
18.600000000000001
 20
-2.0000000000000009
 30
0.0
 11
19.000000000000018
 21
-1.5999999999999834
 31
0.0
  0
LINE
  5
11E
100
AcDbEntity
  8
0
390
0
  6
CONTINUOUS
 62
               7
100
AcDbLine
 10
18.600000000000001
 20
-2.0000000000000009
 30
0.0
 11
18.600000000000001
 21
-0.0000000000000015
 31
0.0
  0
LINE
  5
11F
100
AcDbEntity
  8
0
390
0
  6
CONTINUOUS
 62
               7
100
AcDbLine
 10
19.000000000000018
 20
1.5999999999999985
 30
0.0
 11
19.000000000000018
 21
-1.6000000000000008
 31
0.0
  0
LINE
  5
120
100
AcDbEntity
  8
0
390
0
  6
CONTINUOUS
 62
               7
100
AcDbLine
 10
0.8500000000000014
 20
-0.0000000000000004
 30
0.0
 11
0.8500000000000015
 21
1.9999999999999996
 31
0.0
  0
LINE
  5
121
100
AcDbEntity
  8
0
390
0
  6
CONTINUOUS
 62
               7
100
AcDbLine
 10
0.5
 20
-0.0000000000000003
 30
0.0
 11
0.5000000000000001
 21
1.6499999999999999
 31
0.0
  0
LINE
  5
122
100
AcDbEntity
  8
0
390
0
  6
CONTINUOUS
 62
               7
100
AcDbLine
 10
0.4999999999999999
 20
-1.6499999999999999
 30
0.0
 11
0.8500000000000013
 21
-1.9999999999999996
 31
0.0
  0
LINE
  5
123
100
AcDbEntity
  8
0
390
0
  6
CONTINUOUS
 62
               7
100
AcDbLine
 10
0.8500000000000015
 20
1.9999999999999996
 30
0.0
 11
0.5000000000000001
 21
1.6499999999999999
 31
0.0
  0
LINE
  5
124
100
AcDbEntity
  8
0
390
0
  6
CONTINUOUS
 62
               7
100
AcDbLine
 10
0.8500000000000013
 20
-1.9999999999999996
 30
0.0
 11
0.8500000000000014
 21
-0.0000000000000004
 31
0.0
  0
LINE
  5
125
100
AcDbEntity
  8
0
390
0
  6
CONTINUOUS
 62
               7
100
AcDbLine
 10
0.4999999999999999
 20
-1.6499999999999999
 30
0.0
 11
0.5
 21
-0.0000000000000003
 31
0.0
  0
LINE
  5
126
100
AcDbEntity
  8
0
390
0
  6
CONTINUOUS
 62
               7
100
AcDbLine
 10
9.4999999900000009
 20
-0.0000002299999982
 30
0.0
 11
9.4999999900000009
 21
2.7499990800000016
 31
0.0
  0
LINE
  5
127
100
AcDbEntity
  8
0
390
0
  6
CONTINUOUS
 62
               7
100
AcDbLine
 10
7.4999999899999992
 20
-0.0000002299999981
 30
0.0
 11
7.4999999899999992
 21
2.7499990800000016
 31
0.0
  0
LINE
  5
128
100
AcDbEntity
  8
0
390
0
  6
CONTINUOUS
 62
               7
100
AcDbLine
 10
9.4999999900000009
 20
2.7499990800000016
 30
0.0
 11
7.4999999899999992
 21
2.7499990800000016
 31
0.0
  0
LINE
  5
129
100
AcDbEntity
  8
0
390
0
  6
CONTINUOUS
 62
               7
100
AcDbLine
 10
9.4999999900000009
 20
-2.7500000000000004
 30
0.0
 11
9.4999999900000009
 21
-0.0000002299999982
 31
0.0
  0
LINE
  5
12A
100
AcDbEntity
  8
0
390
0
  6
CONTINUOUS
 62
               7
100
AcDbLine
 10
7.4999999899999992
 20
-2.7500000000000004
 30
0.0
 11
7.4999999899999992
 21
-0.0000002299999981
 31
0.0
  0
LINE
  5
12B
100
AcDbEntity
  8
0
390
0
  6
CONTINUOUS
 62
               7
100
AcDbLine
 10
9.4999999900000009
 20
-2.7500000000000004
 30
0.0
 11
7.4999999899999992
 21
-2.7500000000000004
 31
0.0
  0
LINE
  5
12C
100
AcDbEntity
  8
0
390
0
  6
CONTINUOUS
 62
               7
100
AcDbLine
 10
9.4999999900000009
 20
-0.0000002299999982
 30
0.0
 11
7.4999999899999992
 21
-0.0000002299999981
 31
0.0
  0
LINE
  5
12D
100
AcDbEntity
  8
0
390
0
  6
CONTINUOUS
 62
               7
100
AcDbLine
 10
7.4999999900000009
 20
-0.0000002299999982
 30
0.0
 11
7.4999999900000009
 21
2.7499990800000016
 31
0.0
  0
LINE
  5
12E
100
AcDbEntity
  8
0
390
0
  6
CONTINUOUS
 62
               7
100
AcDbLine
 10
5.4999999899999992
 20
-0.0000002299999981
 30
0.0
 11
5.4999999899999992
 21
2.7499990800000016
 31
0.0
  0
LINE
  5
12F
100
AcDbEntity
  8
0
390
0
  6
CONTINUOUS
 62
               7
100
AcDbLine
 10
7.4999999900000009
 20
2.7499990800000016
 30
0.0
 11
5.4999999899999992
 21
2.7499990800000016
 31
0.0
  0
LINE
  5
130
100
AcDbEntity
  8
0
390
0
  6
CONTINUOUS
 62
               7
100
AcDbLine
 10
7.4999999900000009
 20
-2.7500000000000004
 30
0.0
 11
7.4999999900000009
 21
-0.0000002299999982
 31
0.0
  0
LINE
  5
131
100
AcDbEntity
  8
0
390
0
  6
CONTINUOUS
 62
               7
100
AcDbLine
 10
5.4999999899999992
 20
-2.7500000000000004
 30
0.0
 11
5.4999999899999992
 21
-0.0000002299999981
 31
0.0
  0
LINE
  5
132
100
AcDbEntity
  8
0
390
0
  6
CONTINUOUS
 62
               7
100
AcDbLine
 10
7.4999999900000009
 20
-2.7500000000000004
 30
0.0
 11
5.4999999899999992
 21
-2.7500000000000004
 31
0.0
  0
LINE
  5
133
100
AcDbEntity
  8
0
390
0
  6
CONTINUOUS
 62
               7
100
AcDbLine
 10
7.4999999900000009
 20
-0.0000002299999982
 30
0.0
 11
5.4999999899999992
 21
-0.0000002299999981
 31
0.0
  0
ARC
  5
134
100
AcDbEntity
  8
0
390
0
  6
CONTINUOUS
 62
               7
100
AcDbCircle
 10
-4.8999999999999986
 20
0.0000000000000003
 30
0.0
 40
1.6000000000000001
100
AcDbArc
 50
90.0
 51
270.0
  0
LINE
  5
135
100
AcDbEntity
  8
0
390
0
  6
CONTINUOUS
 62
               2
100
AcDbLine
 10
-4.2000000000000002
 20
0.0
 30
0.0
 11
1.2000000000000002
 21
0.0
 31
0.0
  0
LINE
  5
136
100
AcDbEntity
  8
0
390
0
  6
CONTINUOUS
 62
               2
100
AcDbLine
 10
-5.6599999999999984
 20
0.0
 30
0.0
 11
-2.2400000000000007
 21
0.0
 31
0.0
  0
LINE
  5
137
100
AcDbEntity
  8
0
390
0
  6
CONTINUOUS
 62
               7
100
AcDbLine
 10
0.0
 20
0.6000000000000014
 30
0.0
 11
-3.0
 21
0.6000000000000016
 31
0.0
  0
LINE
  5
138
100
AcDbEntity
  8
0
390
0
  6
CONTINUOUS
 62
               7
100
AcDbLine
 10
-3.0
 20
-0.6000000000000012
 30
0.0
 11
0.0
 21
-0.6000000000000014
 31
0.0
  0
LINE
  5
139
100
AcDbEntity
  8
0
390
0
  6
CONTINUOUS
 62
               7
100
AcDbLine
 10
-3.0
 20
-0.0000000000000001
 30
0.0
 11
-3.0
 21
1.6000000000000016
 31
0.0
  0
LINE
  5
13A
100
AcDbEntity
  8
0
390
0
  6
CONTINUOUS
 62
               7
100
AcDbLine
 10
-3.0
 20
1.6000000000000016
 30
0.0
 11
-4.8999999999999986
 21
1.6000000000000016
 31
0.0
  0
LINE
  5
13B
100
AcDbEntity
  8
0
390
0
  6
CONTINUOUS
 62
               7
100
AcDbLine
 10
-4.8999999999999986
 20
-1.6000000000000012
 30
0.0
 11
-3.0
 21
-1.6000000000000012
 31
0.0
  0
LINE
  5
13C
100
AcDbEntity
  8
0
390
0
  6
CONTINUOUS
 62
               7
100
AcDbLine
 10
-3.0
 20
-1.6000000000000012
 30
0.0
 11
-3.0
 21
-0.0000000000000001
 31
0.0
  0
LINE
  5
13D
100
AcDbEntity
  8
0
390
0
  6
CONTINUOUS
 62
               2
100
AcDbLine
 10
5.4999999900000001
 20
1.7289999999999992
 30
0.0
 11
0.8500000000000015
 21
1.7289999999999996
 31
0.0
  0
LINE
  5
13E
100
AcDbEntity
  8
0
390
0
  6
CONTINUOUS
 62
               2
100
AcDbLine
 10
18.600000000000001
 20
1.7289999999999983
 30
0.0
 11
9.4999999900000009
 21
1.7289999999999992
 31
0.0
  0
LINE
  5
13F
100
AcDbEntity
  8
0
390
0
  6
CONTINUOUS
 62
               2
100
AcDbLine
 10
9.4999999900000009
 20
-1.7290000000000001
 30
0.0
 11
18.600000000000001
 21
-1.729000000000001
 31
0.0
  0
LINE
  5
140
100
AcDbEntity
  8
0
390
0
  6
CONTINUOUS
 62
               2
100
AcDbLine
 10
0.8500000000000013
 20
-1.7289999999999996
 30
0.0
 11
5.4999999900000001
 21
-1.7290000000000001
 31
0.0
  0
LINE
  5
141
100
AcDbEntity
  8
0
390
0
  6
CONTINUOUS
 62
               2
100
AcDbLine
 10
-6.2499999999999991
 20
0.0
 30
0.0
 11
25.700000000000003
 21
0.0
 31
0.0
  0
LINE
  5
142
100
AcDbEntity
  8
0
390
0
  6
CONTINUOUS
 62
               2
100
AcDbLine
 10
-0.2000000000000002
 20
0.0
 30
0.0
 11
0.7000000000000002
 21
0.0
 31
0.0
  0
LINE
  5
143
100
AcDbEntity
  8
0
390
0
  6
CONTINUOUS
 62
               2
100
AcDbLine
 10
18.240000000000013
 20
-0.0000000000000624
 30
0.0
 11
21.660000000000036
 21
-0.0000000000000624
 31
0.0
  0
LINE
  5
144
100
AcDbEntity
  8
0
390
0
  6
CONTINUOUS
 62
               7
100
AcDbLine
 10
20.900000000000002
 20
1.5198684153574491
 30
0.0
 11
22.0
 21
1.5198684153574491
 31
0.0
  0
LINE
  5
145
100
AcDbEntity
  8
0
390
0
  6
CONTINUOUS
 62
               7
100
AcDbLine
 10
20.900000000000031
 20
-1.5198684153571049
 30
0.0
 11
20.900000000000031
 21
-1.600000000000001
 31
0.0
  0
LINE
  5
146
100
AcDbEntity
  8
0
390
0
  6
CONTINUOUS
 62
               7
100
AcDbLine
 10
22.0
 20
-1.5198684153574518
 30
0.0
 11
20.900000000000002
 21
-1.5198684153574518
 31
0.0
  0
LINE
  5
147
100
AcDbEntity
  8
0
390
0
  6
CONTINUOUS
 62
               7
100
AcDbLine
 10
22.000000000000021
 20
1.5198684153571023
 30
0.0
 11
22.000000000000021
 21
-1.5198684153571049
 31
0.0
  0
LINE
  5
148
100
AcDbEntity
  8
0
390
0
  6
CONTINUOUS
 62
               7
100
AcDbLine
 10
20.900000000000031
 20
1.5999999999999983
 30
0.0
 11
19.000000000000018
 21
1.5999999999999985
 31
0.0
  0
LINE
  5
149
100
AcDbEntity
  8
0
390
0
  6
CONTINUOUS
 62
               7
100
AcDbLine
 10
19.000000000000018
 20
-1.6000000000000008
 30
0.0
 11
20.900000000000031
 21
-1.600000000000001
 31
0.0
  0
LINE
  5
14A
100
AcDbEntity
  8
0
390
0
  6
CONTINUOUS
 62
               7
100
AcDbLine
 10
20.900000000000031
 20
1.5999999999999983
 30
0.0
 11
20.900000000000031
 21
1.5198684153571023
 31
0.0
  0
LINE
  5
14B
100
AcDbEntity
  8
0
390
0
  6
CONTINUOUS
 62
               7
100
AcDbLine
 10
0.0
 20
-0.0000000000000003
 30
0.0
 11
0.0000000000000001
 21
1.6499999999999999
 31
0.0
  0
LINE
  5
14C
100
AcDbEntity
  8
0
390
0
  6
CONTINUOUS
 62
               7
100
AcDbLine
 10
0.5000000000000001
 20
1.6499999999999999
 30
0.0
 11
0.0000000000000001
 21
1.6499999999999999
 31
0.0
  0
LINE
  5
14D
100
AcDbEntity
  8
0
390
0
  6
CONTINUOUS
 62
               7
100
AcDbLine
 10
-0.0000000000000001
 20
-1.6499999999999999
 30
0.0
 11
0.4999999999999999
 21
-1.6499999999999999
 31
0.0
  0
LINE
  5
14E
100
AcDbEntity
  8
0
390
0
  6
CONTINUOUS
 62
               7
100
AcDbLine
 10
-0.0000000000000001
 20
-1.6499999999999999
 30
0.0
 11
0.0
 21
-0.0000000000000003
 31
0.0
  0
LINE
  5
14F
100
AcDbEntity
  8
0
390
0
  6
CONTINUOUS
 62
               7
100
AcDbLine
 10
5.4999999900000001
 20
1.9999999999999991
 30
0.0
 11
0.8500000000000015
 21
1.9999999999999996
 31
0.0
  0
LINE
  5
150
100
AcDbEntity
  8
0
390
0
  6
CONTINUOUS
 62
               7
100
AcDbLine
 10
18.600000000000001
 20
1.9999999999999982
 30
0.0
 11
9.4999999900000009
 21
1.9999999999999991
 31
0.0
  0
LINE
  5
151
100
AcDbEntity
  8
0
390
0
  6
CONTINUOUS
 62
               7
100
AcDbLine
 10
9.4999999900000009
 20
-2.0
 30
0.0
 11
18.600000000000001
 21
-2.0000000000000009
 31
0.0
  0
LINE
  5
152
100
AcDbEntity
  8
0
390
0
  6
CONTINUOUS
 62
               7
100
AcDbLine
 10
0.8500000000000013
 20
-1.9999999999999996
 30
0.0
 11
5.4999999900000001
 21
-2.0
 31
0.0
  0
LINE
  5
153
100
AcDbEntity
  8
0
390
0
  6
CONTINUOUS
 62
               7
100
AcDbLine
 10
18.600000000000001
 20
-0.0000000000000015
 30
0.0
 11
18.600000000000001
 21
1.9999999999999984
 31
0.0
  0
LINE
  5
154
100
AcDbEntity
  8
0
390
0
  6
CONTINUOUS
 62
               7
100
AcDbLine
 10
19.000000000000018
 20
1.5999999999999812
 30
0.0
 11
18.600000000000001
 21
1.9999999999999982
 31
0.0
  0
LINE
  5
155
100
AcDbEntity
  8
0
390
0
  6
CONTINUOUS
 62
               7
100
AcDbLine
 10
18.600000000000001
 20
-2.0000000000000009
 30
0.0
 11
19.000000000000018
 21
-1.5999999999999834
 31
0.0
  0
LINE
  5
156
100
AcDbEntity
  8
0
390
0
  6
CONTINUOUS
 62
               7
100
AcDbLine
 10
18.600000000000001
 20
-2.0000000000000009
 30
0.0
 11
18.600000000000001
 21
-0.0000000000000015
 31
0.0
  0
LINE
  5
157
100
AcDbEntity
  8
0
390
0
  6
CONTINUOUS
 62
               7
100
AcDbLine
 10
19.000000000000018
 20
1.5999999999999985
 30
0.0
 11
19.000000000000018
 21
-1.6000000000000008
 31
0.0
  0
LINE
  5
158
100
AcDbEntity
  8
0
390
0
  6
CONTINUOUS
 62
               7
100
AcDbLine
 10
0.8500000000000014
 20
-0.0000000000000004
 30
0.0
 11
0.8500000000000015
 21
1.9999999999999996
 31
0.0
  0
LINE
  5
159
100
AcDbEntity
  8
0
390
0
  6
CONTINUOUS
 62
               7
100
AcDbLine
 10
0.5
 20
-0.0000000000000003
 30
0.0
 11
0.5000000000000001
 21
1.6499999999999999
 31
0.0
  0
LINE
  5
15A
100
AcDbEntity
  8
0
390
0
  6
CONTINUOUS
 62
               7
100
AcDbLine
 10
0.4999999999999999
 20
-1.6499999999999999
 30
0.0
 11
0.8500000000000013
 21
-1.9999999999999996
 31
0.0
  0
LINE
  5
15B
100
AcDbEntity
  8
0
390
0
  6
CONTINUOUS
 62
               7
100
AcDbLine
 10
0.8500000000000015
 20
1.9999999999999996
 30
0.0
 11
0.5000000000000001
 21
1.6499999999999999
 31
0.0
  0
LINE
  5
15C
100
AcDbEntity
  8
0
390
0
  6
CONTINUOUS
 62
               7
100
AcDbLine
 10
0.8500000000000013
 20
-1.9999999999999996
 30
0.0
 11
0.8500000000000014
 21
-0.0000000000000004
 31
0.0
  0
LINE
  5
15D
100
AcDbEntity
  8
0
390
0
  6
CONTINUOUS
 62
               7
100
AcDbLine
 10
0.4999999999999999
 20
-1.6499999999999999
 30
0.0
 11
0.5
 21
-0.0000000000000003
 31
0.0
  0
ENDBLK
  5
15E
100
AcDbEntity
  8
0
370
              -2
390
0
100
AcDbBlockEnd
  0
BLOCK
  5
2A
100
AcDbEntity
  8
0
370
              -2
390
0
  6
ByBlock
 62
               0
100
AcDbBlockBegin
  2
_OPEN30
 70
               2
 10
0.0
 20
0.0
 30
0.0
  3
_OPEN30
  1

  0
LINE
  5
2B
100
AcDbEntity
  8
0
370
              -2
390
0
  6
ByBlock
 62
               0
100
AcDbLine
 10
-1.0
 20
0.267949
 30
0.0
 11
0.0
 21
0.0
 31
0.0
  0
LINE
  5
2C
100
AcDbEntity
  8
0
370
              -2
390
0
  6
ByBlock
 62
               0
100
AcDbLine
 10
0.0
 20
0.0
 30
0.0
 11
-1.0
 21
-0.267949
 31
0.0
  0
LINE
  5
2D
100
AcDbEntity
  8
0
370
              -2
390
0
  6
ByBlock
 62
               0
100
AcDbLine
 10
0.0
 20
0.0
 30
0.0
 11
-1.0
 21
0.0
 31
0.0
  0
ENDBLK
  5
2E
100
AcDbEntity
  8
0
370
              -2
390
0
  6
ByBlock
 62
               0
100
AcDbBlockEnd
  0
ENDSEC
  0
SECTION
  2
ENTITIES
  0
INSERT
  5
15F
100
AcDbEntity
  8
LY_1
390
0
  6
ByBlock
100
AcDbBlockReference
  2
KSHJ4X3C-TV
 10
0.0
 20
7.5131394549999992
 30
0.0
  0
INSERT
  5
160
100
AcDbEntity
  8
LY_1
390
0
  6
ByBlock
100
AcDbBlockReference
  2
KSHJ4X3C-RV
 10
31.875000000000028
 20
0.0
 30
0.0
  0
INSERT
  5
161
100
AcDbEntity
  8
LY_1
390
0
  6
ByBlock
100
AcDbBlockReference
  2
KSHJ4X3C-LV
 10
-16.375000000000007
 20
0.0
 30
0.0
  0
INSERT
  5
162
100
AcDbEntity
  8
LY_1
390
0
  6
ByBlock
100
AcDbBlockReference
  2
KSHJ4X3C-FV
 10
0.0
 20
0.0
 30
0.0
  0
ENDSEC
  0
SECTION
  2
OBJECTS
  0
DICTIONARY
  5
19
100
AcDbDictionary
280
               0
281
               1
  3
ACAD_GROUP
350
1A
  3
ACAD_MLINESTYLE
350
1B
  3
ACAD_LAYOUT
350
1E
  3
ACAD_PLOTSETTINGS
350
22
  3
ACAD_PLOTSTYLENAME
350
1F
  0
DICTIONARY
  5
1A
102
{ACAD_REACTORS
330
19
102
}
100
AcDbDictionary
280
               0
281
               1
  0
DICTIONARY
  5
1B
102
{ACAD_REACTORS
330
19
102
}
100
AcDbDictionary
280
               0
281
               1
  3
Standard
350
1C
  0
MLINESTYLE
  5
1C
102
{ACAD_REACTORS
330
1B
102
}
100
AcDbMlineStyle
  2
Standard
 70
               0
  3

 62
               0
 51
90.0
 52
90.0
 71
               2
 49
0.5
 62
             256
  6
ByLayer
 49
-0.5
 62
             256
  6
ByLayer
  0
ACDBDICTIONARYWDFLT
  5
1F
102
{ACAD_REACTORS
330
19
102
}
100
AcDbDictionary
281
               1
  3
Normal
350
1D
100
AcDbDictionaryWithDefault
340
1D
  0
ACDBPLACEHOLDER
  5
1D
102
{ACAD_REACTORS
330
1F
102
}
  0
LAYOUT
  5
20
102
{ACAD_REACTORS
330
1E
102
}
100
AcDbPlotSettings
  1

  2

  4

  6

 40
0.0
 41
0.0
 42
0.0
 43
0.0
 44
0.0
 45
0.0
 46
0.0
 47
0.0
 48
0.0
 49
0.0
140
0.0
141
0.0
142
1.0
143
1.0
 70
            1024
 72
               0
 73
               0
 74
               0
  7

 75
               0
147
1.0
148
0.0
149
0.0
100
AcDbLayout
  1
Model
 70
               0
 71
               0
 10
0.0
 20
0.0
 11
0.0
 21
0.0
 12
0.0
 22
0.0
 32
0.0
 14
0.0
 24
0.0
 34
0.0
 15
0.0
 25
0.0
 35
0.0
146
0.0
 13
0.0
 23
0.0
 33
0.0
 16
0.0
 26
0.0
 36
0.0
 17
0.0
 27
0.0
 37
0.0
 76
               0
330
A
331
0
345
0
346
0
  0
LAYOUT
  5
21
102
{ACAD_REACTORS
330
1E
102
}
100
AcDbPlotSettings
  1

  2

  4

  6

 40
0.0
 41
0.0
 42
0.0
 43
0.0
 44
0.0
 45
0.0
 46
0.0
 47
0.0
 48
0.0
 49
0.0
140
0.0
141
0.0
142
1.0
143
1.0
 70
               0
 72
               0
 73
               0
 74
               0
  7

 75
               0
147
1.0
148
0.0
149
0.0
100
AcDbLayout
  1
Layout1
 70
               0
 71
               0
 10
0.0
 20
0.0
 11
0.0
 21
0.0
 12
0.0
 22
0.0
 32
0.0
 14
0.0
 24
0.0
 34
0.0
 15
0.0
 25
0.0
 35
0.0
146
0.0
 13
0.0
 23
0.0
 33
0.0
 16
0.0
 26
0.0
 36
0.0
 17
0.0
 27
0.0
 37
0.0
 76
               0
330
B
331
0
345
0
346
0
  0
DICTIONARY
  5
1E
102
{ACAD_REACTORS
330
19
102
}
100
AcDbDictionary
280
               0
281
               1
  3
Layout1
350
21
  3
Model
350
20
  0
DICTIONARY
  5
22
102
{ACAD_REACTORS
330
19
102
}
100
AcDbDictionary
280
               0
281
               1
  0
ENDSEC
  0
EOF
