  0
SECTION
  2
HEADER
  9
$ACADVER
  1
AC1012
  9
$DWGCODEPAGE
  3
dos932
  9
$INSBASE
 10
0.0
 20
0.0
 30
0.0
  9
$EXTMIN
 10
-399.25
 20
-276.75
 30
0.0
  9
$EXTMAX
 10
406.04981708526611
 20
276.25
 30
0.0
  9
$LIMMIN
 10
-399.25
 20
-276.75
  9
$LIMMAX
 10
406.04981708526611
 20
276.25
  9
$ORTHOMODE
 70
               0
  9
$REGENMODE
 70
               1
  9
$FILLMODE
 70
               1
  9
$QTEXTMODE
 70
               0
  9
$MIRRTEXT
 70
               1
  9
$DRAGMODE
 70
               2
  9
$LTSCALE
 40
1.0
  9
$OSMODE
 70
               0
  9
$ATTMODE
 70
               1
  9
$TEXTSIZE
 40
3.2000000476837158
  9
$TRACEWID
 40
0.05
  9
$TEXTSTYLE
  7
MX_NOTE_STANDARD
  9
$CLAYER
  8
0
  9
$CELTYPE
  6
CONTINUOUS
  9
$CECOLOR
 62
             256
  9
$CELTSCALE
 40
1.0
  9
$DELOBJ
 70
               1
  9
$DISPSILH
 70
               0
  9
$DIMSCALE
 40
1.0
  9
$DIMASZ
 40
2.5
  9
$DIMEXO
 40
1.5
  9
$DIMDLI
 40
3.75
  9
$DIMRND
 40
0.0
  9
$DIMDLE
 40
0.0
  9
$DIMEXE
 40
1.5
  9
$DIMTP
 40
0.0
  9
$DIMTM
 40
0.0
  9
$DIMTXT
 40
3.2000000476837158
  9
$DIMCEN
 40
2.5
  9
$DIMTSZ
 40
0.0
  9
$DIMTOL
 70
               0
  9
$DIMLIM
 70
               0
  9
$DIMTIH
 70
               0
  9
$DIMTOH
 70
               0
  9
$DIMSE1
 70
               0
  9
$DIMSE2
 70
               0
  9
$DIMTAD
 70
               1
  9
$DIMZIN
 70
               8
  9
$DIMBLK
  1

  9
$DIMASO
 70
               1
  9
$DIMSHO
 70
               1
  9
$DIMPOST
  1

  9
$DIMAPOST
  1

  9
$DIMALT
 70
               0
  9
$DIMALTD
 70
               4
  9
$DIMALTF
 40
0.0394
  9
$DIMLFAC
 40
1.0
  9
$DIMTOFL
 70
               1
  9
$DIMTVP
 40
0.0
  9
$DIMTIX
 70
               0
  9
$DIMSOXD
 70
               0
  9
$DIMSAH
 70
               0
  9
$DIMBLK1
  1

  9
$DIMBLK2
  1

  9
$DIMSTYLE
  2
MXDIMSTYLE
  9
$DIMCLRD
 70
               0
  9
$DIMCLRE
 70
               0
  9
$DIMCLRT
 70
               0
  9
$DIMTFAC
 40
1.0
  9
$DIMGAP
 40
1.0
  9
$DIMJUST
 70
               0
  9
$DIMSD1
 70
               0
  9
$DIMSD2
 70
               0
  9
$DIMTOLJ
 70
               1
  9
$DIMTZIN
 70
               0
  9
$DIMALTZ
 70
               0
  9
$DIMALTTZ
 70
               0
  9
$DIMFIT
 70
               3
  9
$DIMUPT
 70
               1
  9
$DIMUNIT
 70
               2
  9
$DIMDEC
 70
               4
  9
$DIMTDEC
 70
               4
  9
$DIMALTU
 70
               8
  9
$DIMALTTD
 70
               4
  9
$DIMTXSTY
  7
MX_NOTE_STANDARD
  9
$DIMAUNIT
 70
               0
  9
$LUNITS
 70
               2
  9
$LUPREC
 70
               4
  9
$SKETCHINC
 40
0.1
  9
$FILLETRAD
 40
0.0
  9
$AUNITS
 70
               0
  9
$AUPREC
 70
               0
  9
$MENU
  1
acad
  9
$ELEVATION
 40
0.0
  9
$PELEVATION
 40
0.0
  9
$THICKNESS
 40
0.0
  9
$LIMCHECK
 70
               0
  9
$BLIPMODE
 70
               1
  9
$CHAMFERA
 40
0.0
  9
$CHAMFERB
 40
0.0
  9
$CHAMFERC
 40
0.0
  9
$CHAMFERD
 40
0.0
  9
$SKPOLY
 70
               0
  9
$TDCREATE
 40
2452220.697118056
  9
$TDUPDATE
 40
2452220.697118056
  9
$TDINDWG
 40
0.0000000000
  9
$TDUSRTIMER
 40
0.0000000000
  9
$USRTIMER
 70
               1
  9
$ANGBASE
 50
0.0
  9
$ANGDIR
 70
               0
  9
$PDMODE
 70
               0
  9
$PDSIZE
 40
0.0
  9
$PLINEWID
 40
0.0
  9
$COORDS
 70
               1
  9
$SPLFRAME
 70
               0
  9
$SPLINETYPE
 70
               6
  9
$SPLINESEGS
 70
               8
  9
$ATTDIA
 70
               0
  9
$ATTREQ
 70
               1
  9
$HANDLING
 70
               1
  9
$HANDSEED
  5
2FA
  9
$SURFTAB1
 70
               6
  9
$SURFTAB2
 70
               6
  9
$SURFTYPE
 70
               6
  9
$SURFU
 70
               6
  9
$SURFV
 70
               6
  9
$UCSNAME
  2

  9
$UCSORG
 10
0.0
 20
0.0
 30
0.0
  9
$UCSXDIR
 10
1.0
 20
0.0
 30
0.0
  9
$UCSYDIR
 10
0.0
 20
1.0
 30
0.0
  9
$PUCSNAME
  2

  9
$PUCSORG
 10
0.0
 20
0.0
 30
0.0
  9
$PUCSXDIR
 10
1.0
 20
0.0
 30
0.0
  9
$PUCSYDIR
 10
0.0
 20
1.0
 30
0.0
  9
$USERI1
 70
               0
  9
$USERI2
 70
               0
  9
$USERI3
 70
               0
  9
$USERI4
 70
               0
  9
$USERI5
 70
               0
  9
$USERR1
 40
0.0
  9
$USERR2
 40
0.0
  9
$USERR3
 40
0.0
  9
$USERR4
 40
0.0
  9
$USERR5
 40
0.0
  9
$WORLDVIEW
 70
               1
  9
$SHADEDGE
 70
               3
  9
$SHADEDIF
 70
              70
  9
$TILEMODE
 70
               1
  9
$MAXACTVP
 70
              16
  9
$PINSBASE
 10
0.0
 20
0.0
 30
0.0
  9
$PLIMCHECK
 70
               0
  9
$PEXTMIN
 10
1.0000000000000000E+20
 20
1.0000000000000000E+20
 30
1.0000000000000000E+20
  9
$PEXTMAX
 10
-1.0000000000000000E+20
 20
-1.0000000000000000E+20
 30
-1.0000000000000000E+20
  9
$PLIMMIN
 10
0.0
 20
0.0
  9
$PLIMMAX
 10
12.0
 20
9.0
  9
$UNITMODE
 70
               0
  9
$VISRETAIN
 70
               0
  9
$PLINEGEN
 70
               1
  9
$PSLTSCALE
 70
               0
  9
$TREEDEPTH
 70
            3020
  9
$PICKSTYLE
 70
               1
  9
$CMLSTYLE
  2
Standard
  9
$CMLJUST
 70
               0
  9
$CMLSCALE
 40
1.0
  9
$SAVEIMAGES
 70
               0
  0
ENDSEC
  0
SECTION
  2
CLASSES
  0
CLASS
  1
LWPOLYLINE
  2
AcDbPolyline
  3
"AutoCAD"
 90
        0
280
               0
281
               1
  0
CLASS
  1
IMAGE
  2
AcDbRasterImage
  3
ISM
 90
      127
280
               0
281
               1
  0
CLASS
  1
OLE2FRAME
  2
AcDbOle2Frame
  3
""
 90
        0
280
               0
281
               1
  0
CLASS
  1
HATCH
  2
AcDbHatch
  3
"ACAD_SEDONA"
 90
        0
280
               0
281
               1
  0
CLASS
  1
DICTIONARYVAR
  2
AcDbDictionaryVar
  3
"AutoCAD"
 90
        0
280
               0
281
               0
  0
CLASS
  1
RASTERVARIABLES
  2
AcDbRasterVariables
  3
ISM
 90
        0
280
               0
281
               0
  0
CLASS
  1
IMAGEDEF
  2
AcDbRasterImageDef
  3
ISM
 90
        0
280
               0
281
               0
  0
CLASS
  1
IMAGEDEF_REACTOR
  2
AcDbRasterImageDefReactor
  3
ISM
 90
        1
280
               0
281
               0
  0
CLASS
  1
IDBUFFER
  2
AcDbIdBuffer
  3
"Acad"
 90
        0
280
               0
281
               0
  0
CLASS
  1
SPATIAL_FILTER
  2
AcDbSpatialFilter
  3
"Acad"
 90
        0
280
               0
281
               0
  0
CLASS
  1
XRECORD
  2
AcDbXrecord
  3
"<Built In>"
 90
        0
280
               0
281
               0
  0
CLASS
  1
SORTENTSTABLE
  2
AcDbSortentsTable
  3
"AutoCAD"
 90
        0
280
               0
281
               0
  0
CLASS
  1
LAYER_INDEX
  2
AcDbLayerIndex
  3
"Acad"
 90
        0
280
               0
281
               0
  0
CLASS
  1
SPATIAL_INDEX
  2
AcDbSpatialIndex
  3
"Acad"
 90
        0
280
               0
281
               0
  0
CLASS
  1
OBJECT_PTR
  2
CAseDLPNTableRecord
  3
"ASE-LPNTableRecord"
 90
        1
280
               0
281
               0
  0
CLASS
  1
LAYOUT
  2
AcDbLayout
  3
"AutoCAD 2000"
 90
        1
280
               0
281
               0
  0
CLASS
  1
PLOTSETTINGS
  2
AcDbPlotSettings
  3
"AutoCAD 2000"
 90
        1
280
               0
281
               0
  0
CLASS
  1
ACDBDICTIONARYWDFLT
  2
AcDbDictionaryWithDefault
  3
"AutoCAD 2000"
 90
        1
280
               0
281
               0
  0
CLASS
  1
ACDBPLACEHOLDER
  2
AcDbPlaceHolder
  3
"AutoCAD 2000"
 90
        1
280
               0
281
               0
  0
CLASS
  1
VBA_PROJECT
  2
AcDbVbaProject
  3
"acadvba"
 90
        1
280
               0
281
               0
  0
CLASS
  1
WIPEOUT
  2
AcDbWipeout
  3
WipeOut|AutoCAD Express Tool|expresstools@autodesk.com
 90
      127
280
               0
281
               1
  0
CLASS
  1
WIPEOUTVARIABLES
  2
AcDbWipeoutVariables
  3
WipeOut|AutoCAD Express Tool|expresstools@autodesk.com
 90
        0
280
               0
281
               0
  0
CLASS
  1
RTEXT
  2
RText
  3
RText|AutoCAD Express Tool|expresstools@autodesk.com
 90
        0
280
               0
281
               1
  0
CLASS
  1
ARCALIGNEDTEXT
  2
AcDbArcAlignedText
  3
ATEXT|AutoCAD Express Tool|expresstools@autodesk.com
 90
        0
280
               0
281
               1
  0
ENDSEC
  0
SECTION
  2
TABLES
  0
TABLE
  2
VPORT
  5
7
100
AcDbSymbolTable
 70
               1
  0
VPORT
  5
15
100
AcDbSymbolTableRecord
100
AcDbViewportTableRecord
  2
*ACTIVE
 70
               0
 10
0.0
 20
0.0
 11
1.0
 21
1.0
 12
3.3999085426330566
 22
-0.25
 13
0.0
 23
0.0
 14
1.0
 24
1.0
 15
0.0
 25
0.0
 16
0.0
 26
0.0
 36
1.0
 17
0.0
 27
0.0
 37
0.0
 40
558.52999999999997
 41
1.7320508075688772
 42
50.0
 43
0.0
 44
0.0
 50
0.0
 51
0.0
 71
               0
 72
             100
 73
               1
 74
               1
 75
               0
 76
               0
 77
               0
 78
               0
  0
ENDTAB
  0
TABLE
  2
LTYPE
  5
4
100
AcDbSymbolTable
 70
               4
  0
LTYPE
  5
11
100
AcDbSymbolTableRecord
100
AcDbLinetypeTableRecord
  2
BYBLOCK
 70
              64
  3

 72
              65
 73
               0
 40
0.0
  0
LTYPE
  5
12
100
AcDbSymbolTableRecord
100
AcDbLinetypeTableRecord
  2
BYLAYER
 70
              64
  3

 72
              65
 73
               0
 40
0.0
  0
LTYPE
  5
13
100
AcDbSymbolTableRecord
100
AcDbLinetypeTableRecord
  2
CONTINUOUS
 70
              64
  3
Solid line
 72
              65
 73
               0
 40
0.0
  0
LTYPE
  5
44
100
AcDbSymbolTableRecord
100
AcDbLinetypeTableRecord
  2
CENTER
 70
              64
  3
Center ____ _ ____ _ ____ _ ____ _ ____ _ ____
 72
              65
 73
               4
 40
50.800000000000004
 49
31.75
 74
               0
 49
-6.3499999999999996
 74
               0
 49
6.3499999999999996
 74
               0
 49
-6.3499999999999996
 74
               0
  0
ENDTAB
  0
TABLE
  2
LAYER
  5
2
100
AcDbSymbolTable
 70
               2
  0
LAYER
  5
14
100
AcDbSymbolTableRecord
100
AcDbLayerTableRecord
  2
0
 70
               0
 62
               7
  6
CONTINUOUS
  0
LAYER
  5
1D
100
AcDbSymbolTableRecord
100
AcDbLayerTableRecord
  2
DEFPOINTS
 70
               0
 62
               7
  6
CONTINUOUS
  0
ENDTAB
  0
TABLE
  2
STYLE
  5
3
100
AcDbSymbolTable
 70
               1
  0
STYLE
  5
17
100
AcDbSymbolTableRecord
100
AcDbTextStyleTableRecord
  2
MX_NOTE_STANDARD
 70
               0
 40
3.2000000476837158
 41
1.0
 50
0.0
 71
               0
 42
3.2000000476837158
  3
txt.shx
  4
extfont.shx
  0
ENDTAB
  0
TABLE
  2
VIEW
  5
5
100
AcDbSymbolTable
 70
               0
  0
ENDTAB
  0
TABLE
  2
UCS
  5
6
100
AcDbSymbolTable
 70
               0
  0
ENDTAB
  0
TABLE
  2
APPID
  5
8
100
AcDbSymbolTable
 70
               1
  0
APPID
  5
16
100
AcDbSymbolTableRecord
100
AcDbRegAppTableRecord
  2
ACAD
 70
               0
  0
ENDTAB
  0
TABLE
  2
DIMSTYLE
  5
9
100
AcDbSymbolTable
 70
               1
  0
DIMSTYLE
105
18
100
AcDbSymbolTableRecord
100
AcDbDimStyleTableRecord
  2
MXDIMSTYLE
 70
               0
  3

  4

  5

  6

  7

 40
1.0
 41
2.5
 42
1.5
 43
3.75
 44
1.5
 45
0.0
 46
0.0
 47
0.0
 48
0.0
 71
               0
 72
               0
 73
               0
 74
               0
 75
               0
 76
               0
 77
               1
 78
               8
140
3.2000000476837158
141
2.5
142
0.0
143
0.0394
144
1.0
145
0.0
146
1.0
147
1.0
170
               0
171
               4
172
               1
173
               0
174
               0
175
               0
176
               0
177
               0
178
               0
270
               2
271
               4
272
               4
273
               8
274
               4
275
               0
280
               0
281
               0
282
               0
283
               1
284
               0
285
               0
286
               0
287
               3
288
               1
340
17
  0
ENDTAB
  0
TABLE
  2
BLOCK_RECORD
  5
1
100
AcDbSymbolTable
 70
               8
  0
BLOCK_RECORD
  5
A
100
AcDbSymbolTableRecord
100
AcDbBlockTableRecord
  2
*MODEL_SPACE
  0
BLOCK_RECORD
  5
B
100
AcDbSymbolTableRecord
100
AcDbBlockTableRecord
  2
*PAPER_SPACE
  0
BLOCK_RECORD
  5
1E
100
AcDbSymbolTableRecord
100
AcDbBlockTableRecord
  2
MS_1
  0
BLOCK_RECORD
  5
1F
100
AcDbSymbolTableRecord
100
AcDbBlockTableRecord
  2
MS_2
  0
BLOCK_RECORD
  5
20
100
AcDbSymbolTableRecord
100
AcDbBlockTableRecord
  2
MS_3
  0
BLOCK_RECORD
  5
21
100
AcDbSymbolTableRecord
100
AcDbBlockTableRecord
  2
MS_4
  0
BLOCK_RECORD
  5
22
100
AcDbSymbolTableRecord
100
AcDbBlockTableRecord
  2
MS_5
  0
BLOCK_RECORD
  5
23
100
AcDbSymbolTableRecord
100
AcDbBlockTableRecord
  2
MS_6
  0
BLOCK_RECORD
  5
24
100
AcDbSymbolTableRecord
100
AcDbBlockTableRecord
  2
MS_7
  0
BLOCK_RECORD
  5
25
100
AcDbSymbolTableRecord
100
AcDbBlockTableRecord
  2
MS_8
  0
ENDTAB
  0
ENDSEC
  0
SECTION
  2
BLOCKS
  0
BLOCK
  5
D
100
AcDbEntity
  8
0
100
AcDbBlockBegin
  2
*MODEL_SPACE
 70
               0
 10
0.0
 20
0.0
 30
0.0
  3
*MODEL_SPACE
  1

  0
ENDBLK
  5
E
100
AcDbEntity
  8
0
100
AcDbBlockEnd
  0
BLOCK
  5
F
100
AcDbEntity
 67
               1
  8
0
100
AcDbBlockBegin
  2
*PAPER_SPACE
 70
               0
 10
0.0
 20
0.0
 30
0.0
  3
*PAPER_SPACE
  1

  0
ENDBLK
  5
10
100
AcDbEntity
 67
               1
  8
0
100
AcDbBlockEnd
  0
BLOCK
  5
26
100
AcDbEntity
  8
0
100
AcDbBlockBegin
  2
MS_1
 70
               0
 10
0.0
 20
0.0
 30
0.0
  3
MS_1
  1

  0
ARC
  5
27
100
AcDbEntity
  8
0
  6
CONTINUOUS
 62
               7
100
AcDbCircle
 10
19.501576732847898
 20
9.4996980423790731
 30
0.0
 40
2.5019845344443365
100
AcDbArc
 50
191.52062540138283
 51
319.35561844984784
  0
CIRCLE
  5
28
100
AcDbEntity
  8
0
  6
CONTINUOUS
 62
               7
100
AcDbCircle
 10
7.0
 20
-49.999954223632812
 30
0.0
 40
2.75
  0
CIRCLE
  5
29
100
AcDbEntity
  8
0
  6
CONTINUOUS
 62
               7
100
AcDbCircle
 10
20.0
 20
-51.999954223632812
 30
0.0
 40
2.75
  0
CIRCLE
  5
2A
100
AcDbEntity
  8
0
  6
CONTINUOUS
 62
               7
100
AcDbCircle
 10
0.0
 20
0.000030517578125
 30
0.0
 40
2.25
  0
CIRCLE
  5
2B
100
AcDbEntity
  8
0
  6
CONTINUOUS
 62
               7
100
AcDbCircle
 10
0.0
 20
-59.999969482421875
 30
0.0
 40
2.25
  0
ARC
  5
2C
100
AcDbEntity
  8
0
  6
CONTINUOUS
 62
               7
100
AcDbCircle
 10
21.999984740978107
 20
-78.999984740978107
 30
0.0
 40
0.5000152592547238
100
AcDbArc
 50
270.00174850174591
 51
359.99825149825267
  0
ARC
  5
2D
100
AcDbEntity
  8
0
  6
CONTINUOUS
 62
               7
100
AcDbCircle
 10
5.0000228887074627
 20
-78.999977111292537
 30
0.0
 40
0.5000228892313317
100
AcDbArc
 50
180.0026227326081
 51
269.9973772673909
  0
CIRCLE
  5
2E
100
AcDbEntity
  8
0
  6
CONTINUOUS
 62
               7
100
AcDbCircle
 10
20.0
 20
-9.999969482421875
 30
0.0
 40
2.75
  0
ARC
  5
2F
100
AcDbEntity
  8
0
  6
CONTINUOUS
 62
               7
100
AcDbCircle
 10
19.999977111903718
 20
-51.999977111903718
 30
0.0
 40
2.9999771119910292
100
AcDbArc
 50
89.999562866225403
 51
180.00043713377397
  0
ARC
  5
30
100
AcDbEntity
  8
0
  6
CONTINUOUS
 62
               7
100
AcDbCircle
 10
6.999984741172133
 20
-7.999984741172133
 30
0.0
 40
3.0000152588666724
100
AcDbArc
 50
270.00029142066285
 51
359.99970857933573
  0
ARC
  5
31
100
AcDbEntity
  8
0
  6
CONTINUOUS
 62
               7
100
AcDbCircle
 10
7.0
 20
-50.0
 30
0.0
 40
3.0
100
AcDbArc
 50
269.99999999999937
 51
89.999999999999801
  0
ARC
  5
32
100
AcDbEntity
  8
0
  6
CONTINUOUS
 62
               7
100
AcDbCircle
 10
20.0
 20
-10.0
 30
0.0
 40
3.0
100
AcDbArc
 50
89.999999999999801
 51
269.99999999999937
  0
CIRCLE
  5
33
100
AcDbEntity
  8
0
  6
CONTINUOUS
 62
               7
100
AcDbCircle
 10
7.0
 20
-7.999969482421875
 30
0.0
 40
2.75
  0
ARC
  5
34
100
AcDbEntity
  8
0
  6
CONTINUOUS
 62
               4
100
AcDbCircle
 10
9.049978637779132
 20
52.50002136222087
 30
0.0
 40
0.4999786382354952
100
AcDbArc
 50
89.997551965216772
 51
180.00244803478282
  0
ARC
  5
35
100
AcDbEntity
  8
0
  6
CONTINUOUS
 62
               4
100
AcDbCircle
 10
17.95002136222087
 20
52.50002136222087
 30
0.0
 40
0.4999786382354952
100
AcDbArc
 50
359.99755196521596
 51
90.002448034783015
  0
CIRCLE
  5
36
100
AcDbEntity
  8
0
  6
CONTINUOUS
 62
               7
100
AcDbCircle
 10
13.5
 20
16.70001220703125
 30
0.0
 40
1.9499998092651367
  0
LINE
  5
37
100
AcDbEntity
  8
0
  6
CONTINUOUS
 62
               4
100
AcDbLine
 10
18.5
 20
20.0
 30
0.0
 11
18.5
 21
44.0
 31
0.0
  0
LINE
  5
38
100
AcDbEntity
  8
0
  6
CONTINUOUS
 62
               4
100
AcDbLine
 10
8.5
 20
20.0
 30
0.0
 11
8.5
 21
44.0
 31
0.0
  0
LINE
  5
39
100
AcDbEntity
  8
0
  6
CONTINUOUS
 62
               7
100
AcDbLine
 10
20.5
 20
9.0
 30
0.0
 11
22.5
 21
6.5
 31
0.0
  0
LINE
  5
3A
100
AcDbEntity
  8
0
  6
CONTINUOUS
 62
               7
100
AcDbLine
 10
6.5
 20
9.0
 30
0.0
 11
4.5
 21
6.5
 31
0.0
  0
LINE
  5
3B
100
AcDbEntity
  8
0
  6
CONTINUOUS
 62
               7
100
AcDbLine
 10
6.5
 20
9.0
 30
0.0
 11
20.5
 21
9.0
 31
0.0
  0
LINE
  5
3C
100
AcDbEntity
  8
0
  6
CONTINUOUS
 62
               7
100
AcDbLine
 10
22.5
 20
-50.850000000000001
 30
0.0
 11
22.5
 21
-11.140000000000001
 31
0.0
  0
LINE
  5
3D
100
AcDbEntity
  8
0
  6
CONTINUOUS
 62
               7
100
AcDbLine
 10
22.5
 20
-8.8499999999999996
 30
0.0
 11
22.5
 21
6.5
 31
0.0
  0
LINE
  5
3E
100
AcDbEntity
  8
0
  6
CONTINUOUS
 62
               7
100
AcDbLine
 10
4.5
 20
-6.8499999999999996
 30
0.0
 11
4.5
 21
6.5
 31
0.0
  0
LINE
  5
3F
100
AcDbEntity
  8
0
  6
CONTINUOUS
 62
               7
100
AcDbLine
 10
4.5
 20
-48.850000000000001
 30
0.0
 11
4.5
 21
-9.1400000000000006
 31
0.0
  0
LINE
  5
40
100
AcDbEntity
  8
0
  6
CONTINUOUS
 62
               7
100
AcDbLine
 10
8.0600000000000005
 20
-51.060000000000002
 30
0.0
 11
5.9299999999999997
 21
-48.93
 31
0.0
  0
LINE
  5
41
100
AcDbEntity
  8
0
  6
CONTINUOUS
 62
               7
100
AcDbLine
 10
5.9299999999999997
 20
-51.060000000000002
 30
0.0
 11
8.0600000000000005
 21
-48.93
 31
0.0
  0
LINE
  5
42
100
AcDbEntity
  8
0
  6
CONTINUOUS
 62
               7
100
AcDbLine
 10
21.059999999999999
 20
-53.060000000000002
 30
0.0
 11
18.93
 21
-50.93
 31
0.0
  0
LINE
  5
43
100
AcDbEntity
  8
0
  6
CONTINUOUS
 62
               7
100
AcDbLine
 10
18.93
 20
-53.060000000000002
 30
0.0
 11
21.059999999999999
 21
-50.93
 31
0.0
  0
LINE
  5
45
100
AcDbEntity
  8
0
  6
CENTER
 62
               2
100
AcDbLine
 10
0.0
 20
-3.25
 30
0.0
 11
0.0
 21
3.25
 31
0.0
  0
LINE
  5
46
100
AcDbEntity
  8
0
  6
CENTER
 62
               2
100
AcDbLine
 10
0.0
 20
-63.25
 30
0.0
 11
0.0
 21
-56.75
 31
0.0
  0
LINE
  5
47
100
AcDbEntity
  8
0
  6
CENTER
 62
               2
100
AcDbLine
 10
-3.25
 20
0.0
 30
0.0
 11
3.25
 21
0.0
 31
0.0
  0
LINE
  5
48
100
AcDbEntity
  8
0
  6
CENTER
 62
               2
100
AcDbLine
 10
-3.25
 20
-60.0
 30
0.0
 11
3.25
 21
-60.0
 31
0.0
  0
LINE
  5
49
100
AcDbEntity
  8
0
  6
CONTINUOUS
 62
               7
100
AcDbLine
 10
22.5
 20
6.0
 30
0.0
 11
30.5
 21
6.0
 31
0.0
  0
LINE
  5
4A
100
AcDbEntity
  8
0
  6
CONTINUOUS
 62
               7
100
AcDbLine
 10
22.5
 20
-66.0
 30
0.0
 11
30.5
 21
-66.0
 31
0.0
  0
LINE
  5
4B
100
AcDbEntity
  8
0
  6
CONTINUOUS
 62
               7
100
AcDbLine
 10
-3.5
 20
-66.0
 30
0.0
 11
-3.5
 21
6.0
 31
0.0
  0
LINE
  5
4C
100
AcDbEntity
  8
0
  6
CONTINUOUS
 62
               7
100
AcDbLine
 10
30.5
 20
-66.0
 30
0.0
 11
30.5
 21
6.0
 31
0.0
  0
LINE
  5
4D
100
AcDbEntity
  8
0
  6
CONTINUOUS
 62
               7
100
AcDbLine
 10
-3.5
 20
6.0
 30
0.0
 11
4.5
 21
6.0
 31
0.0
  0
LINE
  5
4E
100
AcDbEntity
  8
0
  6
CONTINUOUS
 62
               7
100
AcDbLine
 10
-3.5
 20
-66.0
 30
0.0
 11
4.5
 21
-66.0
 31
0.0
  0
LINE
  5
4F
100
AcDbEntity
  8
0
  6
CONTINUOUS
 62
               7
100
AcDbLine
 10
20.0
 20
-68.5
 30
0.0
 11
20.0
 21
-67.5
 31
0.0
  0
LINE
  5
50
100
AcDbEntity
  8
0
  6
CONTINUOUS
 62
               7
100
AcDbLine
 10
20.0
 20
-57.5
 30
0.0
 11
20.0
 21
-56.5
 31
0.0
  0
LINE
  5
51
100
AcDbEntity
  8
0
  6
CONTINUOUS
 62
               7
100
AcDbLine
 10
7.0
 20
-57.5
 30
0.0
 11
7.0
 21
-56.5
 31
0.0
  0
LINE
  5
52
100
AcDbEntity
  8
0
  6
CONTINUOUS
 62
               7
100
AcDbLine
 10
7.0
 20
-68.5
 30
0.0
 11
7.0
 21
-67.5
 31
0.0
  0
LINE
  5
53
100
AcDbEntity
  8
0
  6
CONTINUOUS
 62
               7
100
AcDbLine
 10
7.0
 20
-66.5
 30
0.0
 11
6.0
 21
-67.5
 31
0.0
  0
LINE
  5
54
100
AcDbEntity
  8
0
  6
CONTINUOUS
 62
               7
100
AcDbLine
 10
6.0
 20
-57.5
 30
0.0
 11
7.0
 21
-58.5
 31
0.0
  0
LINE
  5
55
100
AcDbEntity
  8
0
  6
CONTINUOUS
 62
               7
100
AcDbLine
 10
20.0
 20
-58.5
 30
0.0
 11
21.0
 21
-57.5
 31
0.0
  0
LINE
  5
56
100
AcDbEntity
  8
0
  6
CONTINUOUS
 62
               7
100
AcDbLine
 10
21.0
 20
-67.5
 30
0.0
 11
20.0
 21
-66.5
 31
0.0
  0
LINE
  5
57
100
AcDbEntity
  8
0
  6
CONTINUOUS
 62
               7
100
AcDbLine
 10
7.0
 20
-66.5
 30
0.0
 11
7.0
 21
-58.5
 31
0.0
  0
LINE
  5
58
100
AcDbEntity
  8
0
  6
CONTINUOUS
 62
               7
100
AcDbLine
 10
20.0
 20
-66.5
 30
0.0
 11
20.0
 21
-58.5
 31
0.0
  0
LINE
  5
59
100
AcDbEntity
  8
0
  6
CONTINUOUS
 62
               7
100
AcDbLine
 10
7.0
 20
-58.5
 30
0.0
 11
20.0
 21
-58.5
 31
0.0
  0
LINE
  5
5A
100
AcDbEntity
  8
0
  6
CONTINUOUS
 62
               7
100
AcDbLine
 10
20.0
 20
-66.5
 30
0.0
 11
7.0
 21
-66.5
 31
0.0
  0
LINE
  5
5B
100
AcDbEntity
  8
0
  6
CONTINUOUS
 62
               7
100
AcDbLine
 10
6.0
 20
-57.5
 30
0.0
 11
21.0
 21
-57.5
 31
0.0
  0
LINE
  5
5C
100
AcDbEntity
  8
0
  6
CONTINUOUS
 62
               7
100
AcDbLine
 10
6.0
 20
-67.5
 30
0.0
 11
6.0
 21
-57.5
 31
0.0
  0
LINE
  5
5D
100
AcDbEntity
  8
0
  6
CONTINUOUS
 62
               7
100
AcDbLine
 10
21.0
 20
-67.5
 30
0.0
 11
21.0
 21
-57.5
 31
0.0
  0
LINE
  5
5E
100
AcDbEntity
  8
0
  6
CONTINUOUS
 62
               7
100
AcDbLine
 10
21.0
 20
-67.5
 30
0.0
 11
6.0
 21
-67.5
 31
0.0
  0
LINE
  5
5F
100
AcDbEntity
  8
0
  6
CONTINUOUS
 62
               7
100
AcDbLine
 10
5.0
 20
-79.5
 30
0.0
 11
22.0
 21
-79.5
 31
0.0
  0
LINE
  5
60
100
AcDbEntity
  8
0
  6
CONTINUOUS
 62
               7
100
AcDbLine
 10
18.93
 20
-11.06
 30
0.0
 11
21.059999999999999
 21
-8.9299999999999997
 31
0.0
  0
LINE
  5
61
100
AcDbEntity
  8
0
  6
CONTINUOUS
 62
               7
100
AcDbLine
 10
5.9299999999999997
 20
-9.0600000000000005
 30
0.0
 11
8.0600000000000005
 21
-6.9299999999999997
 31
0.0
  0
LINE
  5
62
100
AcDbEntity
  8
0
  6
CONTINUOUS
 62
               7
100
AcDbLine
 10
8.0600000000000005
 20
-9.0600000000000005
 30
0.0
 11
5.9299999999999997
 21
-6.9299999999999997
 31
0.0
  0
LINE
  5
63
100
AcDbEntity
  8
0
  6
CONTINUOUS
 62
               7
100
AcDbLine
 10
21.059999999999999
 20
-11.06
 30
0.0
 11
18.93
 21
-8.9299999999999997
 31
0.0
  0
LINE
  5
64
100
AcDbEntity
  8
0
  6
CONTINUOUS
 62
               7
100
AcDbLine
 10
10.0
 20
-5.7000000000000002
 30
0.0
 11
22.5
 21
-5.7000000000000002
 31
0.0
  0
LINE
  5
65
100
AcDbEntity
  8
0
  6
CONTINUOUS
 62
               7
100
AcDbLine
 10
4.5
 20
-54.299999999999997
 30
0.0
 11
17.0
 21
-54.299999999999997
 31
0.0
  0
LINE
  5
66
100
AcDbEntity
  8
0
  6
CONTINUOUS
 62
               7
100
AcDbLine
 10
20.0
 20
-49.0
 30
0.0
 11
22.5
 21
-49.0
 31
0.0
  0
LINE
  5
67
100
AcDbEntity
  8
0
  6
CONTINUOUS
 62
               7
100
AcDbLine
 10
7.0
 20
-11.0
 30
0.0
 11
4.5
 21
-11.0
 31
0.0
  0
LINE
  5
68
100
AcDbEntity
  8
0
  6
CONTINUOUS
 62
               7
100
AcDbLine
 10
10.0
 20
-8.0
 30
0.0
 11
10.0
 21
-3.7000000000000002
 31
0.0
  0
LINE
  5
69
100
AcDbEntity
  8
0
  6
CONTINUOUS
 62
               7
100
AcDbLine
 10
17.0
 20
-52.0
 30
0.0
 11
17.0
 21
-56.299999999999997
 31
0.0
  0
LINE
  5
6A
100
AcDbEntity
  8
0
  6
CONTINUOUS
 62
               7
100
AcDbLine
 10
4.5
 20
-47.0
 30
0.0
 11
7.0
 21
-47.0
 31
0.0
  0
LINE
  5
6B
100
AcDbEntity
  8
0
  6
CONTINUOUS
 62
               7
100
AcDbLine
 10
4.5
 20
-53.0
 30
0.0
 11
7.0
 21
-53.0
 31
0.0
  0
LINE
  5
6C
100
AcDbEntity
  8
0
  6
CONTINUOUS
 62
               7
100
AcDbLine
 10
20.0
 20
-13.0
 30
0.0
 11
22.5
 21
-13.0
 31
0.0
  0
LINE
  5
6D
100
AcDbEntity
  8
0
  6
CONTINUOUS
 62
               7
100
AcDbLine
 10
20.0
 20
-7.0
 30
0.0
 11
22.5
 21
-7.0
 31
0.0
  0
LINE
  5
6E
100
AcDbEntity
  8
0
  6
CONTINUOUS
 62
               7
100
AcDbLine
 10
4.5
 20
-56.299999999999997
 30
0.0
 11
22.5
 21
-56.299999999999997
 31
0.0
  0
LINE
  5
6F
100
AcDbEntity
  8
0
  6
CONTINUOUS
 62
               7
100
AcDbLine
 10
4.5
 20
-3.7000000000000002
 30
0.0
 11
22.5
 21
-3.7000000000000002
 31
0.0
  0
LINE
  5
70
100
AcDbEntity
  8
0
  6
CONTINUOUS
 62
               7
100
AcDbLine
 10
4.5
 20
-68.5
 30
0.0
 11
22.5
 21
-68.5
 31
0.0
  0
LINE
  5
71
100
AcDbEntity
  8
0
  6
CONTINUOUS
 62
               7
100
AcDbLine
 10
4.5
 20
-56.5
 30
0.0
 11
22.5
 21
-56.5
 31
0.0
  0
LINE
  5
72
100
AcDbEntity
  8
0
  6
CONTINUOUS
 62
               7
100
AcDbLine
 10
4.5
 20
6.5
 30
0.0
 11
22.5
 21
6.5
 31
0.0
  0
LINE
  5
73
100
AcDbEntity
  8
0
  6
CONTINUOUS
 62
               7
100
AcDbLine
 10
4.5
 20
-79.0
 30
0.0
 11
4.5
 21
-51.140000000000001
 31
0.0
  0
LINE
  5
74
100
AcDbEntity
  8
0
  6
CONTINUOUS
 62
               7
100
AcDbLine
 10
22.5
 20
-79.0
 30
0.0
 11
22.5
 21
-53.140000000000001
 31
0.0
  0
LINE
  5
75
100
AcDbEntity
  8
0
  6
CONTINUOUS
 62
               7
100
AcDbLine
 10
4.5
 20
-3.5
 30
0.0
 11
22.5
 21
-3.5
 31
0.0
  0
LINE
  5
76
100
AcDbEntity
  8
0
  6
CONTINUOUS
 62
               4
100
AcDbLine
 10
17.5
 20
57.5
 30
0.0
 11
17.5
 21
64.0
 31
0.0
  0
LINE
  5
77
100
AcDbEntity
  8
0
  6
CONTINUOUS
 62
               4
100
AcDbLine
 10
9.5
 20
57.5
 30
0.0
 11
9.5
 21
64.0
 31
0.0
  0
LINE
  5
78
100
AcDbEntity
  8
0
  6
CONTINUOUS
 62
               4
100
AcDbLine
 10
8.5999999999999996
 20
57.5
 30
0.0
 11
8.5999999999999996
 21
64.0
 31
0.0
  0
LINE
  5
79
100
AcDbEntity
  8
0
  6
CONTINUOUS
 62
               4
100
AcDbLine
 10
18.399999999999999
 20
57.5
 30
0.0
 11
18.399999999999999
 21
64.0
 31
0.0
  0
LINE
  5
7A
100
AcDbEntity
  8
0
  6
CONTINUOUS
 62
               7
100
AcDbLine
 10
8.5
 20
9.0
 30
0.0
 11
8.5
 21
20.0
 31
0.0
  0
LINE
  5
7B
100
AcDbEntity
  8
0
  6
CONTINUOUS
 62
               7
100
AcDbLine
 10
18.5
 20
9.0
 30
0.0
 11
18.5
 21
20.0
 31
0.0
  0
LINE
  5
7C
100
AcDbEntity
  8
0
  6
CONTINUOUS
 62
             200
100
AcDbLine
 10
17.550000000000001
 20
70.230000000000004
 30
0.0
 11
9.4499999999999993
 21
65.549999999999997
 31
0.0
  0
LINE
  5
7D
100
AcDbEntity
  8
0
  6
CONTINUOUS
 62
               4
100
AcDbLine
 10
10.779999999999999
 20
64.0
 30
0.0
 11
10.779999999999999
 21
65.170000000000002
 31
0.0
  0
LINE
  5
7E
100
AcDbEntity
  8
0
  6
CONTINUOUS
 62
               4
100
AcDbLine
 10
12.210000000000001
 20
64.0
 30
0.0
 11
12.210000000000001
 21
66.0
 31
0.0
  0
LINE
  5
7F
100
AcDbEntity
  8
0
  6
CONTINUOUS
 62
               4
100
AcDbLine
 10
11.1
 20
77.0
 30
0.0
 11
11.9
 21
77.0
 31
0.0
  0
LINE
  5
80
100
AcDbEntity
  8
0
  6
CONTINUOUS
 62
               4
100
AcDbLine
 10
11.1
 20
72.0
 30
0.0
 11
11.1
 21
77.0
 31
0.0
  0
LINE
  5
81
100
AcDbEntity
  8
0
  6
CONTINUOUS
 62
               4
100
AcDbLine
 10
11.9
 20
72.0
 30
0.0
 11
11.9
 21
77.0
 31
0.0
  0
LINE
  5
82
100
AcDbEntity
  8
0
  6
CONTINUOUS
 62
               4
100
AcDbLine
 10
10.779999999999999
 20
72.0
 30
0.0
 11
12.210000000000001
 21
72.0
 31
0.0
  0
LINE
  5
83
100
AcDbEntity
  8
0
  6
CONTINUOUS
 62
               4
100
AcDbLine
 10
10.779999999999999
 20
66.319999999999993
 30
0.0
 11
10.779999999999999
 21
72.0
 31
0.0
  0
LINE
  5
84
100
AcDbEntity
  8
0
  6
CONTINUOUS
 62
               4
100
AcDbLine
 10
12.210000000000001
 20
67.150000000000006
 30
0.0
 11
12.210000000000001
 21
72.0
 31
0.0
  0
LINE
  5
85
100
AcDbEntity
  8
0
  6
CONTINUOUS
 62
               4
100
AcDbLine
 10
17.550000000000001
 20
56.5
 30
0.0
 11
17.550000000000001
 21
57.5
 31
0.0
  0
LINE
  5
86
100
AcDbEntity
  8
0
  6
CONTINUOUS
 62
               4
100
AcDbLine
 10
9.4499999999999993
 20
56.5
 30
0.0
 11
9.4499999999999993
 21
57.5
 31
0.0
  0
LINE
  5
87
100
AcDbEntity
  8
0
  6
CONTINUOUS
 62
               4
100
AcDbLine
 10
9.4499999999999993
 20
55.5
 30
0.0
 11
10.0
 21
55.5
 31
0.0
  0
LINE
  5
88
100
AcDbEntity
  8
0
  6
CONTINUOUS
 62
               4
100
AcDbLine
 10
9.4499999999999993
 20
56.5
 30
0.0
 11
10.0
 21
56.5
 31
0.0
  0
LINE
  5
89
100
AcDbEntity
  8
0
  6
CONTINUOUS
 62
               4
100
AcDbLine
 10
17.0
 20
55.5
 30
0.0
 11
17.550000000000001
 21
55.5
 31
0.0
  0
LINE
  5
8A
100
AcDbEntity
  8
0
  6
CONTINUOUS
 62
               4
100
AcDbLine
 10
17.0
 20
56.5
 30
0.0
 11
17.550000000000001
 21
56.5
 31
0.0
  0
LINE
  5
8B
100
AcDbEntity
  8
0
  6
CONTINUOUS
 62
               4
100
AcDbLine
 10
17.0
 20
57.5
 30
0.0
 11
18.449999999999999
 21
57.5
 31
0.0
  0
LINE
  5
8C
100
AcDbEntity
  8
0
  6
CONTINUOUS
 62
               4
100
AcDbLine
 10
8.5999999999999996
 20
64.0
 30
0.0
 11
18.399999999999999
 21
64.0
 31
0.0
  0
LINE
  5
8D
100
AcDbEntity
  8
0
  6
CONTINUOUS
 62
               4
100
AcDbLine
 10
10.0
 20
62.5
 30
0.0
 11
17.0
 21
62.5
 31
0.0
  0
LINE
  5
8E
100
AcDbEntity
  8
0
  6
CONTINUOUS
 62
               4
100
AcDbLine
 10
10.0
 20
57.049999999999997
 30
0.0
 11
17.0
 21
57.049999999999997
 31
0.0
  0
LINE
  5
8F
100
AcDbEntity
  8
0
  6
CONTINUOUS
 62
               4
100
AcDbLine
 10
10.0
 20
53.490000000000002
 30
0.0
 11
17.0
 21
53.490000000000002
 31
0.0
  0
LINE
  5
90
100
AcDbEntity
  8
0
  6
CONTINUOUS
 62
               4
100
AcDbLine
 10
10.0
 20
53.490000000000002
 30
0.0
 11
10.0
 21
64.0
 31
0.0
  0
LINE
  5
91
100
AcDbEntity
  8
0
  6
CONTINUOUS
 62
               4
100
AcDbLine
 10
17.0
 20
53.490000000000002
 30
0.0
 11
17.0
 21
64.0
 31
0.0
  0
LINE
  5
92
100
AcDbEntity
  8
0
  6
CONTINUOUS
 62
               4
100
AcDbLine
 10
17.550000000000001
 20
53.0
 30
0.0
 11
17.550000000000001
 21
55.5
 31
0.0
  0
LINE
  5
93
100
AcDbEntity
  8
0
  6
CONTINUOUS
 62
               4
100
AcDbLine
 10
9.4499999999999993
 20
53.0
 30
0.0
 11
9.4499999999999993
 21
55.5
 31
0.0
  0
LINE
  5
94
100
AcDbEntity
  8
0
  6
CONTINUOUS
 62
               4
100
AcDbLine
 10
8.5500000000000007
 20
57.5
 30
0.0
 11
10.0
 21
57.5
 31
0.0
  0
LINE
  5
95
100
AcDbEntity
  8
0
  6
CONTINUOUS
 62
               4
100
AcDbLine
 10
16.210000000000001
 20
69.459999999999994
 30
0.0
 11
16.210000000000001
 21
72.0
 31
0.0
  0
LINE
  5
96
100
AcDbEntity
  8
0
  6
CONTINUOUS
 62
               4
100
AcDbLine
 10
14.779999999999999
 20
68.629999999999995
 30
0.0
 11
14.779999999999999
 21
72.0
 31
0.0
  0
LINE
  5
97
100
AcDbEntity
  8
0
  6
CONTINUOUS
 62
             200
100
AcDbLine
 10
17.550000000000001
 20
69.079999999999998
 30
0.0
 11
9.4499999999999993
 21
64.400000000000006
 31
0.0
  0
LINE
  5
98
100
AcDbEntity
  8
0
  6
CONTINUOUS
 62
               4
100
AcDbLine
 10
14.779999999999999
 20
72.0
 30
0.0
 11
16.210000000000001
 21
72.0
 31
0.0
  0
LINE
  5
99
100
AcDbEntity
  8
0
  6
CONTINUOUS
 62
               4
100
AcDbLine
 10
15.1
 20
77.0
 30
0.0
 11
15.9
 21
77.0
 31
0.0
  0
LINE
  5
9A
100
AcDbEntity
  8
0
  6
CONTINUOUS
 62
               4
100
AcDbLine
 10
15.9
 20
72.0
 30
0.0
 11
15.9
 21
77.0
 31
0.0
  0
LINE
  5
9B
100
AcDbEntity
  8
0
  6
CONTINUOUS
 62
               4
100
AcDbLine
 10
15.1
 20
72.0
 30
0.0
 11
15.1
 21
77.0
 31
0.0
  0
LINE
  5
9C
100
AcDbEntity
  8
0
  6
CONTINUOUS
 62
               4
100
AcDbLine
 10
16.210000000000001
 20
64.0
 30
0.0
 11
16.210000000000001
 21
68.310000000000002
 31
0.0
  0
LINE
  5
9D
100
AcDbEntity
  8
0
  6
CONTINUOUS
 62
               4
100
AcDbLine
 10
14.779999999999999
 20
64.0
 30
0.0
 11
14.779999999999999
 21
67.47999999999999
 31
0.0
  0
LINE
  5
9E
100
AcDbEntity
  8
0
  6
CONTINUOUS
 62
               4
100
AcDbLine
 10
18.449999999999999
 20
44.0
 30
0.0
 11
18.449999999999999
 21
57.5
 31
0.0
  0
LINE
  5
9F
100
AcDbEntity
  8
0
  6
CONTINUOUS
 62
               4
100
AcDbLine
 10
18.449999999999999
 20
48.5
 30
0.0
 11
8.5500000000000007
 21
48.5
 31
0.0
  0
LINE
  5
A0
100
AcDbEntity
  8
0
  6
CONTINUOUS
 62
               4
100
AcDbLine
 10
18.0
 20
53.0
 30
0.0
 11
9.0
 21
53.0
 31
0.0
  0
LINE
  5
A1
100
AcDbEntity
  8
0
  6
CONTINUOUS
 62
               4
100
AcDbLine
 10
8.5500000000000007
 20
44.0
 30
0.0
 11
8.5500000000000007
 21
57.5
 31
0.0
  0
LINE
  5
A2
100
AcDbEntity
  8
0
  6
CONTINUOUS
 62
               7
100
AcDbLine
 10
11.57
 20
17.0
 30
0.0
 11
15.42
 21
17.0
 31
0.0
  0
LINE
  5
A3
100
AcDbEntity
  8
0
  6
CONTINUOUS
 62
               7
100
AcDbLine
 10
11.57
 20
16.399999999999999
 30
0.0
 11
15.42
 21
16.399999999999999
 31
0.0
  0
LINE
  5
A4
100
AcDbEntity
  8
0
  6
CONTINUOUS
 62
               7
100
AcDbLine
 10
8.5
 20
20.0
 30
0.0
 11
18.5
 21
20.0
 31
0.0
  0
LINE
  5
A5
100
AcDbEntity
  8
0
  6
CONTINUOUS
 62
               4
100
AcDbLine
 10
8.5
 20
44.0
 30
0.0
 11
18.5
 21
44.0
 31
0.0
  0
LINE
  5
A6
100
AcDbEntity
  8
0
  6
CENTER
 62
               2
100
AcDbLine
 10
13.5
 20
-82.799999999999997
 30
0.0
 11
13.5
 21
65.75
 31
0.0
  0
LINE
  5
A7
100
AcDbEntity
  8
0
  6
CENTER
 62
               2
100
AcDbLine
 10
11.0
 20
16.699999999999999
 30
0.0
 11
16.0
 21
16.699999999999999
 31
0.0
  0
ENDBLK
  5
A8
100
AcDbEntity
  8
0
100
AcDbBlockEnd
  0
BLOCK
  5
A9
100
AcDbEntity
  8
0
100
AcDbBlockBegin
  2
MS_2
 70
               0
 10
0.0
 20
0.0
 30
0.0
  3
MS_2
  1

  0
LINE
  5
AA
100
AcDbEntity
  8
0
  6
CONTINUOUS
 62
               4
100
AcDbLine
 10
33.0
 20
44.0
 30
0.0
 11
59.999992370605469
 21
44.0
 31
0.0
  0
LINE
  5
AB
100
AcDbEntity
  8
0
  6
CONTINUOUS
 62
               4
100
AcDbLine
 10
44.099999999999994
 20
57.5
 30
0.0
 11
44.099999999999994
 21
53.0
 31
0.0
  0
LINE
  5
AC
100
AcDbEntity
  8
0
  6
CONTINUOUS
 62
               4
100
AcDbLine
 10
35.149987792968744
 20
64.0
 30
0.0
 11
44.149987792968744
 21
64.0
 31
0.0
  0
LINE
  5
AD
100
AcDbEntity
  8
0
  6
CONTINUOUS
 62
               4
100
AcDbLine
 10
35.5
 20
57.5
 30
0.0
 11
44.150003051757807
 21
57.5
 31
0.0
  0
LINE
  5
AE
100
AcDbEntity
  8
0
  6
CONTINUOUS
 62
               4
100
AcDbLine
 10
44.727349853515619
 20
64.0
 30
0.0
 11
46.149995422363276
 21
64.0
 31
0.0
  0
LINE
  5
AF
100
AcDbEntity
  8
0
  6
CONTINUOUS
 62
               4
100
AcDbLine
 10
44.099999999999994
 20
54.998458862304688
 30
0.0
 11
44.150003051757807
 21
54.998458862304688
 31
0.0
  0
LINE
  5
B0
100
AcDbEntity
  8
0
  6
CONTINUOUS
 62
               4
100
AcDbLine
 10
44.150003051757807
 20
53.498458862304688
 30
0.0
 11
45.149995422363276
 21
53.498458862304688
 31
0.0
  0
LINE
  5
B1
100
AcDbEntity
  8
0
  6
CONTINUOUS
 62
               4
100
AcDbLine
 10
44.150003051757807
 20
54.998458862304688
 30
0.0
 11
44.150003051757807
 21
57.5
 31
0.0
  0
LINE
  5
B2
100
AcDbEntity
  8
0
  6
CONTINUOUS
 62
               4
100
AcDbLine
 10
45.649995422363276
 20
62.5
 30
0.0
 11
46.149995422363276
 21
62.5
 31
0.0
  0
LINE
  5
B3
100
AcDbEntity
  8
0
  6
CONTINUOUS
 62
               4
100
AcDbLine
 10
44.150000209407693
 20
53.498474151870141
 30
0.0
 11
44.099979656101453
 21
53.548494705176381
 31
0.0
  0
LINE
  5
B4
100
AcDbEntity
  8
0
  6
CONTINUOUS
 62
               4
100
AcDbLine
 10
35.650003051757807
 20
57.5
 30
0.0
 11
35.650003051757807
 21
63.0
 31
0.0
  0
LINE
  5
B5
100
AcDbEntity
  8
0
  6
CONTINUOUS
 62
               4
100
AcDbLine
 10
35.150003051757807
 20
63.0
 30
0.0
 11
35.150003051757807
 21
64.0
 31
0.0
  0
LINE
  5
B6
100
AcDbEntity
  8
0
  6
CONTINUOUS
 62
               4
100
AcDbLine
 10
35.149987792968744
 20
63.0
 30
0.0
 11
35.649987792968744
 21
63.0
 31
0.0
  0
LINE
  5
B7
100
AcDbEntity
  8
0
  6
CONTINUOUS
 62
               4
100
AcDbLine
 10
45.650003051757807
 20
57.05615234375
 30
0.0
 11
45.650003051757807
 21
62.5
 31
0.0
  0
LINE
  5
B8
100
AcDbEntity
  8
0
  6
CONTINUOUS
 62
               4
100
AcDbLine
 10
45.150001302236518
 20
53.49845074175937
 30
0.0
 11
45.650000411113609
 21
57.056138825448215
 31
0.0
  0
LINE
  5
B9
100
AcDbEntity
  8
0
  6
CONTINUOUS
 62
               4
100
AcDbLine
 10
44.150003051757807
 20
57.5
 30
0.0
 11
44.150003051757807
 21
64.0
 31
0.0
  0
LINE
  5
BA
100
AcDbEntity
  8
0
  6
CONTINUOUS
 62
               4
100
AcDbLine
 10
44.150044511604023
 20
62.999958942901685
 30
0.0
 11
44.727396327367927
 21
63.999967647856465
 31
0.0
  0
LINE
  5
BB
100
AcDbEntity
  8
0
  6
CONTINUOUS
 62
               4
100
AcDbLine
 10
46.150003051757807
 20
62.5
 30
0.0
 11
46.150003051757807
 21
64.0
 31
0.0
  0
LINE
  5
BC
100
AcDbEntity
  8
0
  6
CONTINUOUS
 62
               4
100
AcDbLine
 10
41.000009155273432
 20
77.0
 30
0.0
 11
40.200006103515619
 21
77.0
 31
0.0
  0
LINE
  5
BD
100
AcDbEntity
  8
0
  6
CONTINUOUS
 62
               4
100
AcDbLine
 10
40.200006103515619
 20
72.0
 30
0.0
 11
40.200006103515619
 21
77.0
 31
0.0
  0
LINE
  5
BE
100
AcDbEntity
  8
0
  6
CONTINUOUS
 62
               4
100
AcDbLine
 10
41.000009155273432
 20
72.0
 30
0.0
 11
41.000009155273432
 21
77.0
 31
0.0
  0
LINE
  5
BF
100
AcDbEntity
  8
0
  6
CONTINUOUS
 62
               4
100
AcDbLine
 10
41.315011596679682
 20
64.0
 30
0.0
 11
41.315011596679682
 21
68.598403930664063
 31
0.0
  0
LINE
  5
C0
100
AcDbEntity
  8
0
  6
CONTINUOUS
 62
               4
100
AcDbLine
 10
39.885003662109369
 20
64.0
 30
0.0
 11
39.885003662109369
 21
67.772796630859375
 31
0.0
  0
LINE
  5
C1
100
AcDbEntity
  8
0
  6
CONTINUOUS
 62
               4
100
AcDbLine
 10
41.315011596679682
 20
72.0
 30
0.0
 11
39.885003662109369
 21
72.0
 31
0.0
  0
LINE
  5
C2
100
AcDbEntity
  8
0
  6
CONTINUOUS
 62
               4
100
AcDbLine
 10
39.885003662109369
 20
68.927490234375
 30
0.0
 11
39.885003662109369
 21
72.0
 31
0.0
  0
LINE
  5
C3
100
AcDbEntity
  8
0
  6
CONTINUOUS
 62
               4
100
AcDbLine
 10
41.315011596679682
 20
69.75311279296875
 30
0.0
 11
41.315011596679682
 21
72.0
 31
0.0
  0
LINE
  5
C4
100
AcDbEntity
  8
0
  6
CONTINUOUS
 62
               7
100
AcDbLine
 10
33.0
 20
20.0
 30
0.0
 11
60.0
 21
20.0
 31
0.0
  0
LINE
  5
C5
100
AcDbEntity
  8
0
  6
CONTINUOUS
 62
               4
100
AcDbLine
 10
38.815011596679682
 20
68.309738159179688
 30
0.0
 11
38.815011596679682
 21
72.0
 31
0.0
  0
LINE
  5
C6
100
AcDbEntity
  8
0
  6
CONTINUOUS
 62
               4
100
AcDbLine
 10
37.385003662109369
 20
67.484115600585937
 30
0.0
 11
37.385003662109369
 21
72.0
 31
0.0
  0
LINE
  5
C7
100
AcDbEntity
  8
0
  6
CONTINUOUS
 62
               4
100
AcDbLine
 10
37.385003662109369
 20
72.0
 30
0.0
 11
38.815011596679682
 21
72.0
 31
0.0
  0
LINE
  5
C8
100
AcDbEntity
  8
0
  6
CONTINUOUS
 62
               4
100
AcDbLine
 10
38.500009155273432
 20
72.0
 30
0.0
 11
38.500009155273432
 21
77.0
 31
0.0
  0
LINE
  5
C9
100
AcDbEntity
  8
0
  6
CONTINUOUS
 62
               4
100
AcDbLine
 10
37.700006103515619
 20
72.0
 30
0.0
 11
37.700006103515619
 21
76.999984741210937
 31
0.0
  0
LINE
  5
CA
100
AcDbEntity
  8
0
  6
CONTINUOUS
 62
               4
100
AcDbLine
 10
37.700006103515619
 20
77.0
 30
0.0
 11
38.500009155273432
 21
77.0
 31
0.0
  0
LINE
  5
CB
100
AcDbEntity
  8
0
  6
CONTINUOUS
 62
               4
100
AcDbLine
 10
38.815011596679682
 20
64.0
 30
0.0
 11
38.815011596679682
 21
67.155029296875
 31
0.0
  0
LINE
  5
CC
100
AcDbEntity
  8
0
  6
CONTINUOUS
 62
               4
100
AcDbLine
 10
37.385003662109369
 20
64.0
 30
0.0
 11
37.385003662109369
 21
66.329421997070312
 31
0.0
  0
LINE
  5
CD
100
AcDbEntity
  8
0
  6
CONTINUOUS
 62
             200
100
AcDbLine
 10
42.815018891472022
 20
70.619105809934808
 30
0.0
 11
35.884989799908539
 21
66.618057246153512
 31
0.0
  0
LINE
  5
CE
100
AcDbEntity
  8
0
  6
CONTINUOUS
 62
             200
100
AcDbLine
 10
42.814994343097709
 20
69.464464815078827
 30
0.0
 11
35.884984189578603
 21
65.46341291056342
 31
0.0
  0
ARC
  5
CF
100
AcDbEntity
  8
0
  6
CONTINUOUS
 62
               4
100
AcDbCircle
 10
33.5
 20
52.5
 30
0.0
 40
0.5
100
AcDbArc
 50
89.999999999999801
 51
179.9999999999996
  0
LINE
  5
D0
100
AcDbEntity
  8
0
  6
CONTINUOUS
 62
               4
100
AcDbLine
 10
35.5
 20
53.0
 30
0.0
 11
33.5
 21
53.0
 31
0.0
  0
LINE
  5
D1
100
AcDbEntity
  8
0
  6
CONTINUOUS
 62
               4
100
AcDbLine
 10
35.5
 20
57.5
 30
0.0
 11
35.5
 21
53.0
 31
0.0
  0
LINE
  5
D2
100
AcDbEntity
  8
0
  6
CONTINUOUS
 62
               4
100
AcDbLine
 10
44.099999999999994
 20
57.5
 30
0.0
 11
44.099999999999994
 21
53.0
 31
0.0
  0
ARC
  5
D3
100
AcDbEntity
  8
0
  6
CONTINUOUS
 62
               4
100
AcDbCircle
 10
58.502020395360574
 20
48.179610903929301
 30
0.0
 40
1.4979796551727449
100
AcDbArc
 50
0.0148824203654679
 51
24.046309772710686
  0
ARC
  5
D4
100
AcDbEntity
  8
0
  6
CONTINUOUS
 62
               4
100
AcDbCircle
 10
57.674020838564047
 20
52.500099937446265
 30
0.0
 40
0.4999010215015999
100
AcDbArc
 50
24.197376208904771
 51
89.887774076864815
  0
LINE
  5
D5
100
AcDbEntity
  8
0
  6
CONTINUOUS
 62
               4
100
AcDbLine
 10
58.129999999999995
 20
52.705000000000013
 30
0.0
 11
59.870000000000005
 21
48.789999999999992
 31
0.0
  0
LINE
  5
D6
100
AcDbEntity
  8
0
  6
CONTINUOUS
 62
               4
100
AcDbLine
 10
60.0
 20
48.180000000000007
 30
0.0
 11
60.0
 21
44.0
 31
0.0
  0
LINE
  5
D7
100
AcDbEntity
  8
0
  6
CONTINUOUS
 62
               4
100
AcDbLine
 10
33.0
 20
52.5
 30
0.0
 11
33.0
 21
44.0
 31
0.0
  0
LINE
  5
D8
100
AcDbEntity
  8
0
  6
CONTINUOUS
 62
               4
100
AcDbLine
 10
33.0
 20
20.0
 30
0.0
 11
33.0
 21
44.0
 31
0.0
  0
LINE
  5
D9
100
AcDbEntity
  8
0
  6
CONTINUOUS
 62
               4
100
AcDbLine
 10
60.0
 20
20.0
 30
0.0
 11
60.0
 21
44.0
 31
0.0
  0
LINE
  5
DA
100
AcDbEntity
  8
0
  6
CONTINUOUS
 62
               4
100
AcDbLine
 10
44.099999999999994
 20
53.0
 30
0.0
 11
57.674999999999983
 21
53.0
 31
0.0
  0
ARC
  5
DB
100
AcDbEntity
  8
0
  6
CONTINUOUS
 62
               7
100
AcDbCircle
 10
63.699990844698625
 20
-48.750009155301377
 30
0.0
 40
1.5000091553293182
100
AcDbArc
 50
0.0003497046182941
 51
89.9996502953815
  0
ARC
  5
DC
100
AcDbEntity
  8
0
  6
CONTINUOUS
 62
               7
100
AcDbCircle
 10
63.699975585925081
 20
-51.249975585925078
 30
0.0
 40
1.5000244142735981
100
AcDbArc
 50
270.00093253379049
 51
359.99906746620809
  0
ARC
  5
DD
100
AcDbEntity
  8
0
  6
CONTINUOUS
 62
               7
100
AcDbCircle
 10
66.0
 20
-9.25
 30
0.0
 40
1.5
100
AcDbArc
 50
269.99999999999937
 51
0.0
  0
ARC
  5
DE
100
AcDbEntity
  8
0
  6
CONTINUOUS
 62
               7
100
AcDbCircle
 10
66.0
 20
-6.75
 30
0.0
 40
1.5
100
AcDbArc
 50
0.0
 51
89.999999999999801
  0
ARC
  5
DF
100
AcDbEntity
  8
0
  6
CONTINUOUS
 62
               7
100
AcDbCircle
 10
60.749984741133325
 20
-77.499984741133332
 30
0.0
 40
1.5000152589442828
100
AcDbArc
 50
270.00058283984418
 51
359.99941716015474
  0
ARC
  5
E0
100
AcDbEntity
  8
0
  6
CONTINUOUS
 62
               7
100
AcDbCircle
 10
58.250015258866675
 20
-77.499984741133332
 30
0.0
 40
1.5000152589442828
100
AcDbArc
 50
180.00058283984407
 51
269.99941716015462
  0
ARC
  5
E1
100
AcDbEntity
  8
0
  6
CONTINUOUS
 62
               7
100
AcDbCircle
 10
33.49842519425053
 20
9.4996906239028647
 30
0.0
 40
2.5019811645578063
100
AcDbArc
 50
220.64422390235583
 51
348.47953224641094
  0
CIRCLE
  5
E2
100
AcDbEntity
  8
0
  6
CONTINUOUS
 62
               2
100
AcDbCircle
 10
10.0
 20
-22.499984741210938
 30
0.0
 40
6.5784997940063477
  0
CIRCLE
  5
E3
100
AcDbEntity
  8
0
  6
CONTINUOUS
 62
               7
100
AcDbCircle
 10
10.0
 20
-22.499984741210938
 30
0.0
 40
5.7224998474121094
  0
CIRCLE
  5
E4
100
AcDbEntity
  8
0
  6
CONTINUOUS
 62
               7
100
AcDbCircle
 10
10.0
 20
-42.499984741210937
 30
0.0
 40
5.7224998474121094
  0
CIRCLE
  5
E5
100
AcDbEntity
  8
0
  6
CONTINUOUS
 62
               2
100
AcDbCircle
 10
10.0
 20
-42.499984741210937
 30
0.0
 40
6.5784997940063477
  0
ARC
  5
E6
100
AcDbEntity
  8
0
  6
CONTINUOUS
 62
               7
100
AcDbCircle
 10
63.999984740978107
 20
-78.999984740978107
 30
0.0
 40
0.5000152592547238
100
AcDbArc
 50
270.00174850174591
 51
359.99825149825267
  0
ARC
  5
E7
100
AcDbEntity
  8
0
  6
CONTINUOUS
 62
               7
100
AcDbCircle
 10
31.000015259021893
 20
-78.999984740978107
 30
0.0
 40
0.5000152592547238
100
AcDbArc
 50
180.00174850174614
 51
269.99825149825278
  0
LINE
  5
E8
100
AcDbEntity
  8
0
  6
CENTER
 62
               2
100
AcDbLine
 10
-4.0
 20
-60.0
 30
0.0
 11
4.0
 21
-60.0
 31
0.0
  0
LINE
  5
E9
100
AcDbEntity
  8
0
  6
CENTER
 62
               2
100
AcDbLine
 10
-4.0
 20
0.0
 30
0.0
 11
4.0
 21
0.0
 31
0.0
  0
LINE
  5
EA
100
AcDbEntity
  8
0
  6
CONTINUOUS
 62
               7
100
AcDbLine
 10
30.5
 20
-0.75
 30
0.0
 11
30.0
 21
-0.75
 31
0.0
  0
LINE
  5
EB
100
AcDbEntity
  8
0
  6
CONTINUOUS
 62
               7
100
AcDbLine
 10
30.5
 20
2.75
 30
0.0
 11
30.0
 21
2.75
 31
0.0
  0
LINE
  5
EC
100
AcDbEntity
  8
0
  6
CONTINUOUS
 62
               7
100
AcDbLine
 10
30.5
 20
-56.5
 30
0.0
 11
30.0
 21
-56.5
 31
0.0
  0
LINE
  5
ED
100
AcDbEntity
  8
0
  6
CONTINUOUS
 62
               7
100
AcDbLine
 10
30.5
 20
-3.5
 30
0.0
 11
30.0
 21
-3.5
 31
0.0
  0
LINE
  5
EE
100
AcDbEntity
  8
0
  6
CONTINUOUS
 62
               7
100
AcDbLine
 10
62.5
 20
6.5
 30
0.0
 11
60.5
 21
9.0
 31
0.0
  0
LINE
  5
EF
100
AcDbEntity
  8
0
  6
CONTINUOUS
 62
               7
100
AcDbLine
 10
30.5
 20
6.5
 30
0.0
 11
32.5
 21
9.0
 31
0.0
  0
LINE
  5
F0
100
AcDbEntity
  8
0
  6
CONTINUOUS
 62
               7
100
AcDbLine
 10
60.5
 20
9.0
 30
0.0
 11
32.5
 21
9.0
 31
0.0
  0
LINE
  5
F1
100
AcDbEntity
  8
0
  6
CONTINUOUS
 62
               7
100
AcDbLine
 10
63.200000000000003
 20
-47.049999999999997
 30
0.0
 11
62.5
 21
-47.049999999999997
 31
0.0
  0
LINE
  5
F2
100
AcDbEntity
  8
0
  6
CONTINUOUS
 62
               7
100
AcDbLine
 10
63.200000000000003
 20
-52.950000000000003
 30
0.0
 11
62.5
 21
-52.950000000000003
 31
0.0
  0
LINE
  5
F3
100
AcDbEntity
  8
0
  6
CONTINUOUS
 62
               7
100
AcDbLine
 10
63.200000000000003
 20
-52.950000000000003
 30
0.0
 11
63.200000000000003
 21
-47.049999999999997
 31
0.0
  0
LINE
  5
F4
100
AcDbEntity
  8
0
  6
CONTINUOUS
 62
               7
100
AcDbLine
 10
63.700000000000003
 20
-52.75
 30
0.0
 11
63.200000000000003
 21
-52.75
 31
0.0
  0
LINE
  5
F5
100
AcDbEntity
  8
0
  6
CONTINUOUS
 62
               7
100
AcDbLine
 10
63.700000000000003
 20
-47.25
 30
0.0
 11
63.200000000000003
 21
-47.25
 31
0.0
  0
LINE
  5
F6
100
AcDbEntity
  8
0
  6
CONTINUOUS
 62
               7
100
AcDbLine
 10
65.200000000000003
 20
-48.75
 30
0.0
 11
65.200000000000003
 21
-51.25
 31
0.0
  0
LINE
  5
F7
100
AcDbEntity
  8
0
  6
CONTINUOUS
 62
               7
100
AcDbLine
 10
66.0
 20
-5.25
 30
0.0
 11
65.5
 21
-5.25
 31
0.0
  0
LINE
  5
F8
100
AcDbEntity
  8
0
  6
CONTINUOUS
 62
               7
100
AcDbLine
 10
66.0
 20
-10.75
 30
0.0
 11
65.5
 21
-10.75
 31
0.0
  0
LINE
  5
F9
100
AcDbEntity
  8
0
  6
CONTINUOUS
 62
               7
100
AcDbLine
 10
65.5
 20
-11.0
 30
0.0
 11
65.5
 21
-3.7000000000000002
 31
0.0
  0
LINE
  5
FA
100
AcDbEntity
  8
0
  6
CONTINUOUS
 62
               7
100
AcDbLine
 10
56.75
 20
-77.5
 30
0.0
 11
56.75
 21
-77.0
 31
0.0
  0
LINE
  5
FB
100
AcDbEntity
  8
0
  6
CONTINUOUS
 62
               7
100
AcDbLine
 10
62.25
 20
-77.5
 30
0.0
 11
62.25
 21
-77.0
 31
0.0
  0
LINE
  5
FC
100
AcDbEntity
  8
0
  6
CONTINUOUS
 62
               7
100
AcDbLine
 10
60.75
 20
-79.0
 30
0.0
 11
58.25
 21
-79.0
 31
0.0
  0
LINE
  5
FD
100
AcDbEntity
  8
0
  6
CONTINUOUS
 62
               7
100
AcDbLine
 10
62.700000000000003
 20
-77.0
 30
0.0
 11
56.299999999999997
 21
-77.0
 31
0.0
  0
LINE
  5
FE
100
AcDbEntity
  8
0
  6
CONTINUOUS
 62
               7
100
AcDbLine
 10
56.299999999999997
 20
-79.5
 30
0.0
 11
56.299999999999997
 21
-77.0
 31
0.0
  0
LINE
  5
FF
100
AcDbEntity
  8
0
  6
CONTINUOUS
 62
               7
100
AcDbLine
 10
62.700000000000003
 20
-79.5
 30
0.0
 11
62.700000000000003
 21
-77.0
 31
0.0
  0
LINE
  5
100
100
AcDbEntity
  8
0
  6
CENTER
 62
               2
100
AcDbLine
 10
10.0
 20
-50.07
 30
0.0
 11
10.0
 21
-14.92
 31
0.0
  0
LINE
  5
101
100
AcDbEntity
  8
0
  6
CENTER
 62
               2
100
AcDbLine
 10
17.57
 20
-22.5
 30
0.0
 11
2.4199999999999999
 21
-22.5
 31
0.0
  0
LINE
  5
102
100
AcDbEntity
  8
0
  6
CONTINUOUS
 62
               7
100
AcDbLine
 10
0.0
 20
-66.0
 30
0.0
 11
0.0
 21
6.0
 31
0.0
  0
LINE
  5
103
100
AcDbEntity
  8
0
  6
CENTER
 62
               2
100
AcDbLine
 10
17.57
 20
-42.5
 30
0.0
 11
2.4199999999999999
 21
-42.5
 31
0.0
  0
LINE
  5
104
100
AcDbEntity
  8
0
  6
CONTINUOUS
 62
               7
100
AcDbLine
 10
62.5
 20
6.5
 30
0.0
 11
30.5
 21
6.5
 31
0.0
  0
LINE
  5
105
100
AcDbEntity
  8
0
  6
CONTINUOUS
 62
               7
100
AcDbLine
 10
30.0
 20
-66.0
 30
0.0
 11
30.0
 21
6.0
 31
0.0
  0
LINE
  5
106
100
AcDbEntity
  8
0
  6
CONTINUOUS
 62
               7
100
AcDbLine
 10
30.0
 20
-66.0
 30
0.0
 11
0.0
 21
-66.0
 31
0.0
  0
LINE
  5
107
100
AcDbEntity
  8
0
  6
CONTINUOUS
 62
               7
100
AcDbLine
 10
30.0
 20
6.0
 30
0.0
 11
0.0
 21
6.0
 31
0.0
  0
LINE
  5
108
100
AcDbEntity
  8
0
  6
CONTINUOUS
 62
               7
100
AcDbLine
 10
67.5
 20
-53.0
 30
0.0
 11
62.5
 21
-53.0
 31
0.0
  0
LINE
  5
109
100
AcDbEntity
  8
0
  6
CONTINUOUS
 62
               7
100
AcDbLine
 10
67.5
 20
-47.0
 30
0.0
 11
62.5
 21
-47.0
 31
0.0
  0
LINE
  5
10A
100
AcDbEntity
  8
0
  6
CONTINUOUS
 62
               7
100
AcDbLine
 10
67.5
 20
-11.0
 30
0.0
 11
65.5
 21
-11.0
 31
0.0
  0
LINE
  5
10B
100
AcDbEntity
  8
0
  6
CONTINUOUS
 62
               7
100
AcDbLine
 10
63.5
 20
-57.5
 30
0.0
 11
63.5
 21
-56.5
 31
0.0
  0
LINE
  5
10C
100
AcDbEntity
  8
0
  6
CONTINUOUS
 62
               7
100
AcDbLine
 10
64.5
 20
-57.5
 30
0.0
 11
64.5
 21
-56.5
 31
0.0
  0
LINE
  5
10D
100
AcDbEntity
  8
0
  6
CONTINUOUS
 62
               7
100
AcDbLine
 10
65.5
 20
-57.5
 30
0.0
 11
62.5
 21
-57.5
 31
0.0
  0
LINE
  5
10E
100
AcDbEntity
  8
0
  6
CONTINUOUS
 62
               7
100
AcDbLine
 10
65.5
 20
-67.5
 30
0.0
 11
62.5
 21
-67.5
 31
0.0
  0
LINE
  5
10F
100
AcDbEntity
  8
0
  6
CONTINUOUS
 62
               7
100
AcDbLine
 10
65.299999999999997
 20
-65.599999999999994
 30
0.0
 11
62.5
 21
-65.599999999999994
 31
0.0
  0
LINE
  5
110
100
AcDbEntity
  8
0
  6
CONTINUOUS
 62
               7
100
AcDbLine
 10
65.299999999999997
 20
-59.399999999999999
 30
0.0
 11
62.5
 21
-59.399999999999999
 31
0.0
  0
LINE
  5
111
100
AcDbEntity
  8
0
  6
CONTINUOUS
 62
               7
100
AcDbLine
 10
62.5
 20
-68.5
 30
0.0
 11
62.5
 21
-65.599999999999994
 31
0.0
  0
LINE
  5
112
100
AcDbEntity
  8
0
  6
CONTINUOUS
 62
               7
100
AcDbLine
 10
63.5
 20
-68.5
 30
0.0
 11
63.5
 21
-67.5
 31
0.0
  0
LINE
  5
113
100
AcDbEntity
  8
0
  6
CONTINUOUS
 62
               7
100
AcDbLine
 10
65.5
 20
-67.5
 30
0.0
 11
65.5
 21
-57.5
 31
0.0
  0
LINE
  5
114
100
AcDbEntity
  8
0
  6
CONTINUOUS
 62
               7
100
AcDbLine
 10
65.299999999999997
 20
-65.599999999999994
 30
0.0
 11
65.299999999999997
 21
-59.399999999999999
 31
0.0
  0
LINE
  5
115
100
AcDbEntity
  8
0
  6
CONTINUOUS
 62
               7
100
AcDbLine
 10
65.5
 20
-67.5
 30
0.0
 11
66.5
 21
-66.5
 31
0.0
  0
LINE
  5
116
100
AcDbEntity
  8
0
  6
CONTINUOUS
 62
               7
100
AcDbLine
 10
65.5
 20
-57.5
 30
0.0
 11
66.5
 21
-58.5
 31
0.0
  0
LINE
  5
117
100
AcDbEntity
  8
0
  6
CONTINUOUS
 62
               7
100
AcDbLine
 10
66.5
 20
-66.5
 30
0.0
 11
66.5
 21
-58.5
 31
0.0
  0
LINE
  5
118
100
AcDbEntity
  8
0
  6
CONTINUOUS
 62
               7
100
AcDbLine
 10
64.5
 20
-65.599999999999994
 30
0.0
 11
64.5
 21
-59.399999999999999
 31
0.0
  0
LINE
  5
119
100
AcDbEntity
  8
0
  6
CONTINUOUS
 62
               7
100
AcDbLine
 10
33.0
 20
9.0
 30
0.0
 11
33.0
 21
20.0
 31
0.0
  0
LINE
  5
11A
100
AcDbEntity
  8
0
  6
CONTINUOUS
 62
               7
100
AcDbLine
 10
60.0
 20
9.0
 30
0.0
 11
60.0
 21
20.0
 31
0.0
  0
LINE
  5
11B
100
AcDbEntity
  8
0
  6
CONTINUOUS
 62
               7
100
AcDbLine
 10
33.0
 20
20.0
 30
0.0
 11
60.0
 21
20.0
 31
0.0
  0
LINE
  5
11C
100
AcDbEntity
  8
0
  6
CONTINUOUS
 62
               7
100
AcDbLine
 10
61.0
 20
17.0
 30
0.0
 11
61.0
 21
18.649999999999999
 31
0.0
  0
LINE
  5
11D
100
AcDbEntity
  8
0
  6
CONTINUOUS
 62
               7
100
AcDbLine
 10
61.0
 20
17.0
 30
0.0
 11
60.399999999999999
 21
17.0
 31
0.0
  0
LINE
  5
11E
100
AcDbEntity
  8
0
  6
CONTINUOUS
 62
               7
100
AcDbLine
 10
61.0
 20
16.399999999999999
 30
0.0
 11
60.399999999999999
 21
16.399999999999999
 31
0.0
  0
LINE
  5
11F
100
AcDbEntity
  8
0
  6
CONTINUOUS
 62
               7
100
AcDbLine
 10
60.399999999999999
 20
16.399999999999999
 30
0.0
 11
60.399999999999999
 21
17.0
 31
0.0
  0
LINE
  5
120
100
AcDbEntity
  8
0
  6
CONTINUOUS
 62
               7
100
AcDbLine
 10
61.0
 20
18.649999999999999
 30
0.0
 11
60.0
 21
18.649999999999999
 31
0.0
  0
LINE
  5
121
100
AcDbEntity
  8
0
  6
CONTINUOUS
 62
               7
100
AcDbLine
 10
61.0
 20
14.75
 30
0.0
 11
60.0
 21
14.75
 31
0.0
  0
LINE
  5
122
100
AcDbEntity
  8
0
  6
CONTINUOUS
 62
               7
100
AcDbLine
 10
61.0
 20
14.75
 30
0.0
 11
61.0
 21
16.399999999999999
 31
0.0
  0
LINE
  5
123
100
AcDbEntity
  8
0
  6
CENTER
 62
               2
100
AcDbLine
 10
62.0
 20
16.699999999999999
 30
0.0
 11
59.299999999999997
 21
16.699999999999999
 31
0.0
  0
LINE
  5
124
100
AcDbEntity
  8
0
  6
CONTINUOUS
 62
               7
100
AcDbLine
 10
64.0
 20
-79.5
 30
0.0
 11
31.0
 21
-79.5
 31
0.0
  0
LINE
  5
125
100
AcDbEntity
  8
0
  6
CONTINUOUS
 62
               7
100
AcDbLine
 10
67.5
 20
-54.299999999999997
 30
0.0
 11
65.5
 21
-56.299999999999997
 31
0.0
  0
LINE
  5
126
100
AcDbEntity
  8
0
  6
CONTINUOUS
 62
               7
100
AcDbLine
 10
67.5
 20
-5.7000000000000002
 30
0.0
 11
65.5
 21
-3.7000000000000002
 31
0.0
  0
LINE
  5
127
100
AcDbEntity
  8
0
  6
CONTINUOUS
 62
               7
100
AcDbLine
 10
65.5
 20
-3.7000000000000002
 30
0.0
 11
62.5
 21
-3.7000000000000002
 31
0.0
  0
LINE
  5
128
100
AcDbEntity
  8
0
  6
CONTINUOUS
 62
               7
100
AcDbLine
 10
65.5
 20
-56.299999999999997
 30
0.0
 11
62.5
 21
-56.299999999999997
 31
0.0
  0
LINE
  5
129
100
AcDbEntity
  8
0
  6
CONTINUOUS
 62
               7
100
AcDbLine
 10
67.5
 20
-54.299999999999997
 30
0.0
 11
67.5
 21
-5.7000000000000002
 31
0.0
  0
LINE
  5
12A
100
AcDbEntity
  8
0
  6
CONTINUOUS
 62
               7
100
AcDbLine
 10
64.5
 20
-79.0
 30
0.0
 11
64.5
 21
-67.5
 31
0.0
  0
LINE
  5
12B
100
AcDbEntity
  8
0
  6
CONTINUOUS
 62
               7
100
AcDbLine
 10
64.5
 20
-68.5
 30
0.0
 11
30.5
 21
-68.5
 31
0.0
  0
LINE
  5
12C
100
AcDbEntity
  8
0
  6
CONTINUOUS
 62
               7
100
AcDbLine
 10
64.5
 20
-56.5
 30
0.0
 11
30.5
 21
-56.5
 31
0.0
  0
LINE
  5
12D
100
AcDbEntity
  8
0
  6
CONTINUOUS
 62
               7
100
AcDbLine
 10
62.5
 20
-59.399999999999999
 30
0.0
 11
62.5
 21
6.5
 31
0.0
  0
LINE
  5
12E
100
AcDbEntity
  8
0
  6
CONTINUOUS
 62
               7
100
AcDbLine
 10
30.5
 20
-79.0
 30
0.0
 11
30.5
 21
6.5
 31
0.0
  0
LINE
  5
12F
100
AcDbEntity
  8
0
  6
CONTINUOUS
 62
               7
100
AcDbLine
 10
62.5
 20
-3.5
 30
0.0
 11
30.5
 21
-3.5
 31
0.0
  0
ENDBLK
  5
130
100
AcDbEntity
  8
0
100
AcDbBlockEnd
  0
BLOCK
  5
131
100
AcDbEntity
  8
0
100
AcDbBlockBegin
  2
MS_3
 70
               0
 10
0.0
 20
0.0
 30
0.0
  3
MS_3
  1

  0
LINE
  5
132
100
AcDbEntity
  8
0
  6
CONTINUOUS
 62
               4
100
AcDbLine
 10
-33.0
 20
44.0
 30
0.0
 11
-59.999992370605469
 21
44.0
 31
0.0
  0
LINE
  5
133
100
AcDbEntity
  8
0
  6
CONTINUOUS
 62
               4
100
AcDbLine
 10
-44.099999999999994
 20
57.5
 30
0.0
 11
-44.099999999999994
 21
53.0
 31
0.0
  0
LINE
  5
134
100
AcDbEntity
  8
0
  6
CONTINUOUS
 62
               4
100
AcDbLine
 10
-35.149987792968744
 20
64.0
 30
0.0
 11
-44.149987792968744
 21
64.0
 31
0.0
  0
LINE
  5
135
100
AcDbEntity
  8
0
  6
CONTINUOUS
 62
               4
100
AcDbLine
 10
-35.5
 20
57.5
 30
0.0
 11
-44.150003051757807
 21
57.5
 31
0.0
  0
LINE
  5
136
100
AcDbEntity
  8
0
  6
CONTINUOUS
 62
               4
100
AcDbLine
 10
-44.727349853515619
 20
64.0
 30
0.0
 11
-46.149995422363276
 21
64.0
 31
0.0
  0
LINE
  5
137
100
AcDbEntity
  8
0
  6
CONTINUOUS
 62
               4
100
AcDbLine
 10
-44.099999999999994
 20
54.998458862304688
 30
0.0
 11
-44.150003051757807
 21
54.998458862304688
 31
0.0
  0
LINE
  5
138
100
AcDbEntity
  8
0
  6
CONTINUOUS
 62
               4
100
AcDbLine
 10
-44.150003051757807
 20
53.498458862304688
 30
0.0
 11
-45.149995422363276
 21
53.498458862304688
 31
0.0
  0
LINE
  5
139
100
AcDbEntity
  8
0
  6
CONTINUOUS
 62
               4
100
AcDbLine
 10
-44.150003051757807
 20
54.998458862304688
 30
0.0
 11
-44.150003051757807
 21
57.5
 31
0.0
  0
LINE
  5
13A
100
AcDbEntity
  8
0
  6
CONTINUOUS
 62
               4
100
AcDbLine
 10
-45.649995422363276
 20
62.5
 30
0.0
 11
-46.149995422363276
 21
62.5
 31
0.0
  0
LINE
  5
13B
100
AcDbEntity
  8
0
  6
CONTINUOUS
 62
               4
100
AcDbLine
 10
-44.150000209407693
 20
53.498474151870141
 30
0.0
 11
-44.099979656101453
 21
53.548494705176381
 31
0.0
  0
LINE
  5
13C
100
AcDbEntity
  8
0
  6
CONTINUOUS
 62
               4
100
AcDbLine
 10
-35.650003051757807
 20
57.5
 30
0.0
 11
-35.650003051757807
 21
63.0
 31
0.0
  0
LINE
  5
13D
100
AcDbEntity
  8
0
  6
CONTINUOUS
 62
               4
100
AcDbLine
 10
-35.150003051757807
 20
63.0
 30
0.0
 11
-35.150003051757807
 21
64.0
 31
0.0
  0
LINE
  5
13E
100
AcDbEntity
  8
0
  6
CONTINUOUS
 62
               4
100
AcDbLine
 10
-35.149987792968744
 20
63.0
 30
0.0
 11
-35.649987792968744
 21
63.0
 31
0.0
  0
LINE
  5
13F
100
AcDbEntity
  8
0
  6
CONTINUOUS
 62
               4
100
AcDbLine
 10
-45.650003051757807
 20
57.05615234375
 30
0.0
 11
-45.650003051757807
 21
62.5
 31
0.0
  0
LINE
  5
140
100
AcDbEntity
  8
0
  6
CONTINUOUS
 62
               4
100
AcDbLine
 10
-45.150001302236518
 20
53.49845074175937
 30
0.0
 11
-45.650000411113609
 21
57.056138825448215
 31
0.0
  0
LINE
  5
141
100
AcDbEntity
  8
0
  6
CONTINUOUS
 62
               4
100
AcDbLine
 10
-44.150003051757807
 20
57.5
 30
0.0
 11
-44.150003051757807
 21
64.0
 31
0.0
  0
LINE
  5
142
100
AcDbEntity
  8
0
  6
CONTINUOUS
 62
               4
100
AcDbLine
 10
-44.150044511604023
 20
62.999958942901685
 30
0.0
 11
-44.727396327367927
 21
63.999967647856465
 31
0.0
  0
LINE
  5
143
100
AcDbEntity
  8
0
  6
CONTINUOUS
 62
               4
100
AcDbLine
 10
-46.150003051757807
 20
62.5
 30
0.0
 11
-46.150003051757807
 21
64.0
 31
0.0
  0
LINE
  5
144
100
AcDbEntity
  8
0
  6
CONTINUOUS
 62
               4
100
AcDbLine
 10
-37.700006103515619
 20
77.0
 30
0.0
 11
-38.500009155273432
 21
77.0
 31
0.0
  0
LINE
  5
145
100
AcDbEntity
  8
0
  6
CONTINUOUS
 62
               4
100
AcDbLine
 10
-38.500009155273432
 20
72.0
 30
0.0
 11
-38.500009155273432
 21
77.0
 31
0.0
  0
LINE
  5
146
100
AcDbEntity
  8
0
  6
CONTINUOUS
 62
               4
100
AcDbLine
 10
-37.700006103515619
 20
72.0
 30
0.0
 11
-37.700006103515619
 21
77.0
 31
0.0
  0
LINE
  5
147
100
AcDbEntity
  8
0
  6
CONTINUOUS
 62
               4
100
AcDbLine
 10
-37.385003662109369
 20
64.0
 30
0.0
 11
-37.385003662109369
 21
68.598403930664063
 31
0.0
  0
LINE
  5
148
100
AcDbEntity
  8
0
  6
CONTINUOUS
 62
               4
100
AcDbLine
 10
-38.815011596679682
 20
64.0
 30
0.0
 11
-38.815011596679682
 21
67.772796630859375
 31
0.0
  0
LINE
  5
149
100
AcDbEntity
  8
0
  6
CONTINUOUS
 62
               4
100
AcDbLine
 10
-37.385003662109369
 20
72.0
 30
0.0
 11
-38.815011596679682
 21
72.0
 31
0.0
  0
LINE
  5
14A
100
AcDbEntity
  8
0
  6
CONTINUOUS
 62
               4
100
AcDbLine
 10
-38.815011596679682
 20
68.927490234375
 30
0.0
 11
-38.815011596679682
 21
72.0
 31
0.0
  0
LINE
  5
14B
100
AcDbEntity
  8
0
  6
CONTINUOUS
 62
               4
100
AcDbLine
 10
-37.385003662109369
 20
69.75311279296875
 30
0.0
 11
-37.385003662109369
 21
72.0
 31
0.0
  0
LINE
  5
14C
100
AcDbEntity
  8
0
  6
CONTINUOUS
 62
               4
100
AcDbLine
 10
-39.885003662109369
 20
68.309738159179688
 30
0.0
 11
-39.885003662109369
 21
72.0
 31
0.0
  0
LINE
  5
14D
100
AcDbEntity
  8
0
  6
CONTINUOUS
 62
               4
100
AcDbLine
 10
-41.315011596679682
 20
67.484115600585937
 30
0.0
 11
-41.315011596679682
 21
72.0
 31
0.0
  0
LINE
  5
14E
100
AcDbEntity
  8
0
  6
CONTINUOUS
 62
               4
100
AcDbLine
 10
-41.315011596679682
 20
72.0
 30
0.0
 11
-39.885003662109369
 21
72.0
 31
0.0
  0
LINE
  5
14F
100
AcDbEntity
  8
0
  6
CONTINUOUS
 62
               4
100
AcDbLine
 10
-40.200006103515619
 20
72.0
 30
0.0
 11
-40.200006103515619
 21
77.0
 31
0.0
  0
LINE
  5
150
100
AcDbEntity
  8
0
  6
CONTINUOUS
 62
               4
100
AcDbLine
 10
-41.000009155273432
 20
72.0
 30
0.0
 11
-41.000009155273432
 21
76.999984741210937
 31
0.0
  0
LINE
  5
151
100
AcDbEntity
  8
0
  6
CONTINUOUS
 62
               4
100
AcDbLine
 10
-41.000009155273432
 20
77.0
 30
0.0
 11
-40.200006103515619
 21
77.0
 31
0.0
  0
LINE
  5
152
100
AcDbEntity
  8
0
  6
CONTINUOUS
 62
               4
100
AcDbLine
 10
-39.885003662109369
 20
64.0
 30
0.0
 11
-39.885003662109369
 21
67.155029296875
 31
0.0
  0
LINE
  5
153
100
AcDbEntity
  8
0
  6
CONTINUOUS
 62
               4
100
AcDbLine
 10
-41.315011596679682
 20
64.0
 30
0.0
 11
-41.315011596679682
 21
66.329421997070312
 31
0.0
  0
LINE
  5
154
100
AcDbEntity
  8
0
  6
CONTINUOUS
 62
             200
100
AcDbLine
 10
-35.884996367317029
 20
70.619105809934808
 30
0.0
 11
-42.815025458880513
 21
66.618057246153512
 31
0.0
  0
LINE
  5
155
100
AcDbEntity
  8
0
  6
CONTINUOUS
 62
             200
100
AcDbLine
 10
-35.885020915691342
 20
69.464464815078827
 30
0.0
 11
-42.815031069210448
 21
65.46341291056342
 31
0.0
  0
ARC
  5
156
100
AcDbEntity
  8
0
  6
CONTINUOUS
 62
               4
100
AcDbCircle
 10
-33.5
 20
52.5
 30
0.0
 40
0.5
100
AcDbArc
 50
0.0
 51
89.999999999999801
  0
LINE
  5
157
100
AcDbEntity
  8
0
  6
CONTINUOUS
 62
               4
100
AcDbLine
 10
-35.5
 20
53.0
 30
0.0
 11
-33.5
 21
53.0
 31
0.0
  0
LINE
  5
158
100
AcDbEntity
  8
0
  6
CONTINUOUS
 62
               4
100
AcDbLine
 10
-35.5
 20
57.5
 30
0.0
 11
-35.5
 21
53.0
 31
0.0
  0
LINE
  5
159
100
AcDbEntity
  8
0
  6
CONTINUOUS
 62
               4
100
AcDbLine
 10
-44.099999999999994
 20
57.5
 30
0.0
 11
-44.099999999999994
 21
53.0
 31
0.0
  0
ARC
  5
15A
100
AcDbEntity
  8
0
  6
CONTINUOUS
 62
               4
100
AcDbCircle
 10
-58.502020395360574
 20
48.179610903929301
 30
0.0
 40
1.4979796551727449
100
AcDbArc
 50
155.95369022728892
 51
179.98511757963411
  0
ARC
  5
15B
100
AcDbEntity
  8
0
  6
CONTINUOUS
 62
               4
100
AcDbCircle
 10
-57.674020838564047
 20
52.500099937446265
 30
0.0
 40
0.4999010215015999
100
AcDbArc
 50
90.112225923134773
 51
155.80262379109485
  0
LINE
  5
15C
100
AcDbEntity
  8
0
  6
CONTINUOUS
 62
               4
100
AcDbLine
 10
-58.129999999999995
 20
52.705000000000013
 30
0.0
 11
-59.870000000000005
 21
48.789999999999992
 31
0.0
  0
LINE
  5
15D
100
AcDbEntity
  8
0
  6
CONTINUOUS
 62
               4
100
AcDbLine
 10
-60.0
 20
48.180000000000007
 30
0.0
 11
-60.0
 21
44.0
 31
0.0
  0
LINE
  5
15E
100
AcDbEntity
  8
0
  6
CONTINUOUS
 62
               4
100
AcDbLine
 10
-33.0
 20
52.5
 30
0.0
 11
-33.0
 21
44.0
 31
0.0
  0
LINE
  5
15F
100
AcDbEntity
  8
0
  6
CONTINUOUS
 62
               4
100
AcDbLine
 10
-33.0
 20
20.0
 30
0.0
 11
-33.0
 21
44.0
 31
0.0
  0
LINE
  5
160
100
AcDbEntity
  8
0
  6
CONTINUOUS
 62
               4
100
AcDbLine
 10
-60.0
 20
20.0
 30
0.0
 11
-60.0
 21
44.0
 31
0.0
  0
LINE
  5
161
100
AcDbEntity
  8
0
  6
CONTINUOUS
 62
               4
100
AcDbLine
 10
-44.099999999999994
 20
53.0
 30
0.0
 11
-57.674999999999983
 21
53.0
 31
0.0
  0
ARC
  5
162
100
AcDbEntity
  8
0
  6
CONTINUOUS
 62
               7
100
AcDbCircle
 10
-63.699990844574451
 20
-11.249990844574445
 30
0.0
 40
1.5000091554534953
100
AcDbArc
 50
180.00034970936107
 51
269.99965029063804
  0
ARC
  5
163
100
AcDbEntity
  8
0
  6
CONTINUOUS
 62
               7
100
AcDbCircle
 10
-63.70002136227675
 20
-8.7499786377232542
 30
0.0
 40
1.4999786378753712
100
AcDbArc
 50
89.9991840095133
 51
180.00081599048602
  0
ARC
  5
164
100
AcDbEntity
  8
0
  6
CONTINUOUS
 62
               7
100
AcDbCircle
 10
-66.000045776289582
 20
-50.749954223710425
 30
0.0
 40
1.4999542244089334
100
AcDbArc
 50
89.998251421174828
 51
180.00174857882428
  0
ARC
  5
165
100
AcDbEntity
  8
0
  6
CONTINUOUS
 62
               7
100
AcDbCircle
 10
-65.999984740512446
 20
-53.249984740512446
 30
0.0
 40
1.500015259565171
100
AcDbArc
 50
180.00058286355969
 51
269.99941713643932
  0
ARC
  5
166
100
AcDbEntity
  8
0
  6
CONTINUOUS
 62
               7
100
AcDbCircle
 10
-32.250030517578125
 20
-77.499969482421875
 30
0.0
 40
1.5000305178885596
100
AcDbArc
 50
270.00116566190212
 51
359.99883433809646
  0
ARC
  5
167
100
AcDbEntity
  8
0
  6
CONTINUOUS
 62
               7
100
AcDbCircle
 10
-34.749999999689557
 20
-77.499999999689564
 30
0.0
 40
1.500000000310441
100
AcDbArc
 50
180.00000001185737
 51
269.99999998814133
  0
ARC
  5
168
100
AcDbEntity
  8
0
  6
CONTINUOUS
 62
               7
100
AcDbCircle
 10
-59.501576732847894
 20
9.4996980423790731
 30
0.0
 40
2.5019845344443383
100
AcDbArc
 50
220.64438155015091
 51
348.47937459861595
  0
CIRCLE
  5
169
100
AcDbEntity
  8
0
  6
CONTINUOUS
 62
               7
100
AcDbCircle
 10
-25.0
 20
1.0
 30
0.0
 40
2.0669994354248047
  0
CIRCLE
  5
16A
100
AcDbEntity
  8
0
  6
CONTINUOUS
 62
               7
100
AcDbCircle
 10
-15.0
 20
-10.0
 30
0.0
 40
5.7224998474121094
  0
CIRCLE
  5
16B
100
AcDbEntity
  8
0
  6
CONTINUOUS
 62
               7
100
AcDbCircle
 10
-20.000030517578125
 20
-29.999984741210937
 30
0.0
 40
5.7224998474121094
  0
CIRCLE
  5
16C
100
AcDbEntity
  8
0
  6
CONTINUOUS
 62
               7
100
AcDbCircle
 10
-15.000030517578125
 20
-49.999984741210938
 30
0.0
 40
5.7224998474121094
  0
CIRCLE
  5
16D
100
AcDbEntity
  8
0
  6
CONTINUOUS
 62
               2
100
AcDbCircle
 10
-25.0
 20
1.0
 30
0.0
 40
2.5
  0
CIRCLE
  5
16E
100
AcDbEntity
  8
0
  6
CONTINUOUS
 62
               2
100
AcDbCircle
 10
-15.0
 20
-10.0
 30
0.0
 40
6.5784997940063477
  0
CIRCLE
  5
16F
100
AcDbEntity
  8
0
  6
CONTINUOUS
 62
               2
100
AcDbCircle
 10
-20.000030517578125
 20
-29.999984741210937
 30
0.0
 40
6.5784997940063477
  0
CIRCLE
  5
170
100
AcDbEntity
  8
0
  6
CONTINUOUS
 62
               2
100
AcDbCircle
 10
-15.000030517578125
 20
-49.999984741210938
 30
0.0
 40
6.5784997940063477
  0
ARC
  5
171
100
AcDbEntity
  8
0
  6
CONTINUOUS
 62
               7
100
AcDbCircle
 10
-63.999999999068677
 20
-78.999999999068677
 30
0.0
 40
0.5000000009313226
100
AcDbArc
 50
180.0000001067213
 51
269.99999989327767
  0
ARC
  5
172
100
AcDbEntity
  8
0
  6
CONTINUOUS
 62
               7
100
AcDbCircle
 10
-31.000030517578125
 20
-78.999969482421875
 30
0.0
 40
0.5000305185093907
100
AcDbArc
 50
270.00349684341967
 51
359.99650315657885
  0
LINE
  5
173
100
AcDbEntity
  8
0
  6
CENTER
 62
               2
100
AcDbLine
 10
-4.0
 20
-60.0
 30
0.0
 11
4.0
 21
-60.0
 31
0.0
  0
LINE
  5
174
100
AcDbEntity
  8
0
  6
CENTER
 62
               2
100
AcDbLine
 10
-4.0
 20
0.0
 30
0.0
 11
4.0
 21
0.0
 31
0.0
  0
LINE
  5
175
100
AcDbEntity
  8
0
  6
CONTINUOUS
 62
               7
100
AcDbLine
 10
-30.5
 20
-0.75
 30
0.0
 11
-30.0
 21
-0.75
 31
0.0
  0
LINE
  5
176
100
AcDbEntity
  8
0
  6
CONTINUOUS
 62
               7
100
AcDbLine
 10
-30.5
 20
2.75
 30
0.0
 11
-30.0
 21
2.75
 31
0.0
  0
LINE
  5
177
100
AcDbEntity
  8
0
  6
CONTINUOUS
 62
               7
100
AcDbLine
 10
-30.5
 20
-56.5
 30
0.0
 11
-30.0
 21
-56.5
 31
0.0
  0
LINE
  5
178
100
AcDbEntity
  8
0
  6
CONTINUOUS
 62
               7
100
AcDbLine
 10
-30.5
 20
-3.5
 30
0.0
 11
-30.0
 21
-3.5
 31
0.0
  0
LINE
  5
179
100
AcDbEntity
  8
0
  6
CONTINUOUS
 62
               7
100
AcDbLine
 10
-30.5
 20
6.5
 30
0.0
 11
-32.5
 21
9.0
 31
0.0
  0
LINE
  5
17A
100
AcDbEntity
  8
0
  6
CONTINUOUS
 62
               7
100
AcDbLine
 10
-62.5
 20
6.5
 30
0.0
 11
-60.5
 21
9.0
 31
0.0
  0
LINE
  5
17B
100
AcDbEntity
  8
0
  6
CONTINUOUS
 62
               7
100
AcDbLine
 10
-60.5
 20
9.0
 30
0.0
 11
-32.5
 21
9.0
 31
0.0
  0
LINE
  5
17C
100
AcDbEntity
  8
0
  6
CONTINUOUS
 62
               7
100
AcDbLine
 10
-63.200000000000003
 20
-12.949999999999999
 30
0.0
 11
-62.5
 21
-12.949999999999999
 31
0.0
  0
LINE
  5
17D
100
AcDbEntity
  8
0
  6
CONTINUOUS
 62
               7
100
AcDbLine
 10
-63.200000000000003
 20
-7.0499999999999998
 30
0.0
 11
-62.5
 21
-7.0499999999999998
 31
0.0
  0
LINE
  5
17E
100
AcDbEntity
  8
0
  6
CONTINUOUS
 62
               7
100
AcDbLine
 10
-63.200000000000003
 20
-7.0499999999999998
 30
0.0
 11
-63.200000000000003
 21
-12.949999999999999
 31
0.0
  0
LINE
  5
17F
100
AcDbEntity
  8
0
  6
CONTINUOUS
 62
               7
100
AcDbLine
 10
-63.700000000000003
 20
-7.25
 30
0.0
 11
-63.200000000000003
 21
-7.25
 31
0.0
  0
LINE
  5
180
100
AcDbEntity
  8
0
  6
CONTINUOUS
 62
               7
100
AcDbLine
 10
-63.700000000000003
 20
-12.75
 30
0.0
 11
-63.200000000000003
 21
-12.75
 31
0.0
  0
LINE
  5
181
100
AcDbEntity
  8
0
  6
CONTINUOUS
 62
               7
100
AcDbLine
 10
-65.200000000000003
 20
-11.25
 30
0.0
 11
-65.200000000000003
 21
-8.75
 31
0.0
  0
LINE
  5
182
100
AcDbEntity
  8
0
  6
CONTINUOUS
 62
               7
100
AcDbLine
 10
-66.0
 20
-49.25
 30
0.0
 11
-65.5
 21
-49.25
 31
0.0
  0
LINE
  5
183
100
AcDbEntity
  8
0
  6
CONTINUOUS
 62
               7
100
AcDbLine
 10
-66.0
 20
-54.75
 30
0.0
 11
-65.5
 21
-54.75
 31
0.0
  0
LINE
  5
184
100
AcDbEntity
  8
0
  6
CONTINUOUS
 62
               7
100
AcDbLine
 10
-65.5
 20
-56.299999999999997
 30
0.0
 11
-65.5
 21
-49.0
 31
0.0
  0
LINE
  5
185
100
AcDbEntity
  8
0
  6
CONTINUOUS
 62
               7
100
AcDbLine
 10
-36.25
 20
-77.5
 30
0.0
 11
-36.25
 21
-77.0
 31
0.0
  0
LINE
  5
186
100
AcDbEntity
  8
0
  6
CONTINUOUS
 62
               7
100
AcDbLine
 10
-30.75
 20
-77.5
 30
0.0
 11
-30.75
 21
-77.0
 31
0.0
  0
LINE
  5
187
100
AcDbEntity
  8
0
  6
CONTINUOUS
 62
               7
100
AcDbLine
 10
-32.25
 20
-79.0
 30
0.0
 11
-34.75
 21
-79.0
 31
0.0
  0
LINE
  5
188
100
AcDbEntity
  8
0
  6
CONTINUOUS
 62
               7
100
AcDbLine
 10
-30.5
 20
-77.0
 30
0.0
 11
-36.700000000000003
 21
-77.0
 31
0.0
  0
LINE
  5
189
100
AcDbEntity
  8
0
  6
CONTINUOUS
 62
               7
100
AcDbLine
 10
-36.700000000000003
 20
-79.5
 30
0.0
 11
-36.700000000000003
 21
-77.0
 31
0.0
  0
LINE
  5
18A
100
AcDbEntity
  8
0
  6
CENTER
 62
               2
100
AcDbLine
 10
-15.0
 20
-57.57
 30
0.0
 11
-15.0
 21
-2.4199999999999999
 31
0.0
  0
LINE
  5
18B
100
AcDbEntity
  8
0
  6
CONTINUOUS
 62
               7
100
AcDbLine
 10
0.0
 20
-66.0
 30
0.0
 11
0.0
 21
6.0
 31
0.0
  0
LINE
  5
18C
100
AcDbEntity
  8
0
  6
CENTER
 62
               2
100
AcDbLine
 10
-20.0
 20
-37.57
 30
0.0
 11
-20.0
 21
-22.420000000000002
 31
0.0
  0
LINE
  5
18D
100
AcDbEntity
  8
0
  6
CENTER
 62
               2
100
AcDbLine
 10
-25.0
 20
-2.5
 30
0.0
 11
-25.0
 21
4.5
 31
0.0
  0
LINE
  5
18E
100
AcDbEntity
  8
0
  6
CENTER
 62
               2
100
AcDbLine
 10
-28.5
 20
1.0
 30
0.0
 11
-21.5
 21
1.0
 31
0.0
  0
LINE
  5
18F
100
AcDbEntity
  8
0
  6
CENTER
 62
               2
100
AcDbLine
 10
-22.57
 20
-10.0
 30
0.0
 11
-7.4199999999999999
 21
-10.0
 31
0.0
  0
LINE
  5
190
100
AcDbEntity
  8
0
  6
CENTER
 62
               2
100
AcDbLine
 10
-22.57
 20
-50.0
 30
0.0
 11
-7.4199999999999999
 21
-50.0
 31
0.0
  0
LINE
  5
191
100
AcDbEntity
  8
0
  6
CONTINUOUS
 62
               7
100
AcDbLine
 10
-62.5
 20
6.5
 30
0.0
 11
-30.5
 21
6.5
 31
0.0
  0
LINE
  5
192
100
AcDbEntity
  8
0
  6
CONTINUOUS
 62
               7
100
AcDbLine
 10
-30.0
 20
-66.0
 30
0.0
 11
-30.0
 21
6.0
 31
0.0
  0
LINE
  5
193
100
AcDbEntity
  8
0
  6
CONTINUOUS
 62
               7
100
AcDbLine
 10
-30.0
 20
-66.0
 30
0.0
 11
0.0
 21
-66.0
 31
0.0
  0
LINE
  5
194
100
AcDbEntity
  8
0
  6
CONTINUOUS
 62
               7
100
AcDbLine
 10
-30.0
 20
6.0
 30
0.0
 11
0.0
 21
6.0
 31
0.0
  0
LINE
  5
195
100
AcDbEntity
  8
0
  6
CENTER
 62
               2
100
AcDbLine
 10
-27.57
 20
-30.0
 30
0.0
 11
-12.42
 21
-30.0
 31
0.0
  0
LINE
  5
196
100
AcDbEntity
  8
0
  6
CONTINUOUS
 62
               7
100
AcDbLine
 10
-67.5
 20
-7.0
 30
0.0
 11
-62.5
 21
-7.0
 31
0.0
  0
LINE
  5
197
100
AcDbEntity
  8
0
  6
CONTINUOUS
 62
               7
100
AcDbLine
 10
-67.5
 20
-13.0
 30
0.0
 11
-62.5
 21
-13.0
 31
0.0
  0
LINE
  5
198
100
AcDbEntity
  8
0
  6
CONTINUOUS
 62
               7
100
AcDbLine
 10
-67.5
 20
-49.0
 30
0.0
 11
-65.5
 21
-49.0
 31
0.0
  0
LINE
  5
199
100
AcDbEntity
  8
0
  6
CONTINUOUS
 62
               7
100
AcDbLine
 10
-63.5
 20
-57.5
 30
0.0
 11
-63.5
 21
-56.5
 31
0.0
  0
LINE
  5
19A
100
AcDbEntity
  8
0
  6
CONTINUOUS
 62
               7
100
AcDbLine
 10
-64.5
 20
-57.5
 30
0.0
 11
-64.5
 21
-56.5
 31
0.0
  0
LINE
  5
19B
100
AcDbEntity
  8
0
  6
CONTINUOUS
 62
               7
100
AcDbLine
 10
-65.5
 20
-57.5
 30
0.0
 11
-62.5
 21
-57.5
 31
0.0
  0
LINE
  5
19C
100
AcDbEntity
  8
0
  6
CONTINUOUS
 62
               7
100
AcDbLine
 10
-65.5
 20
-67.5
 30
0.0
 11
-62.5
 21
-67.5
 31
0.0
  0
LINE
  5
19D
100
AcDbEntity
  8
0
  6
CONTINUOUS
 62
               7
100
AcDbLine
 10
-65.299999999999997
 20
-65.599999999999994
 30
0.0
 11
-62.5
 21
-65.599999999999994
 31
0.0
  0
LINE
  5
19E
100
AcDbEntity
  8
0
  6
CONTINUOUS
 62
               7
100
AcDbLine
 10
-65.299999999999997
 20
-59.399999999999999
 30
0.0
 11
-62.5
 21
-59.399999999999999
 31
0.0
  0
LINE
  5
19F
100
AcDbEntity
  8
0
  6
CONTINUOUS
 62
               7
100
AcDbLine
 10
-62.5
 20
-68.5
 30
0.0
 11
-62.5
 21
-65.599999999999994
 31
0.0
  0
LINE
  5
1A0
100
AcDbEntity
  8
0
  6
CONTINUOUS
 62
               7
100
AcDbLine
 10
-63.5
 20
-68.5
 30
0.0
 11
-63.5
 21
-67.5
 31
0.0
  0
LINE
  5
1A1
100
AcDbEntity
  8
0
  6
CONTINUOUS
 62
               7
100
AcDbLine
 10
-65.5
 20
-67.5
 30
0.0
 11
-65.5
 21
-57.5
 31
0.0
  0
LINE
  5
1A2
100
AcDbEntity
  8
0
  6
CONTINUOUS
 62
               7
100
AcDbLine
 10
-65.299999999999997
 20
-65.599999999999994
 30
0.0
 11
-65.299999999999997
 21
-59.399999999999999
 31
0.0
  0
LINE
  5
1A3
100
AcDbEntity
  8
0
  6
CONTINUOUS
 62
               7
100
AcDbLine
 10
-65.5
 20
-67.5
 30
0.0
 11
-66.5
 21
-66.5
 31
0.0
  0
LINE
  5
1A4
100
AcDbEntity
  8
0
  6
CONTINUOUS
 62
               7
100
AcDbLine
 10
-65.5
 20
-57.5
 30
0.0
 11
-66.5
 21
-58.5
 31
0.0
  0
LINE
  5
1A5
100
AcDbEntity
  8
0
  6
CONTINUOUS
 62
               7
100
AcDbLine
 10
-66.5
 20
-66.5
 30
0.0
 11
-66.5
 21
-58.5
 31
0.0
  0
LINE
  5
1A6
100
AcDbEntity
  8
0
  6
CONTINUOUS
 62
               7
100
AcDbLine
 10
-64.5
 20
-65.599999999999994
 30
0.0
 11
-64.5
 21
-59.399999999999999
 31
0.0
  0
LINE
  5
1A7
100
AcDbEntity
  8
0
  6
CONTINUOUS
 62
               7
100
AcDbLine
 10
-33.0
 20
9.0
 30
0.0
 11
-33.0
 21
20.0
 31
0.0
  0
LINE
  5
1A8
100
AcDbEntity
  8
0
  6
CONTINUOUS
 62
               7
100
AcDbLine
 10
-60.0
 20
9.0
 30
0.0
 11
-60.0
 21
20.0
 31
0.0
  0
LINE
  5
1A9
100
AcDbEntity
  8
0
  6
CONTINUOUS
 62
               7
100
AcDbLine
 10
-33.0
 20
20.0
 30
0.0
 11
-60.0
 21
20.0
 31
0.0
  0
LINE
  5
1AA
100
AcDbEntity
  8
0
  6
CONTINUOUS
 62
               7
100
AcDbLine
 10
-61.0
 20
17.0
 30
0.0
 11
-61.0
 21
18.649999999999999
 31
0.0
  0
LINE
  5
1AB
100
AcDbEntity
  8
0
  6
CONTINUOUS
 62
               7
100
AcDbLine
 10
-61.0
 20
17.0
 30
0.0
 11
-60.399999999999999
 21
17.0
 31
0.0
  0
LINE
  5
1AC
100
AcDbEntity
  8
0
  6
CONTINUOUS
 62
               7
100
AcDbLine
 10
-61.0
 20
16.399999999999999
 30
0.0
 11
-60.399999999999999
 21
16.399999999999999
 31
0.0
  0
LINE
  5
1AD
100
AcDbEntity
  8
0
  6
CONTINUOUS
 62
               7
100
AcDbLine
 10
-60.399999999999999
 20
16.399999999999999
 30
0.0
 11
-60.399999999999999
 21
17.0
 31
0.0
  0
LINE
  5
1AE
100
AcDbEntity
  8
0
  6
CONTINUOUS
 62
               7
100
AcDbLine
 10
-61.0
 20
18.649999999999999
 30
0.0
 11
-60.0
 21
18.649999999999999
 31
0.0
  0
LINE
  5
1AF
100
AcDbEntity
  8
0
  6
CONTINUOUS
 62
               7
100
AcDbLine
 10
-61.0
 20
14.75
 30
0.0
 11
-60.0
 21
14.75
 31
0.0
  0
LINE
  5
1B0
100
AcDbEntity
  8
0
  6
CONTINUOUS
 62
               7
100
AcDbLine
 10
-61.0
 20
14.75
 30
0.0
 11
-61.0
 21
16.399999999999999
 31
0.0
  0
LINE
  5
1B1
100
AcDbEntity
  8
0
  6
CENTER
 62
               2
100
AcDbLine
 10
-62.0
 20
16.699999999999999
 30
0.0
 11
-59.299999999999997
 21
16.699999999999999
 31
0.0
  0
LINE
  5
1B2
100
AcDbEntity
  8
0
  6
CONTINUOUS
 62
               7
100
AcDbLine
 10
-64.0
 20
-79.5
 30
0.0
 11
-31.0
 21
-79.5
 31
0.0
  0
LINE
  5
1B3
100
AcDbEntity
  8
0
  6
CONTINUOUS
 62
               7
100
AcDbLine
 10
-67.5
 20
-54.299999999999997
 30
0.0
 11
-65.5
 21
-56.299999999999997
 31
0.0
  0
LINE
  5
1B4
100
AcDbEntity
  8
0
  6
CONTINUOUS
 62
               7
100
AcDbLine
 10
-67.5
 20
-5.7000000000000002
 30
0.0
 11
-65.5
 21
-3.7000000000000002
 31
0.0
  0
LINE
  5
1B5
100
AcDbEntity
  8
0
  6
CONTINUOUS
 62
               7
100
AcDbLine
 10
-65.5
 20
-3.7000000000000002
 30
0.0
 11
-62.5
 21
-3.7000000000000002
 31
0.0
  0
LINE
  5
1B6
100
AcDbEntity
  8
0
  6
CONTINUOUS
 62
               7
100
AcDbLine
 10
-65.5
 20
-56.299999999999997
 30
0.0
 11
-62.5
 21
-56.299999999999997
 31
0.0
  0
LINE
  5
1B7
100
AcDbEntity
  8
0
  6
CONTINUOUS
 62
               7
100
AcDbLine
 10
-67.5
 20
-54.299999999999997
 30
0.0
 11
-67.5
 21
-5.7000000000000002
 31
0.0
  0
LINE
  5
1B8
100
AcDbEntity
  8
0
  6
CONTINUOUS
 62
               7
100
AcDbLine
 10
-64.5
 20
-79.0
 30
0.0
 11
-64.5
 21
-67.5
 31
0.0
  0
LINE
  5
1B9
100
AcDbEntity
  8
0
  6
CONTINUOUS
 62
               7
100
AcDbLine
 10
-64.5
 20
-68.5
 30
0.0
 11
-30.5
 21
-68.5
 31
0.0
  0
LINE
  5
1BA
100
AcDbEntity
  8
0
  6
CONTINUOUS
 62
               7
100
AcDbLine
 10
-64.5
 20
-56.5
 30
0.0
 11
-30.5
 21
-56.5
 31
0.0
  0
LINE
  5
1BB
100
AcDbEntity
  8
0
  6
CONTINUOUS
 62
               7
100
AcDbLine
 10
-62.5
 20
-59.399999999999999
 30
0.0
 11
-62.5
 21
6.5
 31
0.0
  0
LINE
  5
1BC
100
AcDbEntity
  8
0
  6
CONTINUOUS
 62
               7
100
AcDbLine
 10
-30.5
 20
-79.0
 30
0.0
 11
-30.5
 21
6.5
 31
0.0
  0
LINE
  5
1BD
100
AcDbEntity
  8
0
  6
CONTINUOUS
 62
               7
100
AcDbLine
 10
-62.5
 20
-3.5
 30
0.0
 11
-30.5
 21
-3.5
 31
0.0
  0
ENDBLK
  5
1BE
100
AcDbEntity
  8
0
100
AcDbBlockEnd
  0
BLOCK
  5
1BF
100
AcDbEntity
  8
0
100
AcDbBlockBegin
  2
MS_4
 70
               0
 10
0.0
 20
0.0
 30
0.0
  3
MS_4
  1

  0
ARC
  5
1C0
100
AcDbEntity
  8
0
  6
CONTINUOUS
 62
               7
100
AcDbCircle
 10
7.5
 20
59.5
 30
0.0
 40
3.0
100
AcDbArc
 50
269.99999999999937
 51
89.999999999999801
  0
ARC
  5
1C1
100
AcDbEntity
  8
0
  6
CONTINUOUS
 62
               7
100
AcDbCircle
 10
5.0
 20
64.0
 30
0.0
 40
0.5
100
AcDbArc
 50
89.999999999999801
 51
179.9999999999996
  0
ARC
  5
1C2
100
AcDbEntity
  8
0
  6
CONTINUOUS
 62
               7
100
AcDbCircle
 10
22.0
 20
64.0
 30
0.0
 40
0.5
100
AcDbArc
 50
0.0
 51
89.999999999999801
  0
CIRCLE
  5
1C3
100
AcDbEntity
  8
0
  6
CONTINUOUS
 62
               7
100
AcDbCircle
 10
7.5
 20
59.5
 30
0.0
 40
2.7999992370605469
  0
CIRCLE
  5
1C4
100
AcDbEntity
  8
0
  6
CONTINUOUS
 62
               7
100
AcDbCircle
 10
19.5
 20
33.5
 30
0.0
 40
2.7999992370605469
  0
ARC
  5
1C5
100
AcDbEntity
  8
0
  6
CONTINUOUS
 62
               7
100
AcDbCircle
 10
19.5
 20
33.5
 30
0.0
 40
3.0
100
AcDbArc
 50
89.999999999999801
 51
179.9999999999996
  0
ARC
  5
1C6
100
AcDbEntity
  8
0
  6
CONTINUOUS
 62
               7
100
AcDbCircle
 10
5.0
 20
67.0
 30
0.0
 40
0.5
100
AcDbArc
 50
89.999999999999801
 51
179.9999999999996
  0
ARC
  5
1C7
100
AcDbEntity
  8
0
  6
CONTINUOUS
 62
               7
100
AcDbCircle
 10
22.0
 20
67.0
 30
0.0
 40
0.5
100
AcDbArc
 50
0.0
 51
89.999999999999801
  0
LINE
  5
1C8
100
AcDbEntity
  8
0
  6
CENTER
 62
               2
100
AcDbLine
 10
0.0
 20
3.0
 30
0.0
 11
0.0
 21
-3.0
 31
0.0
  0
LINE
  5
1C9
100
AcDbEntity
  8
0
  6
CONTINUOUS
 62
               7
100
AcDbLine
 10
6.0
 20
65.5
 30
0.0
 11
21.0
 21
65.5
 31
0.0
  0
LINE
  5
1CA
100
AcDbEntity
  8
0
  6
CONTINUOUS
 62
               7
100
AcDbLine
 10
5.0
 20
67.5
 30
0.0
 11
22.0
 21
67.5
 31
0.0
  0
LINE
  5
1CB
100
AcDbEntity
  8
0
  6
CONTINUOUS
 62
               7
100
AcDbLine
 10
22.5
 20
30.5
 30
0.0
 11
4.5
 21
30.5
 31
0.0
  0
LINE
  5
1CC
100
AcDbEntity
  8
0
  6
CONTINUOUS
 62
               7
100
AcDbLine
 10
8.5600000000000005
 20
58.43
 30
0.0
 11
6.4299999999999997
 21
60.560000000000002
 31
0.0
  0
LINE
  5
1CD
100
AcDbEntity
  8
0
  6
CONTINUOUS
 62
               7
100
AcDbLine
 10
6.4299999999999997
 20
58.43
 30
0.0
 11
8.5600000000000005
 21
60.560000000000002
 31
0.0
  0
LINE
  5
1CE
100
AcDbEntity
  8
0
  6
CONTINUOUS
 62
               7
100
AcDbLine
 10
20.0
 20
66.5
 30
0.0
 11
7.0
 21
66.5
 31
0.0
  0
LINE
  5
1CF
100
AcDbEntity
  8
0
  6
CONTINUOUS
 62
               7
100
AcDbLine
 10
21.0
 20
65.5
 30
0.0
 11
21.0
 21
64.5
 31
0.0
  0
LINE
  5
1D0
100
AcDbEntity
  8
0
  6
CONTINUOUS
 62
               7
100
AcDbLine
 10
19.5
 20
36.5
 30
0.0
 11
22.5
 21
36.5
 31
0.0
  0
LINE
  5
1D1
100
AcDbEntity
  8
0
  6
CONTINUOUS
 62
               7
100
AcDbLine
 10
22.5
 20
30.5
 30
0.0
 11
22.5
 21
30.0
 31
0.0
  0
LINE
  5
1D2
100
AcDbEntity
  8
0
  6
CONTINUOUS
 62
               7
100
AcDbLine
 10
4.5
 20
30.5
 30
0.0
 11
4.5
 21
30.0
 31
0.0
  0
LINE
  5
1D3
100
AcDbEntity
  8
0
  6
CONTINUOUS
 62
               7
100
AcDbLine
 10
16.5
 20
33.5
 30
0.0
 11
16.5
 21
30.5
 31
0.0
  0
LINE
  5
1D4
100
AcDbEntity
  8
0
  6
CONTINUOUS
 62
               7
100
AcDbLine
 10
20.559999999999999
 20
34.560000000000002
 30
0.0
 11
18.43
 21
32.43
 31
0.0
  0
LINE
  5
1D5
100
AcDbEntity
  8
0
  6
CONTINUOUS
 62
               7
100
AcDbLine
 10
18.43
 20
34.560000000000002
 30
0.0
 11
20.559999999999999
 21
32.43
 31
0.0
  0
LINE
  5
1D6
100
AcDbEntity
  8
0
  6
CONTINUOUS
 62
               7
100
AcDbLine
 10
7.5
 20
62.5
 30
0.0
 11
4.5
 21
62.5
 31
0.0
  0
LINE
  5
1D7
100
AcDbEntity
  8
0
  6
CONTINUOUS
 62
               7
100
AcDbLine
 10
6.0
 20
65.5
 30
0.0
 11
6.0
 21
64.5
 31
0.0
  0
LINE
  5
1D8
100
AcDbEntity
  8
0
  6
CONTINUOUS
 62
               7
100
AcDbLine
 10
21.0
 20
65.5
 30
0.0
 11
20.0
 21
66.5
 31
0.0
  0
LINE
  5
1D9
100
AcDbEntity
  8
0
  6
CONTINUOUS
 62
               7
100
AcDbLine
 10
7.0
 20
66.5
 30
0.0
 11
6.0
 21
65.5
 31
0.0
  0
LINE
  5
1DA
100
AcDbEntity
  8
0
  6
CENTER
 62
               2
100
AcDbLine
 10
13.5
 20
75.060000000000002
 30
0.0
 11
13.5
 21
-5.2000000000000002
 31
0.0
  0
LINE
  5
1DB
100
AcDbEntity
  8
0
  6
CONTINUOUS
 62
               7
100
AcDbLine
 10
22.5
 20
67.0
 30
0.0
 11
22.5
 21
30.0
 31
0.0
  0
LINE
  5
1DC
100
AcDbEntity
  8
0
  6
CONTINUOUS
 62
               7
100
AcDbLine
 10
4.5
 20
67.0
 30
0.0
 11
4.5
 21
30.0
 31
0.0
  0
LINE
  5
1DD
100
AcDbEntity
  8
0
  6
CONTINUOUS
 62
               7
100
AcDbLine
 10
22.0
 20
64.5
 30
0.0
 11
5.0
 21
64.5
 31
0.0
  0
LINE
  5
1DE
100
AcDbEntity
  8
0
  6
CONTINUOUS
 62
               7
100
AcDbLine
 10
7.5
 20
56.5
 30
0.0
 11
4.5
 21
56.5
 31
0.0
  0
LINE
  5
1DF
100
AcDbEntity
  8
0
  6
CONTINUOUS
 62
               7
100
AcDbLine
 10
-3.5
 20
30.0
 30
0.0
 11
30.5
 21
30.0
 31
0.0
  0
LINE
  5
1E0
100
AcDbEntity
  8
0
  6
CONTINUOUS
 62
               7
100
AcDbLine
 10
-3.5
 20
0.0
 30
0.0
 11
30.5
 21
0.0
 31
0.0
  0
LINE
  5
1E1
100
AcDbEntity
  8
0
  6
CONTINUOUS
 62
               7
100
AcDbLine
 10
30.5
 20
30.0
 30
0.0
 11
30.5
 21
0.0
 31
0.0
  0
LINE
  5
1E2
100
AcDbEntity
  8
0
  6
CONTINUOUS
 62
               7
100
AcDbLine
 10
-3.5
 20
30.0
 30
0.0
 11
-3.5
 21
0.0
 31
0.0
  0
ENDBLK
  5
1E3
100
AcDbEntity
  8
0
100
AcDbBlockEnd
  0
BLOCK
  5
1E4
100
AcDbEntity
  8
0
100
AcDbBlockBegin
  2
MS_5
 70
               0
 10
0.0
 20
0.0
 30
0.0
  3
MS_5
  1

  0
LINE
  5
1E5
100
AcDbEntity
  8
0
  6
CONTINUOUS
 62
               4
100
AcDbLine
 10
33.0
 20
44.0
 30
0.0
 11
59.999992370605469
 21
44.0
 31
0.0
  0
LINE
  5
1E6
100
AcDbEntity
  8
0
  6
CONTINUOUS
 62
               4
100
AcDbLine
 10
44.100000000000023
 20
57.5
 30
0.0
 11
44.100000000000023
 21
53.0
 31
0.0
  0
LINE
  5
1E7
100
AcDbEntity
  8
0
  6
CONTINUOUS
 62
               4
100
AcDbLine
 10
35.149987792968773
 20
64.0
 30
0.0
 11
44.149987792968773
 21
64.0
 31
0.0
  0
LINE
  5
1E8
100
AcDbEntity
  8
0
  6
CONTINUOUS
 62
               4
100
AcDbLine
 10
35.5
 20
57.5
 30
0.0
 11
44.150003051757835
 21
57.5
 31
0.0
  0
LINE
  5
1E9
100
AcDbEntity
  8
0
  6
CONTINUOUS
 62
               4
100
AcDbLine
 10
44.727349853515648
 20
64.0
 30
0.0
 11
46.149995422363304
 21
64.0
 31
0.0
  0
LINE
  5
1EA
100
AcDbEntity
  8
0
  6
CONTINUOUS
 62
               4
100
AcDbLine
 10
44.100000000000023
 20
54.998458862304688
 30
0.0
 11
44.150003051757835
 21
54.998458862304688
 31
0.0
  0
LINE
  5
1EB
100
AcDbEntity
  8
0
  6
CONTINUOUS
 62
               4
100
AcDbLine
 10
44.150003051757835
 20
53.498458862304688
 30
0.0
 11
45.149995422363304
 21
53.498458862304688
 31
0.0
  0
LINE
  5
1EC
100
AcDbEntity
  8
0
  6
CONTINUOUS
 62
               4
100
AcDbLine
 10
44.150003051757835
 20
54.998458862304688
 30
0.0
 11
44.150003051757835
 21
57.5
 31
0.0
  0
LINE
  5
1ED
100
AcDbEntity
  8
0
  6
CONTINUOUS
 62
               4
100
AcDbLine
 10
45.649995422363304
 20
62.5
 30
0.0
 11
46.149995422363304
 21
62.5
 31
0.0
  0
LINE
  5
1EE
100
AcDbEntity
  8
0
  6
CONTINUOUS
 62
               4
100
AcDbLine
 10
44.150000209407722
 20
53.498474151870141
 30
0.0
 11
44.099979656101482
 21
53.548494705176381
 31
0.0
  0
LINE
  5
1EF
100
AcDbEntity
  8
0
  6
CONTINUOUS
 62
               4
100
AcDbLine
 10
35.650003051757835
 20
57.5
 30
0.0
 11
35.650003051757835
 21
63.0
 31
0.0
  0
LINE
  5
1F0
100
AcDbEntity
  8
0
  6
CONTINUOUS
 62
               4
100
AcDbLine
 10
35.150003051757835
 20
63.0
 30
0.0
 11
35.150003051757835
 21
64.0
 31
0.0
  0
LINE
  5
1F1
100
AcDbEntity
  8
0
  6
CONTINUOUS
 62
               4
100
AcDbLine
 10
35.149987792968773
 20
63.0
 30
0.0
 11
35.649987792968773
 21
63.0
 31
0.0
  0
LINE
  5
1F2
100
AcDbEntity
  8
0
  6
CONTINUOUS
 62
               4
100
AcDbLine
 10
45.650003051757835
 20
57.05615234375
 30
0.0
 11
45.650003051757835
 21
62.5
 31
0.0
  0
LINE
  5
1F3
100
AcDbEntity
  8
0
  6
CONTINUOUS
 62
               4
100
AcDbLine
 10
45.150001302236547
 20
53.49845074175937
 30
0.0
 11
45.650000411113638
 21
57.056138825448215
 31
0.0
  0
LINE
  5
1F4
100
AcDbEntity
  8
0
  6
CONTINUOUS
 62
               4
100
AcDbLine
 10
44.150003051757835
 20
57.5
 30
0.0
 11
44.150003051757835
 21
64.0
 31
0.0
  0
LINE
  5
1F5
100
AcDbEntity
  8
0
  6
CONTINUOUS
 62
               4
100
AcDbLine
 10
44.150044511604051
 20
62.999958942901685
 30
0.0
 11
44.727396327367956
 21
63.999967647856465
 31
0.0
  0
LINE
  5
1F6
100
AcDbEntity
  8
0
  6
CONTINUOUS
 62
               4
100
AcDbLine
 10
46.150003051757835
 20
62.5
 30
0.0
 11
46.150003051757835
 21
64.0
 31
0.0
  0
LINE
  5
1F7
100
AcDbEntity
  8
0
  6
CONTINUOUS
 62
               4
100
AcDbLine
 10
41.00000915527346
 20
77.0
 30
0.0
 11
40.200006103515648
 21
77.0
 31
0.0
  0
LINE
  5
1F8
100
AcDbEntity
  8
0
  6
CONTINUOUS
 62
               4
100
AcDbLine
 10
40.200006103515648
 20
72.0
 30
0.0
 11
40.200006103515648
 21
77.0
 31
0.0
  0
LINE
  5
1F9
100
AcDbEntity
  8
0
  6
CONTINUOUS
 62
               4
100
AcDbLine
 10
41.00000915527346
 20
72.0
 30
0.0
 11
41.00000915527346
 21
77.0
 31
0.0
  0
LINE
  5
1FA
100
AcDbEntity
  8
0
  6
CONTINUOUS
 62
               4
100
AcDbLine
 10
41.31501159667971
 20
64.0
 30
0.0
 11
41.31501159667971
 21
68.598403930664063
 31
0.0
  0
LINE
  5
1FB
100
AcDbEntity
  8
0
  6
CONTINUOUS
 62
               4
100
AcDbLine
 10
39.885003662109398
 20
64.0
 30
0.0
 11
39.885003662109398
 21
67.772796630859375
 31
0.0
  0
LINE
  5
1FC
100
AcDbEntity
  8
0
  6
CONTINUOUS
 62
               4
100
AcDbLine
 10
41.31501159667971
 20
72.0
 30
0.0
 11
39.885003662109398
 21
72.0
 31
0.0
  0
LINE
  5
1FD
100
AcDbEntity
  8
0
  6
CONTINUOUS
 62
               4
100
AcDbLine
 10
39.885003662109398
 20
68.927490234375
 30
0.0
 11
39.885003662109398
 21
72.0
 31
0.0
  0
LINE
  5
1FE
100
AcDbEntity
  8
0
  6
CONTINUOUS
 62
               4
100
AcDbLine
 10
41.31501159667971
 20
69.75311279296875
 30
0.0
 11
41.31501159667971
 21
72.0
 31
0.0
  0
LINE
  5
1FF
100
AcDbEntity
  8
0
  6
CONTINUOUS
 62
               7
100
AcDbLine
 10
33.0
 20
20.0
 30
0.0
 11
60.0
 21
20.0
 31
0.0
  0
LINE
  5
200
100
AcDbEntity
  8
0
  6
CONTINUOUS
 62
               4
100
AcDbLine
 10
38.81501159667971
 20
68.309738159179688
 30
0.0
 11
38.81501159667971
 21
72.0
 31
0.0
  0
LINE
  5
201
100
AcDbEntity
  8
0
  6
CONTINUOUS
 62
               4
100
AcDbLine
 10
37.385003662109398
 20
67.484115600585937
 30
0.0
 11
37.385003662109398
 21
72.0
 31
0.0
  0
LINE
  5
202
100
AcDbEntity
  8
0
  6
CONTINUOUS
 62
               4
100
AcDbLine
 10
37.385003662109398
 20
72.0
 30
0.0
 11
38.81501159667971
 21
72.0
 31
0.0
  0
LINE
  5
203
100
AcDbEntity
  8
0
  6
CONTINUOUS
 62
               4
100
AcDbLine
 10
38.50000915527346
 20
72.0
 30
0.0
 11
38.50000915527346
 21
77.0
 31
0.0
  0
LINE
  5
204
100
AcDbEntity
  8
0
  6
CONTINUOUS
 62
               4
100
AcDbLine
 10
37.700006103515648
 20
72.0
 30
0.0
 11
37.700006103515648
 21
76.999984741210937
 31
0.0
  0
LINE
  5
205
100
AcDbEntity
  8
0
  6
CONTINUOUS
 62
               4
100
AcDbLine
 10
37.700006103515648
 20
77.0
 30
0.0
 11
38.50000915527346
 21
77.0
 31
0.0
  0
LINE
  5
206
100
AcDbEntity
  8
0
  6
CONTINUOUS
 62
               4
100
AcDbLine
 10
38.81501159667971
 20
64.0
 30
0.0
 11
38.81501159667971
 21
67.155029296875
 31
0.0
  0
LINE
  5
207
100
AcDbEntity
  8
0
  6
CONTINUOUS
 62
               4
100
AcDbLine
 10
37.385003662109398
 20
64.0
 30
0.0
 11
37.385003662109398
 21
66.329421997070312
 31
0.0
  0
LINE
  5
208
100
AcDbEntity
  8
0
  6
CONTINUOUS
 62
             200
100
AcDbLine
 10
42.81501889147205
 20
70.619105809934808
 30
0.0
 11
35.884989799908567
 21
66.618057246153512
 31
0.0
  0
LINE
  5
209
100
AcDbEntity
  8
0
  6
CONTINUOUS
 62
             200
100
AcDbLine
 10
42.814994343097737
 20
69.464464815078827
 30
0.0
 11
35.884984189578631
 21
65.46341291056342
 31
0.0
  0
ARC
  5
20A
100
AcDbEntity
  8
0
  6
CONTINUOUS
 62
               4
100
AcDbCircle
 10
33.5
 20
52.5
 30
0.0
 40
0.5
100
AcDbArc
 50
89.999999999999801
 51
179.9999999999996
  0
LINE
  5
20B
100
AcDbEntity
  8
0
  6
CONTINUOUS
 62
               4
100
AcDbLine
 10
35.5
 20
53.0
 30
0.0
 11
33.5
 21
53.0
 31
0.0
  0
LINE
  5
20C
100
AcDbEntity
  8
0
  6
CONTINUOUS
 62
               4
100
AcDbLine
 10
35.5
 20
57.5
 30
0.0
 11
35.5
 21
53.0
 31
0.0
  0
LINE
  5
20D
100
AcDbEntity
  8
0
  6
CONTINUOUS
 62
               4
100
AcDbLine
 10
44.100000000000023
 20
57.5
 30
0.0
 11
44.100000000000023
 21
53.0
 31
0.0
  0
ARC
  5
20E
100
AcDbEntity
  8
0
  6
CONTINUOUS
 62
               4
100
AcDbCircle
 10
58.502020395360546
 20
48.179610903929301
 30
0.0
 40
1.4979796551727449
100
AcDbArc
 50
0.0148824203654679
 51
24.046309772710686
  0
ARC
  5
20F
100
AcDbEntity
  8
0
  6
CONTINUOUS
 62
               4
100
AcDbCircle
 10
57.674020838564047
 20
52.500099937446265
 30
0.0
 40
0.4999010215015999
100
AcDbArc
 50
24.197376208904771
 51
89.887774076864815
  0
LINE
  5
210
100
AcDbEntity
  8
0
  6
CONTINUOUS
 62
               4
100
AcDbLine
 10
58.129999999999995
 20
52.705000000000013
 30
0.0
 11
59.870000000000005
 21
48.789999999999992
 31
0.0
  0
LINE
  5
211
100
AcDbEntity
  8
0
  6
CONTINUOUS
 62
               4
100
AcDbLine
 10
60.0
 20
48.180000000000007
 30
0.0
 11
60.0
 21
44.0
 31
0.0
  0
LINE
  5
212
100
AcDbEntity
  8
0
  6
CONTINUOUS
 62
               4
100
AcDbLine
 10
33.0
 20
52.5
 30
0.0
 11
33.0
 21
44.0
 31
0.0
  0
LINE
  5
213
100
AcDbEntity
  8
0
  6
CONTINUOUS
 62
               4
100
AcDbLine
 10
33.0
 20
20.0
 30
0.0
 11
33.0
 21
44.0
 31
0.0
  0
LINE
  5
214
100
AcDbEntity
  8
0
  6
CONTINUOUS
 62
               4
100
AcDbLine
 10
60.0
 20
20.0
 30
0.0
 11
60.0
 21
44.0
 31
0.0
  0
LINE
  5
215
100
AcDbEntity
  8
0
  6
CONTINUOUS
 62
               4
100
AcDbLine
 10
44.100000000000023
 20
53.0
 30
0.0
 11
57.674999999999955
 21
53.0
 31
0.0
  0
ARC
  5
216
100
AcDbEntity
  8
0
  6
CONTINUOUS
 62
               7
100
AcDbCircle
 10
63.699990844698618
 20
-48.75000915530137
 30
0.0
 40
1.5000091553293182
100
AcDbArc
 50
0.0003497046182941
 51
89.9996502953815
  0
ARC
  5
217
100
AcDbEntity
  8
0
  6
CONTINUOUS
 62
               7
100
AcDbCircle
 10
63.699975585925074
 20
-51.249975585925085
 30
0.0
 40
1.5000244142735981
100
AcDbArc
 50
270.00093253379049
 51
359.99906746620809
  0
ARC
  5
218
100
AcDbEntity
  8
0
  6
CONTINUOUS
 62
               7
100
AcDbCircle
 10
66.0
 20
-9.25
 30
0.0
 40
1.5
100
AcDbArc
 50
269.99999999999937
 51
0.0
  0
ARC
  5
219
100
AcDbEntity
  8
0
  6
CONTINUOUS
 62
               7
100
AcDbCircle
 10
66.0
 20
-6.75
 30
0.0
 40
1.5
100
AcDbArc
 50
0.0
 51
89.999999999999801
  0
ARC
  5
21A
100
AcDbEntity
  8
0
  6
CONTINUOUS
 62
               7
100
AcDbCircle
 10
60.749984741133346
 20
-77.499984741133346
 30
0.0
 40
1.5000152589442828
100
AcDbArc
 50
270.00058283984418
 51
359.99941716015474
  0
ARC
  5
21B
100
AcDbEntity
  8
0
  6
CONTINUOUS
 62
               7
100
AcDbCircle
 10
58.250015258866654
 20
-77.499984741133346
 30
0.0
 40
1.5000152589442828
100
AcDbArc
 50
180.00058283984407
 51
269.99941716015462
  0
ARC
  5
21C
100
AcDbEntity
  8
0
  6
CONTINUOUS
 62
               7
100
AcDbCircle
 10
33.498425194250558
 20
9.4996906239028647
 30
0.0
 40
2.5019811645578063
100
AcDbArc
 50
220.64422390235583
 51
348.47953224641094
  0
CIRCLE
  5
21D
100
AcDbEntity
  8
0
  6
CONTINUOUS
 62
               2
100
AcDbCircle
 10
10.0
 20
-22.499984741210938
 30
0.0
 40
6.5784997940063477
  0
CIRCLE
  5
21E
100
AcDbEntity
  8
0
  6
CONTINUOUS
 62
               7
100
AcDbCircle
 10
10.0
 20
-22.499984741210938
 30
0.0
 40
5.7224998474121094
  0
CIRCLE
  5
21F
100
AcDbEntity
  8
0
  6
CONTINUOUS
 62
               7
100
AcDbCircle
 10
10.0
 20
-42.499984741210937
 30
0.0
 40
5.7224998474121094
  0
CIRCLE
  5
220
100
AcDbEntity
  8
0
  6
CONTINUOUS
 62
               2
100
AcDbCircle
 10
10.0
 20
-42.499984741210937
 30
0.0
 40
6.5784997940063477
  0
ARC
  5
221
100
AcDbEntity
  8
0
  6
CONTINUOUS
 62
               7
100
AcDbCircle
 10
63.999984740978107
 20
-78.999984740978107
 30
0.0
 40
0.5000152592547238
100
AcDbArc
 50
270.00174850174591
 51
359.99825149825267
  0
ARC
  5
222
100
AcDbEntity
  8
0
  6
CONTINUOUS
 62
               7
100
AcDbCircle
 10
31.000015259021893
 20
-78.999984740978107
 30
0.0
 40
0.5000152592547238
100
AcDbArc
 50
180.00174850174614
 51
269.99825149825278
  0
LINE
  5
223
100
AcDbEntity
  8
0
  6
CENTER
 62
               2
100
AcDbLine
 10
-4.0
 20
-60.0
 30
0.0
 11
4.0
 21
-60.0
 31
0.0
  0
LINE
  5
224
100
AcDbEntity
  8
0
  6
CENTER
 62
               2
100
AcDbLine
 10
-4.0
 20
0.0
 30
0.0
 11
4.0
 21
0.0
 31
0.0
  0
LINE
  5
225
100
AcDbEntity
  8
0
  6
CONTINUOUS
 62
               7
100
AcDbLine
 10
30.5
 20
-0.75
 30
0.0
 11
30.0
 21
-0.75
 31
0.0
  0
LINE
  5
226
100
AcDbEntity
  8
0
  6
CONTINUOUS
 62
               7
100
AcDbLine
 10
30.5
 20
2.75
 30
0.0
 11
30.0
 21
2.75
 31
0.0
  0
LINE
  5
227
100
AcDbEntity
  8
0
  6
CONTINUOUS
 62
               7
100
AcDbLine
 10
30.5
 20
-56.5
 30
0.0
 11
30.0
 21
-56.5
 31
0.0
  0
LINE
  5
228
100
AcDbEntity
  8
0
  6
CONTINUOUS
 62
               7
100
AcDbLine
 10
30.5
 20
-3.5
 30
0.0
 11
30.0
 21
-3.5
 31
0.0
  0
LINE
  5
229
100
AcDbEntity
  8
0
  6
CONTINUOUS
 62
               7
100
AcDbLine
 10
62.5
 20
6.5
 30
0.0
 11
60.5
 21
9.0
 31
0.0
  0
LINE
  5
22A
100
AcDbEntity
  8
0
  6
CONTINUOUS
 62
               7
100
AcDbLine
 10
30.5
 20
6.5
 30
0.0
 11
32.5
 21
9.0
 31
0.0
  0
LINE
  5
22B
100
AcDbEntity
  8
0
  6
CONTINUOUS
 62
               7
100
AcDbLine
 10
60.5
 20
9.0
 30
0.0
 11
32.5
 21
9.0
 31
0.0
  0
LINE
  5
22C
100
AcDbEntity
  8
0
  6
CONTINUOUS
 62
               7
100
AcDbLine
 10
63.199999999999989
 20
-47.050000000000011
 30
0.0
 11
62.5
 21
-47.050000000000011
 31
0.0
  0
LINE
  5
22D
100
AcDbEntity
  8
0
  6
CONTINUOUS
 62
               7
100
AcDbLine
 10
63.199999999999989
 20
-52.949999999999989
 30
0.0
 11
62.5
 21
-52.949999999999989
 31
0.0
  0
LINE
  5
22E
100
AcDbEntity
  8
0
  6
CONTINUOUS
 62
               7
100
AcDbLine
 10
63.199999999999989
 20
-52.949999999999989
 30
0.0
 11
63.199999999999989
 21
-47.050000000000011
 31
0.0
  0
LINE
  5
22F
100
AcDbEntity
  8
0
  6
CONTINUOUS
 62
               7
100
AcDbLine
 10
63.699999999999989
 20
-52.75
 30
0.0
 11
63.199999999999989
 21
-52.75
 31
0.0
  0
LINE
  5
230
100
AcDbEntity
  8
0
  6
CONTINUOUS
 62
               7
100
AcDbLine
 10
63.699999999999989
 20
-47.25
 30
0.0
 11
63.199999999999989
 21
-47.25
 31
0.0
  0
LINE
  5
231
100
AcDbEntity
  8
0
  6
CONTINUOUS
 62
               7
100
AcDbLine
 10
65.199999999999989
 20
-48.75
 30
0.0
 11
65.199999999999989
 21
-51.25
 31
0.0
  0
LINE
  5
232
100
AcDbEntity
  8
0
  6
CONTINUOUS
 62
               7
100
AcDbLine
 10
66.0
 20
-5.25
 30
0.0
 11
65.5
 21
-5.25
 31
0.0
  0
LINE
  5
233
100
AcDbEntity
  8
0
  6
CONTINUOUS
 62
               7
100
AcDbLine
 10
66.0
 20
-10.75
 30
0.0
 11
65.5
 21
-10.75
 31
0.0
  0
LINE
  5
234
100
AcDbEntity
  8
0
  6
CONTINUOUS
 62
               7
100
AcDbLine
 10
65.5
 20
-11.0
 30
0.0
 11
65.5
 21
-3.6999999999999886
 31
0.0
  0
LINE
  5
235
100
AcDbEntity
  8
0
  6
CONTINUOUS
 62
               7
100
AcDbLine
 10
56.75
 20
-77.5
 30
0.0
 11
56.75
 21
-77.0
 31
0.0
  0
LINE
  5
236
100
AcDbEntity
  8
0
  6
CONTINUOUS
 62
               7
100
AcDbLine
 10
62.25
 20
-77.5
 30
0.0
 11
62.25
 21
-77.0
 31
0.0
  0
LINE
  5
237
100
AcDbEntity
  8
0
  6
CONTINUOUS
 62
               7
100
AcDbLine
 10
60.75
 20
-79.0
 30
0.0
 11
58.25
 21
-79.0
 31
0.0
  0
LINE
  5
238
100
AcDbEntity
  8
0
  6
CONTINUOUS
 62
               7
100
AcDbLine
 10
62.699999999999989
 20
-77.0
 30
0.0
 11
56.300000000000011
 21
-77.0
 31
0.0
  0
LINE
  5
239
100
AcDbEntity
  8
0
  6
CONTINUOUS
 62
               7
100
AcDbLine
 10
56.300000000000011
 20
-79.5
 30
0.0
 11
56.300000000000011
 21
-77.0
 31
0.0
  0
LINE
  5
23A
100
AcDbEntity
  8
0
  6
CONTINUOUS
 62
               7
100
AcDbLine
 10
62.699999999999989
 20
-79.5
 30
0.0
 11
62.699999999999989
 21
-77.0
 31
0.0
  0
LINE
  5
23B
100
AcDbEntity
  8
0
  6
CENTER
 62
               2
100
AcDbLine
 10
10.0
 20
-50.069999999999993
 30
0.0
 11
10.0
 21
-14.919999999999987
 31
0.0
  0
LINE
  5
23C
100
AcDbEntity
  8
0
  6
CENTER
 62
               2
100
AcDbLine
 10
17.569999999999993
 20
-22.5
 30
0.0
 11
2.4200000000000159
 21
-22.5
 31
0.0
  0
LINE
  5
23D
100
AcDbEntity
  8
0
  6
CONTINUOUS
 62
               7
100
AcDbLine
 10
0.0
 20
-66.0
 30
0.0
 11
0.0
 21
6.0
 31
0.0
  0
LINE
  5
23E
100
AcDbEntity
  8
0
  6
CENTER
 62
               2
100
AcDbLine
 10
17.569999999999993
 20
-42.5
 30
0.0
 11
2.4200000000000159
 21
-42.5
 31
0.0
  0
LINE
  5
23F
100
AcDbEntity
  8
0
  6
CONTINUOUS
 62
               7
100
AcDbLine
 10
62.5
 20
6.5
 30
0.0
 11
30.5
 21
6.5
 31
0.0
  0
LINE
  5
240
100
AcDbEntity
  8
0
  6
CONTINUOUS
 62
               7
100
AcDbLine
 10
30.0
 20
-66.0
 30
0.0
 11
30.0
 21
6.0
 31
0.0
  0
LINE
  5
241
100
AcDbEntity
  8
0
  6
CONTINUOUS
 62
               7
100
AcDbLine
 10
30.0
 20
-66.0
 30
0.0
 11
0.0
 21
-66.0
 31
0.0
  0
LINE
  5
242
100
AcDbEntity
  8
0
  6
CONTINUOUS
 62
               7
100
AcDbLine
 10
30.0
 20
6.0
 30
0.0
 11
0.0
 21
6.0
 31
0.0
  0
LINE
  5
243
100
AcDbEntity
  8
0
  6
CONTINUOUS
 62
               7
100
AcDbLine
 10
67.5
 20
-53.0
 30
0.0
 11
62.5
 21
-53.0
 31
0.0
  0
LINE
  5
244
100
AcDbEntity
  8
0
  6
CONTINUOUS
 62
               7
100
AcDbLine
 10
67.5
 20
-47.0
 30
0.0
 11
62.5
 21
-47.0
 31
0.0
  0
LINE
  5
245
100
AcDbEntity
  8
0
  6
CONTINUOUS
 62
               7
100
AcDbLine
 10
67.5
 20
-11.0
 30
0.0
 11
65.5
 21
-11.0
 31
0.0
  0
LINE
  5
246
100
AcDbEntity
  8
0
  6
CONTINUOUS
 62
               7
100
AcDbLine
 10
63.5
 20
-57.5
 30
0.0
 11
63.5
 21
-56.5
 31
0.0
  0
LINE
  5
247
100
AcDbEntity
  8
0
  6
CONTINUOUS
 62
               7
100
AcDbLine
 10
64.5
 20
-57.5
 30
0.0
 11
64.5
 21
-56.5
 31
0.0
  0
LINE
  5
248
100
AcDbEntity
  8
0
  6
CONTINUOUS
 62
               7
100
AcDbLine
 10
65.5
 20
-57.5
 30
0.0
 11
62.5
 21
-57.5
 31
0.0
  0
LINE
  5
249
100
AcDbEntity
  8
0
  6
CONTINUOUS
 62
               7
100
AcDbLine
 10
65.5
 20
-67.5
 30
0.0
 11
62.5
 21
-67.5
 31
0.0
  0
LINE
  5
24A
100
AcDbEntity
  8
0
  6
CONTINUOUS
 62
               7
100
AcDbLine
 10
65.300000000000011
 20
-65.599999999999994
 30
0.0
 11
62.5
 21
-65.599999999999994
 31
0.0
  0
LINE
  5
24B
100
AcDbEntity
  8
0
  6
CONTINUOUS
 62
               7
100
AcDbLine
 10
65.300000000000011
 20
-59.400000000000006
 30
0.0
 11
62.5
 21
-59.400000000000006
 31
0.0
  0
LINE
  5
24C
100
AcDbEntity
  8
0
  6
CONTINUOUS
 62
               7
100
AcDbLine
 10
62.5
 20
-68.5
 30
0.0
 11
62.5
 21
-65.599999999999994
 31
0.0
  0
LINE
  5
24D
100
AcDbEntity
  8
0
  6
CONTINUOUS
 62
               7
100
AcDbLine
 10
63.5
 20
-68.5
 30
0.0
 11
63.5
 21
-67.5
 31
0.0
  0
LINE
  5
24E
100
AcDbEntity
  8
0
  6
CONTINUOUS
 62
               7
100
AcDbLine
 10
65.5
 20
-67.5
 30
0.0
 11
65.5
 21
-57.5
 31
0.0
  0
LINE
  5
24F
100
AcDbEntity
  8
0
  6
CONTINUOUS
 62
               7
100
AcDbLine
 10
65.300000000000011
 20
-65.599999999999994
 30
0.0
 11
65.300000000000011
 21
-59.400000000000006
 31
0.0
  0
LINE
  5
250
100
AcDbEntity
  8
0
  6
CONTINUOUS
 62
               7
100
AcDbLine
 10
65.5
 20
-67.5
 30
0.0
 11
66.5
 21
-66.5
 31
0.0
  0
LINE
  5
251
100
AcDbEntity
  8
0
  6
CONTINUOUS
 62
               7
100
AcDbLine
 10
65.5
 20
-57.5
 30
0.0
 11
66.5
 21
-58.5
 31
0.0
  0
LINE
  5
252
100
AcDbEntity
  8
0
  6
CONTINUOUS
 62
               7
100
AcDbLine
 10
66.5
 20
-66.5
 30
0.0
 11
66.5
 21
-58.5
 31
0.0
  0
LINE
  5
253
100
AcDbEntity
  8
0
  6
CONTINUOUS
 62
               7
100
AcDbLine
 10
64.5
 20
-65.599999999999994
 30
0.0
 11
64.5
 21
-59.400000000000006
 31
0.0
  0
LINE
  5
254
100
AcDbEntity
  8
0
  6
CONTINUOUS
 62
               7
100
AcDbLine
 10
33.0
 20
9.0
 30
0.0
 11
33.0
 21
20.0
 31
0.0
  0
LINE
  5
255
100
AcDbEntity
  8
0
  6
CONTINUOUS
 62
               7
100
AcDbLine
 10
60.0
 20
9.0
 30
0.0
 11
60.0
 21
20.0
 31
0.0
  0
LINE
  5
256
100
AcDbEntity
  8
0
  6
CONTINUOUS
 62
               7
100
AcDbLine
 10
33.0
 20
20.0
 30
0.0
 11
60.0
 21
20.0
 31
0.0
  0
LINE
  5
257
100
AcDbEntity
  8
0
  6
CONTINUOUS
 62
               7
100
AcDbLine
 10
61.0
 20
17.0
 30
0.0
 11
61.0
 21
18.650000000000006
 31
0.0
  0
LINE
  5
258
100
AcDbEntity
  8
0
  6
CONTINUOUS
 62
               7
100
AcDbLine
 10
61.0
 20
17.0
 30
0.0
 11
60.399999999999977
 21
17.0
 31
0.0
  0
LINE
  5
259
100
AcDbEntity
  8
0
  6
CONTINUOUS
 62
               7
100
AcDbLine
 10
61.0
 20
16.400000000000006
 30
0.0
 11
60.399999999999977
 21
16.400000000000006
 31
0.0
  0
LINE
  5
25A
100
AcDbEntity
  8
0
  6
CONTINUOUS
 62
               7
100
AcDbLine
 10
60.399999999999977
 20
16.400000000000006
 30
0.0
 11
60.399999999999977
 21
17.0
 31
0.0
  0
LINE
  5
25B
100
AcDbEntity
  8
0
  6
CONTINUOUS
 62
               7
100
AcDbLine
 10
61.0
 20
18.650000000000006
 30
0.0
 11
60.0
 21
18.650000000000006
 31
0.0
  0
LINE
  5
25C
100
AcDbEntity
  8
0
  6
CONTINUOUS
 62
               7
100
AcDbLine
 10
61.0
 20
14.75
 30
0.0
 11
60.0
 21
14.75
 31
0.0
  0
LINE
  5
25D
100
AcDbEntity
  8
0
  6
CONTINUOUS
 62
               7
100
AcDbLine
 10
61.0
 20
14.75
 30
0.0
 11
61.0
 21
16.400000000000006
 31
0.0
  0
LINE
  5
25E
100
AcDbEntity
  8
0
  6
CENTER
 62
               2
100
AcDbLine
 10
62.0
 20
16.699999999999989
 30
0.0
 11
59.300000000000011
 21
16.699999999999989
 31
0.0
  0
LINE
  5
25F
100
AcDbEntity
  8
0
  6
CONTINUOUS
 62
               7
100
AcDbLine
 10
64.0
 20
-79.5
 30
0.0
 11
31.0
 21
-79.5
 31
0.0
  0
LINE
  5
260
100
AcDbEntity
  8
0
  6
CONTINUOUS
 62
               7
100
AcDbLine
 10
67.5
 20
-54.300000000000011
 30
0.0
 11
65.5
 21
-56.300000000000011
 31
0.0
  0
LINE
  5
261
100
AcDbEntity
  8
0
  6
CONTINUOUS
 62
               7
100
AcDbLine
 10
67.5
 20
-5.6999999999999886
 30
0.0
 11
65.5
 21
-3.6999999999999886
 31
0.0
  0
LINE
  5
262
100
AcDbEntity
  8
0
  6
CONTINUOUS
 62
               7
100
AcDbLine
 10
65.5
 20
-3.6999999999999886
 30
0.0
 11
62.5
 21
-3.6999999999999886
 31
0.0
  0
LINE
  5
263
100
AcDbEntity
  8
0
  6
CONTINUOUS
 62
               7
100
AcDbLine
 10
65.5
 20
-56.300000000000011
 30
0.0
 11
62.5
 21
-56.300000000000011
 31
0.0
  0
LINE
  5
264
100
AcDbEntity
  8
0
  6
CONTINUOUS
 62
               7
100
AcDbLine
 10
67.5
 20
-54.300000000000011
 30
0.0
 11
67.5
 21
-5.6999999999999886
 31
0.0
  0
LINE
  5
265
100
AcDbEntity
  8
0
  6
CONTINUOUS
 62
               7
100
AcDbLine
 10
64.5
 20
-79.0
 30
0.0
 11
64.5
 21
-67.5
 31
0.0
  0
LINE
  5
266
100
AcDbEntity
  8
0
  6
CONTINUOUS
 62
               7
100
AcDbLine
 10
64.5
 20
-68.5
 30
0.0
 11
30.5
 21
-68.5
 31
0.0
  0
LINE
  5
267
100
AcDbEntity
  8
0
  6
CONTINUOUS
 62
               7
100
AcDbLine
 10
64.5
 20
-56.5
 30
0.0
 11
30.5
 21
-56.5
 31
0.0
  0
LINE
  5
268
100
AcDbEntity
  8
0
  6
CONTINUOUS
 62
               7
100
AcDbLine
 10
62.5
 20
-59.400000000000006
 30
0.0
 11
62.5
 21
6.5
 31
0.0
  0
LINE
  5
269
100
AcDbEntity
  8
0
  6
CONTINUOUS
 62
               7
100
AcDbLine
 10
30.5
 20
-79.0
 30
0.0
 11
30.5
 21
6.5
 31
0.0
  0
LINE
  5
26A
100
AcDbEntity
  8
0
  6
CONTINUOUS
 62
               7
100
AcDbLine
 10
62.5
 20
-3.5
 30
0.0
 11
30.5
 21
-3.5
 31
0.0
  0
ENDBLK
  5
26B
100
AcDbEntity
  8
0
100
AcDbBlockEnd
  0
BLOCK
  5
26C
100
AcDbEntity
  8
0
100
AcDbBlockBegin
  2
MS_6
 70
               0
 10
0.0
 20
0.0
 30
0.0
  3
MS_6
  1

  0
LINE
  5
26D
100
AcDbEntity
  8
0
  6
CENTER
 62
             200
100
AcDbLine
 10
5.0001086425781125
 20
-7.6592675781249966
 30
0.0
 11
5.0001086425781125
 21
37.902637746616705
 31
0.0
  0
ARC
  5
26E
100
AcDbEntity
  8
0
  6
CONTINUOUS
 62
               4
100
AcDbCircle
 10
0.5500015258812345
 20
32.499998474118769
 30
0.0
 40
0.5000015258835628
100
AcDbArc
 50
90.000174852575753
 51
179.99982514742365
  0
ARC
  5
26F
100
AcDbEntity
  8
0
  6
CONTINUOUS
 62
               4
100
AcDbCircle
 10
9.4499984741187646
 20
32.499998474118769
 30
0.0
 40
0.5000015258835625
100
AcDbArc
 50
0.0001748525759638
 51
89.999825147423834
  0
LINE
  5
270
100
AcDbEntity
  8
0
  6
CONTINUOUS
 62
               4
100
AcDbLine
 10
10.0
 20
0.0
 30
0.0
 11
10.0
 21
24.0
 31
0.0
  0
LINE
  5
271
100
AcDbEntity
  8
0
  6
CONTINUOUS
 62
               4
100
AcDbLine
 10
0.0
 20
0.0
 30
0.0
 11
0.0
 21
24.0
 31
0.0
  0
LINE
  5
272
100
AcDbEntity
  8
0
  6
CONTINUOUS
 62
               4
100
AcDbLine
 10
9.9499999999999993
 20
24.0
 30
0.0
 11
9.9499999999999993
 21
32.5
 31
0.0
  0
LINE
  5
273
100
AcDbEntity
  8
0
  6
CONTINUOUS
 62
               4
100
AcDbLine
 10
9.9499999999999993
 20
28.5
 30
0.0
 11
0.05
 21
28.5
 31
0.0
  0
LINE
  5
274
100
AcDbEntity
  8
0
  6
CONTINUOUS
 62
               4
100
AcDbLine
 10
9.5
 20
33.0
 30
0.0
 11
0.5
 21
33.0
 31
0.0
  0
LINE
  5
275
100
AcDbEntity
  8
0
  6
CONTINUOUS
 62
               4
100
AcDbLine
 10
0.05
 20
24.0
 30
0.0
 11
0.05
 21
32.5
 31
0.0
  0
LINE
  5
276
100
AcDbEntity
  8
0
  6
CONTINUOUS
 62
               4
100
AcDbLine
 10
0.0
 20
24.0
 30
0.0
 11
10.0
 21
24.0
 31
0.0
  0
ENDBLK
  5
277
100
AcDbEntity
  8
0
100
AcDbBlockEnd
  0
BLOCK
  5
278
100
AcDbEntity
  8
0
100
AcDbBlockBegin
  2
MS_7
 70
               0
 10
0.0
 20
0.0
 30
0.0
  3
MS_7
  1

  0
LINE
  5
279
100
AcDbEntity
  8
0
  6
CONTINUOUS
 62
               4
100
AcDbLine
 10
-16.5
 20
16.499999913736957
 30
0.0
 11
-16.5
 21
25.499999913736957
 31
0.0
  0
LINE
  5
27A
100
AcDbEntity
  8
0
  6
CONTINUOUS
 62
               4
100
AcDbLine
 10
-10.0
 20
25.449996861979145
 30
0.0
 11
-10.0
 21
25.499999913736957
 31
0.0
  0
LINE
  5
27B
100
AcDbEntity
  8
0
  6
CONTINUOUS
 62
               4
100
AcDbLine
 10
-16.5
 20
26.07734671549477
 30
0.0
 11
-16.5
 21
27.499999913736957
 31
0.0
  0
LINE
  5
27C
100
AcDbEntity
  8
0
  6
CONTINUOUS
 62
               4
100
AcDbLine
 10
-5.9984588623046875
 20
25.499999913736957
 30
0.0
 11
-5.9984588623046875
 21
26.499999913736957
 31
0.0
  0
LINE
  5
27D
100
AcDbEntity
  8
0
  6
CONTINUOUS
 62
               4
100
AcDbLine
 10
-15.0
 20
26.999999913736957
 30
0.0
 11
-15.0
 21
27.499999913736957
 31
0.0
  0
LINE
  5
27E
100
AcDbEntity
  8
0
  6
CONTINUOUS
 62
               4
100
AcDbLine
 10
-10.0
 20
16.999999913736957
 30
0.0
 11
-15.5
 21
16.999999913736957
 31
0.0
  0
LINE
  5
27F
100
AcDbEntity
  8
0
  6
CONTINUOUS
 62
               4
100
AcDbLine
 10
-15.5
 20
16.499999913736957
 30
0.0
 11
-16.5
 21
16.499999913736957
 31
0.0
  0
LINE
  5
280
100
AcDbEntity
  8
0
  6
CONTINUOUS
 62
               4
100
AcDbLine
 10
-15.5
 20
16.499999913736957
 30
0.0
 11
-15.5
 21
16.999999913736957
 31
0.0
  0
LINE
  5
281
100
AcDbEntity
  8
0
  6
CONTINUOUS
 62
               4
100
AcDbLine
 10
-9.55615234375
 20
26.999999913736957
 30
0.0
 11
-15.0
 21
26.999999913736957
 31
0.0
  0
LINE
  5
282
100
AcDbEntity
  8
0
  6
CONTINUOUS
 62
               4
100
AcDbLine
 10
-5.998454579468671
 20
26.500071061293767
 30
0.0
 11
-9.5561426631575159
 21
27.000070384309566
 31
0.0
  0
LINE
  5
283
100
AcDbEntity
  8
0
  6
CONTINUOUS
 62
               4
100
AcDbLine
 10
-10.0
 20
25.499999913736957
 30
0.0
 11
-16.5
 21
25.499999913736957
 31
0.0
  0
LINE
  5
284
100
AcDbEntity
  8
0
  6
CONTINUOUS
 62
               4
100
AcDbLine
 10
-15.499999958178705
 20
25.499978352823547
 30
0.0
 11
-16.499994209762917
 21
26.077324672805645
 31
0.0
  0
LINE
  5
285
100
AcDbEntity
  8
0
  6
CONTINUOUS
 62
               4
100
AcDbLine
 10
-15.0
 20
27.499999913736957
 30
0.0
 11
-16.5
 21
27.499999913736957
 31
0.0
  0
LINE
  5
286
100
AcDbEntity
  8
0
  6
CONTINUOUS
 62
               4
100
AcDbLine
 10
-29.5
 20
19.05000296549477
 30
0.0
 11
-29.5
 21
19.850006017252582
 31
0.0
  0
LINE
  5
287
100
AcDbEntity
  8
0
  6
CONTINUOUS
 62
               4
100
AcDbLine
 10
-24.500015258789063
 20
19.850006017252582
 30
0.0
 11
-29.5
 21
19.850006017252582
 31
0.0
  0
LINE
  5
288
100
AcDbEntity
  8
0
  6
CONTINUOUS
 62
               4
100
AcDbLine
 10
-24.500015258789063
 20
19.05000296549477
 30
0.0
 11
-29.5
 21
19.05000296549477
 31
0.0
  0
LINE
  5
289
100
AcDbEntity
  8
0
  6
CONTINUOUS
 62
               4
100
AcDbLine
 10
-16.5
 20
22.665023717447895
 30
0.0
 11
-19.455841064453125
 21
22.665023717447895
 31
0.0
  0
LINE
  5
28A
100
AcDbEntity
  8
0
  6
CONTINUOUS
 62
               4
100
AcDbLine
 10
-16.5
 20
21.235015782877582
 30
0.0
 11
-19.839019775390625
 21
21.235015782877582
 31
0.0
  0
LINE
  5
28B
100
AcDbEntity
  8
0
  6
CONTINUOUS
 62
               4
100
AcDbLine
 10
-16.5
 20
18.735015782877582
 30
0.0
 11
-20.508895874023438
 21
18.735015782877582
 31
0.0
  0
LINE
  5
28C
100
AcDbEntity
  8
0
  6
CONTINUOUS
 62
               4
100
AcDbLine
 10
-16.5
 20
20.165023717447895
 30
0.0
 11
-20.125717163085938
 21
20.165023717447895
 31
0.0
  0
LINE
  5
28D
100
AcDbEntity
  8
0
  6
CONTINUOUS
 62
               4
100
AcDbLine
 10
-24.500015258789063
 20
22.350006017252582
 30
0.0
 11
-29.5
 21
22.350006017252582
 31
0.0
  0
LINE
  5
28E
100
AcDbEntity
  8
0
  6
CONTINUOUS
 62
               4
100
AcDbLine
 10
-24.500015258789063
 20
21.55000296549477
 30
0.0
 11
-29.5
 21
21.55000296549477
 31
0.0
  0
LINE
  5
28F
100
AcDbEntity
  8
0
  6
CONTINUOUS
 62
               4
100
AcDbLine
 10
-29.5
 20
22.350006017252582
 30
0.0
 11
-29.5
 21
21.55000296549477
 31
0.0
  0
LINE
  5
290
100
AcDbEntity
  8
0
  6
CONTINUOUS
 62
               4
100
AcDbLine
 10
-24.5
 20
18.73500052408852
 30
0.0
 11
-24.5
 21
20.165008458658832
 31
0.0
  0
LINE
  5
291
100
AcDbEntity
  8
0
  6
CONTINUOUS
 62
               4
100
AcDbLine
 10
-24.5
 20
22.665008458658832
 30
0.0
 11
-24.5
 21
21.23500052408852
 31
0.0
  0
LINE
  5
292
100
AcDbEntity
  8
0
  6
CONTINUOUS
 62
               4
100
AcDbLine
 10
-21.544174194335937
 20
18.735015782877582
 30
0.0
 11
-24.500015258789063
 21
18.735015782877582
 31
0.0
  0
LINE
  5
293
100
AcDbEntity
  8
0
  6
CONTINUOUS
 62
               4
100
AcDbLine
 10
-21.160995483398438
 20
20.165023717447895
 30
0.0
 11
-24.500015258789063
 21
20.165023717447895
 31
0.0
  0
LINE
  5
294
100
AcDbEntity
  8
0
  6
CONTINUOUS
 62
               4
100
AcDbLine
 10
-20.874298095703125
 20
21.235015782877582
 30
0.0
 11
-24.500015258789063
 21
21.235015782877582
 31
0.0
  0
LINE
  5
295
100
AcDbEntity
  8
0
  6
CONTINUOUS
 62
               4
100
AcDbLine
 10
-20.491119384765625
 20
22.665023717447895
 30
0.0
 11
-24.500015258789063
 21
22.665023717447895
 31
0.0
  0
LINE
  5
296
100
AcDbEntity
  8
0
  6
CONTINUOUS
 62
             200
100
AcDbLine
 10
-19.053935707232995
 20
24.165006172564773
 30
0.0
 11
-20.910828860160109
 21
17.234986639697837
 31
0.0
  0
LINE
  5
297
100
AcDbEntity
  8
0
  6
CONTINUOUS
 62
             200
100
AcDbLine
 10
-20.089214565994553
 20
24.164996126888383
 30
0.0
 11
-21.946103769656474
 21
17.234991332879673
 31
0.0
  0
LINE
  5
298
100
AcDbEntity
  8
0
  6
CONTINUOUS
 62
               4
100
AcDbLine
 10
27.000000000000004
 20
28.184999913736931
 30
0.0
 11
27.000000000000004
 21
23.999999913736957
 31
0.0
  0
LINE
  5
299
100
AcDbEntity
  8
0
  6
CONTINUOUS
 62
               4
100
AcDbLine
 10
24.674999999999994
 20
32.999999913736957
 30
0.0
 11
-2.503080900033293
 21
32.999999913736957
 31
0.0
  0
LINE
  5
29A
100
AcDbEntity
  8
0
  6
CONTINUOUS
 62
               4
100
AcDbLine
 10
25.129999999999999
 20
32.704999913736941
 30
0.0
 11
26.870000000000008
 21
28.789999913736949
 31
0.0
  0
ARC
  5
29B
100
AcDbEntity
  8
0
  6
CONTINUOUS
 62
               4
100
AcDbCircle
 10
24.675687863874504
 20
32.50267102581455
 30
0.0
 40
0.4973293636201366
100
AcDbArc
 50
24.005903588636794
 51
90.079246697133684
  0
ARC
  5
29C
100
AcDbEntity
  8
0
  6
CONTINUOUS
 62
               4
100
AcDbCircle
 10
25.501123948313893
 20
28.179394315853983
 30
0.0
 40
1.4988865337462252
100
AcDbArc
 50
0.2142776266259142
 51
24.039904443234626
  0
LINE
  5
29D
100
AcDbEntity
  8
0
  6
CONTINUOUS
 62
               4
100
AcDbLine
 10
1.4999999999999964
 20
25.599999913736951
 30
0.0
 11
1.4999999999999964
 21
23.999999913736957
 31
0.0
  0
LINE
  5
29E
100
AcDbEntity
  8
0
  6
CONTINUOUS
 62
               4
100
AcDbLine
 10
-3.0000000000000142
 20
32.499999913736957
 30
0.0
 11
-3.0000000000000142
 21
25.599999913736951
 31
0.0
  0
ARC
  5
29F
100
AcDbEntity
  8
0
  6
CONTINUOUS
 62
               4
100
AcDbCircle
 10
-2.5015404500182825
 20
32.501540363755225
 30
0.0
 40
0.4984619302958243
100
AcDbArc
 50
89.822932465397898
 51
180.17706753460195
  0
LINE
  5
2A0
100
AcDbEntity
  8
0
  6
CONTINUOUS
 62
               4
100
AcDbLine
 10
1.4999999999999964
 20
25.599999913736951
 30
0.0
 11
-3.0000000000000142
 21
25.599999913736951
 31
0.0
  0
LINE
  5
2A1
100
AcDbEntity
  8
0
  6
CONTINUOUS
 62
               4
100
AcDbLine
 10
14.295000000000009
 20
23.999999913736957
 30
0.0
 11
12.795000000000009
 21
23.999999913736957
 31
0.0
  0
LINE
  5
2A2
100
AcDbEntity
  8
0
  6
CONTINUOUS
 62
               4
100
AcDbLine
 10
27.0
 20
23.999999913736957
 30
0.0
 11
1.3999999999999915
 21
23.999999913736957
 31
0.0
  0
LINE
  5
2A3
100
AcDbEntity
  8
0
  6
CONTINUOUS
 62
               4
100
AcDbLine
 10
-10.000000000000014
 20
16.999999913736957
 30
0.0
 11
1.3999999999999915
 21
16.999999913736957
 31
0.0
  0
LINE
  5
2A4
100
AcDbEntity
  8
0
  6
CONTINUOUS
 62
               4
100
AcDbLine
 10
-10.000000000000014
 20
25.499999913736957
 30
0.0
 11
1.3999999999999915
 21
25.499999913736957
 31
0.0
  0
LINE
  5
2A5
100
AcDbEntity
  8
0
  6
CONTINUOUS
 62
               4
100
AcDbLine
 10
-10.000000000000014
 20
25.499999913736957
 30
0.0
 11
-10.000000000000014
 21
16.999999913736957
 31
0.0
  0
LINE
  5
2A6
100
AcDbEntity
  8
0
  6
CONTINUOUS
 62
               4
100
AcDbLine
 10
1.3999999999999915
 20
16.999999913736957
 30
0.0
 11
1.3999999999999915
 21
25.499999909445421
 31
0.0
  0
LINE
  5
2A7
100
AcDbEntity
  8
0
  6
CONTINUOUS
 62
               4
100
AcDbLine
 10
-0.0000000000000036
 20
16.999999913736957
 30
0.0
 11
0.0000000000000071
 21
0.0000049999999874
 31
0.0
  0
LINE
  5
2A8
100
AcDbEntity
  8
0
  6
CONTINUOUS
 62
               4
100
AcDbLine
 10
27.0
 20
23.999999913736957
 30
0.0
 11
27.0
 21
-0.0000000862630429
 31
0.0
  0
ENDBLK
  5
2A9
100
AcDbEntity
  8
0
100
AcDbBlockEnd
  0
BLOCK
  5
2AA
100
AcDbEntity
  8
0
100
AcDbBlockBegin
  2
MS_8
 70
               0
 10
0.0
 20
0.0
 30
0.0
  3
MS_8
  1

  0
LINE
  5
2AB
100
AcDbEntity
  8
0
  6
CONTINUOUS
 62
               4
100
AcDbLine
 10
16.500000000000014
 20
16.5
 30
0.0
 11
16.500000000000014
 21
25.5
 31
0.0
  0
LINE
  5
2AC
100
AcDbEntity
  8
0
  6
CONTINUOUS
 62
               4
100
AcDbLine
 10
10.000000000000007
 20
25.449996948242187
 30
0.0
 11
10.000000000000007
 21
25.5
 31
0.0
  0
LINE
  5
2AD
100
AcDbEntity
  8
0
  6
CONTINUOUS
 62
               4
100
AcDbLine
 10
16.500000000000014
 20
26.077346801757813
 30
0.0
 11
16.500000000000014
 21
27.5
 31
0.0
  0
LINE
  5
2AE
100
AcDbEntity
  8
0
  6
CONTINUOUS
 62
               4
100
AcDbLine
 10
5.9984588623046946
 20
25.5
 30
0.0
 11
5.9984588623046946
 21
26.5
 31
0.0
  0
LINE
  5
2AF
100
AcDbEntity
  8
0
  6
CONTINUOUS
 62
               4
100
AcDbLine
 10
15.000000000000014
 20
27.0
 30
0.0
 11
15.000000000000014
 21
27.5
 31
0.0
  0
LINE
  5
2B0
100
AcDbEntity
  8
0
  6
CONTINUOUS
 62
               4
100
AcDbLine
 10
10.000000000000007
 20
17.0
 30
0.0
 11
15.500000000000014
 21
17.0
 31
0.0
  0
LINE
  5
2B1
100
AcDbEntity
  8
0
  6
CONTINUOUS
 62
               4
100
AcDbLine
 10
15.500000000000014
 20
16.5
 30
0.0
 11
16.500000000000014
 21
16.5
 31
0.0
  0
LINE
  5
2B2
100
AcDbEntity
  8
0
  6
CONTINUOUS
 62
               4
100
AcDbLine
 10
15.500000000000014
 20
16.5
 30
0.0
 11
15.500000000000014
 21
17.0
 31
0.0
  0
LINE
  5
2B3
100
AcDbEntity
  8
0
  6
CONTINUOUS
 62
               4
100
AcDbLine
 10
9.5561523437500071
 20
27.0
 30
0.0
 11
15.000000000000014
 21
27.0
 31
0.0
  0
LINE
  5
2B4
100
AcDbEntity
  8
0
  6
CONTINUOUS
 62
               4
100
AcDbLine
 10
5.9984545794686781
 20
26.50007114755681
 30
0.0
 11
9.556142663157523
 21
27.000070470572609
 31
0.0
  0
LINE
  5
2B5
100
AcDbEntity
  8
0
  6
CONTINUOUS
 62
               4
100
AcDbLine
 10
10.000000000000007
 20
25.5
 30
0.0
 11
16.500000000000014
 21
25.5
 31
0.0
  0
LINE
  5
2B6
100
AcDbEntity
  8
0
  6
CONTINUOUS
 62
               4
100
AcDbLine
 10
15.499999958178719
 20
25.49997843908659
 30
0.0
 11
16.499994209762932
 21
26.077324759068688
 31
0.0
  0
LINE
  5
2B7
100
AcDbEntity
  8
0
  6
CONTINUOUS
 62
               4
100
AcDbLine
 10
15.000000000000014
 20
27.5
 30
0.0
 11
16.500000000000014
 21
27.5
 31
0.0
  0
LINE
  5
2B8
100
AcDbEntity
  8
0
  6
CONTINUOUS
 62
               4
100
AcDbLine
 10
29.500000000000014
 20
19.050003051757812
 30
0.0
 11
29.500000000000014
 21
19.850006103515625
 31
0.0
  0
LINE
  5
2B9
100
AcDbEntity
  8
0
  6
CONTINUOUS
 62
               4
100
AcDbLine
 10
24.500015258789077
 20
19.850006103515625
 30
0.0
 11
29.500000000000014
 21
19.850006103515625
 31
0.0
  0
LINE
  5
2BA
100
AcDbEntity
  8
0
  6
CONTINUOUS
 62
               4
100
AcDbLine
 10
24.500015258789077
 20
19.050003051757812
 30
0.0
 11
29.500000000000014
 21
19.050003051757812
 31
0.0
  0
LINE
  5
2BB
100
AcDbEntity
  8
0
  6
CONTINUOUS
 62
               4
100
AcDbLine
 10
16.500000000000014
 20
22.665023803710938
 30
0.0
 11
19.455841064453139
 21
22.665023803710938
 31
0.0
  0
LINE
  5
2BC
100
AcDbEntity
  8
0
  6
CONTINUOUS
 62
               4
100
AcDbLine
 10
16.500000000000014
 20
21.235015869140625
 30
0.0
 11
19.839019775390639
 21
21.235015869140625
 31
0.0
  0
LINE
  5
2BD
100
AcDbEntity
  8
0
  6
CONTINUOUS
 62
               4
100
AcDbLine
 10
16.500000000000014
 20
18.735015869140625
 30
0.0
 11
20.508895874023452
 21
18.735015869140625
 31
0.0
  0
LINE
  5
2BE
100
AcDbEntity
  8
0
  6
CONTINUOUS
 62
               4
100
AcDbLine
 10
16.500000000000014
 20
20.165023803710937
 30
0.0
 11
20.125717163085952
 21
20.165023803710937
 31
0.0
  0
LINE
  5
2BF
100
AcDbEntity
  8
0
  6
CONTINUOUS
 62
               4
100
AcDbLine
 10
24.500015258789077
 20
22.350006103515625
 30
0.0
 11
29.500000000000014
 21
22.350006103515625
 31
0.0
  0
LINE
  5
2C0
100
AcDbEntity
  8
0
  6
CONTINUOUS
 62
               4
100
AcDbLine
 10
24.500015258789077
 20
21.550003051757813
 30
0.0
 11
29.500000000000014
 21
21.550003051757813
 31
0.0
  0
LINE
  5
2C1
100
AcDbEntity
  8
0
  6
CONTINUOUS
 62
               4
100
AcDbLine
 10
29.500000000000014
 20
22.350006103515625
 30
0.0
 11
29.500000000000014
 21
21.550003051757813
 31
0.0
  0
LINE
  5
2C2
100
AcDbEntity
  8
0
  6
CONTINUOUS
 62
               4
100
AcDbLine
 10
24.500000000000014
 20
18.735000610351563
 30
0.0
 11
24.500000000000014
 21
20.165008544921875
 31
0.0
  0
LINE
  5
2C3
100
AcDbEntity
  8
0
  6
CONTINUOUS
 62
               4
100
AcDbLine
 10
24.500000000000014
 20
22.665008544921875
 30
0.0
 11
24.500000000000014
 21
21.235000610351563
 31
0.0
  0
LINE
  5
2C4
100
AcDbEntity
  8
0
  6
CONTINUOUS
 62
               4
100
AcDbLine
 10
21.544174194335952
 20
18.735015869140625
 30
0.0
 11
24.500015258789077
 21
18.735015869140625
 31
0.0
  0
LINE
  5
2C5
100
AcDbEntity
  8
0
  6
CONTINUOUS
 62
               4
100
AcDbLine
 10
21.160995483398452
 20
20.165023803710937
 30
0.0
 11
24.500015258789077
 21
20.165023803710937
 31
0.0
  0
LINE
  5
2C6
100
AcDbEntity
  8
0
  6
CONTINUOUS
 62
               4
100
AcDbLine
 10
20.874298095703139
 20
21.235015869140625
 30
0.0
 11
24.500015258789077
 21
21.235015869140625
 31
0.0
  0
LINE
  5
2C7
100
AcDbEntity
  8
0
  6
CONTINUOUS
 62
               4
100
AcDbLine
 10
20.491119384765639
 20
22.665023803710938
 30
0.0
 11
24.500015258789077
 21
22.665023803710938
 31
0.0
  0
LINE
  5
2C8
100
AcDbEntity
  8
0
  6
CONTINUOUS
 62
             200
100
AcDbLine
 10
19.053935707233009
 20
24.165006258827816
 30
0.0
 11
20.910828860160123
 21
17.23498672596088
 31
0.0
  0
LINE
  5
2C9
100
AcDbEntity
  8
0
  6
CONTINUOUS
 62
             200
100
AcDbLine
 10
20.089214565994567
 20
24.164996213151426
 30
0.0
 11
21.946103769656489
 21
17.234991419142716
 31
0.0
  0
LINE
  5
2CA
100
AcDbEntity
  8
0
  6
CONTINUOUS
 62
               4
100
AcDbLine
 10
-26.999999999999996
 20
28.184999999999974
 30
0.0
 11
-26.999999999999996
 21
24.0
 31
0.0
  0
LINE
  5
2CB
100
AcDbEntity
  8
0
  6
CONTINUOUS
 62
               4
100
AcDbLine
 10
-24.674999999999986
 20
33.0
 30
0.0
 11
2.5030809000332965
 21
33.0
 31
0.0
  0
LINE
  5
2CC
100
AcDbEntity
  8
0
  6
CONTINUOUS
 62
               4
100
AcDbLine
 10
-25.129999999999992
 20
32.704999999999984
 30
0.0
 11
-26.870000000000001
 21
28.789999999999992
 31
0.0
  0
ARC
  5
2CD
100
AcDbEntity
  8
0
  6
CONTINUOUS
 62
               4
100
AcDbCircle
 10
-24.675687863874497
 20
32.502671112077593
 30
0.0
 40
0.4973293636201366
100
AcDbArc
 50
89.920753302865904
 51
155.99409641136279
  0
ARC
  5
2CE
100
AcDbEntity
  8
0
  6
CONTINUOUS
 62
               4
100
AcDbCircle
 10
-25.501123948313886
 20
28.179394402117026
 30
0.0
 40
1.4988865337462252
100
AcDbArc
 50
155.96009555676497
 51
179.78572237337369
  0
LINE
  5
2CF
100
AcDbEntity
  8
0
  6
CONTINUOUS
 62
               4
100
AcDbLine
 10
-1.4999999999999858
 20
25.599999999999994
 30
0.0
 11
-1.4999999999999858
 21
24.0
 31
0.0
  0
LINE
  5
2D0
100
AcDbEntity
  8
0
  6
CONTINUOUS
 62
               4
100
AcDbLine
 10
3.0000000000000213
 20
32.5
 30
0.0
 11
3.0000000000000213
 21
25.599999999999994
 31
0.0
  0
ARC
  5
2D1
100
AcDbEntity
  8
0
  6
CONTINUOUS
 62
               4
100
AcDbCircle
 10
2.5015404500182896
 20
32.501540450018268
 30
0.0
 40
0.4984619302958243
100
AcDbArc
 50
359.82293246539683
 51
90.177067534601704
  0
LINE
  5
2D2
100
AcDbEntity
  8
0
  6
CONTINUOUS
 62
               4
100
AcDbLine
 10
-1.4999999999999858
 20
25.599999999999994
 30
0.0
 11
3.0000000000000213
 21
25.599999999999994
 31
0.0
  0
LINE
  5
2D3
100
AcDbEntity
  8
0
  6
CONTINUOUS
 62
               4
100
AcDbLine
 10
-14.295000000000002
 20
24.0
 30
0.0
 11
-12.795000000000002
 21
24.0
 31
0.0
  0
LINE
  5
2D4
100
AcDbEntity
  8
0
  6
CONTINUOUS
 62
               4
100
AcDbLine
 10
-26.999999999999993
 20
24.0
 30
0.0
 11
-1.3999999999999844
 21
24.0
 31
0.0
  0
LINE
  5
2D5
100
AcDbEntity
  8
0
  6
CONTINUOUS
 62
               4
100
AcDbLine
 10
10.000000000000014
 20
17.0
 30
0.0
 11
-1.3999999999999844
 21
17.0
 31
0.0
  0
LINE
  5
2D6
100
AcDbEntity
  8
0
  6
CONTINUOUS
 62
               4
100
AcDbLine
 10
10.000000000000014
 20
25.5
 30
0.0
 11
-1.3999999999999844
 21
25.5
 31
0.0
  0
LINE
  5
2D7
100
AcDbEntity
  8
0
  6
CONTINUOUS
 62
               4
100
AcDbLine
 10
10.000000000000014
 20
25.5
 30
0.0
 11
10.000000000000014
 21
17.0
 31
0.0
  0
LINE
  5
2D8
100
AcDbEntity
  8
0
  6
CONTINUOUS
 62
               4
100
AcDbLine
 10
-1.3999999999999844
 20
17.0
 30
0.0
 11
-1.3999999999999844
 21
25.499999995708464
 31
0.0
  0
LINE
  5
2D9
100
AcDbEntity
  8
0
  6
CONTINUOUS
 62
               4
100
AcDbLine
 10
0.0000000000000142
 20
17.0
 30
0.0
 11
0.0
 21
0.0000050862630303
 31
0.0
  0
LINE
  5
2DA
100
AcDbEntity
  8
0
  6
CONTINUOUS
 62
               4
100
AcDbLine
 10
-26.999999999999993
 20
24.0
 30
0.0
 11
-26.999999999999993
 21
0.0
 31
0.0
  0
ENDBLK
  5
2DB
100
AcDbEntity
  8
0
100
AcDbBlockEnd
  0
ENDSEC
  0
SECTION
  2
ENTITIES
  0
INSERT
  5
2DC
100
AcDbEntity
  8
0
100
AcDbBlockReference
  2
MS_8
 10
300.94999999999999
 20
10.25
 30
0.0
  0
INSERT
  5
2DD
100
AcDbEntity
  8
0
100
AcDbBlockReference
  2
MS_5
 10
-344.8974609375
 20
-168.68938011107412
 30
0.0
  0
MTEXT
  5
2DE
100
AcDbEntity
  8
0
  6
CONTINUOUS
 62
               7
100
AcDbMText
 10
-382.14285776482859
 20
-76.127795638417865
 30
0.0
 40
9.0
 41
0.0
 71
               4
 72
               1
  1
\W1.071;\A1;MODEL:CS-F18T1-G(V)-A2-PS
  7
MX_NOTE_STANDARD
  0
INSERT
  5
2DF
100
AcDbEntity
  8
0
100
AcDbBlockReference
  2
MS_7
 10
93.949921874999973
 20
10.249252319335937
 30
0.0
  0
INSERT
  5
2E0
100
AcDbEntity
  8
0
100
AcDbBlockReference
  2
MS_6
 10
192.44989135742185
 20
10.249267578125
 30
0.0
  0
INSERT
  5
2E1
100
AcDbEntity
  8
0
100
AcDbBlockReference
  2
MS_4
 10
-212.23750305175781
 20
-39.4920654296875
 30
0.0
  0
INSERT
  5
2E2
100
AcDbEntity
  8
0
100
AcDbBlockReference
  2
MS_3
 10
-61.23748779296875
 20
138.68841552734375
 30
0.0
  0
INSERT
  5
2E3
100
AcDbEntity
  8
0
100
AcDbBlockReference
  2
MS_2
 10
-344.8974609375
 20
138.68841552734375
 30
0.0
  0
INSERT
  5
2E4
100
AcDbEntity
  8
0
100
AcDbBlockReference
  2
MS_1
 10
-212.23750305175781
 20
138.68841552734375
 30
0.0
  0
MTEXT
  5
2E5
100
AcDbEntity
  8
0
  6
CONTINUOUS
 62
               7
100
AcDbMText
 10
17.399999387717219
 20
87.583343505859375
 30
0.0
 40
9.0
 41
0.0
 71
               4
 72
               1
  1
\W1.080;\A1;MODEL:-PL
  7
MX_NOTE_STANDARD
  0
MTEXT
  5
2E6
100
AcDbEntity
  8
0
  6
CONTINUOUS
 62
               7
100
AcDbMText
 10
-376.11593384461054
 20
263.75
 30
0.0
 40
9.0
 41
0.0
 71
               4
 72
               1
  1
\W1.089;\A1;CS-F18 SERIES
  7
MX_NOTE_STANDARD
  0
MTEXT
  5
2E7
100
AcDbEntity
  8
0
  6
CONTINUOUS
 62
               7
100
AcDbMText
 10
-382.14285776020995
 20
231.25
 30
0.0
 40
9.0
 41
0.0
 71
               4
 72
               1
  1
\W1.071;\A1;MODEL:CS-F18T1-A2-PS
  7
MX_NOTE_STANDARD
  0
MTEXT
  5
2E8
100
AcDbEntity
  8
0
  6
CONTINUOUS
 62
               7
100
AcDbMText
 10
285.76701057054424
 20
263.75
 30
0.0
 40
9.0
 41
0.0
 71
               4
 72
               1
  1
\W1.311;\A1;Ver. 1.0
  7
MX_NOTE_STANDARD
  0
MTEXT
  5
2E9
100
AcDbEntity
  8
0
  6
CONTINUOUS
 62
               7
100
AcDbMText
 10
245.88456275493564
 20
-264.25
 30
0.0
 40
12.5
 41
0.0
 71
               4
 72
               1
  1
\W1.121;\A1;KOGANEI CORP.
  7
MX_NOTE_STANDARD
  0
LINE
  5
2EA
100
AcDbEntity
  8
0
  6
CONTINUOUS
 62
               7
100
AcDbLine
 10
273.94999999999999
 20
10.25
 30
0.0
 11
300.94999999999999
 21
10.25
 31
0.0
  0
LINE
  5
2EB
100
AcDbEntity
  8
0
  6
CONTINUOUS
 62
               7
100
AcDbLine
 10
192.44999999999996
 20
10.25
 30
0.0
 11
202.44999999999996
 21
10.25
 31
0.0
  0
LINE
  5
2EC
100
AcDbEntity
  8
0
  6
CONTINUOUS
 62
               7
100
AcDbLine
 10
93.949999999999989
 20
10.25
 30
0.0
 11
120.94999999999999
 21
10.25
 31
0.0
  0
LINE
  5
2ED
100
AcDbEntity
  8
0
  6
CONTINUOUS
 62
               7
100
AcDbLine
 10
0.27
 20
276.25
 30
0.0
 11
0.27
 21
-276.75
 31
0.0
  0
LINE
  5
2EE
100
AcDbEntity
  8
0
  6
CONTINUOUS
 62
               7
100
AcDbLine
 10
-239.25
 20
276.25
 30
0.0
 11
-239.25
 21
251.25
 31
0.0
  0
LINE
  5
2EF
100
AcDbEntity
  8
0
  6
CONTINUOUS
 62
               7
100
AcDbLine
 10
239.80000000000001
 20
251.25
 30
0.0
 11
239.80000000000001
 21
276.25
 31
0.0
  0
LINE
  5
2F0
100
AcDbEntity
  8
0
  6
CONTINUOUS
 62
               7
100
AcDbLine
 10
239.80000000000001
 20
-251.75
 30
0.0
 11
239.80000000000001
 21
-276.75
 31
0.0
  0
LINE
  5
2F1
100
AcDbEntity
  8
0
  6
CONTINUOUS
 62
               7
100
AcDbLine
 10
-399.25
 20
251.25
 30
0.0
 11
-239.25
 21
251.25
 31
0.0
  0
LINE
  5
2F2
100
AcDbEntity
  8
0
  6
CONTINUOUS
 62
               7
100
AcDbLine
 10
239.80000000000001
 20
251.25
 30
0.0
 11
399.80000000000001
 21
251.25
 31
0.0
  0
LINE
  5
2F3
100
AcDbEntity
  8
0
  6
CONTINUOUS
 62
               7
100
AcDbLine
 10
239.80000000000001
 20
-251.75
 30
0.0
 11
399.80000000000001
 21
-251.75
 31
0.0
  0
LINE
  5
2F4
100
AcDbEntity
  8
0
  6
CONTINUOUS
 62
               7
100
AcDbLine
 10
-399.25
 20
-276.75
 30
0.0
 11
399.80000000000001
 21
-276.75
 31
0.0
  0
LINE
  5
2F5
100
AcDbEntity
  8
0
  6
CONTINUOUS
 62
               7
100
AcDbLine
 10
-399.25
 20
276.25
 30
0.0
 11
399.80000000000001
 21
276.25
 31
0.0
  0
LINE
  5
2F6
100
AcDbEntity
  8
0
  6
CONTINUOUS
 62
               7
100
AcDbLine
 10
-399.25
 20
276.25
 30
0.0
 11
-399.25
 21
-276.75
 31
0.0
  0
LINE
  5
2F7
100
AcDbEntity
  8
0
  6
CONTINUOUS
 62
               7
100
AcDbLine
 10
399.80000000000001
 20
276.25
 30
0.0
 11
399.80000000000001
 21
-276.75
 31
0.0
  0
ENDSEC
  0
SECTION
  2
OBJECTS
  0
DICTIONARY
  5
19
100
AcDbDictionary
  3
ACAD_GROUP
350
1A
  3
ACAD_MLINESTYLE
350
1B
  0
DICTIONARY
  5
1A
102
{ACAD_REACTORS
330
19
102
}
100
AcDbDictionary
  0
DICTIONARY
  5
1B
102
{ACAD_REACTORS
330
19
102
}
100
AcDbDictionary
  3
STANDARD
350
1C
  0
MLINESTYLE
  5
1C
102
{ACAD_REACTORS
330
1B
102
}
100
AcDbMlineStyle
  2
Standard
 70
               0
  3

 62
               0
 51
90.0
 52
90.0
 71
               2
 49
0.5
 62
             256
  6
ByLayer
 49
-0.5
 62
             256
  6
ByLayer
  0
ENDSEC
  0
EOF
