  0
SECTION
  2
HEADER
  9
$ACADVER
  1
AC1012
  9
$DWGCODEPAGE
  3
dos932
  9
$INSBASE
 10
0.0
 20
0.0
 30
0.0
  9
$EXTMIN
 10
-194.25
 20
-133.5
 30
0.0
  9
$EXTMAX
 10
196.25000429153442
 20
132.59999999999999
 30
0.0
  9
$LIMMIN
 10
-194.25
 20
-133.5
  9
$LIMMAX
 10
196.25000429153442
 20
132.59999999999999
  9
$ORTHOMODE
 70
               0
  9
$REGENMODE
 70
               1
  9
$FILLMODE
 70
               1
  9
$QTEXTMODE
 70
               0
  9
$MIRRTEXT
 70
               1
  9
$DRAGMODE
 70
               2
  9
$LTSCALE
 40
1.0
  9
$OSMODE
 70
               0
  9
$ATTMODE
 70
               1
  9
$TEXTSIZE
 40
3.2000000476837158
  9
$TRACEWID
 40
0.05
  9
$TEXTSTYLE
  7
MX_NOTE_STANDARD
  9
$CLAYER
  8
0
  9
$CELTYPE
  6
CONTINUOUS
  9
$CECOLOR
 62
             256
  9
$CELTSCALE
 40
1.0
  9
$DELOBJ
 70
               1
  9
$DISPSILH
 70
               0
  9
$DIMSCALE
 40
1.0
  9
$DIMASZ
 40
2.5
  9
$DIMEXO
 40
1.5
  9
$DIMDLI
 40
3.75
  9
$DIMRND
 40
0.0
  9
$DIMDLE
 40
0.0
  9
$DIMEXE
 40
1.5
  9
$DIMTP
 40
0.0
  9
$DIMTM
 40
0.0
  9
$DIMTXT
 40
3.2000000476837158
  9
$DIMCEN
 40
2.5
  9
$DIMTSZ
 40
0.0
  9
$DIMTOL
 70
               0
  9
$DIMLIM
 70
               0
  9
$DIMTIH
 70
               0
  9
$DIMTOH
 70
               0
  9
$DIMSE1
 70
               0
  9
$DIMSE2
 70
               0
  9
$DIMTAD
 70
               1
  9
$DIMZIN
 70
               8
  9
$DIMBLK
  1

  9
$DIMASO
 70
               1
  9
$DIMSHO
 70
               1
  9
$DIMPOST
  1

  9
$DIMAPOST
  1

  9
$DIMALT
 70
               0
  9
$DIMALTD
 70
               4
  9
$DIMALTF
 40
0.0394
  9
$DIMLFAC
 40
1.0
  9
$DIMTOFL
 70
               1
  9
$DIMTVP
 40
0.0
  9
$DIMTIX
 70
               0
  9
$DIMSOXD
 70
               0
  9
$DIMSAH
 70
               0
  9
$DIMBLK1
  1

  9
$DIMBLK2
  1

  9
$DIMSTYLE
  2
MXDIMSTYLE
  9
$DIMCLRD
 70
               0
  9
$DIMCLRE
 70
               0
  9
$DIMCLRT
 70
               0
  9
$DIMTFAC
 40
1.0
  9
$DIMGAP
 40
1.0
  9
$DIMJUST
 70
               0
  9
$DIMSD1
 70
               0
  9
$DIMSD2
 70
               0
  9
$DIMTOLJ
 70
               1
  9
$DIMTZIN
 70
               0
  9
$DIMALTZ
 70
               0
  9
$DIMALTTZ
 70
               0
  9
$DIMFIT
 70
               3
  9
$DIMUPT
 70
               1
  9
$DIMUNIT
 70
               2
  9
$DIMDEC
 70
               4
  9
$DIMTDEC
 70
               4
  9
$DIMALTU
 70
               8
  9
$DIMALTTD
 70
               4
  9
$DIMTXSTY
  7
MX_NOTE_STANDARD
  9
$DIMAUNIT
 70
               0
  9
$LUNITS
 70
               2
  9
$LUPREC
 70
               4
  9
$SKETCHINC
 40
0.1
  9
$FILLETRAD
 40
0.0
  9
$AUNITS
 70
               0
  9
$AUPREC
 70
               0
  9
$MENU
  1
acad
  9
$ELEVATION
 40
0.0
  9
$PELEVATION
 40
0.0
  9
$THICKNESS
 40
0.0
  9
$LIMCHECK
 70
               0
  9
$BLIPMODE
 70
               1
  9
$CHAMFERA
 40
0.0
  9
$CHAMFERB
 40
0.0
  9
$CHAMFERC
 40
0.0
  9
$CHAMFERD
 40
0.0
  9
$SKPOLY
 70
               0
  9
$TDCREATE
 40
2452220.696932870
  9
$TDUPDATE
 40
2452220.696932870
  9
$TDINDWG
 40
0.0000000000
  9
$TDUSRTIMER
 40
0.0000000000
  9
$USRTIMER
 70
               1
  9
$ANGBASE
 50
0.0
  9
$ANGDIR
 70
               0
  9
$PDMODE
 70
               0
  9
$PDSIZE
 40
0.0
  9
$PLINEWID
 40
0.0
  9
$COORDS
 70
               1
  9
$SPLFRAME
 70
               0
  9
$SPLINETYPE
 70
               6
  9
$SPLINESEGS
 70
               8
  9
$ATTDIA
 70
               0
  9
$ATTREQ
 70
               1
  9
$HANDLING
 70
               1
  9
$HANDSEED
  5
12E
  9
$SURFTAB1
 70
               6
  9
$SURFTAB2
 70
               6
  9
$SURFTYPE
 70
               6
  9
$SURFU
 70
               6
  9
$SURFV
 70
               6
  9
$UCSNAME
  2

  9
$UCSORG
 10
0.0
 20
0.0
 30
0.0
  9
$UCSXDIR
 10
1.0
 20
0.0
 30
0.0
  9
$UCSYDIR
 10
0.0
 20
1.0
 30
0.0
  9
$PUCSNAME
  2

  9
$PUCSORG
 10
0.0
 20
0.0
 30
0.0
  9
$PUCSXDIR
 10
1.0
 20
0.0
 30
0.0
  9
$PUCSYDIR
 10
0.0
 20
1.0
 30
0.0
  9
$USERI1
 70
               0
  9
$USERI2
 70
               0
  9
$USERI3
 70
               0
  9
$USERI4
 70
               0
  9
$USERI5
 70
               0
  9
$USERR1
 40
0.0
  9
$USERR2
 40
0.0
  9
$USERR3
 40
0.0
  9
$USERR4
 40
0.0
  9
$USERR5
 40
0.0
  9
$WORLDVIEW
 70
               1
  9
$SHADEDGE
 70
               3
  9
$SHADEDIF
 70
              70
  9
$TILEMODE
 70
               1
  9
$MAXACTVP
 70
              16
  9
$PINSBASE
 10
0.0
 20
0.0
 30
0.0
  9
$PLIMCHECK
 70
               0
  9
$PEXTMIN
 10
1.0000000000000000E+20
 20
1.0000000000000000E+20
 30
1.0000000000000000E+20
  9
$PEXTMAX
 10
-1.0000000000000000E+20
 20
-1.0000000000000000E+20
 30
-1.0000000000000000E+20
  9
$PLIMMIN
 10
0.0
 20
0.0
  9
$PLIMMAX
 10
12.0
 20
9.0
  9
$UNITMODE
 70
               0
  9
$VISRETAIN
 70
               0
  9
$PLINEGEN
 70
               1
  9
$PSLTSCALE
 70
               0
  9
$TREEDEPTH
 70
            3020
  9
$PICKSTYLE
 70
               1
  9
$CMLSTYLE
  2
Standard
  9
$CMLJUST
 70
               0
  9
$CMLSCALE
 40
1.0
  9
$SAVEIMAGES
 70
               0
  0
ENDSEC
  0
SECTION
  2
CLASSES
  0
CLASS
  1
LWPOLYLINE
  2
AcDbPolyline
  3
"AutoCAD"
 90
        0
280
               0
281
               1
  0
CLASS
  1
IMAGE
  2
AcDbRasterImage
  3
ISM
 90
      127
280
               0
281
               1
  0
CLASS
  1
OLE2FRAME
  2
AcDbOle2Frame
  3
""
 90
        0
280
               0
281
               1
  0
CLASS
  1
HATCH
  2
AcDbHatch
  3
"ACAD_SEDONA"
 90
        0
280
               0
281
               1
  0
CLASS
  1
DICTIONARYVAR
  2
AcDbDictionaryVar
  3
"AutoCAD"
 90
        0
280
               0
281
               0
  0
CLASS
  1
RASTERVARIABLES
  2
AcDbRasterVariables
  3
ISM
 90
        0
280
               0
281
               0
  0
CLASS
  1
IMAGEDEF
  2
AcDbRasterImageDef
  3
ISM
 90
        0
280
               0
281
               0
  0
CLASS
  1
IMAGEDEF_REACTOR
  2
AcDbRasterImageDefReactor
  3
ISM
 90
        1
280
               0
281
               0
  0
CLASS
  1
IDBUFFER
  2
AcDbIdBuffer
  3
"Acad"
 90
        0
280
               0
281
               0
  0
CLASS
  1
SPATIAL_FILTER
  2
AcDbSpatialFilter
  3
"Acad"
 90
        0
280
               0
281
               0
  0
CLASS
  1
XRECORD
  2
AcDbXrecord
  3
"<Built In>"
 90
        0
280
               0
281
               0
  0
CLASS
  1
SORTENTSTABLE
  2
AcDbSortentsTable
  3
"AutoCAD"
 90
        0
280
               0
281
               0
  0
CLASS
  1
LAYER_INDEX
  2
AcDbLayerIndex
  3
"Acad"
 90
        0
280
               0
281
               0
  0
CLASS
  1
SPATIAL_INDEX
  2
AcDbSpatialIndex
  3
"Acad"
 90
        0
280
               0
281
               0
  0
CLASS
  1
OBJECT_PTR
  2
CAseDLPNTableRecord
  3
"ASE-LPNTableRecord"
 90
        1
280
               0
281
               0
  0
CLASS
  1
LAYOUT
  2
AcDbLayout
  3
"AutoCAD 2000"
 90
        1
280
               0
281
               0
  0
CLASS
  1
PLOTSETTINGS
  2
AcDbPlotSettings
  3
"AutoCAD 2000"
 90
        1
280
               0
281
               0
  0
CLASS
  1
ACDBDICTIONARYWDFLT
  2
AcDbDictionaryWithDefault
  3
"AutoCAD 2000"
 90
        1
280
               0
281
               0
  0
CLASS
  1
ACDBPLACEHOLDER
  2
AcDbPlaceHolder
  3
"AutoCAD 2000"
 90
        1
280
               0
281
               0
  0
CLASS
  1
VBA_PROJECT
  2
AcDbVbaProject
  3
"acadvba"
 90
        1
280
               0
281
               0
  0
CLASS
  1
WIPEOUT
  2
AcDbWipeout
  3
WipeOut|AutoCAD Express Tool|expresstools@autodesk.com
 90
      127
280
               0
281
               1
  0
CLASS
  1
WIPEOUTVARIABLES
  2
AcDbWipeoutVariables
  3
WipeOut|AutoCAD Express Tool|expresstools@autodesk.com
 90
        0
280
               0
281
               0
  0
CLASS
  1
RTEXT
  2
RText
  3
RText|AutoCAD Express Tool|expresstools@autodesk.com
 90
        0
280
               0
281
               1
  0
CLASS
  1
ARCALIGNEDTEXT
  2
AcDbArcAlignedText
  3
ATEXT|AutoCAD Express Tool|expresstools@autodesk.com
 90
        0
280
               0
281
               1
  0
ENDSEC
  0
SECTION
  2
TABLES
  0
TABLE
  2
VPORT
  5
7
100
AcDbSymbolTable
 70
               1
  0
VPORT
  5
15
100
AcDbSymbolTableRecord
100
AcDbViewportTableRecord
  2
*ACTIVE
 70
               0
 10
0.0
 20
0.0
 11
1.0
 21
1.0
 12
1.0000021457672119
 22
-0.4499999999999886
 13
0.0
 23
0.0
 14
1.0
 24
1.0
 15
0.0
 25
0.0
 16
0.0
 26
0.0
 36
1.0
 17
0.0
 27
0.0
 37
0.0
 40
268.76100000000002
 41
1.7320508075688772
 42
50.0
 43
0.0
 44
0.0
 50
0.0
 51
0.0
 71
               0
 72
             100
 73
               1
 74
               1
 75
               0
 76
               0
 77
               0
 78
               0
  0
ENDTAB
  0
TABLE
  2
LTYPE
  5
4
100
AcDbSymbolTable
 70
               5
  0
LTYPE
  5
11
100
AcDbSymbolTableRecord
100
AcDbLinetypeTableRecord
  2
BYBLOCK
 70
              64
  3

 72
              65
 73
               0
 40
0.0
  0
LTYPE
  5
12
100
AcDbSymbolTableRecord
100
AcDbLinetypeTableRecord
  2
BYLAYER
 70
              64
  3

 72
              65
 73
               0
 40
0.0
  0
LTYPE
  5
13
100
AcDbSymbolTableRecord
100
AcDbLinetypeTableRecord
  2
CONTINUOUS
 70
              64
  3
Solid line
 72
              65
 73
               0
 40
0.0
  0
LTYPE
  5
3B
100
AcDbSymbolTableRecord
100
AcDbLinetypeTableRecord
  2
DASHED
 70
              64
  3
Dashed __ __ __ __ __ __ __ __ __ __ __ __ __ _
 72
              65
 73
               2
 40
19.049999999999997
 49
12.699999999999999
 74
               0
 49
-6.3499999999999996
 74
               0
  0
LTYPE
  5
44
100
AcDbSymbolTableRecord
100
AcDbLinetypeTableRecord
  2
CENTER
 70
              64
  3
Center ____ _ ____ _ ____ _ ____ _ ____ _ ____
 72
              65
 73
               4
 40
50.800000000000004
 49
31.75
 74
               0
 49
-6.3499999999999996
 74
               0
 49
6.3499999999999996
 74
               0
 49
-6.3499999999999996
 74
               0
  0
ENDTAB
  0
TABLE
  2
LAYER
  5
2
100
AcDbSymbolTable
 70
               2
  0
LAYER
  5
14
100
AcDbSymbolTableRecord
100
AcDbLayerTableRecord
  2
0
 70
               0
 62
               7
  6
CONTINUOUS
  0
LAYER
  5
1D
100
AcDbSymbolTableRecord
100
AcDbLayerTableRecord
  2
DEFPOINTS
 70
               0
 62
               7
  6
CONTINUOUS
  0
ENDTAB
  0
TABLE
  2
STYLE
  5
3
100
AcDbSymbolTable
 70
               1
  0
STYLE
  5
17
100
AcDbSymbolTableRecord
100
AcDbTextStyleTableRecord
  2
MX_NOTE_STANDARD
 70
               0
 40
3.2000000476837158
 41
1.0
 50
0.0
 71
               0
 42
3.2000000476837158
  3
txt.shx
  4
extfont.shx
  0
ENDTAB
  0
TABLE
  2
VIEW
  5
5
100
AcDbSymbolTable
 70
               0
  0
ENDTAB
  0
TABLE
  2
UCS
  5
6
100
AcDbSymbolTable
 70
               0
  0
ENDTAB
  0
TABLE
  2
APPID
  5
8
100
AcDbSymbolTable
 70
               1
  0
APPID
  5
16
100
AcDbSymbolTableRecord
100
AcDbRegAppTableRecord
  2
ACAD
 70
               0
  0
ENDTAB
  0
TABLE
  2
DIMSTYLE
  5
9
100
AcDbSymbolTable
 70
               1
  0
DIMSTYLE
105
18
100
AcDbSymbolTableRecord
100
AcDbDimStyleTableRecord
  2
MXDIMSTYLE
 70
               0
  3

  4

  5

  6

  7

 40
1.0
 41
2.5
 42
1.5
 43
3.75
 44
1.5
 45
0.0
 46
0.0
 47
0.0
 48
0.0
 71
               0
 72
               0
 73
               0
 74
               0
 75
               0
 76
               0
 77
               1
 78
               8
140
3.2000000476837158
141
2.5
142
0.0
143
0.0394
144
1.0
145
0.0
146
1.0
147
1.0
170
               0
171
               4
172
               1
173
               0
174
               0
175
               0
176
               0
177
               0
178
               0
270
               2
271
               4
272
               4
273
               8
274
               4
275
               0
280
               0
281
               0
282
               0
283
               1
284
               0
285
               0
286
               0
287
               3
288
               1
340
17
  0
ENDTAB
  0
TABLE
  2
BLOCK_RECORD
  5
1
100
AcDbSymbolTable
 70
               4
  0
BLOCK_RECORD
  5
A
100
AcDbSymbolTableRecord
100
AcDbBlockTableRecord
  2
*MODEL_SPACE
  0
BLOCK_RECORD
  5
B
100
AcDbSymbolTableRecord
100
AcDbBlockTableRecord
  2
*PAPER_SPACE
  0
BLOCK_RECORD
  5
1E
100
AcDbSymbolTableRecord
100
AcDbBlockTableRecord
  2
MS_1
  0
BLOCK_RECORD
  5
1F
100
AcDbSymbolTableRecord
100
AcDbBlockTableRecord
  2
MS_2
  0
BLOCK_RECORD
  5
20
100
AcDbSymbolTableRecord
100
AcDbBlockTableRecord
  2
MS_3
  0
BLOCK_RECORD
  5
21
100
AcDbSymbolTableRecord
100
AcDbBlockTableRecord
  2
MS_4
  0
ENDTAB
  0
ENDSEC
  0
SECTION
  2
BLOCKS
  0
BLOCK
  5
D
100
AcDbEntity
  8
0
100
AcDbBlockBegin
  2
*MODEL_SPACE
 70
               0
 10
0.0
 20
0.0
 30
0.0
  3
*MODEL_SPACE
  1

  0
ENDBLK
  5
E
100
AcDbEntity
  8
0
100
AcDbBlockEnd
  0
BLOCK
  5
F
100
AcDbEntity
 67
               1
  8
0
100
AcDbBlockBegin
  2
*PAPER_SPACE
 70
               0
 10
0.0
 20
0.0
 30
0.0
  3
*PAPER_SPACE
  1

  0
ENDBLK
  5
10
100
AcDbEntity
 67
               1
  8
0
100
AcDbBlockEnd
  0
BLOCK
  5
22
100
AcDbEntity
  8
0
100
AcDbBlockBegin
  2
MS_1
 70
               0
 10
0.0
 20
0.0
 30
0.0
  3
MS_1
  1

  0
SPLINE
  5
23
100
AcDbEntity
  8
0
  6
CONTINUOUS
 62
               7
100
AcDbSpline
210
0.0
220
0.0
230
1.0
 70
               0
 71
               3
 72
               0
 73
               0
 74
               5
 44
0.000001
 12
-0.5163954324798292
 22
-0.8563502538762805
 32
0.0
 13
0.5163974894977874
 23
-0.8563490134520986
 33
0.0
 11
-19.0
 21
3.3100000000000001
 31
0.0
 11
-19.72360592961607
 21
1.7206517637179948
 31
0.0
 11
-20.0
 21
0.0
 31
0.0
 11
-19.723606153282887
 21
-1.7206520757393076
 31
0.0
 11
-19.0
 21
-3.3099999999999978
 31
0.0
  0
SPLINE
  5
24
100
AcDbEntity
  8
0
  6
CONTINUOUS
 62
               7
100
AcDbSpline
210
0.0
220
0.0
230
1.0
 70
               0
 71
               3
 72
               0
 73
               0
 74
               5
 44
0.000001
 12
0.5163979446110573
 22
-0.8563487390085161
 32
0.0
 13
-0.5163979446110572
 23
-0.8563487390085161
 33
0.0
 11
-15.0
 21
3.3100000000000001
 31
0.0
 11
-14.2763932395107
 21
1.72065217897753
 31
0.0
 11
-14.0
 21
0.0
 31
0.0
 11
-14.276393238184763
 21
-1.7206521789775298
 31
0.0
 11
-15.0
 21
-3.3099999999999996
 31
0.0
  0
SPLINE
  5
25
100
AcDbEntity
  8
0
  6
CONTINUOUS
 62
               7
100
AcDbSpline
210
0.0
220
0.0
230
1.0
 70
               0
 71
               3
 72
               0
 73
               0
 74
               5
 44
0.000001
 12
0.5262030688008789
 22
-0.8503589420853629
 32
0.0
 13
-0.5262030688008792
 23
-0.8503589420853627
 33
0.0
 11
-31.120000000000001
 21
-4.04
 31
0.0
 11
-30.670869562886597
 21
-5.0083721511917387
 31
0.0
 11
-30.5
 21
-6.0599999999999996
 31
0.0
 11
-30.670869560960732
 21
-7.1116278488082614
 31
0.0
 11
-31.120000000000001
 21
-8.0800000000000001
 31
0.0
  0
SPLINE
  5
26
100
AcDbEntity
  8
0
  6
CONTINUOUS
 62
               7
100
AcDbSpline
210
0.0
220
0.0
230
1.0
 70
               0
 71
               3
 72
               0
 73
               0
 74
               5
 44
0.000001
 12
-0.5262030688008788
 22
-0.8503589420853629
 32
0.0
 13
0.5262030688008788
 23
-0.850358942085363
 33
0.0
 11
-35.869999999999997
 21
-4.04
 31
0.0
 11
-36.324130437113404
 21
-5.0083721511917387
 31
0.0
 11
-36.5
 21
-6.0599999999999996
 31
0.0
 11
-36.324130439039266
 21
-7.1116278488082614
 31
0.0
 11
-35.869999999999997
 21
-8.0800000000000001
 31
0.0
  0
SPLINE
  5
27
100
AcDbEntity
  8
0
  6
CONTINUOUS
 62
               7
100
AcDbSpline
210
0.0
220
0.0
230
1.0
 70
               0
 71
               3
 72
               0
 73
               0
 74
               5
 44
0.000001
 12
-0.2955762343401915
 22
-0.9553191559333835
 32
0.0
 13
0.2955762343401917
 23
-0.9553191559333835
 33
0.0
 11
-35.869999999999997
 21
4.04
 31
0.0
 11
-36.336095791864338
 21
2.0452467041629099
 31
0.0
 11
-36.5
 21
0.0
 31
0.0
 11
-36.336095795013073
 21
-2.0452467041629099
 31
0.0
 11
-35.869999999999997
 21
-4.0399999999999991
 31
0.0
  0
SPLINE
  5
28
100
AcDbEntity
  8
0
  6
CONTINUOUS
 62
               7
100
AcDbSpline
210
0.0
220
0.0
230
1.0
 70
               0
 71
               3
 72
               0
 73
               0
 74
               5
 44
0.000001
 12
0.2955762343401914
 22
-0.9553191559333835
 32
0.0
 13
-0.2955762343401915
 23
-0.9553191559333835
 33
0.0
 11
-31.120000000000001
 21
4.04
 31
0.0
 11
-30.65890420813566
 21
2.0452467041629108
 31
0.0
 11
-30.5
 21
0.0
 31
0.0
 11
-30.658904204986928
 21
-2.0452467041629108
 31
0.0
 11
-31.120000000000001
 21
-4.0400000000000009
 31
0.0
  0
SPLINE
  5
29
100
AcDbEntity
  8
0
  6
CONTINUOUS
 62
               7
100
AcDbSpline
210
0.0
220
0.0
230
1.0
 70
               0
 71
               3
 72
               0
 73
               0
 74
               5
 44
0.000001
 12
0.5262030688008789
 22
-0.8503589420853629
 32
0.0
 13
-0.5262030688008788
 23
-0.8503589420853629
 33
0.0
 11
-31.120000000000001
 21
8.0800000000000001
 31
0.0
 11
-30.670869562886597
 21
7.1116278488082614
 31
0.0
 11
-30.5
 21
6.0599999999999996
 31
0.0
 11
-30.670869560960732
 21
5.0083721511917387
 31
0.0
 11
-31.120000000000001
 21
4.0399999999999991
 31
0.0
  0
SPLINE
  5
2A
100
AcDbEntity
  8
0
  6
CONTINUOUS
 62
               7
100
AcDbSpline
210
0.0
220
0.0
230
1.0
 70
               0
 71
               3
 72
               0
 73
               0
 74
               5
 44
0.000001
 12
-0.5262030688008788
 22
-0.8503589420853629
 32
0.0
 13
0.5262030688008785
 23
-0.8503589420853631
 33
0.0
 11
-35.869999999999997
 21
8.0800000000000001
 31
0.0
 11
-36.324130437113404
 21
7.1116278488082614
 31
0.0
 11
-36.5
 21
6.0599999999999996
 31
0.0
 11
-36.324130439039266
 21
5.0083721511917387
 31
0.0
 11
-35.869999999999997
 21
4.0399999999999991
 31
0.0
  0
LINE
  5
2B
100
AcDbEntity
  8
0
  6
CONTINUOUS
 62
               2
100
AcDbLine
 10
105.0
 20
12.69
 30
0.0
 11
99.0
 21
-12.69
 31
0.0
  0
LINE
  5
2C
100
AcDbEntity
  8
0
  6
CONTINUOUS
 62
               2
100
AcDbLine
 10
99.0
 20
12.69
 30
0.0
 11
105.0
 21
-12.69
 31
0.0
  0
LINE
  5
2D
100
AcDbEntity
  8
0
  6
CONTINUOUS
 62
               7
100
AcDbLine
 10
99.0
 20
-12.69
 30
0.0
 11
105.0
 21
-12.69
 31
0.0
  0
LINE
  5
2E
100
AcDbEntity
  8
0
  6
CONTINUOUS
 62
               7
100
AcDbLine
 10
99.0
 20
12.69
 30
0.0
 11
105.0
 21
12.69
 31
0.0
  0
LINE
  5
2F
100
AcDbEntity
  8
0
  6
CONTINUOUS
 62
               7
100
AcDbLine
 10
-45.0
 20
-4.3700000000000001
 30
0.0
 11
-44.369999999999997
 21
-5.0
 31
0.0
  0
LINE
  5
30
100
AcDbEntity
  8
0
  6
CONTINUOUS
 62
               7
100
AcDbLine
 10
-44.369999999999997
 20
5.0
 30
0.0
 11
-44.369999999999997
 21
-5.0
 31
0.0
  0
LINE
  5
31
100
AcDbEntity
  8
0
  6
CONTINUOUS
 62
               7
100
AcDbLine
 10
-45.0
 20
4.3700000000000001
 30
0.0
 11
-44.369999999999997
 21
5.0
 31
0.0
  0
LINE
  5
32
100
AcDbEntity
  8
0
  6
CONTINUOUS
 62
               7
100
AcDbLine
 10
-45.0
 20
-4.3700000000000001
 30
0.0
 11
-45.0
 21
4.3700000000000001
 31
0.0
  0
LINE
  5
33
100
AcDbEntity
  8
0
  6
CONTINUOUS
 62
               7
100
AcDbLine
 10
-44.369999999999997
 20
5.0
 30
0.0
 11
-36.5
 21
5.0
 31
0.0
  0
LINE
  5
34
100
AcDbEntity
  8
0
  6
CONTINUOUS
 62
               2
100
AcDbLine
 10
-22.0
 20
4.3700000000000001
 30
0.0
 11
-20.91
 21
5.0
 31
0.0
  0
LINE
  5
35
100
AcDbEntity
  8
0
  6
CONTINUOUS
 62
               2
100
AcDbLine
 10
-30.5
 20
4.3700000000000001
 30
0.0
 11
-22.0
 21
4.3700000000000001
 31
0.0
  0
LINE
  5
36
100
AcDbEntity
  8
0
  6
CONTINUOUS
 62
               7
100
AcDbLine
 10
-44.369999999999997
 20
-5.0
 30
0.0
 11
-36.5
 21
-5.0
 31
0.0
  0
LINE
  5
37
100
AcDbEntity
  8
0
  6
CONTINUOUS
 62
               2
100
AcDbLine
 10
-45.0
 20
4.3700000000000001
 30
0.0
 11
-36.5
 21
4.3700000000000001
 31
0.0
  0
LINE
  5
38
100
AcDbEntity
  8
0
  6
CONTINUOUS
 62
               2
100
AcDbLine
 10
-45.0
 20
-4.3700000000000001
 30
0.0
 11
-36.5
 21
-4.3700000000000001
 31
0.0
  0
LINE
  5
39
100
AcDbEntity
  8
0
  6
CONTINUOUS
 62
               2
100
AcDbLine
 10
-22.0
 20
-4.3700000000000001
 30
0.0
 11
-20.91
 21
-5.0
 31
0.0
  0
LINE
  5
3A
100
AcDbEntity
  8
0
  6
CONTINUOUS
 62
               2
100
AcDbLine
 10
-30.5
 20
-4.3700000000000001
 30
0.0
 11
-22.0
 21
-4.3700000000000001
 31
0.0
  0
LINE
  5
3C
100
AcDbEntity
  8
0
  6
DASHED
 62
               2
100
AcDbLine
 10
2.5
 20
18.0
 30
0.0
 11
2.5
 21
15.0
 31
0.0
  0
LINE
  5
3D
100
AcDbEntity
  8
0
  6
DASHED
 62
               2
100
AcDbLine
 10
2.8999999999999999
 20
18.0
 30
0.0
 11
2.8999999999999999
 21
15.0
 31
0.0
  0
LINE
  5
3E
100
AcDbEntity
  8
0
  6
DASHED
 62
               2
100
AcDbLine
 10
7.0999999999999996
 20
18.0
 30
0.0
 11
7.0999999999999996
 21
15.0
 31
0.0
  0
LINE
  5
3F
100
AcDbEntity
  8
0
  6
DASHED
 62
               2
100
AcDbLine
 10
7.5
 20
18.0
 30
0.0
 11
7.5
 21
15.0
 31
0.0
  0
LINE
  5
40
100
AcDbEntity
  8
0
  6
DASHED
 62
               2
100
AcDbLine
 10
13.130000000000001
 20
18.0
 30
0.0
 11
13.33
 21
11.800000000000001
 31
0.0
  0
LINE
  5
41
100
AcDbEntity
  8
0
  6
DASHED
 62
               2
100
AcDbLine
 10
13.720000000000001
 20
18.0
 30
0.0
 11
13.91
 21
11.800000000000001
 31
0.0
  0
LINE
  5
42
100
AcDbEntity
  8
0
  6
DASHED
 62
               2
100
AcDbLine
 10
22.27
 20
18.0
 30
0.0
 11
22.079999999999998
 21
11.800000000000001
 31
0.0
  0
LINE
  5
43
100
AcDbEntity
  8
0
  6
DASHED
 62
               2
100
AcDbLine
 10
22.859999999999999
 20
18.0
 30
0.0
 11
22.670000000000002
 21
11.800000000000001
 31
0.0
  0
LINE
  5
45
100
AcDbEntity
  8
0
  6
CENTER
 62
               2
100
AcDbLine
 10
5.0
 20
19.129999999999999
 30
0.0
 11
5.0
 21
13.529999999999999
 31
0.0
  0
LINE
  5
46
100
AcDbEntity
  8
0
  6
CONTINUOUS
 62
               7
100
AcDbLine
 10
104.0
 20
-12.69
 30
0.0
 11
104.0
 21
-16.800000000000001
 31
0.0
  0
LINE
  5
47
100
AcDbEntity
  8
0
  6
CONTINUOUS
 62
               7
100
AcDbLine
 10
104.0
 20
16.800000000000001
 30
0.0
 11
104.0
 21
12.69
 31
0.0
  0
LINE
  5
48
100
AcDbEntity
  8
0
  6
CONTINUOUS
 62
               7
100
AcDbLine
 10
104.0
 20
-16.800000000000001
 30
0.0
 11
105.0
 21
-15.800000000000001
 31
0.0
  0
LINE
  5
49
100
AcDbEntity
  8
0
  6
CONTINUOUS
 62
               7
100
AcDbLine
 10
104.0
 20
16.800000000000001
 30
0.0
 11
105.0
 21
15.800000000000001
 31
0.0
  0
LINE
  5
4A
100
AcDbEntity
  8
0
  6
CENTER
 62
               2
100
AcDbLine
 10
-1.52
 20
12.0
 30
0.0
 11
27.760000000000002
 21
12.0
 31
0.0
  0
LINE
  5
4B
100
AcDbEntity
  8
0
  6
CENTER
 62
               2
100
AcDbLine
 10
-1.52
 20
-12.0
 30
0.0
 11
27.940000000000001
 21
-12.0
 31
0.0
  0
LINE
  5
4C
100
AcDbEntity
  8
0
  6
CENTER
 62
               2
100
AcDbLine
 10
18.0
 20
20.260000000000002
 30
0.0
 11
18.0
 21
9.0700000000000003
 31
0.0
  0
LINE
  5
4D
100
AcDbEntity
  8
0
  6
CONTINUOUS
 62
               7
100
AcDbLine
 10
0.0
 20
18.0
 30
0.0
 11
0.0
 21
-18.0
 31
0.0
  0
LINE
  5
4E
100
AcDbEntity
  8
0
  6
CONTINUOUS
 62
               2
100
AcDbLine
 10
-19.0
 20
-3.3100000000000001
 30
0.0
 11
-15.0
 21
3.3100000000000001
 31
0.0
  0
LINE
  5
4F
100
AcDbEntity
  8
0
  6
CONTINUOUS
 62
               2
100
AcDbLine
 10
-19.0
 20
3.3100000000000001
 30
0.0
 11
-15.0
 21
-3.3100000000000001
 31
0.0
  0
LINE
  5
50
100
AcDbEntity
  8
0
  6
CONTINUOUS
 62
               7
100
AcDbLine
 10
-19.0
 20
-3.3100000000000001
 30
0.0
 11
-15.0
 21
-3.3100000000000001
 31
0.0
  0
LINE
  5
51
100
AcDbEntity
  8
0
  6
CONTINUOUS
 62
               7
100
AcDbLine
 10
-19.0
 20
3.3100000000000001
 30
0.0
 11
-15.0
 21
3.3100000000000001
 31
0.0
  0
LINE
  5
52
100
AcDbEntity
  8
0
  6
CONTINUOUS
 62
               7
100
AcDbLine
 10
99.0
 20
12.69
 30
0.0
 11
99.0
 21
-12.69
 31
0.0
  0
LINE
  5
53
100
AcDbEntity
  8
0
  6
CONTINUOUS
 62
               7
100
AcDbLine
 10
105.0
 20
15.800000000000001
 30
0.0
 11
105.0
 21
-15.800000000000001
 31
0.0
  0
LINE
  5
54
100
AcDbEntity
  8
0
  6
CONTINUOUS
 62
               7
100
AcDbLine
 10
94.0
 20
16.800000000000001
 30
0.0
 11
94.0
 21
-16.800000000000001
 31
0.0
  0
LINE
  5
55
100
AcDbEntity
  8
0
  6
CONTINUOUS
 62
               7
100
AcDbLine
 10
94.0
 20
-16.800000000000001
 30
0.0
 11
104.0
 21
-16.800000000000001
 31
0.0
  0
LINE
  5
56
100
AcDbEntity
  8
0
  6
CONTINUOUS
 62
               7
100
AcDbLine
 10
94.0
 20
16.800000000000001
 30
0.0
 11
104.0
 21
16.800000000000001
 31
0.0
  0
LINE
  5
57
100
AcDbEntity
  8
0
  6
CONTINUOUS
 62
               7
100
AcDbLine
 10
0.0
 20
-18.0
 30
0.0
 11
26.0
 21
-18.0
 31
0.0
  0
LINE
  5
58
100
AcDbEntity
  8
0
  6
CONTINUOUS
 62
               7
100
AcDbLine
 10
0.0
 20
18.0
 30
0.0
 11
26.0
 21
18.0
 31
0.0
  0
LINE
  5
59
100
AcDbEntity
  8
0
  6
CONTINUOUS
 62
               7
100
AcDbLine
 10
0.0
 20
-16.23
 30
0.0
 11
26.0
 21
-16.23
 31
0.0
  0
LINE
  5
5A
100
AcDbEntity
  8
0
  6
CONTINUOUS
 62
               7
100
AcDbLine
 10
0.0
 20
16.23
 30
0.0
 11
26.0
 21
16.23
 31
0.0
  0
LINE
  5
5B
100
AcDbEntity
  8
0
  6
CONTINUOUS
 62
               7
100
AcDbLine
 10
-3.0
 20
-14.0
 30
0.0
 11
0.0
 21
-14.0
 31
0.0
  0
LINE
  5
5C
100
AcDbEntity
  8
0
  6
CONTINUOUS
 62
               7
100
AcDbLine
 10
-3.0
 20
14.0
 30
0.0
 11
0.0
 21
14.0
 31
0.0
  0
LINE
  5
5D
100
AcDbEntity
  8
0
  6
CONTINUOUS
 62
               7
100
AcDbLine
 10
-3.5
 20
-13.5
 30
0.0
 11
-3.0
 21
-14.0
 31
0.0
  0
LINE
  5
5E
100
AcDbEntity
  8
0
  6
CONTINUOUS
 62
               7
100
AcDbLine
 10
-3.5
 20
13.5
 30
0.0
 11
-3.0
 21
14.0
 31
0.0
  0
LINE
  5
5F
100
AcDbEntity
  8
0
  6
CONTINUOUS
 62
               7
100
AcDbLine
 10
-14.0
 20
-13.0
 30
0.0
 11
-13.5
 21
-13.5
 31
0.0
  0
LINE
  5
60
100
AcDbEntity
  8
0
  6
CONTINUOUS
 62
               7
100
AcDbLine
 10
-14.0
 20
13.0
 30
0.0
 11
-13.5
 21
13.5
 31
0.0
  0
LINE
  5
61
100
AcDbEntity
  8
0
  6
CONTINUOUS
 62
               7
100
AcDbLine
 10
-13.5
 20
-13.5
 30
0.0
 11
-3.5
 21
-13.5
 31
0.0
  0
LINE
  5
62
100
AcDbEntity
  8
0
  6
CONTINUOUS
 62
               7
100
AcDbLine
 10
-13.5
 20
13.5
 30
0.0
 11
-3.5
 21
13.5
 31
0.0
  0
LINE
  5
63
100
AcDbEntity
  8
0
  6
CONTINUOUS
 62
               7
100
AcDbLine
 10
-3.5
 20
13.5
 30
0.0
 11
-3.5
 21
-13.5
 31
0.0
  0
LINE
  5
64
100
AcDbEntity
  8
0
  6
CONTINUOUS
 62
               7
100
AcDbLine
 10
-3.0
 20
14.0
 30
0.0
 11
-3.0
 21
-14.0
 31
0.0
  0
LINE
  5
65
100
AcDbEntity
  8
0
  6
CONTINUOUS
 62
               7
100
AcDbLine
 10
-13.5
 20
13.5
 30
0.0
 11
-13.5
 21
-13.5
 31
0.0
  0
LINE
  5
66
100
AcDbEntity
  8
0
  6
CONTINUOUS
 62
               7
100
AcDbLine
 10
-14.0
 20
13.0
 30
0.0
 11
-14.0
 21
-13.0
 31
0.0
  0
LINE
  5
67
100
AcDbEntity
  8
0
  6
CONTINUOUS
 62
               7
100
AcDbLine
 10
10.0
 20
18.0
 30
0.0
 11
10.0
 21
-18.0
 31
0.0
  0
LINE
  5
68
100
AcDbEntity
  8
0
  6
CONTINUOUS
 62
               7
100
AcDbLine
 10
-19.0
 20
-3.3100000000000001
 30
0.0
 11
-19.0
 21
-6.0
 31
0.0
  0
LINE
  5
69
100
AcDbEntity
  8
0
  6
CONTINUOUS
 62
               7
100
AcDbLine
 10
-19.0
 20
6.0
 30
0.0
 11
-19.0
 21
3.3100000000000001
 31
0.0
  0
LINE
  5
6A
100
AcDbEntity
  8
0
  6
CONTINUOUS
 62
               7
100
AcDbLine
 10
-35.869999999999997
 20
-8.0800000000000001
 30
0.0
 11
-31.120000000000001
 21
-8.0800000000000001
 31
0.0
  0
LINE
  5
6B
100
AcDbEntity
  8
0
  6
CONTINUOUS
 62
               7
100
AcDbLine
 10
-36.5
 20
-7.0
 30
0.0
 11
-35.869999999999997
 21
-8.0800000000000001
 31
0.0
  0
LINE
  5
6C
100
AcDbEntity
  8
0
  6
CONTINUOUS
 62
               7
100
AcDbLine
 10
-31.120000000000001
 20
8.0800000000000001
 30
0.0
 11
-30.5
 21
7.0
 31
0.0
  0
LINE
  5
6D
100
AcDbEntity
  8
0
  6
CONTINUOUS
 62
               7
100
AcDbLine
 10
-31.120000000000001
 20
-8.0800000000000001
 30
0.0
 11
-30.5
 21
-7.0
 31
0.0
  0
LINE
  5
6E
100
AcDbEntity
  8
0
  6
CONTINUOUS
 62
               7
100
AcDbLine
 10
-36.5
 20
7.0
 30
0.0
 11
-35.869999999999997
 21
8.0800000000000001
 31
0.0
  0
LINE
  5
6F
100
AcDbEntity
  8
0
  6
CONTINUOUS
 62
               7
100
AcDbLine
 10
-36.5
 20
7.0
 30
0.0
 11
-36.5
 21
-7.0
 31
0.0
  0
LINE
  5
70
100
AcDbEntity
  8
0
  6
CONTINUOUS
 62
               7
100
AcDbLine
 10
-30.5
 20
7.0
 30
0.0
 11
-30.5
 21
-7.0
 31
0.0
  0
LINE
  5
71
100
AcDbEntity
  8
0
  6
CONTINUOUS
 62
               7
100
AcDbLine
 10
-36.5
 20
7.0
 30
0.0
 11
-36.5
 21
-7.0
 31
0.0
  0
LINE
  5
72
100
AcDbEntity
  8
0
  6
CONTINUOUS
 62
               7
100
AcDbLine
 10
-35.869999999999997
 20
4.04
 30
0.0
 11
-31.120000000000001
 21
4.04
 31
0.0
  0
LINE
  5
73
100
AcDbEntity
  8
0
  6
CONTINUOUS
 62
               7
100
AcDbLine
 10
-35.869999999999997
 20
-4.04
 30
0.0
 11
-31.120000000000001
 21
-4.04
 31
0.0
  0
LINE
  5
74
100
AcDbEntity
  8
0
  6
CONTINUOUS
 62
               7
100
AcDbLine
 10
-35.869999999999997
 20
8.0800000000000001
 30
0.0
 11
-31.120000000000001
 21
8.0800000000000001
 31
0.0
  0
LINE
  5
75
100
AcDbEntity
  8
0
  6
CENTER
 62
               2
100
AcDbLine
 10
-49.700000000000003
 20
0.0
 30
0.0
 11
107.2
 21
0.0
 31
0.0
  0
LINE
  5
76
100
AcDbEntity
  8
0
  6
CONTINUOUS
 62
               7
100
AcDbLine
 10
91.0
 20
16.800000000000001
 30
0.0
 11
91.0
 21
-16.800000000000001
 31
0.0
  0
LINE
  5
77
100
AcDbEntity
  8
0
  6
CONTINUOUS
 62
               7
100
AcDbLine
 10
26.0
 20
-16.800000000000001
 30
0.0
 11
94.0
 21
-16.800000000000001
 31
0.0
  0
LINE
  5
78
100
AcDbEntity
  8
0
  6
CONTINUOUS
 62
               7
100
AcDbLine
 10
26.0
 20
16.800000000000001
 30
0.0
 11
94.0
 21
16.800000000000001
 31
0.0
  0
LINE
  5
79
100
AcDbEntity
  8
0
  6
CONTINUOUS
 62
               7
100
AcDbLine
 10
30.0
 20
16.800000000000001
 30
0.0
 11
30.0
 21
-16.800000000000001
 31
0.0
  0
LINE
  5
7A
100
AcDbEntity
  8
0
  6
CONTINUOUS
 62
               7
100
AcDbLine
 10
26.0
 20
18.0
 30
0.0
 11
26.0
 21
-18.0
 31
0.0
  0
LINE
  5
7B
100
AcDbEntity
  8
0
  6
CONTINUOUS
 62
               7
100
AcDbLine
 10
-20.0
 20
-5.0
 30
0.0
 11
-30.5
 21
-5.0
 31
0.0
  0
LINE
  5
7C
100
AcDbEntity
  8
0
  6
CONTINUOUS
 62
               7
100
AcDbLine
 10
-30.5
 20
5.0
 30
0.0
 11
-20.0
 21
5.0
 31
0.0
  0
LINE
  5
7D
100
AcDbEntity
  8
0
  6
CONTINUOUS
 62
               7
100
AcDbLine
 10
-15.0
 20
3.3100000000000001
 30
0.0
 11
-15.0
 21
-3.3100000000000001
 31
0.0
  0
LINE
  5
7E
100
AcDbEntity
  8
0
  6
CONTINUOUS
 62
               7
100
AcDbLine
 10
-20.0
 20
-5.0
 30
0.0
 11
-19.0
 21
-6.0
 31
0.0
  0
LINE
  5
7F
100
AcDbEntity
  8
0
  6
CONTINUOUS
 62
               7
100
AcDbLine
 10
-20.0
 20
5.0
 30
0.0
 11
-19.0
 21
6.0
 31
0.0
  0
LINE
  5
80
100
AcDbEntity
  8
0
  6
CONTINUOUS
 62
               7
100
AcDbLine
 10
-19.0
 20
-6.0
 30
0.0
 11
-14.0
 21
-6.0
 31
0.0
  0
LINE
  5
81
100
AcDbEntity
  8
0
  6
CONTINUOUS
 62
               7
100
AcDbLine
 10
-19.0
 20
6.0
 30
0.0
 11
-14.0
 21
6.0
 31
0.0
  0
LINE
  5
82
100
AcDbEntity
  8
0
  6
CONTINUOUS
 62
               7
100
AcDbLine
 10
-20.0
 20
5.0
 30
0.0
 11
-20.0
 21
-5.0
 31
0.0
  0
LINE
  5
83
100
AcDbEntity
  8
0
  6
CONTINUOUS
 62
               7
100
AcDbLine
 10
-22.0
 20
5.0
 30
0.0
 11
-22.0
 21
-5.0
 31
0.0
  0
ENDBLK
  5
84
100
AcDbEntity
  8
0
100
AcDbBlockEnd
  0
BLOCK
  5
85
100
AcDbEntity
  8
0
100
AcDbBlockBegin
  2
MS_2
 70
               0
 10
0.0
 20
0.0
 30
0.0
  3
MS_2
  1

  0
CIRCLE
  5
86
100
AcDbEntity
  8
0
  6
CONTINUOUS
 62
               7
100
AcDbCircle
 10
20.999984741210937
 20
-12.0
 30
0.0
 40
4.0
  0
CIRCLE
  5
87
100
AcDbEntity
  8
0
  6
CONTINUOUS
 62
               7
100
AcDbCircle
 10
20.999984741210937
 20
-12.0
 30
0.0
 40
3.5
  0
CIRCLE
  5
88
100
AcDbEntity
  8
0
  6
CONTINUOUS
 62
               7
100
AcDbCircle
 10
-21.000015258789063
 20
12.0
 30
0.0
 40
3.5
  0
CIRCLE
  5
89
100
AcDbEntity
  8
0
  6
CONTINUOUS
 62
               7
100
AcDbCircle
 10
-21.000015258789063
 20
12.0
 30
0.0
 40
4.0
  0
ARC
  5
8A
100
AcDbEntity
  8
0
  6
CONTINUOUS
 62
               7
100
AcDbCircle
 10
0.0326990892541339
 20
-0.0513078021733477
 30
0.0
 40
30.99602694790865
100
AcDbArc
 50
29.538520578897579
 51
35.617753738586856
  0
ARC
  5
8B
100
AcDbEntity
  8
0
  6
CONTINUOUS
 62
               7
100
AcDbCircle
 10
-0.0327207860428906
 20
-0.0512939381603168
 30
0.0
 40
30.996001236094614
100
AcDbArc
 50
144.38224373762077
 51
150.46148194489399
  0
ARC
  5
8C
100
AcDbEntity
  8
0
  6
CONTINUOUS
 62
               7
100
AcDbCircle
 10
-0.0327207860428906
 20
0.0512939381603168
 30
0.0
 40
30.996001236094614
100
AcDbArc
 50
209.53851805510519
 51
215.61775626237841
  0
ARC
  5
8D
100
AcDbEntity
  8
0
  6
CONTINUOUS
 62
               7
100
AcDbCircle
 10
0.0326990892541339
 20
0.0513078021733477
 30
0.0
 40
30.99602694790865
100
AcDbArc
 50
324.38224626141232
 51
330.46147942110161
  0
CIRCLE
  5
8E
100
AcDbEntity
  8
0
  6
CONTINUOUS
 62
               7
100
AcDbCircle
 10
20.999984741210937
 20
12.0
 30
0.0
 40
3.2999992370605469
  0
CIRCLE
  5
8F
100
AcDbEntity
  8
0
  6
CONTINUOUS
 62
               7
100
AcDbCircle
 10
-21.000015258789063
 20
-12.0
 30
0.0
 40
3.2999992370605469
  0
CIRCLE
  5
90
100
AcDbEntity
  8
0
  6
CONTINUOUS
 62
               7
100
AcDbCircle
 10
-0.0000152587890625
 20
0.0
 30
0.0
 40
13.0
  0
CIRCLE
  5
91
100
AcDbEntity
  8
0
  6
CONTINUOUS
 62
               7
100
AcDbCircle
 10
-0.0000152587890625
 20
0.0
 30
0.0
 40
13.5
  0
CIRCLE
  5
92
100
AcDbEntity
  8
0
  6
CONTINUOUS
 62
               7
100
AcDbCircle
 10
-0.0000152587890625
 20
0.0
 30
0.0
 40
14.0
  0
CIRCLE
  5
93
100
AcDbEntity
  8
0
  6
CONTINUOUS
 62
               2
100
AcDbCircle
 10
-0.0000152587890625
 20
0.0
 30
0.0
 40
4.0
  0
CIRCLE
  5
94
100
AcDbEntity
  8
0
  6
CONTINUOUS
 62
               7
100
AcDbCircle
 10
-0.0000152587890625
 20
0.0
 30
0.0
 40
7.0
  0
CIRCLE
  5
95
100
AcDbEntity
  8
0
  6
CONTINUOUS
 62
               7
100
AcDbCircle
 10
-0.0000152587890625
 20
0.0
 30
0.0
 40
5.0
  0
LINE
  5
96
100
AcDbEntity
  8
0
  6
CENTER
 62
               2
100
AcDbLine
 10
-25.620000000000001
 20
12.0
 30
0.0
 11
-16.170000000000002
 21
12.0
 31
0.0
  0
LINE
  5
97
100
AcDbEntity
  8
0
  6
CENTER
 62
               2
100
AcDbLine
 10
15.81
 20
-12.0
 30
0.0
 11
26.149999999999999
 21
-12.0
 31
0.0
  0
LINE
  5
98
100
AcDbEntity
  8
0
  6
CENTER
 62
               2
100
AcDbLine
 10
21.0
 20
7.5999999999999996
 30
0.0
 11
21.0
 21
16.390000000000001
 31
0.0
  0
LINE
  5
99
100
AcDbEntity
  8
0
  6
CENTER
 62
               2
100
AcDbLine
 10
-21.0
 20
6.9699999999999998
 30
0.0
 11
-21.0
 21
16.75
 31
0.0
  0
LINE
  5
9A
100
AcDbEntity
  8
0
  6
CENTER
 62
               2
100
AcDbLine
 10
-21.0
 20
-16.309999999999999
 30
0.0
 11
-21.0
 21
-7.4299999999999997
 31
0.0
  0
LINE
  5
9B
100
AcDbEntity
  8
0
  6
CONTINUOUS
 62
               7
100
AcDbLine
 10
21.93
 20
-13.5
 30
0.0
 11
22.800000000000001
 21
-12.0
 31
0.0
  0
LINE
  5
9C
100
AcDbEntity
  8
0
  6
CONTINUOUS
 62
               7
100
AcDbLine
 10
19.199999999999999
 20
-12.0
 30
0.0
 11
20.059999999999999
 21
-10.5
 31
0.0
  0
LINE
  5
9D
100
AcDbEntity
  8
0
  6
CONTINUOUS
 62
               7
100
AcDbLine
 10
-20.059999999999999
 20
10.5
 30
0.0
 11
-19.199999999999999
 21
12.0
 31
0.0
  0
LINE
  5
9E
100
AcDbEntity
  8
0
  6
CONTINUOUS
 62
               7
100
AcDbLine
 10
-22.800000000000001
 20
12.0
 30
0.0
 11
-21.93
 21
13.5
 31
0.0
  0
LINE
  5
9F
100
AcDbEntity
  8
0
  6
CONTINUOUS
 62
               7
100
AcDbLine
 10
22.800000000000001
 20
-12.0
 30
0.0
 11
21.93
 21
-10.5
 31
0.0
  0
LINE
  5
A0
100
AcDbEntity
  8
0
  6
CONTINUOUS
 62
               7
100
AcDbLine
 10
20.059999999999999
 20
-13.5
 30
0.0
 11
19.199999999999999
 21
-12.0
 31
0.0
  0
LINE
  5
A1
100
AcDbEntity
  8
0
  6
CONTINUOUS
 62
               7
100
AcDbLine
 10
-19.199999999999999
 20
12.0
 30
0.0
 11
-20.059999999999999
 21
13.5
 31
0.0
  0
LINE
  5
A2
100
AcDbEntity
  8
0
  6
CONTINUOUS
 62
               7
100
AcDbLine
 10
-21.93
 20
10.5
 30
0.0
 11
-22.800000000000001
 21
12.0
 31
0.0
  0
LINE
  5
A3
100
AcDbEntity
  8
0
  6
CONTINUOUS
 62
               7
100
AcDbLine
 10
-21.93
 20
13.5
 30
0.0
 11
-20.059999999999999
 21
13.5
 31
0.0
  0
LINE
  5
A4
100
AcDbEntity
  8
0
  6
CONTINUOUS
 62
               7
100
AcDbLine
 10
-21.93
 20
10.5
 30
0.0
 11
-20.059999999999999
 21
10.5
 31
0.0
  0
LINE
  5
A5
100
AcDbEntity
  8
0
  6
CONTINUOUS
 62
               7
100
AcDbLine
 10
20.059999999999999
 20
-13.5
 30
0.0
 11
21.93
 21
-13.5
 31
0.0
  0
LINE
  5
A6
100
AcDbEntity
  8
0
  6
CONTINUOUS
 62
               7
100
AcDbLine
 10
20.059999999999999
 20
-10.5
 30
0.0
 11
21.93
 21
-10.5
 31
0.0
  0
LINE
  5
A7
100
AcDbEntity
  8
0
  6
CENTER
 62
               2
100
AcDbLine
 10
-29.870000000000001
 20
0.0
 30
0.0
 11
28.870000000000001
 21
0.0
 31
0.0
  0
LINE
  5
A8
100
AcDbEntity
  8
0
  6
CENTER
 62
               2
100
AcDbLine
 10
0.0
 20
-20.5
 30
0.0
 11
0.0
 21
20.25
 31
0.0
  0
LINE
  5
A9
100
AcDbEntity
  8
0
  6
CONTINUOUS
 62
               7
100
AcDbLine
 10
-25.23
 20
18.0
 30
0.0
 11
25.23
 21
18.0
 31
0.0
  0
LINE
  5
AA
100
AcDbEntity
  8
0
  6
CONTINUOUS
 62
               7
100
AcDbLine
 10
-25.23
 20
-18.0
 30
0.0
 11
25.23
 21
-18.0
 31
0.0
  0
LINE
  5
AB
100
AcDbEntity
  8
0
  6
CENTER
 62
               2
100
AcDbLine
 10
16.809999999999999
 20
12.0
 30
0.0
 11
25.32
 21
12.0
 31
0.0
  0
LINE
  5
AC
100
AcDbEntity
  8
0
  6
CENTER
 62
               2
100
AcDbLine
 10
-25.620000000000001
 20
-12.0
 30
0.0
 11
-16.440000000000001
 21
-12.0
 31
0.0
  0
LINE
  5
AD
100
AcDbEntity
  8
0
  6
CONTINUOUS
 62
               7
100
AcDbLine
 10
27.0
 20
-15.23
 30
0.0
 11
27.0
 21
15.23
 31
0.0
  0
LINE
  5
AE
100
AcDbEntity
  8
0
  6
CONTINUOUS
 62
               7
100
AcDbLine
 10
-27.0
 20
-15.23
 30
0.0
 11
-27.0
 21
15.23
 31
0.0
  0
LINE
  5
AF
100
AcDbEntity
  8
0
  6
CENTER
 62
               2
100
AcDbLine
 10
21.0
 20
-17.07
 30
0.0
 11
21.0
 21
-6.6100000000000003
 31
0.0
  0
LINE
  5
B0
100
AcDbEntity
  8
0
  6
CONTINUOUS
 62
               2
100
AcDbLine
 10
-21.0
 20
-16.870000000000001
 30
0.0
 11
-21.0
 21
-7.0
 31
0.0
  0
LINE
  5
B1
100
AcDbEntity
  8
0
  6
CONTINUOUS
 62
               7
100
AcDbLine
 10
7.0
 20
-4.04
 30
0.0
 11
7.0
 21
4.04
 31
0.0
  0
LINE
  5
B2
100
AcDbEntity
  8
0
  6
CONTINUOUS
 62
               7
100
AcDbLine
 10
-7.0
 20
-4.04
 30
0.0
 11
-7.0
 21
4.04
 31
0.0
  0
LINE
  5
B3
100
AcDbEntity
  8
0
  6
CONTINUOUS
 62
               7
100
AcDbLine
 10
7.0
 20
4.04
 30
0.0
 11
0.0
 21
8.0800000000000001
 31
0.0
  0
LINE
  5
B4
100
AcDbEntity
  8
0
  6
CONTINUOUS
 62
               7
100
AcDbLine
 10
0.0
 20
-8.0800000000000001
 30
0.0
 11
-7.0
 21
-4.04
 31
0.0
  0
LINE
  5
B5
100
AcDbEntity
  8
0
  6
CONTINUOUS
 62
               7
100
AcDbLine
 10
-7.0
 20
4.04
 30
0.0
 11
0.0
 21
8.0800000000000001
 31
0.0
  0
LINE
  5
B6
100
AcDbEntity
  8
0
  6
CONTINUOUS
 62
               7
100
AcDbLine
 10
0.0
 20
-8.0800000000000001
 30
0.0
 11
7.0
 21
-4.04
 31
0.0
  0
ENDBLK
  5
B7
100
AcDbEntity
  8
0
100
AcDbBlockEnd
  0
BLOCK
  5
B8
100
AcDbEntity
  8
0
100
AcDbBlockBegin
  2
MS_3
 70
               0
 10
0.0
 20
0.0
 30
0.0
  3
MS_3
  1

  0
CIRCLE
  5
B9
100
AcDbEntity
  8
0
  6
CONTINUOUS
 62
               7
100
AcDbCircle
 10
0.0
 20
0.0
 30
0.0
 40
4.2779998779296875
  0
CIRCLE
  5
BA
100
AcDbEntity
  8
0
  6
CONTINUOUS
 62
               2
100
AcDbCircle
 10
0.0
 20
0.0
 30
0.0
 40
4.8639993667602539
  0
ARC
  5
BB
100
AcDbEntity
  8
0
  6
CONTINUOUS
 62
               7
100
AcDbCircle
 10
0.0
 20
0.00000000000529
 30
0.0
 40
15.798594874232327
100
AcDbArc
 50
225.87193648884389
 51
314.12806351115489
  0
ARC
  5
BC
100
AcDbEntity
  8
0
  6
CONTINUOUS
 62
               7
100
AcDbCircle
 10
0.0
 20
-0.00000000000529
 30
0.0
 40
15.798594874232327
100
AcDbArc
 50
45.871936488844305
 51
134.12806351115529
  0
CIRCLE
  5
BD
100
AcDbEntity
  8
0
  6
CONTINUOUS
 62
               7
100
AcDbCircle
 10
0.0000152587890625
 20
0.0
 30
0.0
 40
16.79998779296875
  0
ARC
  5
BE
100
AcDbEntity
  8
0
  6
CONTINUOUS
 62
               7
100
AcDbCircle
 10
0.0326990892541339
 20
-0.0513078021733477
 30
0.0
 40
30.99602694790865
100
AcDbArc
 50
29.538520578897579
 51
35.617753738586856
  0
ARC
  5
BF
100
AcDbEntity
  8
0
  6
CONTINUOUS
 62
               7
100
AcDbCircle
 10
-0.0327207860428906
 20
-0.0512939381603168
 30
0.0
 40
30.996001236094614
100
AcDbArc
 50
144.38224373762077
 51
150.46148194489399
  0
ARC
  5
C0
100
AcDbEntity
  8
0
  6
CONTINUOUS
 62
               7
100
AcDbCircle
 10
-0.0327207860428906
 20
0.0512939381603168
 30
0.0
 40
30.996001236094614
100
AcDbArc
 50
209.53851805510519
 51
215.61775626237841
  0
ARC
  5
C1
100
AcDbEntity
  8
0
  6
CONTINUOUS
 62
               7
100
AcDbCircle
 10
0.0326990892541339
 20
0.0513078021733477
 30
0.0
 40
30.99602694790865
100
AcDbArc
 50
324.38224626141232
 51
330.46147942110161
  0
CIRCLE
  5
C2
100
AcDbEntity
  8
0
  6
CONTINUOUS
 62
               7
100
AcDbCircle
 10
-20.999984741210937
 20
12.0
 30
0.0
 40
3.2999992370605469
  0
CIRCLE
  5
C3
100
AcDbEntity
  8
0
  6
CONTINUOUS
 62
               7
100
AcDbCircle
 10
21.000015258789063
 20
-11.999992370605469
 30
0.0
 40
3.2999992370605469
  0
LINE
  5
C4
100
AcDbEntity
  8
0
  6
CONTINUOUS
 62
               7
100
AcDbLine
 10
-11.0
 20
-12.69
 30
0.0
 11
-11.0
 21
12.69
 31
0.0
  0
LINE
  5
C5
100
AcDbEntity
  8
0
  6
CONTINUOUS
 62
               7
100
AcDbLine
 10
11.0
 20
-12.69
 30
0.0
 11
11.0
 21
12.69
 31
0.0
  0
LINE
  5
C6
100
AcDbEntity
  8
0
  6
CENTER
 62
               2
100
AcDbLine
 10
-21.0
 20
7.5999999999999996
 30
0.0
 11
-21.0
 21
16.390000000000001
 31
0.0
  0
LINE
  5
C7
100
AcDbEntity
  8
0
  6
CENTER
 62
               2
100
AcDbLine
 10
29.870000000000001
 20
0.0
 30
0.0
 11
-28.870000000000001
 21
0.0
 31
0.0
  0
LINE
  5
C8
100
AcDbEntity
  8
0
  6
CENTER
 62
               2
100
AcDbLine
 10
0.0
 20
-20.5
 30
0.0
 11
0.0
 21
20.25
 31
0.0
  0
LINE
  5
C9
100
AcDbEntity
  8
0
  6
CONTINUOUS
 62
               7
100
AcDbLine
 10
-25.23
 20
18.0
 30
0.0
 11
25.23
 21
18.0
 31
0.0
  0
LINE
  5
CA
100
AcDbEntity
  8
0
  6
CONTINUOUS
 62
               7
100
AcDbLine
 10
-25.23
 20
-18.0
 30
0.0
 11
25.23
 21
-18.0
 31
0.0
  0
LINE
  5
CB
100
AcDbEntity
  8
0
  6
CENTER
 62
               2
100
AcDbLine
 10
-16.809999999999999
 20
12.0
 30
0.0
 11
-25.32
 21
12.0
 31
0.0
  0
LINE
  5
CC
100
AcDbEntity
  8
0
  6
CENTER
 62
               2
100
AcDbLine
 10
25.620000000000001
 20
-12.0
 30
0.0
 11
16.440000000000001
 21
-12.0
 31
0.0
  0
LINE
  5
CD
100
AcDbEntity
  8
0
  6
CONTINUOUS
 62
               7
100
AcDbLine
 10
27.0
 20
-15.23
 30
0.0
 11
27.0
 21
15.23
 31
0.0
  0
LINE
  5
CE
100
AcDbEntity
  8
0
  6
CONTINUOUS
 62
               7
100
AcDbLine
 10
-27.0
 20
-15.23
 30
0.0
 11
-27.0
 21
15.23
 31
0.0
  0
LINE
  5
CF
100
AcDbEntity
  8
0
  6
CENTER
 62
               2
100
AcDbLine
 10
21.0
 20
-16.870000000000001
 30
0.0
 11
21.0
 21
-7.0
 31
0.0
  0
ENDBLK
  5
D0
100
AcDbEntity
  8
0
100
AcDbBlockEnd
  0
BLOCK
  5
D1
100
AcDbEntity
  8
0
100
AcDbBlockBegin
  2
MS_4
 70
               0
 10
0.0
 20
0.0
 30
0.0
  3
MS_4
  1

  0
ARC
  5
D2
100
AcDbEntity
  8
0
  6
CONTINUOUS
 62
               7
100
AcDbCircle
 10
-40.6092529296875
 20
-3.5
 30
0.0
 40
10.114144608595568
100
AcDbArc
 50
339.75409359382405
 51
20.245906406175166
  0
ARC
  5
D3
100
AcDbEntity
  8
0
  6
CONTINUOUS
 62
               7
100
AcDbCircle
 10
-26.390731811523438
 20
-3.5
 30
0.0
 40
10.104777354749766
100
AcDbArc
 50
159.73450191778983
 51
200.26549808220938
  0
ARC
  5
D4
100
AcDbEntity
  8
0
  6
CONTINUOUS
 62
               7
100
AcDbCircle
 10
-40.6092529296875
 20
3.5
 30
0.0
 40
10.114144608595568
100
AcDbArc
 50
339.75409359382405
 51
20.245906406175166
  0
ARC
  5
D5
100
AcDbEntity
  8
0
  6
CONTINUOUS
 62
               7
100
AcDbCircle
 10
-26.390731811523438
 20
3.5
 30
0.0
 40
10.104777354749766
100
AcDbArc
 50
159.73450191778983
 51
200.26549808220938
  0
CIRCLE
  5
D6
100
AcDbEntity
  8
0
  6
CONTINUOUS
 62
               7
100
AcDbCircle
 10
18.0
 20
0.0
 30
0.0
 40
4.2779998779296875
  0
CIRCLE
  5
D7
100
AcDbEntity
  8
0
  6
CONTINUOUS
 62
               2
100
AcDbCircle
 10
18.0
 20
0.0
 30
0.0
 40
4.8639993667602539
  0
CIRCLE
  5
D8
100
AcDbEntity
  8
0
  6
CONTINUOUS
 62
               2
100
AcDbCircle
 10
5.0
 20
0.0
 30
0.0
 40
2.5
  0
CIRCLE
  5
D9
100
AcDbEntity
  8
0
  6
CONTINUOUS
 62
               7
100
AcDbCircle
 10
5.0
 20
0.0
 30
0.0
 40
2.0
  0
LINE
  5
DA
100
AcDbEntity
  8
0
  6
CONTINUOUS
 62
               7
100
AcDbLine
 10
-15.0
 20
-5.0
 30
0.0
 11
-14.0
 21
-6.0
 31
0.0
  0
LINE
  5
DB
100
AcDbEntity
  8
0
  6
CONTINUOUS
 62
               7
100
AcDbLine
 10
-15.0
 20
5.0
 30
0.0
 11
-14.0
 21
6.0
 31
0.0
  0
LINE
  5
DC
100
AcDbEntity
  8
0
  6
CONTINUOUS
 62
               2
100
AcDbLine
 10
-30.5
 20
-4.3700000000000001
 30
0.0
 11
-22.0
 21
-4.3700000000000001
 31
0.0
  0
LINE
  5
DD
100
AcDbEntity
  8
0
  6
CONTINUOUS
 62
               2
100
AcDbLine
 10
-22.0
 20
-4.3700000000000001
 30
0.0
 11
-20.91
 21
-5.0
 31
0.0
  0
LINE
  5
DE
100
AcDbEntity
  8
0
  6
CONTINUOUS
 62
               2
100
AcDbLine
 10
-45.0
 20
-4.3700000000000001
 30
0.0
 11
-36.5
 21
-4.3700000000000001
 31
0.0
  0
LINE
  5
DF
100
AcDbEntity
  8
0
  6
CONTINUOUS
 62
               7
100
AcDbLine
 10
-44.369999999999997
 20
-5.0
 30
0.0
 11
-36.5
 21
-5.0
 31
0.0
  0
LINE
  5
E0
100
AcDbEntity
  8
0
  6
CONTINUOUS
 62
               7
100
AcDbLine
 10
-45.0
 20
-4.3700000000000001
 30
0.0
 11
-44.369999999999997
 21
-5.0
 31
0.0
  0
LINE
  5
E1
100
AcDbEntity
  8
0
  6
CONTINUOUS
 62
               7
100
AcDbLine
 10
-44.369999999999997
 20
5.0
 30
0.0
 11
-44.369999999999997
 21
-5.0
 31
0.0
  0
LINE
  5
E2
100
AcDbEntity
  8
0
  6
DASHED
 62
               2
100
AcDbLine
 10
105.0
 20
4.8600000000000003
 30
0.0
 11
98.799999999999997
 21
4.6699999999999999
 31
0.0
  0
LINE
  5
E3
100
AcDbEntity
  8
0
  6
DASHED
 62
               2
100
AcDbLine
 10
105.0
 20
4.2699999999999996
 30
0.0
 11
98.799999999999997
 21
4.0800000000000001
 31
0.0
  0
LINE
  5
E4
100
AcDbEntity
  8
0
  6
DASHED
 62
               2
100
AcDbLine
 10
105.0
 20
-4.2699999999999996
 30
0.0
 11
98.799999999999997
 21
-4.0800000000000001
 31
0.0
  0
LINE
  5
E5
100
AcDbEntity
  8
0
  6
DASHED
 62
               2
100
AcDbLine
 10
105.0
 20
-4.8600000000000003
 30
0.0
 11
98.799999999999997
 21
-4.6699999999999999
 31
0.0
  0
LINE
  5
E6
100
AcDbEntity
  8
0
  6
CONTINUOUS
 62
               7
100
AcDbLine
 10
-36.5
 20
-7.0
 30
0.0
 11
-30.5
 21
-7.0
 31
0.0
  0
LINE
  5
E7
100
AcDbEntity
  8
0
  6
CONTINUOUS
 62
               7
100
AcDbLine
 10
-36.5
 20
7.0
 30
0.0
 11
-30.5
 21
7.0
 31
0.0
  0
LINE
  5
E8
100
AcDbEntity
  8
0
  6
CONTINUOUS
 62
               7
100
AcDbLine
 10
104.0
 20
11.0
 30
0.0
 11
104.0
 21
-11.0
 31
0.0
  0
LINE
  5
E9
100
AcDbEntity
  8
0
  6
CENTER
 62
               2
100
AcDbLine
 10
5.0
 20
4.6200000000000001
 30
0.0
 11
5.0
 21
-4.6500000000000004
 31
0.0
  0
LINE
  5
EA
100
AcDbEntity
  8
0
  6
CONTINUOUS
 62
               7
100
AcDbLine
 10
0.0
 20
27.0
 30
0.0
 11
0.0
 21
-27.0
 31
0.0
  0
LINE
  5
EB
100
AcDbEntity
  8
0
  6
CONTINUOUS
 62
               7
100
AcDbLine
 10
99.0
 20
-11.0
 30
0.0
 11
99.0
 21
-16.800000000000001
 31
0.0
  0
LINE
  5
EC
100
AcDbEntity
  8
0
  6
CONTINUOUS
 62
               7
100
AcDbLine
 10
99.0
 20
16.800000000000001
 30
0.0
 11
99.0
 21
11.0
 31
0.0
  0
LINE
  5
ED
100
AcDbEntity
  8
0
  6
CONTINUOUS
 62
               7
100
AcDbLine
 10
105.0
 20
11.0
 30
0.0
 11
105.0
 21
-11.0
 31
0.0
  0
LINE
  5
EE
100
AcDbEntity
  8
0
  6
CONTINUOUS
 62
               7
100
AcDbLine
 10
94.0
 20
16.800000000000001
 30
0.0
 11
94.0
 21
-16.800000000000001
 31
0.0
  0
LINE
  5
EF
100
AcDbEntity
  8
0
  6
CONTINUOUS
 62
               7
100
AcDbLine
 10
99.0
 20
-11.0
 30
0.0
 11
105.0
 21
-11.0
 31
0.0
  0
LINE
  5
F0
100
AcDbEntity
  8
0
  6
CONTINUOUS
 62
               7
100
AcDbLine
 10
99.0
 20
11.0
 30
0.0
 11
105.0
 21
11.0
 31
0.0
  0
LINE
  5
F1
100
AcDbEntity
  8
0
  6
CONTINUOUS
 62
               7
100
AcDbLine
 10
94.0
 20
-16.800000000000001
 30
0.0
 11
99.0
 21
-16.800000000000001
 31
0.0
  0
LINE
  5
F2
100
AcDbEntity
  8
0
  6
CONTINUOUS
 62
               7
100
AcDbLine
 10
94.0
 20
16.800000000000001
 30
0.0
 11
99.0
 21
16.800000000000001
 31
0.0
  0
LINE
  5
F3
100
AcDbEntity
  8
0
  6
CENTER
 62
               2
100
AcDbLine
 10
18.0
 20
7.1100000000000003
 30
0.0
 11
18.0
 21
-6.9800000000000004
 31
0.0
  0
LINE
  5
F4
100
AcDbEntity
  8
0
  6
CONTINUOUS
 62
               7
100
AcDbLine
 10
0.0
 20
-27.0
 30
0.0
 11
26.0
 21
-27.0
 31
0.0
  0
LINE
  5
F5
100
AcDbEntity
  8
0
  6
CONTINUOUS
 62
               7
100
AcDbLine
 10
0.0
 20
27.0
 30
0.0
 11
26.0
 21
27.0
 31
0.0
  0
LINE
  5
F6
100
AcDbEntity
  8
0
  6
CONTINUOUS
 62
               7
100
AcDbLine
 10
0.0
 20
-25.23
 30
0.0
 11
26.0
 21
-25.23
 31
0.0
  0
LINE
  5
F7
100
AcDbEntity
  8
0
  6
CONTINUOUS
 62
               7
100
AcDbLine
 10
0.0
 20
25.23
 30
0.0
 11
26.0
 21
25.23
 31
0.0
  0
LINE
  5
F8
100
AcDbEntity
  8
0
  6
CONTINUOUS
 62
               7
100
AcDbLine
 10
-3.0
 20
-14.0
 30
0.0
 11
0.0
 21
-14.0
 31
0.0
  0
LINE
  5
F9
100
AcDbEntity
  8
0
  6
CONTINUOUS
 62
               7
100
AcDbLine
 10
-3.0
 20
14.0
 30
0.0
 11
0.0
 21
14.0
 31
0.0
  0
LINE
  5
FA
100
AcDbEntity
  8
0
  6
CONTINUOUS
 62
               7
100
AcDbLine
 10
-3.5
 20
-13.5
 30
0.0
 11
-3.0
 21
-14.0
 31
0.0
  0
LINE
  5
FB
100
AcDbEntity
  8
0
  6
CONTINUOUS
 62
               7
100
AcDbLine
 10
-3.5
 20
13.5
 30
0.0
 11
-3.0
 21
14.0
 31
0.0
  0
LINE
  5
FC
100
AcDbEntity
  8
0
  6
CONTINUOUS
 62
               7
100
AcDbLine
 10
-14.0
 20
-13.0
 30
0.0
 11
-13.5
 21
-13.5
 31
0.0
  0
LINE
  5
FD
100
AcDbEntity
  8
0
  6
CONTINUOUS
 62
               7
100
AcDbLine
 10
-14.0
 20
13.0
 30
0.0
 11
-13.5
 21
13.5
 31
0.0
  0
LINE
  5
FE
100
AcDbEntity
  8
0
  6
CONTINUOUS
 62
               7
100
AcDbLine
 10
-13.5
 20
-13.5
 30
0.0
 11
-3.5
 21
-13.5
 31
0.0
  0
LINE
  5
FF
100
AcDbEntity
  8
0
  6
CONTINUOUS
 62
               7
100
AcDbLine
 10
-13.5
 20
13.5
 30
0.0
 11
-3.5
 21
13.5
 31
0.0
  0
LINE
  5
100
100
AcDbEntity
  8
0
  6
CONTINUOUS
 62
               7
100
AcDbLine
 10
-3.5
 20
13.5
 30
0.0
 11
-3.5
 21
-13.5
 31
0.0
  0
LINE
  5
101
100
AcDbEntity
  8
0
  6
CONTINUOUS
 62
               7
100
AcDbLine
 10
-3.0
 20
14.0
 30
0.0
 11
-3.0
 21
-14.0
 31
0.0
  0
LINE
  5
102
100
AcDbEntity
  8
0
  6
CONTINUOUS
 62
               7
100
AcDbLine
 10
-13.5
 20
13.5
 30
0.0
 11
-13.5
 21
-13.5
 31
0.0
  0
LINE
  5
103
100
AcDbEntity
  8
0
  6
CONTINUOUS
 62
               7
100
AcDbLine
 10
-14.0
 20
13.0
 30
0.0
 11
-14.0
 21
-13.0
 31
0.0
  0
LINE
  5
104
100
AcDbEntity
  8
0
  6
CONTINUOUS
 62
               7
100
AcDbLine
 10
10.0
 20
27.0
 30
0.0
 11
10.0
 21
-27.0
 31
0.0
  0
LINE
  5
105
100
AcDbEntity
  8
0
  6
CONTINUOUS
 62
               7
100
AcDbLine
 10
-36.5
 20
7.0
 30
0.0
 11
-36.5
 21
-7.0
 31
0.0
  0
LINE
  5
106
100
AcDbEntity
  8
0
  6
CONTINUOUS
 62
               7
100
AcDbLine
 10
-30.5
 20
7.0
 30
0.0
 11
-30.5
 21
-7.0
 31
0.0
  0
LINE
  5
107
100
AcDbEntity
  8
0
  6
CONTINUOUS
 62
               7
100
AcDbLine
 10
-36.5
 20
7.0
 30
0.0
 11
-36.5
 21
-7.0
 31
0.0
  0
LINE
  5
108
100
AcDbEntity
  8
0
  6
CONTINUOUS
 62
               7
100
AcDbLine
 10
-35.869999999999997
 20
0.0
 30
0.0
 11
-31.120000000000001
 21
0.0
 31
0.0
  0
LINE
  5
109
100
AcDbEntity
  8
0
  6
CENTER
 62
               2
100
AcDbLine
 10
-49.700000000000003
 20
0.0
 30
0.0
 11
107.2
 21
0.0
 31
0.0
  0
LINE
  5
10A
100
AcDbEntity
  8
0
  6
CONTINUOUS
 62
               7
100
AcDbLine
 10
91.0
 20
16.800000000000001
 30
0.0
 11
91.0
 21
-16.800000000000001
 31
0.0
  0
LINE
  5
10B
100
AcDbEntity
  8
0
  6
CONTINUOUS
 62
               7
100
AcDbLine
 10
26.0
 20
-16.800000000000001
 30
0.0
 11
94.0
 21
-16.800000000000001
 31
0.0
  0
LINE
  5
10C
100
AcDbEntity
  8
0
  6
CONTINUOUS
 62
               7
100
AcDbLine
 10
26.0
 20
16.800000000000001
 30
0.0
 11
94.0
 21
16.800000000000001
 31
0.0
  0
LINE
  5
10D
100
AcDbEntity
  8
0
  6
CONTINUOUS
 62
               7
100
AcDbLine
 10
30.0
 20
16.800000000000001
 30
0.0
 11
30.0
 21
-16.800000000000001
 31
0.0
  0
LINE
  5
10E
100
AcDbEntity
  8
0
  6
CONTINUOUS
 62
               7
100
AcDbLine
 10
26.0
 20
27.0
 30
0.0
 11
26.0
 21
-27.0
 31
0.0
  0
LINE
  5
10F
100
AcDbEntity
  8
0
  6
CONTINUOUS
 62
               7
100
AcDbLine
 10
-15.0
 20
-5.0
 30
0.0
 11
-30.5
 21
-5.0
 31
0.0
  0
LINE
  5
110
100
AcDbEntity
  8
0
  6
CONTINUOUS
 62
               7
100
AcDbLine
 10
-30.5
 20
5.0
 30
0.0
 11
-15.0
 21
5.0
 31
0.0
  0
LINE
  5
111
100
AcDbEntity
  8
0
  6
CONTINUOUS
 62
               7
100
AcDbLine
 10
-20.0
 20
5.0
 30
0.0
 11
-20.0
 21
-5.0
 31
0.0
  0
LINE
  5
112
100
AcDbEntity
  8
0
  6
CONTINUOUS
 62
               7
100
AcDbLine
 10
-22.0
 20
5.0
 30
0.0
 11
-22.0
 21
-5.0
 31
0.0
  0
LINE
  5
113
100
AcDbEntity
  8
0
  6
CONTINUOUS
 62
               7
100
AcDbLine
 10
-45.0
 20
4.3700000000000001
 30
0.0
 11
-44.369999999999997
 21
5.0
 31
0.0
  0
LINE
  5
114
100
AcDbEntity
  8
0
  6
CONTINUOUS
 62
               7
100
AcDbLine
 10
-45.0
 20
-4.3700000000000001
 30
0.0
 11
-45.0
 21
4.3700000000000001
 31
0.0
  0
LINE
  5
115
100
AcDbEntity
  8
0
  6
CONTINUOUS
 62
               2
100
AcDbLine
 10
-22.0
 20
4.3700000000000001
 30
0.0
 11
-20.91
 21
5.0
 31
0.0
  0
LINE
  5
116
100
AcDbEntity
  8
0
  6
CONTINUOUS
 62
               2
100
AcDbLine
 10
-30.5
 20
4.3700000000000001
 30
0.0
 11
-22.0
 21
4.3700000000000001
 31
0.0
  0
LINE
  5
117
100
AcDbEntity
  8
0
  6
CONTINUOUS
 62
               2
100
AcDbLine
 10
-45.0
 20
4.3700000000000001
 30
0.0
 11
-36.5
 21
4.3700000000000001
 31
0.0
  0
LINE
  5
118
100
AcDbEntity
  8
0
  6
CONTINUOUS
 62
               7
100
AcDbLine
 10
-44.369999999999997
 20
5.0
 30
0.0
 11
-36.5
 21
5.0
 31
0.0
  0
ENDBLK
  5
119
100
AcDbEntity
  8
0
100
AcDbBlockEnd
  0
ENDSEC
  0
SECTION
  2
ENTITIES
  0
INSERT
  5
11A
100
AcDbEntity
  8
0
100
AcDbBlockReference
  2
MS_4
 10
-47.870407104492188
 20
46.5042724609375
 30
0.0
  0
INSERT
  5
11B
100
AcDbEntity
  8
0
100
AcDbBlockReference
  2
MS_3
 10
116.12960815429687
 20
-55.495712280273438
 30
0.0
  0
INSERT
  5
11C
100
AcDbEntity
  8
0
100
AcDbBlockReference
  2
MS_2
 10
-140.87039184570312
 20
-55.495712280273438
 30
0.0
  0
INSERT
  5
11D
100
AcDbEntity
  8
0
100
AcDbBlockReference
  2
MS_1
 10
-47.870407104492188
 20
-55.495712280273438
 30
0.0
  0
MTEXT
  5
11E
100
AcDbEntity
  8
0
  6
CONTINUOUS
 62
               7
100
AcDbMText
 10
-185.70945946105135
 20
107.60000610351562
 30
0.0
 40
4.5
 41
0.0
 71
               4
 72
               1
  1
\W1.054;\A1;MODEL:CS-DAB32*ST(25)-HL-4
  7
MX_NOTE_STANDARD
  0
MTEXT
  5
11F
100
AcDbEntity
  8
0
  6
CONTINUOUS
 62
               7
100
AcDbMText
 10
-186.94642857356681
 20
125.10000610351562
 30
0.0
 40
4.5
 41
0.0
 71
               4
 72
               1
  1
\W1.071;\A1;CS-SLIM CYLINDER
  7
MX_NOTE_STANDARD
  0
MTEXT
  5
120
100
AcDbEntity
  8
0
  6
CONTINUOUS
 62
               7
100
AcDbMText
 10
115.5267259825148
 20
-126.0
 30
0.0
 40
6.3000001907348633
 41
0.0
 71
               4
 72
               1
  1
\W1.121;\A1;KOGANEI CORP.
  7
MX_NOTE_STANDARD
  0
MTEXT
  5
121
100
AcDbEntity
  8
0
  6
CONTINUOUS
 62
               7
100
AcDbMText
 10
135.28361320576767
 20
125.10000610351562
 30
0.0
 40
4.5
 41
0.0
 71
               4
 72
               1
  1
\W1.311;\A1;Ver. 1.0
  7
MX_NOTE_STANDARD
  0
LINE
  5
122
100
AcDbEntity
  8
0
  6
CONTINUOUS
 62
               7
100
AcDbLine
 10
-109.25
 20
132.59999999999999
 30
0.0
 11
-109.25
 21
117.59999999999999
 31
0.0
  0
LINE
  5
123
100
AcDbEntity
  8
0
  6
CONTINUOUS
 62
               7
100
AcDbLine
 10
-194.25
 20
117.59999999999999
 30
0.0
 11
-109.25
 21
117.59999999999999
 31
0.0
  0
LINE
  5
124
100
AcDbEntity
  8
0
  6
CONTINUOUS
 62
               7
100
AcDbLine
 10
109.8
 20
117.59999999999999
 30
0.0
 11
194.80000000000001
 21
117.59999999999999
 31
0.0
  0
LINE
  5
125
100
AcDbEntity
  8
0
  6
CONTINUOUS
 62
               7
100
AcDbLine
 10
109.8
 20
132.59999999999999
 30
0.0
 11
109.8
 21
117.59999999999999
 31
0.0
  0
LINE
  5
126
100
AcDbEntity
  8
0
  6
CONTINUOUS
 62
               7
100
AcDbLine
 10
109.8
 20
-118.5
 30
0.0
 11
194.80000000000001
 21
-118.5
 31
0.0
  0
LINE
  5
127
100
AcDbEntity
  8
0
  6
CONTINUOUS
 62
               7
100
AcDbLine
 10
109.8
 20
-118.5
 30
0.0
 11
109.8
 21
-133.5
 31
0.0
  0
LINE
  5
128
100
AcDbEntity
  8
0
  6
CONTINUOUS
 62
               7
100
AcDbLine
 10
-194.25
 20
-133.5
 30
0.0
 11
194.80000000000001
 21
-133.5
 31
0.0
  0
LINE
  5
129
100
AcDbEntity
  8
0
  6
CONTINUOUS
 62
               7
100
AcDbLine
 10
-194.25
 20
132.59999999999999
 30
0.0
 11
-194.25
 21
-133.5
 31
0.0
  0
LINE
  5
12A
100
AcDbEntity
  8
0
  6
CONTINUOUS
 62
               7
100
AcDbLine
 10
194.80000000000001
 20
132.59999999999999
 30
0.0
 11
194.80000000000001
 21
-133.5
 31
0.0
  0
LINE
  5
12B
100
AcDbEntity
  8
0
  6
CONTINUOUS
 62
               7
100
AcDbLine
 10
-194.25
 20
132.59999999999999
 30
0.0
 11
194.80000000000001
 21
132.59999999999999
 31
0.0
  0
ENDSEC
  0
SECTION
  2
OBJECTS
  0
DICTIONARY
  5
19
100
AcDbDictionary
  3
ACAD_GROUP
350
1A
  3
ACAD_MLINESTYLE
350
1B
  0
DICTIONARY
  5
1A
102
{ACAD_REACTORS
330
19
102
}
100
AcDbDictionary
  0
DICTIONARY
  5
1B
102
{ACAD_REACTORS
330
19
102
}
100
AcDbDictionary
  3
STANDARD
350
1C
  0
MLINESTYLE
  5
1C
102
{ACAD_REACTORS
330
1B
102
}
100
AcDbMlineStyle
  2
Standard
 70
               0
  3

 62
               0
 51
90.0
 52
90.0
 71
               2
 49
0.5
 62
             256
  6
ByLayer
 49
-0.5
 62
             256
  6
ByLayer
  0
ENDSEC
  0
EOF
