  0
SECTION
  2
HEADER
  9
$ACADVER
  1
AC1012
  9
$DWGCODEPAGE
  3
dos932
  9
$INSBASE
 10
0.0
 20
0.0
 30
0.0
  9
$EXTMIN
 10
-194.25
 20
-133.5
 30
0.0
  9
$EXTMAX
 10
196.25000429153442
 20
132.59999999999999
 30
0.0
  9
$LIMMIN
 10
-194.25
 20
-133.5
  9
$LIMMAX
 10
196.25000429153442
 20
132.59999999999999
  9
$ORTHOMODE
 70
               0
  9
$REGENMODE
 70
               1
  9
$FILLMODE
 70
               1
  9
$QTEXTMODE
 70
               0
  9
$MIRRTEXT
 70
               1
  9
$DRAGMODE
 70
               2
  9
$LTSCALE
 40
1.0
  9
$OSMODE
 70
               0
  9
$ATTMODE
 70
               1
  9
$TEXTSIZE
 40
3.2000000476837158
  9
$TRACEWID
 40
0.05
  9
$TEXTSTYLE
  7
MX_NOTE_STANDARD
  9
$CLAYER
  8
0
  9
$CELTYPE
  6
CONTINUOUS
  9
$CECOLOR
 62
             256
  9
$CELTSCALE
 40
1.0
  9
$DELOBJ
 70
               1
  9
$DISPSILH
 70
               0
  9
$DIMSCALE
 40
1.0
  9
$DIMASZ
 40
2.5
  9
$DIMEXO
 40
1.5
  9
$DIMDLI
 40
3.75
  9
$DIMRND
 40
0.0
  9
$DIMDLE
 40
0.0
  9
$DIMEXE
 40
1.5
  9
$DIMTP
 40
0.0
  9
$DIMTM
 40
0.0
  9
$DIMTXT
 40
3.2000000476837158
  9
$DIMCEN
 40
2.5
  9
$DIMTSZ
 40
0.0
  9
$DIMTOL
 70
               0
  9
$DIMLIM
 70
               0
  9
$DIMTIH
 70
               0
  9
$DIMTOH
 70
               0
  9
$DIMSE1
 70
               0
  9
$DIMSE2
 70
               0
  9
$DIMTAD
 70
               1
  9
$DIMZIN
 70
               8
  9
$DIMBLK
  1

  9
$DIMASO
 70
               1
  9
$DIMSHO
 70
               1
  9
$DIMPOST
  1

  9
$DIMAPOST
  1

  9
$DIMALT
 70
               0
  9
$DIMALTD
 70
               4
  9
$DIMALTF
 40
0.0394
  9
$DIMLFAC
 40
1.0
  9
$DIMTOFL
 70
               1
  9
$DIMTVP
 40
0.0
  9
$DIMTIX
 70
               0
  9
$DIMSOXD
 70
               0
  9
$DIMSAH
 70
               0
  9
$DIMBLK1
  1

  9
$DIMBLK2
  1

  9
$DIMSTYLE
  2
MXDIMSTYLE
  9
$DIMCLRD
 70
               0
  9
$DIMCLRE
 70
               0
  9
$DIMCLRT
 70
               0
  9
$DIMTFAC
 40
1.0
  9
$DIMGAP
 40
1.0
  9
$DIMJUST
 70
               0
  9
$DIMSD1
 70
               0
  9
$DIMSD2
 70
               0
  9
$DIMTOLJ
 70
               1
  9
$DIMTZIN
 70
               0
  9
$DIMALTZ
 70
               0
  9
$DIMALTTZ
 70
               0
  9
$DIMFIT
 70
               3
  9
$DIMUPT
 70
               1
  9
$DIMUNIT
 70
               2
  9
$DIMDEC
 70
               4
  9
$DIMTDEC
 70
               4
  9
$DIMALTU
 70
               8
  9
$DIMALTTD
 70
               4
  9
$DIMTXSTY
  7
MX_NOTE_STANDARD
  9
$DIMAUNIT
 70
               0
  9
$LUNITS
 70
               2
  9
$LUPREC
 70
               4
  9
$SKETCHINC
 40
0.1
  9
$FILLETRAD
 40
0.0
  9
$AUNITS
 70
               0
  9
$AUPREC
 70
               0
  9
$MENU
  1
acad
  9
$ELEVATION
 40
0.0
  9
$PELEVATION
 40
0.0
  9
$THICKNESS
 40
0.0
  9
$LIMCHECK
 70
               0
  9
$BLIPMODE
 70
               1
  9
$CHAMFERA
 40
0.0
  9
$CHAMFERB
 40
0.0
  9
$CHAMFERC
 40
0.0
  9
$CHAMFERD
 40
0.0
  9
$SKPOLY
 70
               0
  9
$TDCREATE
 40
2452220.696898148
  9
$TDUPDATE
 40
2452220.696898148
  9
$TDINDWG
 40
0.0000000000
  9
$TDUSRTIMER
 40
0.0000000000
  9
$USRTIMER
 70
               1
  9
$ANGBASE
 50
0.0
  9
$ANGDIR
 70
               0
  9
$PDMODE
 70
               0
  9
$PDSIZE
 40
0.0
  9
$PLINEWID
 40
0.0
  9
$COORDS
 70
               1
  9
$SPLFRAME
 70
               0
  9
$SPLINETYPE
 70
               6
  9
$SPLINESEGS
 70
               8
  9
$ATTDIA
 70
               0
  9
$ATTREQ
 70
               1
  9
$HANDLING
 70
               1
  9
$HANDSEED
  5
129
  9
$SURFTAB1
 70
               6
  9
$SURFTAB2
 70
               6
  9
$SURFTYPE
 70
               6
  9
$SURFU
 70
               6
  9
$SURFV
 70
               6
  9
$UCSNAME
  2

  9
$UCSORG
 10
0.0
 20
0.0
 30
0.0
  9
$UCSXDIR
 10
1.0
 20
0.0
 30
0.0
  9
$UCSYDIR
 10
0.0
 20
1.0
 30
0.0
  9
$PUCSNAME
  2

  9
$PUCSORG
 10
0.0
 20
0.0
 30
0.0
  9
$PUCSXDIR
 10
1.0
 20
0.0
 30
0.0
  9
$PUCSYDIR
 10
0.0
 20
1.0
 30
0.0
  9
$USERI1
 70
               0
  9
$USERI2
 70
               0
  9
$USERI3
 70
               0
  9
$USERI4
 70
               0
  9
$USERI5
 70
               0
  9
$USERR1
 40
0.0
  9
$USERR2
 40
0.0
  9
$USERR3
 40
0.0
  9
$USERR4
 40
0.0
  9
$USERR5
 40
0.0
  9
$WORLDVIEW
 70
               1
  9
$SHADEDGE
 70
               3
  9
$SHADEDIF
 70
              70
  9
$TILEMODE
 70
               1
  9
$MAXACTVP
 70
              16
  9
$PINSBASE
 10
0.0
 20
0.0
 30
0.0
  9
$PLIMCHECK
 70
               0
  9
$PEXTMIN
 10
1.0000000000000000E+20
 20
1.0000000000000000E+20
 30
1.0000000000000000E+20
  9
$PEXTMAX
 10
-1.0000000000000000E+20
 20
-1.0000000000000000E+20
 30
-1.0000000000000000E+20
  9
$PLIMMIN
 10
0.0
 20
0.0
  9
$PLIMMAX
 10
12.0
 20
9.0
  9
$UNITMODE
 70
               0
  9
$VISRETAIN
 70
               0
  9
$PLINEGEN
 70
               1
  9
$PSLTSCALE
 70
               0
  9
$TREEDEPTH
 70
            3020
  9
$PICKSTYLE
 70
               1
  9
$CMLSTYLE
  2
Standard
  9
$CMLJUST
 70
               0
  9
$CMLSCALE
 40
1.0
  9
$SAVEIMAGES
 70
               0
  0
ENDSEC
  0
SECTION
  2
CLASSES
  0
CLASS
  1
LWPOLYLINE
  2
AcDbPolyline
  3
"AutoCAD"
 90
        0
280
               0
281
               1
  0
CLASS
  1
IMAGE
  2
AcDbRasterImage
  3
ISM
 90
      127
280
               0
281
               1
  0
CLASS
  1
OLE2FRAME
  2
AcDbOle2Frame
  3
""
 90
        0
280
               0
281
               1
  0
CLASS
  1
HATCH
  2
AcDbHatch
  3
"ACAD_SEDONA"
 90
        0
280
               0
281
               1
  0
CLASS
  1
DICTIONARYVAR
  2
AcDbDictionaryVar
  3
"AutoCAD"
 90
        0
280
               0
281
               0
  0
CLASS
  1
RASTERVARIABLES
  2
AcDbRasterVariables
  3
ISM
 90
        0
280
               0
281
               0
  0
CLASS
  1
IMAGEDEF
  2
AcDbRasterImageDef
  3
ISM
 90
        0
280
               0
281
               0
  0
CLASS
  1
IMAGEDEF_REACTOR
  2
AcDbRasterImageDefReactor
  3
ISM
 90
        1
280
               0
281
               0
  0
CLASS
  1
IDBUFFER
  2
AcDbIdBuffer
  3
"Acad"
 90
        0
280
               0
281
               0
  0
CLASS
  1
SPATIAL_FILTER
  2
AcDbSpatialFilter
  3
"Acad"
 90
        0
280
               0
281
               0
  0
CLASS
  1
XRECORD
  2
AcDbXrecord
  3
"<Built In>"
 90
        0
280
               0
281
               0
  0
CLASS
  1
SORTENTSTABLE
  2
AcDbSortentsTable
  3
"AutoCAD"
 90
        0
280
               0
281
               0
  0
CLASS
  1
LAYER_INDEX
  2
AcDbLayerIndex
  3
"Acad"
 90
        0
280
               0
281
               0
  0
CLASS
  1
SPATIAL_INDEX
  2
AcDbSpatialIndex
  3
"Acad"
 90
        0
280
               0
281
               0
  0
CLASS
  1
OBJECT_PTR
  2
CAseDLPNTableRecord
  3
"ASE-LPNTableRecord"
 90
        1
280
               0
281
               0
  0
CLASS
  1
LAYOUT
  2
AcDbLayout
  3
"AutoCAD 2000"
 90
        1
280
               0
281
               0
  0
CLASS
  1
PLOTSETTINGS
  2
AcDbPlotSettings
  3
"AutoCAD 2000"
 90
        1
280
               0
281
               0
  0
CLASS
  1
ACDBDICTIONARYWDFLT
  2
AcDbDictionaryWithDefault
  3
"AutoCAD 2000"
 90
        1
280
               0
281
               0
  0
CLASS
  1
ACDBPLACEHOLDER
  2
AcDbPlaceHolder
  3
"AutoCAD 2000"
 90
        1
280
               0
281
               0
  0
CLASS
  1
VBA_PROJECT
  2
AcDbVbaProject
  3
"acadvba"
 90
        1
280
               0
281
               0
  0
CLASS
  1
WIPEOUT
  2
AcDbWipeout
  3
WipeOut|AutoCAD Express Tool|expresstools@autodesk.com
 90
      127
280
               0
281
               1
  0
CLASS
  1
WIPEOUTVARIABLES
  2
AcDbWipeoutVariables
  3
WipeOut|AutoCAD Express Tool|expresstools@autodesk.com
 90
        0
280
               0
281
               0
  0
CLASS
  1
RTEXT
  2
RText
  3
RText|AutoCAD Express Tool|expresstools@autodesk.com
 90
        0
280
               0
281
               1
  0
CLASS
  1
ARCALIGNEDTEXT
  2
AcDbArcAlignedText
  3
ATEXT|AutoCAD Express Tool|expresstools@autodesk.com
 90
        0
280
               0
281
               1
  0
ENDSEC
  0
SECTION
  2
TABLES
  0
TABLE
  2
VPORT
  5
7
100
AcDbSymbolTable
 70
               1
  0
VPORT
  5
15
100
AcDbSymbolTableRecord
100
AcDbViewportTableRecord
  2
*ACTIVE
 70
               0
 10
0.0
 20
0.0
 11
1.0
 21
1.0
 12
1.0000021457672119
 22
-0.4499999999999886
 13
0.0
 23
0.0
 14
1.0
 24
1.0
 15
0.0
 25
0.0
 16
0.0
 26
0.0
 36
1.0
 17
0.0
 27
0.0
 37
0.0
 40
268.76100000000002
 41
1.7320508075688772
 42
50.0
 43
0.0
 44
0.0
 50
0.0
 51
0.0
 71
               0
 72
             100
 73
               1
 74
               1
 75
               0
 76
               0
 77
               0
 78
               0
  0
ENDTAB
  0
TABLE
  2
LTYPE
  5
4
100
AcDbSymbolTable
 70
               5
  0
LTYPE
  5
11
100
AcDbSymbolTableRecord
100
AcDbLinetypeTableRecord
  2
BYBLOCK
 70
              64
  3

 72
              65
 73
               0
 40
0.0
  0
LTYPE
  5
12
100
AcDbSymbolTableRecord
100
AcDbLinetypeTableRecord
  2
BYLAYER
 70
              64
  3

 72
              65
 73
               0
 40
0.0
  0
LTYPE
  5
13
100
AcDbSymbolTableRecord
100
AcDbLinetypeTableRecord
  2
CONTINUOUS
 70
              64
  3
Solid line
 72
              65
 73
               0
 40
0.0
  0
LTYPE
  5
2F
100
AcDbSymbolTableRecord
100
AcDbLinetypeTableRecord
  2
DASHED
 70
              64
  3
Dashed __ __ __ __ __ __ __ __ __ __ __ __ __ _
 72
              65
 73
               2
 40
19.049999999999997
 49
12.699999999999999
 74
               0
 49
-6.3499999999999996
 74
               0
  0
LTYPE
  5
41
100
AcDbSymbolTableRecord
100
AcDbLinetypeTableRecord
  2
CENTER
 70
              64
  3
Center ____ _ ____ _ ____ _ ____ _ ____ _ ____
 72
              65
 73
               4
 40
50.800000000000004
 49
31.75
 74
               0
 49
-6.3499999999999996
 74
               0
 49
6.3499999999999996
 74
               0
 49
-6.3499999999999996
 74
               0
  0
ENDTAB
  0
TABLE
  2
LAYER
  5
2
100
AcDbSymbolTable
 70
               2
  0
LAYER
  5
14
100
AcDbSymbolTableRecord
100
AcDbLayerTableRecord
  2
0
 70
               0
 62
               7
  6
CONTINUOUS
  0
LAYER
  5
1D
100
AcDbSymbolTableRecord
100
AcDbLayerTableRecord
  2
DEFPOINTS
 70
               0
 62
               7
  6
CONTINUOUS
  0
ENDTAB
  0
TABLE
  2
STYLE
  5
3
100
AcDbSymbolTable
 70
               1
  0
STYLE
  5
17
100
AcDbSymbolTableRecord
100
AcDbTextStyleTableRecord
  2
MX_NOTE_STANDARD
 70
               0
 40
3.2000000476837158
 41
1.0
 50
0.0
 71
               0
 42
3.2000000476837158
  3
txt.shx
  4
extfont.shx
  0
ENDTAB
  0
TABLE
  2
VIEW
  5
5
100
AcDbSymbolTable
 70
               0
  0
ENDTAB
  0
TABLE
  2
UCS
  5
6
100
AcDbSymbolTable
 70
               0
  0
ENDTAB
  0
TABLE
  2
APPID
  5
8
100
AcDbSymbolTable
 70
               1
  0
APPID
  5
16
100
AcDbSymbolTableRecord
100
AcDbRegAppTableRecord
  2
ACAD
 70
               0
  0
ENDTAB
  0
TABLE
  2
DIMSTYLE
  5
9
100
AcDbSymbolTable
 70
               1
  0
DIMSTYLE
105
18
100
AcDbSymbolTableRecord
100
AcDbDimStyleTableRecord
  2
MXDIMSTYLE
 70
               0
  3

  4

  5

  6

  7

 40
1.0
 41
2.5
 42
1.5
 43
3.75
 44
1.5
 45
0.0
 46
0.0
 47
0.0
 48
0.0
 71
               0
 72
               0
 73
               0
 74
               0
 75
               0
 76
               0
 77
               1
 78
               8
140
3.2000000476837158
141
2.5
142
0.0
143
0.0394
144
1.0
145
0.0
146
1.0
147
1.0
170
               0
171
               4
172
               1
173
               0
174
               0
175
               0
176
               0
177
               0
178
               0
270
               2
271
               4
272
               4
273
               8
274
               4
275
               0
280
               0
281
               0
282
               0
283
               1
284
               0
285
               0
286
               0
287
               3
288
               1
340
17
  0
ENDTAB
  0
TABLE
  2
BLOCK_RECORD
  5
1
100
AcDbSymbolTable
 70
               4
  0
BLOCK_RECORD
  5
A
100
AcDbSymbolTableRecord
100
AcDbBlockTableRecord
  2
*MODEL_SPACE
  0
BLOCK_RECORD
  5
B
100
AcDbSymbolTableRecord
100
AcDbBlockTableRecord
  2
*PAPER_SPACE
  0
BLOCK_RECORD
  5
1E
100
AcDbSymbolTableRecord
100
AcDbBlockTableRecord
  2
MS_1
  0
BLOCK_RECORD
  5
1F
100
AcDbSymbolTableRecord
100
AcDbBlockTableRecord
  2
MS_2
  0
BLOCK_RECORD
  5
20
100
AcDbSymbolTableRecord
100
AcDbBlockTableRecord
  2
MS_3
  0
BLOCK_RECORD
  5
21
100
AcDbSymbolTableRecord
100
AcDbBlockTableRecord
  2
MS_4
  0
ENDTAB
  0
ENDSEC
  0
SECTION
  2
BLOCKS
  0
BLOCK
  5
D
100
AcDbEntity
  8
0
100
AcDbBlockBegin
  2
*MODEL_SPACE
 70
               0
 10
0.0
 20
0.0
 30
0.0
  3
*MODEL_SPACE
  1

  0
ENDBLK
  5
E
100
AcDbEntity
  8
0
100
AcDbBlockEnd
  0
BLOCK
  5
F
100
AcDbEntity
 67
               1
  8
0
100
AcDbBlockBegin
  2
*PAPER_SPACE
 70
               0
 10
0.0
 20
0.0
 30
0.0
  3
*PAPER_SPACE
  1

  0
ENDBLK
  5
10
100
AcDbEntity
 67
               1
  8
0
100
AcDbBlockEnd
  0
BLOCK
  5
22
100
AcDbEntity
  8
0
100
AcDbBlockBegin
  2
MS_1
 70
               0
 10
0.0
 20
0.0
 30
0.0
  3
MS_1
  1

  0
SPLINE
  5
23
100
AcDbEntity
  8
0
  6
CONTINUOUS
 62
               7
100
AcDbSpline
210
0.0
220
0.0
230
1.0
 70
               0
 71
               3
 72
               0
 73
               0
 74
               5
 44
0.000001
 12
0.4931968246121578
 22
-0.8699177502456681
 32
0.0
 13
-0.4931970799434035
 23
-0.8699176054864622
 33
0.0
 11
-0.5600000000000001
 21
1.98
 31
0.0
 11
-0.1600746331949761
 21
1.0447662657336192
 31
0.0
 11
0.0
 21
0.0
 31
0.0
 11
-0.1600746358192235
 21
-1.0447662796452639
 31
0.0
 11
-0.5599999999999999
 21
-1.9799999999999991
 31
0.0
  0
SPLINE
  5
24
100
AcDbEntity
  8
0
  6
CONTINUOUS
 62
               7
100
AcDbSpline
210
0.0
220
0.0
230
1.0
 70
               0
 71
               3
 72
               0
 73
               0
 74
               5
 44
0.000001
 12
-0.4931968054021225
 22
0.86991776113673
 32
0.0
 13
0.4931970701373071
 23
0.869917611045998
 33
0.0
 11
-3.3700000000000001
 21
-1.98
 31
0.0
 11
-3.7699253574533125
 21
-1.0447659019470077
 31
0.0
 11
-3.9300000000000002
 21
0.0
 31
0.0
 11
-3.7699253514927884
 21
1.044765927073106
 31
0.0
 11
-3.3700000000000001
 21
1.98
 31
0.0
  0
SPLINE
  5
25
100
AcDbEntity
  8
0
  6
CONTINUOUS
 62
               7
100
AcDbSpline
210
0.0
220
0.0
230
1.0
 70
               0
 71
               3
 72
               0
 73
               0
 74
               5
 44
0.000001
 12
0.5262074789153047
 22
-0.8503562130857862
 32
0.0
 13
-0.5262073127016215
 23
-0.8503563159401698
 33
0.0
 11
-9.4399999999999995
 21
-2.8799999999999999
 31
0.0
 11
-9.1206203792853291
 21
-3.5740557011564755
 31
0.0
 11
-9.0
 21
-4.3300000000000001
 31
0.0
 11
-9.1206198780383279
 21
-5.0797346092713722
 31
0.0
 11
-9.4399999999999995
 21
-5.7699999999999996
 31
0.0
  0
SPLINE
  5
26
100
AcDbEntity
  8
0
  6
CONTINUOUS
 62
               7
100
AcDbSpline
210
0.0
220
0.0
230
1.0
 70
               0
 71
               3
 72
               0
 73
               0
 74
               5
 44
0.000001
 12
0.2955794915711458
 22
-0.9553181481383796
 32
0.0
 13
-0.2955795627990088
 23
-0.9553181261001734
 33
0.0
 11
-9.4399999999999995
 21
2.8799999999999999
 31
0.0
 11
-9.1120730759945765
 21
1.4580329665122864
 31
0.0
 11
-9.0
 21
0.0
 31
0.0
 11
-9.1120733175927935
 21
-1.4580334438072835
 31
0.0
 11
-9.4399999999999995
 21
-2.8800000000000008
 31
0.0
  0
SPLINE
  5
27
100
AcDbEntity
  8
0
  6
CONTINUOUS
 62
               7
100
AcDbSpline
210
0.0
220
0.0
230
1.0
 70
               0
 71
               3
 72
               0
 73
               0
 74
               5
 44
0.000001
 12
0.5262052009938416
 22
-0.8503576226782651
 32
0.0
 13
-0.5262073927143754
 23
-0.8503562664276304
 33
0.0
 11
-9.4399999999999995
 21
5.7699999999999996
 31
0.0
 11
-9.1206205226728603
 21
5.078532965109015
 31
0.0
 11
-9.0
 21
4.3300000000000001
 31
0.0
 11
-9.1206204765307515
 21
3.575265251920551
 31
0.0
 11
-9.4399999999999995
 21
2.879999999999999
 31
0.0
  0
SPLINE
  5
28
100
AcDbEntity
  8
0
  6
CONTINUOUS
 62
               7
100
AcDbSpline
210
0.0
220
0.0
230
1.0
 70
               0
 71
               3
 72
               0
 73
               0
 74
               5
 44
0.000001
 12
-0.5262042365711465
 22
-0.8503582194667003
 32
0.0
 13
0.5262040805984314
 23
-0.8503583159830681
 33
0.0
 11
-13.550000000000001
 21
-2.8799999999999999
 31
0.0
 11
-13.874378959481533
 21
-3.5740608887072276
 31
0.0
 11
-14.0
 21
-4.3300000000000001
 31
0.0
 11
-13.874379377658187
 21
-5.0797342602846838
 31
0.0
 11
-13.550000000000001
 21
-5.7699999999999996
 31
0.0
  0
SPLINE
  5
29
100
AcDbEntity
  8
0
  6
CONTINUOUS
 62
               7
100
AcDbSpline
210
0.0
220
0.0
230
1.0
 70
               0
 71
               3
 72
               0
 73
               0
 74
               5
 44
0.000001
 12
-0.295577172018303
 22
-0.955318865814793
 32
0.0
 13
0.2955772264155248
 23
-0.9553188489842046
 33
0.0
 11
-13.550000000000001
 21
2.8799999999999999
 31
0.0
 11
-13.882926071380297
 21
1.4580326341673833
 31
0.0
 11
-14.0
 21
0.0
 31
0.0
 11
-13.8829258105111
 21
-1.458033089699003
 31
0.0
 11
-13.550000000000001
 21
-2.8800000000000008
 31
0.0
  0
SPLINE
  5
2A
100
AcDbEntity
  8
0
  6
CONTINUOUS
 62
               7
100
AcDbSpline
210
0.0
220
0.0
230
1.0
 70
               0
 71
               3
 72
               0
 73
               0
 74
               5
 44
0.000001
 12
-0.5262046449587133
 22
-0.8503579667551039
 32
0.0
 13
0.5262046449587134
 23
-0.8503579667551039
 33
0.0
 11
-13.550000000000001
 21
5.7699999999999996
 31
0.0
 11
-13.874379170570919
 21
5.078537301920969
 31
0.0
 11
-14.0
 21
4.3300000000000001
 31
0.0
 11
-13.874379170583511
 21
3.5752657397356375
 31
0.0
 11
-13.550000000000001
 21
2.8799999999999999
 31
0.0
  0
LINE
  5
2B
100
AcDbEntity
  8
0
  6
CONTINUOUS
 62
               2
100
AcDbLine
 10
100.0
 20
4.9900000000000002
 30
0.0
 11
105.0
 21
-4.9900000000000002
 31
0.0
  0
LINE
  5
2C
100
AcDbEntity
  8
0
  6
CONTINUOUS
 62
               2
100
AcDbLine
 10
105.0
 20
4.9900000000000002
 30
0.0
 11
100.0
 21
-4.9900000000000002
 31
0.0
  0
LINE
  5
2D
100
AcDbEntity
  8
0
  6
CONTINUOUS
 62
               7
100
AcDbLine
 10
100.0
 20
-4.9900000000000002
 30
0.0
 11
105.0
 21
-4.9900000000000002
 31
0.0
  0
LINE
  5
2E
100
AcDbEntity
  8
0
  6
CONTINUOUS
 62
               7
100
AcDbLine
 10
100.0
 20
4.9900000000000002
 30
0.0
 11
105.0
 21
4.9900000000000002
 31
0.0
  0
LINE
  5
30
100
AcDbEntity
  8
0
  6
DASHED
 62
               2
100
AcDbLine
 10
11.5
 20
12.0
 30
0.0
 11
11.5
 21
9.0
 31
0.0
  0
LINE
  5
31
100
AcDbEntity
  8
0
  6
DASHED
 62
               2
100
AcDbLine
 10
11.9
 20
12.0
 30
0.0
 11
11.9
 21
9.0
 31
0.0
  0
LINE
  5
32
100
AcDbEntity
  8
0
  6
DASHED
 62
               2
100
AcDbLine
 10
16.100000000000001
 20
12.0
 30
0.0
 11
16.100000000000001
 21
9.0
 31
0.0
  0
LINE
  5
33
100
AcDbEntity
  8
0
  6
DASHED
 62
               2
100
AcDbLine
 10
16.5
 20
12.0
 30
0.0
 11
16.5
 21
9.0
 31
0.0
  0
LINE
  5
34
100
AcDbEntity
  8
0
  6
DASHED
 62
               2
100
AcDbLine
 10
22.129999999999999
 20
12.0
 30
0.0
 11
22.329999999999998
 21
5.7999999999999998
 31
0.0
  0
LINE
  5
35
100
AcDbEntity
  8
0
  6
DASHED
 62
               2
100
AcDbLine
 10
22.719999999999999
 20
12.0
 30
0.0
 11
22.91
 21
5.7999999999999998
 31
0.0
  0
LINE
  5
36
100
AcDbEntity
  8
0
  6
DASHED
 62
               2
100
AcDbLine
 10
31.27
 20
12.0
 30
0.0
 11
31.079999999999998
 21
5.7999999999999998
 31
0.0
  0
LINE
  5
37
100
AcDbEntity
  8
0
  6
DASHED
 62
               2
100
AcDbLine
 10
31.859999999999999
 20
12.0
 30
0.0
 11
31.670000000000002
 21
5.7999999999999998
 31
0.0
  0
LINE
  5
38
100
AcDbEntity
  8
0
  6
CONTINUOUS
 62
               7
100
AcDbLine
 10
-3.3700000000000001
 20
-1.98
 30
0.0
 11
-0.5600000000000001
 21
-1.98
 31
0.0
  0
LINE
  5
39
100
AcDbEntity
  8
0
  6
CONTINUOUS
 62
               7
100
AcDbLine
 10
-0.5600000000000001
 20
-1.98
 30
0.0
 11
-0.5600000000000001
 21
1.98
 31
0.0
  0
LINE
  5
3A
100
AcDbEntity
  8
0
  6
CONTINUOUS
 62
               2
100
AcDbLine
 10
-3.3700000000000001
 20
-1.98
 30
0.0
 11
-0.5600000000000001
 21
1.98
 31
0.0
  0
LINE
  5
3B
100
AcDbEntity
  8
0
  6
CONTINUOUS
 62
               2
100
AcDbLine
 10
-3.3700000000000001
 20
1.98
 30
0.0
 11
-0.5600000000000001
 21
-1.98
 31
0.0
  0
LINE
  5
3C
100
AcDbEntity
  8
0
  6
CONTINUOUS
 62
               7
100
AcDbLine
 10
-3.3700000000000001
 20
-1.98
 30
0.0
 11
-3.3700000000000001
 21
1.98
 31
0.0
  0
LINE
  5
3D
100
AcDbEntity
  8
0
  6
CONTINUOUS
 62
               7
100
AcDbLine
 10
-3.3700000000000001
 20
1.98
 30
0.0
 11
-0.5600000000000001
 21
1.98
 31
0.0
  0
LINE
  5
3E
100
AcDbEntity
  8
0
  6
CONTINUOUS
 62
               7
100
AcDbLine
 10
104.5
 20
-4.9900000000000002
 30
0.0
 11
104.5
 21
-8.5999999999999996
 31
0.0
  0
LINE
  5
3F
100
AcDbEntity
  8
0
  6
CONTINUOUS
 62
               7
100
AcDbLine
 10
104.5
 20
-8.5999999999999996
 30
0.0
 11
105.0
 21
-8.0999999999999996
 31
0.0
  0
LINE
  5
40
100
AcDbEntity
  8
0
  6
CONTINUOUS
 62
               7
100
AcDbLine
 10
104.5
 20
8.5999999999999996
 30
0.0
 11
105.0
 21
8.0999999999999996
 31
0.0
  0
LINE
  5
42
100
AcDbEntity
  8
0
  6
CENTER
 62
               2
100
AcDbLine
 10
7.4800000000000004
 20
-8.0
 30
0.0
 11
36.479999999999997
 21
-8.0
 31
0.0
  0
LINE
  5
43
100
AcDbEntity
  8
0
  6
CENTER
 62
               2
100
AcDbLine
 10
7.4500000000000002
 20
8.0
 30
0.0
 11
36.479999999999997
 21
8.0
 31
0.0
  0
LINE
  5
44
100
AcDbEntity
  8
0
  6
CENTER
 62
               2
100
AcDbLine
 10
14.0
 20
13.66
 30
0.0
 11
14.0
 21
5.6600000000000001
 31
0.0
  0
LINE
  5
45
100
AcDbEntity
  8
0
  6
CONTINUOUS
 62
               7
100
AcDbLine
 10
95.0
 20
8.5999999999999996
 30
0.0
 11
95.0
 21
-8.5999999999999996
 31
0.0
  0
LINE
  5
46
100
AcDbEntity
  8
0
  6
CONTINUOUS
 62
               7
100
AcDbLine
 10
93.0
 20
8.5999999999999996
 30
0.0
 11
94.0
 21
8.5999999999999996
 31
0.0
  0
LINE
  5
47
100
AcDbEntity
  8
0
  6
CONTINUOUS
 62
               7
100
AcDbLine
 10
93.0
 20
-8.5999999999999996
 30
0.0
 11
94.0
 21
-8.5999999999999996
 31
0.0
  0
LINE
  5
48
100
AcDbEntity
  8
0
  6
CONTINUOUS
 62
               7
100
AcDbLine
 10
92.0
 20
8.5999999999999996
 30
0.0
 11
92.0
 21
-8.5999999999999996
 31
0.0
  0
LINE
  5
49
100
AcDbEntity
  8
0
  6
CENTER
 62
               2
100
AcDbLine
 10
-22.510000000000002
 20
0.0
 30
0.0
 11
108.15000000000001
 21
0.0
 31
0.0
  0
LINE
  5
4A
100
AcDbEntity
  8
0
  6
CONTINUOUS
 62
               7
100
AcDbLine
 10
9.0
 20
12.0
 30
0.0
 11
9.0
 21
-12.0
 31
0.0
  0
LINE
  5
4B
100
AcDbEntity
  8
0
  6
CONTINUOUS
 62
               7
100
AcDbLine
 10
95.0
 20
-8.5999999999999996
 30
0.0
 11
104.5
 21
-8.5999999999999996
 31
0.0
  0
LINE
  5
4C
100
AcDbEntity
  8
0
  6
CONTINUOUS
 62
               7
100
AcDbLine
 10
95.0
 20
8.5999999999999996
 30
0.0
 11
104.5
 21
8.5999999999999996
 31
0.0
  0
LINE
  5
4D
100
AcDbEntity
  8
0
  6
CONTINUOUS
 62
               7
100
AcDbLine
 10
104.5
 20
8.5999999999999996
 30
0.0
 11
104.5
 21
4.9900000000000002
 31
0.0
  0
LINE
  5
4E
100
AcDbEntity
  8
0
  6
CONTINUOUS
 62
               7
100
AcDbLine
 10
100.0
 20
4.9900000000000002
 30
0.0
 11
100.0
 21
-4.9900000000000002
 31
0.0
  0
LINE
  5
4F
100
AcDbEntity
  8
0
  6
CONTINUOUS
 62
               7
100
AcDbLine
 10
105.0
 20
8.0999999999999996
 30
0.0
 11
105.0
 21
-8.0999999999999996
 31
0.0
  0
LINE
  5
50
100
AcDbEntity
  8
0
  6
CONTINUOUS
 62
               7
100
AcDbLine
 10
35.0
 20
-8.5999999999999996
 30
0.0
 11
95.0
 21
-8.5999999999999996
 31
0.0
  0
LINE
  5
51
100
AcDbEntity
  8
0
  6
CONTINUOUS
 62
               7
100
AcDbLine
 10
35.0
 20
8.5999999999999996
 30
0.0
 11
95.0
 21
8.5999999999999996
 31
0.0
  0
LINE
  5
52
100
AcDbEntity
  8
0
  6
CONTINUOUS
 62
               7
100
AcDbLine
 10
39.0
 20
8.5999999999999996
 30
0.0
 11
39.0
 21
-8.5999999999999996
 31
0.0
  0
LINE
  5
53
100
AcDbEntity
  8
0
  6
CONTINUOUS
 62
               7
100
AcDbLine
 10
36.0
 20
8.5999999999999996
 30
0.0
 11
36.0
 21
-8.5999999999999996
 31
0.0
  0
LINE
  5
54
100
AcDbEntity
  8
0
  6
CONTINUOUS
 62
               7
100
AcDbLine
 10
9.0
 20
-10.41
 30
0.0
 11
35.0
 21
-10.41
 31
0.0
  0
LINE
  5
55
100
AcDbEntity
  8
0
  6
CONTINUOUS
 62
               7
100
AcDbLine
 10
9.0
 20
10.41
 30
0.0
 11
35.0
 21
10.41
 31
0.0
  0
LINE
  5
56
100
AcDbEntity
  8
0
  6
CONTINUOUS
 62
               7
100
AcDbLine
 10
9.0
 20
-12.0
 30
0.0
 11
35.0
 21
-12.0
 31
0.0
  0
LINE
  5
57
100
AcDbEntity
  8
0
  6
CONTINUOUS
 62
               7
100
AcDbLine
 10
9.0
 20
12.0
 30
0.0
 11
35.0
 21
12.0
 31
0.0
  0
LINE
  5
58
100
AcDbEntity
  8
0
  6
CENTER
 62
               2
100
AcDbLine
 10
27.0
 20
13.83
 30
0.0
 11
27.0
 21
5.4400000000000004
 31
0.0
  0
LINE
  5
59
100
AcDbEntity
  8
0
  6
CONTINUOUS
 62
               7
100
AcDbLine
 10
35.0
 20
12.0
 30
0.0
 11
35.0
 21
-12.0
 31
0.0
  0
LINE
  5
5A
100
AcDbEntity
  8
0
  6
CONTINUOUS
 62
               7
100
AcDbLine
 10
6.0
 20
-9.0
 30
0.0
 11
9.0
 21
-9.0
 31
0.0
  0
LINE
  5
5B
100
AcDbEntity
  8
0
  6
CONTINUOUS
 62
               7
100
AcDbLine
 10
6.0
 20
9.0
 30
0.0
 11
9.0
 21
9.0
 31
0.0
  0
LINE
  5
5C
100
AcDbEntity
  8
0
  6
CONTINUOUS
 62
               7
100
AcDbLine
 10
0.5
 20
-8.5
 30
0.0
 11
5.5
 21
-8.5
 31
0.0
  0
LINE
  5
5D
100
AcDbEntity
  8
0
  6
CONTINUOUS
 62
               7
100
AcDbLine
 10
5.5
 20
-8.5
 30
0.0
 11
6.0
 21
-9.0
 31
0.0
  0
LINE
  5
5E
100
AcDbEntity
  8
0
  6
CONTINUOUS
 62
               7
100
AcDbLine
 10
5.5
 20
8.5
 30
0.0
 11
6.0
 21
9.0
 31
0.0
  0
LINE
  5
5F
100
AcDbEntity
  8
0
  6
CONTINUOUS
 62
               7
100
AcDbLine
 10
5.5
 20
8.5
 30
0.0
 11
5.5
 21
-8.5
 31
0.0
  0
LINE
  5
60
100
AcDbEntity
  8
0
  6
CONTINUOUS
 62
               7
100
AcDbLine
 10
6.0
 20
9.0
 30
0.0
 11
6.0
 21
-9.0
 31
0.0
  0
LINE
  5
61
100
AcDbEntity
  8
0
  6
CONTINUOUS
 62
               7
100
AcDbLine
 10
19.0
 20
12.0
 30
0.0
 11
19.0
 21
-12.0
 31
0.0
  0
LINE
  5
62
100
AcDbEntity
  8
0
  6
CONTINUOUS
 62
               2
100
AcDbLine
 10
-9.0
 20
-2.4500000000000002
 30
0.0
 11
-5.0
 21
-2.4500000000000002
 31
0.0
  0
LINE
  5
63
100
AcDbEntity
  8
0
  6
CONTINUOUS
 62
               2
100
AcDbLine
 10
-9.0
 20
2.4500000000000002
 30
0.0
 11
-5.0
 21
2.4500000000000002
 31
0.0
  0
LINE
  5
64
100
AcDbEntity
  8
0
  6
CONTINUOUS
 62
               2
100
AcDbLine
 10
-5.0
 20
-2.4500000000000002
 30
0.0
 11
-4.0599999999999996
 21
-3.0
 31
0.0
  0
LINE
  5
65
100
AcDbEntity
  8
0
  6
CONTINUOUS
 62
               2
100
AcDbLine
 10
-5.0
 20
2.4500000000000002
 30
0.0
 11
-4.0599999999999996
 21
3.0
 31
0.0
  0
LINE
  5
66
100
AcDbEntity
  8
0
  6
CONTINUOUS
 62
               2
100
AcDbLine
 10
-19.539999999999999
 20
-2.4500000000000002
 30
0.0
 11
-14.0
 21
-2.4500000000000002
 31
0.0
  0
LINE
  5
67
100
AcDbEntity
  8
0
  6
CONTINUOUS
 62
               2
100
AcDbLine
 10
-19.539999999999999
 20
2.4500000000000002
 30
0.0
 11
-14.0
 21
2.4500000000000002
 31
0.0
  0
LINE
  5
68
100
AcDbEntity
  8
0
  6
CONTINUOUS
 62
               7
100
AcDbLine
 10
0.0
 20
-8.0
 30
0.0
 11
0.5
 21
-8.5
 31
0.0
  0
LINE
  5
69
100
AcDbEntity
  8
0
  6
CONTINUOUS
 62
               7
100
AcDbLine
 10
0.0
 20
8.0
 30
0.0
 11
0.5
 21
8.5
 31
0.0
  0
LINE
  5
6A
100
AcDbEntity
  8
0
  6
CONTINUOUS
 62
               7
100
AcDbLine
 10
0.5
 20
8.5
 30
0.0
 11
5.5
 21
8.5
 31
0.0
  0
LINE
  5
6B
100
AcDbEntity
  8
0
  6
CONTINUOUS
 62
               7
100
AcDbLine
 10
0.5
 20
8.5
 30
0.0
 11
0.5
 21
-8.5
 31
0.0
  0
LINE
  5
6C
100
AcDbEntity
  8
0
  6
CONTINUOUS
 62
               7
100
AcDbLine
 10
0.0
 20
8.0
 30
0.0
 11
0.0
 21
-8.0
 31
0.0
  0
LINE
  5
6D
100
AcDbEntity
  8
0
  6
CONTINUOUS
 62
               7
100
AcDbLine
 10
-9.0
 20
-3.0
 30
0.0
 11
0.0
 21
-3.0
 31
0.0
  0
LINE
  5
6E
100
AcDbEntity
  8
0
  6
CONTINUOUS
 62
               7
100
AcDbLine
 10
-9.0
 20
3.0
 30
0.0
 11
0.0
 21
3.0
 31
0.0
  0
LINE
  5
6F
100
AcDbEntity
  8
0
  6
CONTINUOUS
 62
               7
100
AcDbLine
 10
-14.0
 20
-5.0
 30
0.0
 11
-13.550000000000001
 21
-5.7699999999999996
 31
0.0
  0
LINE
  5
70
100
AcDbEntity
  8
0
  6
CONTINUOUS
 62
               7
100
AcDbLine
 10
-9.4399999999999995
 20
5.7699999999999996
 30
0.0
 11
-9.0
 21
5.0
 31
0.0
  0
LINE
  5
71
100
AcDbEntity
  8
0
  6
CONTINUOUS
 62
               7
100
AcDbLine
 10
-9.4399999999999995
 20
-5.7699999999999996
 30
0.0
 11
-9.0
 21
-5.0
 31
0.0
  0
LINE
  5
72
100
AcDbEntity
  8
0
  6
CONTINUOUS
 62
               7
100
AcDbLine
 10
-14.0
 20
5.0
 30
0.0
 11
-13.550000000000001
 21
5.7699999999999996
 31
0.0
  0
LINE
  5
73
100
AcDbEntity
  8
0
  6
CONTINUOUS
 62
               7
100
AcDbLine
 10
-13.550000000000001
 20
-5.7699999999999996
 30
0.0
 11
-9.4399999999999995
 21
-5.7699999999999996
 31
0.0
  0
LINE
  5
74
100
AcDbEntity
  8
0
  6
CONTINUOUS
 62
               7
100
AcDbLine
 10
-13.550000000000001
 20
-2.8799999999999999
 30
0.0
 11
-9.4399999999999995
 21
-2.8799999999999999
 31
0.0
  0
LINE
  5
75
100
AcDbEntity
  8
0
  6
CONTINUOUS
 62
               7
100
AcDbLine
 10
-13.550000000000001
 20
2.8799999999999999
 30
0.0
 11
-9.4399999999999995
 21
2.8799999999999999
 31
0.0
  0
LINE
  5
76
100
AcDbEntity
  8
0
  6
CONTINUOUS
 62
               7
100
AcDbLine
 10
-13.550000000000001
 20
5.7699999999999996
 30
0.0
 11
-9.4399999999999995
 21
5.7699999999999996
 31
0.0
  0
LINE
  5
77
100
AcDbEntity
  8
0
  6
CONTINUOUS
 62
               7
100
AcDbLine
 10
-9.0
 20
5.0
 30
0.0
 11
-9.0
 21
-5.0
 31
0.0
  0
LINE
  5
78
100
AcDbEntity
  8
0
  6
CONTINUOUS
 62
               7
100
AcDbLine
 10
-14.0
 20
5.0
 30
0.0
 11
-14.0
 21
-5.0
 31
0.0
  0
LINE
  5
79
100
AcDbEntity
  8
0
  6
CONTINUOUS
 62
               7
100
AcDbLine
 10
-5.0
 20
3.0
 30
0.0
 11
-5.0
 21
-3.0
 31
0.0
  0
LINE
  5
7A
100
AcDbEntity
  8
0
  6
CONTINUOUS
 62
               7
100
AcDbLine
 10
-20.0
 20
-2.0
 30
0.0
 11
-19.0
 21
-3.0
 31
0.0
  0
LINE
  5
7B
100
AcDbEntity
  8
0
  6
CONTINUOUS
 62
               7
100
AcDbLine
 10
-20.0
 20
2.0
 30
0.0
 11
-19.0
 21
3.0
 31
0.0
  0
LINE
  5
7C
100
AcDbEntity
  8
0
  6
CONTINUOUS
 62
               7
100
AcDbLine
 10
-19.0
 20
3.0
 30
0.0
 11
-19.0
 21
-3.0
 31
0.0
  0
LINE
  5
7D
100
AcDbEntity
  8
0
  6
CONTINUOUS
 62
               7
100
AcDbLine
 10
-19.0
 20
-3.0
 30
0.0
 11
-14.0
 21
-3.0
 31
0.0
  0
LINE
  5
7E
100
AcDbEntity
  8
0
  6
CONTINUOUS
 62
               7
100
AcDbLine
 10
-19.0
 20
3.0
 30
0.0
 11
-14.0
 21
3.0
 31
0.0
  0
LINE
  5
7F
100
AcDbEntity
  8
0
  6
CONTINUOUS
 62
               7
100
AcDbLine
 10
-20.0
 20
2.0
 30
0.0
 11
-20.0
 21
-2.0
 31
0.0
  0
ENDBLK
  5
80
100
AcDbEntity
  8
0
100
AcDbBlockEnd
  0
BLOCK
  5
81
100
AcDbEntity
  8
0
100
AcDbBlockBegin
  2
MS_2
 70
               0
 10
0.0
 20
0.0
 30
0.0
  3
MS_2
  1

  0
CIRCLE
  5
82
100
AcDbEntity
  8
0
  6
CONTINUOUS
 62
               7
100
AcDbCircle
 10
0.0
 20
0.0
 30
0.0
 40
5.0
  0
CIRCLE
  5
83
100
AcDbEntity
  8
0
  6
CONTINUOUS
 62
               7
100
AcDbCircle
 10
11.0
 20
-8.0
 30
0.0
 40
2.75
  0
CIRCLE
  5
84
100
AcDbEntity
  8
0
  6
CONTINUOUS
 62
               7
100
AcDbCircle
 10
-11.0
 20
8.0
 30
0.0
 40
2.75
  0
CIRCLE
  5
85
100
AcDbEntity
  8
0
  6
CONTINUOUS
 62
               7
100
AcDbCircle
 10
11.0
 20
-8.0
 30
0.0
 40
3.25
  0
CIRCLE
  5
86
100
AcDbEntity
  8
0
  6
CONTINUOUS
 62
               7
100
AcDbCircle
 10
-11.0
 20
8.0
 30
0.0
 40
3.25
  0
CIRCLE
  5
87
100
AcDbEntity
  8
0
  6
CONTINUOUS
 62
               7
100
AcDbCircle
 10
11.0
 20
8.0
 30
0.0
 40
2.25
  0
CIRCLE
  5
88
100
AcDbEntity
  8
0
  6
CONTINUOUS
 62
               7
100
AcDbCircle
 10
-11.0
 20
-8.0
 30
0.0
 40
2.25
  0
ARC
  5
89
100
AcDbEntity
  8
0
  6
CONTINUOUS
 62
               7
100
AcDbCircle
 10
0.0205749133407913
 20
-0.0265784818478707
 30
0.0
 40
17.997646905395861
100
AcDbArc
 50
33.664360728424626
 51
41.93064850862207
  0
ARC
  5
8A
100
AcDbEntity
  8
0
  6
CONTINUOUS
 62
               7
100
AcDbCircle
 10
-0.0205749133407913
 20
0.0265784818478707
 30
0.0
 40
17.997646905395861
100
AcDbArc
 50
213.66436072842421
 51
221.93064850862166
  0
ARC
  5
8B
100
AcDbEntity
  8
0
  6
CONTINUOUS
 62
               7
100
AcDbCircle
 10
-0.0205749133407913
 20
-0.0265784818478707
 30
0.0
 40
17.997646905395861
100
AcDbArc
 50
138.06935149137755
 51
146.33563927157499
  0
ARC
  5
8C
100
AcDbEntity
  8
0
  6
CONTINUOUS
 62
               7
100
AcDbCircle
 10
0.0205749133407913
 20
0.0265784818478707
 30
0.0
 40
17.997646905395861
100
AcDbArc
 50
318.06935149137712
 51
326.33563927157456
  0
CIRCLE
  5
8D
100
AcDbEntity
  8
0
  6
CONTINUOUS
 62
               7
100
AcDbCircle
 10
0.0
 20
0.0
 30
0.0
 40
9.0
  0
CIRCLE
  5
8E
100
AcDbEntity
  8
0
  6
CONTINUOUS
 62
               7
100
AcDbCircle
 10
0.0
 20
0.0
 30
0.0
 40
8.0
  0
CIRCLE
  5
8F
100
AcDbEntity
  8
0
  6
CONTINUOUS
 62
               7
100
AcDbCircle
 10
0.0
 20
0.0
 30
0.0
 40
8.5
  0
CIRCLE
  5
90
100
AcDbEntity
  8
0
  6
CONTINUOUS
 62
               2
100
AcDbCircle
 10
0.0
 20
0.0
 30
0.0
 40
2.5
  0
CIRCLE
  5
91
100
AcDbEntity
  8
0
  6
CONTINUOUS
 62
               7
100
AcDbCircle
 10
0.0
 20
0.0
 30
0.0
 40
3.0
  0
LINE
  5
92
100
AcDbEntity
  8
0
  6
CENTER
 62
               2
100
AcDbLine
 10
7.0
 20
-8.0
 30
0.0
 11
15.0
 21
-8.0
 31
0.0
  0
LINE
  5
93
100
AcDbEntity
  8
0
  6
CENTER
 62
               2
100
AcDbLine
 10
11.0
 20
-4.0
 30
0.0
 11
11.0
 21
-12.0
 31
0.0
  0
LINE
  5
94
100
AcDbEntity
  8
0
  6
CENTER
 62
               2
100
AcDbLine
 10
-11.0
 20
12.0
 30
0.0
 11
-11.0
 21
4.0
 31
0.0
  0
LINE
  5
95
100
AcDbEntity
  8
0
  6
CENTER
 62
               2
100
AcDbLine
 10
-15.0
 20
8.0
 30
0.0
 11
-7.0
 21
8.0
 31
0.0
  0
LINE
  5
96
100
AcDbEntity
  8
0
  6
CENTER
 62
               2
100
AcDbLine
 10
11.0
 20
4.54
 30
0.0
 11
11.0
 21
11.25
 31
0.0
  0
LINE
  5
97
100
AcDbEntity
  8
0
  6
CENTER
 62
               2
100
AcDbLine
 10
7.2300000000000004
 20
8.0
 30
0.0
 11
14.67
 21
8.0
 31
0.0
  0
LINE
  5
98
100
AcDbEntity
  8
0
  6
CONTINUOUS
 62
               7
100
AcDbLine
 10
10.279999999999999
 20
-9.25
 30
0.0
 11
11.710000000000001
 21
-9.25
 31
0.0
  0
LINE
  5
99
100
AcDbEntity
  8
0
  6
CONTINUOUS
 62
               7
100
AcDbLine
 10
11.710000000000001
 20
-9.25
 30
0.0
 11
12.43
 21
-8.0
 31
0.0
  0
LINE
  5
9A
100
AcDbEntity
  8
0
  6
CONTINUOUS
 62
               7
100
AcDbLine
 10
12.43
 20
-8.0
 30
0.0
 11
11.710000000000001
 21
-6.75
 31
0.0
  0
LINE
  5
9B
100
AcDbEntity
  8
0
  6
CONTINUOUS
 62
               7
100
AcDbLine
 10
10.279999999999999
 20
-6.75
 30
0.0
 11
11.710000000000001
 21
-6.75
 31
0.0
  0
LINE
  5
9C
100
AcDbEntity
  8
0
  6
CONTINUOUS
 62
               7
100
AcDbLine
 10
9.5600000000000005
 20
-8.0
 30
0.0
 11
10.279999999999999
 21
-6.75
 31
0.0
  0
LINE
  5
9D
100
AcDbEntity
  8
0
  6
CONTINUOUS
 62
               7
100
AcDbLine
 10
10.279999999999999
 20
-9.25
 30
0.0
 11
9.5600000000000005
 21
-8.0
 31
0.0
  0
LINE
  5
9E
100
AcDbEntity
  8
0
  6
CONTINUOUS
 62
               7
100
AcDbLine
 10
-10.279999999999999
 20
6.75
 30
0.0
 11
-9.5600000000000005
 21
8.0
 31
0.0
  0
LINE
  5
9F
100
AcDbEntity
  8
0
  6
CONTINUOUS
 62
               7
100
AcDbLine
 10
-12.43
 20
8.0
 30
0.0
 11
-11.710000000000001
 21
9.25
 31
0.0
  0
LINE
  5
A0
100
AcDbEntity
  8
0
  6
CONTINUOUS
 62
               7
100
AcDbLine
 10
-9.5600000000000005
 20
8.0
 30
0.0
 11
-10.279999999999999
 21
9.25
 31
0.0
  0
LINE
  5
A1
100
AcDbEntity
  8
0
  6
CONTINUOUS
 62
               7
100
AcDbLine
 10
-11.710000000000001
 20
6.75
 30
0.0
 11
-12.43
 21
8.0
 31
0.0
  0
LINE
  5
A2
100
AcDbEntity
  8
0
  6
CONTINUOUS
 62
               7
100
AcDbLine
 10
-11.710000000000001
 20
9.25
 30
0.0
 11
-10.279999999999999
 21
9.25
 31
0.0
  0
LINE
  5
A3
100
AcDbEntity
  8
0
  6
CONTINUOUS
 62
               7
100
AcDbLine
 10
-11.710000000000001
 20
6.75
 30
0.0
 11
-10.279999999999999
 21
6.75
 31
0.0
  0
LINE
  5
A4
100
AcDbEntity
  8
0
  6
CENTER
 62
               2
100
AcDbLine
 10
-14.17
 20
-8.0
 30
0.0
 11
-7.7800000000000002
 21
-8.0
 31
0.0
  0
LINE
  5
A5
100
AcDbEntity
  8
0
  6
CENTER
 62
               2
100
AcDbLine
 10
-11.0
 20
-11.25
 30
0.0
 11
-11.0
 21
-4.0499999999999998
 31
0.0
  0
LINE
  5
A6
100
AcDbEntity
  8
0
  6
CONTINUOUS
 62
               7
100
AcDbLine
 10
15.0
 20
-9.9499999999999993
 30
0.0
 11
15.0
 21
9.9499999999999993
 31
0.0
  0
LINE
  5
A7
100
AcDbEntity
  8
0
  6
CONTINUOUS
 62
               7
100
AcDbLine
 10
-15.0
 20
-9.9499999999999993
 30
0.0
 11
-15.0
 21
9.9499999999999993
 31
0.0
  0
LINE
  5
A8
100
AcDbEntity
  8
0
  6
CONTINUOUS
 62
               7
100
AcDbLine
 10
-13.41
 20
12.0
 30
0.0
 11
13.41
 21
12.0
 31
0.0
  0
LINE
  5
A9
100
AcDbEntity
  8
0
  6
CONTINUOUS
 62
               7
100
AcDbLine
 10
-13.41
 20
-12.0
 30
0.0
 11
13.41
 21
-12.0
 31
0.0
  0
LINE
  5
AA
100
AcDbEntity
  8
0
  6
CONTINUOUS
 62
               7
100
AcDbLine
 10
5.0
 20
2.8799999999999999
 30
0.0
 11
0.0
 21
5.7699999999999996
 31
0.0
  0
LINE
  5
AB
100
AcDbEntity
  8
0
  6
CONTINUOUS
 62
               7
100
AcDbLine
 10
0.0
 20
-5.7699999999999996
 30
0.0
 11
-5.0
 21
-2.8799999999999999
 31
0.0
  0
LINE
  5
AC
100
AcDbEntity
  8
0
  6
CONTINUOUS
 62
               7
100
AcDbLine
 10
5.0
 20
-2.8799999999999999
 30
0.0
 11
5.0
 21
2.8799999999999999
 31
0.0
  0
LINE
  5
AD
100
AcDbEntity
  8
0
  6
CONTINUOUS
 62
               7
100
AcDbLine
 10
-5.0
 20
-2.8799999999999999
 30
0.0
 11
-5.0
 21
2.8799999999999999
 31
0.0
  0
LINE
  5
AE
100
AcDbEntity
  8
0
  6
CONTINUOUS
 62
               7
100
AcDbLine
 10
-5.0
 20
2.8799999999999999
 30
0.0
 11
0.0
 21
5.7699999999999996
 31
0.0
  0
LINE
  5
AF
100
AcDbEntity
  8
0
  6
CONTINUOUS
 62
               7
100
AcDbLine
 10
0.0
 20
-5.7699999999999996
 30
0.0
 11
5.0
 21
-2.8799999999999999
 31
0.0
  0
LINE
  5
B0
100
AcDbEntity
  8
0
  6
CENTER
 62
               2
100
AcDbLine
 10
-17.170000000000002
 20
0.0
 30
0.0
 11
16.949999999999999
 21
0.0
 31
0.0
  0
LINE
  5
B1
100
AcDbEntity
  8
0
  6
CENTER
 62
               2
100
AcDbLine
 10
0.0
 20
-13.85
 30
0.0
 11
0.0
 21
13.5
 31
0.0
  0
ENDBLK
  5
B2
100
AcDbEntity
  8
0
100
AcDbBlockEnd
  0
BLOCK
  5
B3
100
AcDbEntity
  8
0
100
AcDbBlockBegin
  2
MS_3
 70
               0
 10
0.0
 20
0.0
 30
0.0
  3
MS_3
  1

  0
CIRCLE
  5
B4
100
AcDbEntity
  8
0
  6
CONTINUOUS
 62
               7
100
AcDbCircle
 10
10.999984741210938
 20
-7.9999961853027344
 30
0.0
 40
2.25
  0
CIRCLE
  5
B5
100
AcDbEntity
  8
0
  6
CONTINUOUS
 62
               7
100
AcDbCircle
 10
-11.0
 20
8.0
 30
0.0
 40
2.25
  0
CIRCLE
  5
B6
100
AcDbEntity
  8
0
  6
CONTINUOUS
 62
               7
100
AcDbCircle
 10
0.0
 20
0.0
 30
0.0
 40
4.2779998779296875
  0
CIRCLE
  5
B7
100
AcDbEntity
  8
0
  6
CONTINUOUS
 62
               2
100
AcDbCircle
 10
0.0
 20
0.0
 30
0.0
 40
4.8639993667602539
  0
ARC
  5
B8
100
AcDbEntity
  8
0
  6
CONTINUOUS
 62
               7
100
AcDbCircle
 10
0.0
 20
0.0000038146913002
 30
0.0
 40
7.6001037767284503
100
AcDbArc
 50
22.921392410410373
 51
157.07860758958927
  0
ARC
  5
B9
100
AcDbEntity
  8
0
  6
CONTINUOUS
 62
               7
100
AcDbCircle
 10
0.0
 20
0.0000038147032324
 30
0.0
 40
7.6001067481356923
100
AcDbArc
 50
202.92144538547902
 51
337.07855461451976
  0
CIRCLE
  5
BA
100
AcDbEntity
  8
0
  6
CONTINUOUS
 62
               7
100
AcDbCircle
 10
-0.0000152587890625
 20
0.0000038146972656
 30
0.0
 40
8.6000003814697266
  0
ARC
  5
BB
100
AcDbEntity
  8
0
  6
CONTINUOUS
 62
               7
100
AcDbCircle
 10
0.0205672151425187
 20
-0.0265844526455545
 30
0.0
 40
17.997656622372595
100
AcDbArc
 50
33.664362963797416
 51
41.93064627324928
  0
ARC
  5
BC
100
AcDbEntity
  8
0
  6
CONTINUOUS
 62
               7
100
AcDbCircle
 10
-0.0205826115323866
 20
0.026572511055365
 30
0.0
 40
17.997637188427582
100
AcDbArc
 50
213.66435849305094
 51
221.93065074399493
  0
ARC
  5
BD
100
AcDbEntity
  8
0
  6
CONTINUOUS
 62
               7
100
AcDbCircle
 10
-0.0205862974240283
 20
-0.0265696522418466
 30
0.0
 40
17.997632535946327
100
AcDbArc
 50
138.06934818570741
 51
146.3356425772451
  0
ARC
  5
BE
100
AcDbEntity
  8
0
  6
CONTINUOUS
 62
               7
100
AcDbCircle
 10
0.0205635292558082
 20
0.0265873114552484
 30
0.0
 40
17.997661274847658
100
AcDbArc
 50
318.06935479704248
 51
326.3356359659092
  0
LINE
  5
BF
100
AcDbEntity
  8
0
  6
CENTER
 62
               2
100
AcDbLine
 10
7.0
 20
-8.0
 30
0.0
 11
15.0
 21
-8.0
 31
0.0
  0
LINE
  5
C0
100
AcDbEntity
  8
0
  6
CENTER
 62
               2
100
AcDbLine
 10
11.0
 20
-4.0
 30
0.0
 11
11.0
 21
-12.0
 31
0.0
  0
LINE
  5
C1
100
AcDbEntity
  8
0
  6
CENTER
 62
               2
100
AcDbLine
 10
-15.0
 20
8.0
 30
0.0
 11
-7.0
 21
8.0
 31
0.0
  0
LINE
  5
C2
100
AcDbEntity
  8
0
  6
CENTER
 62
               2
100
AcDbLine
 10
-11.0
 20
12.0
 30
0.0
 11
-11.0
 21
4.0
 31
0.0
  0
LINE
  5
C3
100
AcDbEntity
  8
0
  6
CONTINUOUS
 62
               7
100
AcDbLine
 10
-7.0
 20
-4.9900000000000002
 30
0.0
 11
-7.0
 21
4.9900000000000002
 31
0.0
  0
LINE
  5
C4
100
AcDbEntity
  8
0
  6
CONTINUOUS
 62
               7
100
AcDbLine
 10
7.0
 20
-4.9900000000000002
 30
0.0
 11
7.0
 21
4.9900000000000002
 31
0.0
  0
LINE
  5
C5
100
AcDbEntity
  8
0
  6
CONTINUOUS
 62
               7
100
AcDbLine
 10
15.0
 20
-9.9499999999999993
 30
0.0
 11
15.0
 21
9.9499999999999993
 31
0.0
  0
LINE
  5
C6
100
AcDbEntity
  8
0
  6
CONTINUOUS
 62
               7
100
AcDbLine
 10
-15.0
 20
-9.9499999999999993
 30
0.0
 11
-15.0
 21
9.9499999999999993
 31
0.0
  0
LINE
  5
C7
100
AcDbEntity
  8
0
  6
CONTINUOUS
 62
               7
100
AcDbLine
 10
-13.41
 20
12.0
 30
0.0
 11
13.41
 21
12.0
 31
0.0
  0
LINE
  5
C8
100
AcDbEntity
  8
0
  6
CONTINUOUS
 62
               7
100
AcDbLine
 10
-13.41
 20
-12.0
 30
0.0
 11
13.41
 21
-12.0
 31
0.0
  0
LINE
  5
C9
100
AcDbEntity
  8
0
  6
CENTER
 62
               2
100
AcDbLine
 10
-17.170000000000002
 20
0.0
 30
0.0
 11
16.949999999999999
 21
0.0
 31
0.0
  0
LINE
  5
CA
100
AcDbEntity
  8
0
  6
CENTER
 62
               2
100
AcDbLine
 10
0.0
 20
-13.85
 30
0.0
 11
0.0
 21
13.5
 31
0.0
  0
ENDBLK
  5
CB
100
AcDbEntity
  8
0
100
AcDbBlockEnd
  0
BLOCK
  5
CC
100
AcDbEntity
  8
0
100
AcDbBlockBegin
  2
MS_4
 70
               0
 10
0.0
 20
0.0
 30
0.0
  3
MS_4
  1

  0
ARC
  5
CD
100
AcDbEntity
  8
0
  6
CONTINUOUS
 62
               7
100
AcDbCircle
 10
-16.220932006835937
 20
-2.5
 30
0.0
 40
7.2271044603860588
100
AcDbArc
 50
339.76203368910518
 51
20.237966310893995
  0
ARC
  5
CE
100
AcDbEntity
  8
0
  6
CONTINUOUS
 62
               7
100
AcDbCircle
 10
-6.7790679931640634
 20
-2.5
 30
0.0
 40
7.2177226492291418
100
AcDbArc
 50
159.73457384066057
 51
200.2654261593386
  0
ARC
  5
CF
100
AcDbEntity
  8
0
  6
CONTINUOUS
 62
               7
100
AcDbCircle
 10
-16.220932006835937
 20
2.5
 30
0.0
 40
7.2271044603860588
100
AcDbArc
 50
339.76203368910518
 51
20.237966310893995
  0
ARC
  5
D0
100
AcDbEntity
  8
0
  6
CONTINUOUS
 62
               7
100
AcDbCircle
 10
-6.7790679931640634
 20
2.5
 30
0.0
 40
7.2177226492291418
100
AcDbArc
 50
159.73457384066057
 51
200.2654261593386
  0
CIRCLE
  5
D1
100
AcDbEntity
  8
0
  6
CONTINUOUS
 62
               7
100
AcDbCircle
 10
27.0
 20
0.0
 30
0.0
 40
4.2779998779296875
  0
CIRCLE
  5
D2
100
AcDbEntity
  8
0
  6
CONTINUOUS
 62
               2
100
AcDbCircle
 10
27.0
 20
0.0
 30
0.0
 40
4.8639993667602539
  0
CIRCLE
  5
D3
100
AcDbEntity
  8
0
  6
CONTINUOUS
 62
               7
100
AcDbCircle
 10
14.0
 20
0.0
 30
0.0
 40
2.0
  0
CIRCLE
  5
D4
100
AcDbEntity
  8
0
  6
CONTINUOUS
 62
               2
100
AcDbCircle
 10
14.0
 20
0.0
 30
0.0
 40
2.5
  0
LINE
  5
D5
100
AcDbEntity
  8
0
  6
DASHED
 62
               2
100
AcDbLine
 10
105.0
 20
4.8600000000000003
 30
0.0
 11
98.799999999999997
 21
4.6699999999999999
 31
0.0
  0
LINE
  5
D6
100
AcDbEntity
  8
0
  6
DASHED
 62
               2
100
AcDbLine
 10
105.0
 20
4.2699999999999996
 30
0.0
 11
98.799999999999997
 21
4.0800000000000001
 31
0.0
  0
LINE
  5
D7
100
AcDbEntity
  8
0
  6
DASHED
 62
               2
100
AcDbLine
 10
105.0
 20
-4.2699999999999996
 30
0.0
 11
98.799999999999997
 21
-4.0800000000000001
 31
0.0
  0
LINE
  5
D8
100
AcDbEntity
  8
0
  6
DASHED
 62
               2
100
AcDbLine
 10
105.0
 20
-4.8600000000000003
 30
0.0
 11
98.799999999999997
 21
-4.6699999999999999
 31
0.0
  0
LINE
  5
D9
100
AcDbEntity
  8
0
  6
CONTINUOUS
 62
               7
100
AcDbLine
 10
-14.0
 20
5.0
 30
0.0
 11
-9.0
 21
5.0
 31
0.0
  0
LINE
  5
DA
100
AcDbEntity
  8
0
  6
CONTINUOUS
 62
               7
100
AcDbLine
 10
-14.0
 20
-5.0
 30
0.0
 11
-9.0
 21
-5.0
 31
0.0
  0
LINE
  5
DB
100
AcDbEntity
  8
0
  6
CONTINUOUS
 62
               7
100
AcDbLine
 10
-4.0
 20
3.0
 30
0.0
 11
-4.0
 21
-3.0
 31
0.0
  0
LINE
  5
DC
100
AcDbEntity
  8
0
  6
CENTER
 62
               2
100
AcDbLine
 10
14.0
 20
4.0899999999999999
 30
0.0
 11
14.0
 21
-4.4000000000000004
 31
0.0
  0
LINE
  5
DD
100
AcDbEntity
  8
0
  6
CONTINUOUS
 62
               7
100
AcDbLine
 10
95.0
 20
8.5999999999999996
 30
0.0
 11
95.0
 21
-8.5999999999999996
 31
0.0
  0
LINE
  5
DE
100
AcDbEntity
  8
0
  6
CONTINUOUS
 62
               7
100
AcDbLine
 10
93.0
 20
8.5999999999999996
 30
0.0
 11
94.0
 21
8.5999999999999996
 31
0.0
  0
LINE
  5
DF
100
AcDbEntity
  8
0
  6
CONTINUOUS
 62
               7
100
AcDbLine
 10
93.0
 20
-8.5999999999999996
 30
0.0
 11
94.0
 21
-8.5999999999999996
 31
0.0
  0
LINE
  5
E0
100
AcDbEntity
  8
0
  6
CONTINUOUS
 62
               7
100
AcDbLine
 10
92.0
 20
8.5999999999999996
 30
0.0
 11
92.0
 21
-8.5999999999999996
 31
0.0
  0
LINE
  5
E1
100
AcDbEntity
  8
0
  6
CENTER
 62
               2
100
AcDbLine
 10
-22.510000000000002
 20
0.0
 30
0.0
 11
108.15000000000001
 21
0.0
 31
0.0
  0
LINE
  5
E2
100
AcDbEntity
  8
0
  6
CONTINUOUS
 62
               7
100
AcDbLine
 10
9.0
 20
15.0
 30
0.0
 11
9.0
 21
-15.0
 31
0.0
  0
LINE
  5
E3
100
AcDbEntity
  8
0
  6
CONTINUOUS
 62
               7
100
AcDbLine
 10
100.0
 20
-7.0
 30
0.0
 11
100.0
 21
-8.5999999999999996
 31
0.0
  0
LINE
  5
E4
100
AcDbEntity
  8
0
  6
CONTINUOUS
 62
               7
100
AcDbLine
 10
95.0
 20
-8.5999999999999996
 30
0.0
 11
100.0
 21
-8.5999999999999996
 31
0.0
  0
LINE
  5
E5
100
AcDbEntity
  8
0
  6
CONTINUOUS
 62
               7
100
AcDbLine
 10
95.0
 20
8.5999999999999996
 30
0.0
 11
100.0
 21
8.5999999999999996
 31
0.0
  0
LINE
  5
E6
100
AcDbEntity
  8
0
  6
CONTINUOUS
 62
               7
100
AcDbLine
 10
104.5
 20
7.0
 30
0.0
 11
104.5
 21
-7.0
 31
0.0
  0
LINE
  5
E7
100
AcDbEntity
  8
0
  6
CONTINUOUS
 62
               7
100
AcDbLine
 10
100.0
 20
-7.0
 30
0.0
 11
105.0
 21
-7.0
 31
0.0
  0
LINE
  5
E8
100
AcDbEntity
  8
0
  6
CONTINUOUS
 62
               7
100
AcDbLine
 10
100.0
 20
7.0
 30
0.0
 11
105.0
 21
7.0
 31
0.0
  0
LINE
  5
E9
100
AcDbEntity
  8
0
  6
CONTINUOUS
 62
               7
100
AcDbLine
 10
100.0
 20
8.5999999999999996
 30
0.0
 11
100.0
 21
7.0
 31
0.0
  0
LINE
  5
EA
100
AcDbEntity
  8
0
  6
CONTINUOUS
 62
               7
100
AcDbLine
 10
105.0
 20
7.0
 30
0.0
 11
105.0
 21
-7.0
 31
0.0
  0
LINE
  5
EB
100
AcDbEntity
  8
0
  6
CONTINUOUS
 62
               7
100
AcDbLine
 10
35.0
 20
-8.5999999999999996
 30
0.0
 11
95.0
 21
-8.5999999999999996
 31
0.0
  0
LINE
  5
EC
100
AcDbEntity
  8
0
  6
CONTINUOUS
 62
               7
100
AcDbLine
 10
35.0
 20
8.5999999999999996
 30
0.0
 11
95.0
 21
8.5999999999999996
 31
0.0
  0
LINE
  5
ED
100
AcDbEntity
  8
0
  6
CONTINUOUS
 62
               7
100
AcDbLine
 10
39.0
 20
8.5999999999999996
 30
0.0
 11
39.0
 21
-8.5999999999999996
 31
0.0
  0
LINE
  5
EE
100
AcDbEntity
  8
0
  6
CONTINUOUS
 62
               7
100
AcDbLine
 10
36.0
 20
8.5999999999999996
 30
0.0
 11
36.0
 21
-8.5999999999999996
 31
0.0
  0
LINE
  5
EF
100
AcDbEntity
  8
0
  6
CONTINUOUS
 62
               7
100
AcDbLine
 10
9.0
 20
-13.41
 30
0.0
 11
35.0
 21
-13.41
 31
0.0
  0
LINE
  5
F0
100
AcDbEntity
  8
0
  6
CONTINUOUS
 62
               7
100
AcDbLine
 10
9.0
 20
13.41
 30
0.0
 11
35.0
 21
13.41
 31
0.0
  0
LINE
  5
F1
100
AcDbEntity
  8
0
  6
CONTINUOUS
 62
               7
100
AcDbLine
 10
9.0
 20
-15.0
 30
0.0
 11
35.0
 21
-15.0
 31
0.0
  0
LINE
  5
F2
100
AcDbEntity
  8
0
  6
CONTINUOUS
 62
               7
100
AcDbLine
 10
9.0
 20
15.0
 30
0.0
 11
35.0
 21
15.0
 31
0.0
  0
LINE
  5
F3
100
AcDbEntity
  8
0
  6
CENTER
 62
               2
100
AcDbLine
 10
27.0
 20
7.25
 30
0.0
 11
27.0
 21
-7.3399999999999999
 31
0.0
  0
LINE
  5
F4
100
AcDbEntity
  8
0
  6
CONTINUOUS
 62
               7
100
AcDbLine
 10
35.0
 20
15.0
 30
0.0
 11
35.0
 21
-15.0
 31
0.0
  0
LINE
  5
F5
100
AcDbEntity
  8
0
  6
CONTINUOUS
 62
               7
100
AcDbLine
 10
6.0
 20
-9.0
 30
0.0
 11
9.0
 21
-9.0
 31
0.0
  0
LINE
  5
F6
100
AcDbEntity
  8
0
  6
CONTINUOUS
 62
               7
100
AcDbLine
 10
6.0
 20
9.0
 30
0.0
 11
9.0
 21
9.0
 31
0.0
  0
LINE
  5
F7
100
AcDbEntity
  8
0
  6
CONTINUOUS
 62
               7
100
AcDbLine
 10
0.5
 20
-8.5
 30
0.0
 11
5.5
 21
-8.5
 31
0.0
  0
LINE
  5
F8
100
AcDbEntity
  8
0
  6
CONTINUOUS
 62
               7
100
AcDbLine
 10
5.5
 20
-8.5
 30
0.0
 11
6.0
 21
-9.0
 31
0.0
  0
LINE
  5
F9
100
AcDbEntity
  8
0
  6
CONTINUOUS
 62
               7
100
AcDbLine
 10
5.5
 20
8.5
 30
0.0
 11
6.0
 21
9.0
 31
0.0
  0
LINE
  5
FA
100
AcDbEntity
  8
0
  6
CONTINUOUS
 62
               7
100
AcDbLine
 10
5.5
 20
8.5
 30
0.0
 11
5.5
 21
-8.5
 31
0.0
  0
LINE
  5
FB
100
AcDbEntity
  8
0
  6
CONTINUOUS
 62
               7
100
AcDbLine
 10
6.0
 20
9.0
 30
0.0
 11
6.0
 21
-9.0
 31
0.0
  0
LINE
  5
FC
100
AcDbEntity
  8
0
  6
CONTINUOUS
 62
               7
100
AcDbLine
 10
19.0
 20
15.0
 30
0.0
 11
19.0
 21
-15.0
 31
0.0
  0
LINE
  5
FD
100
AcDbEntity
  8
0
  6
CONTINUOUS
 62
               2
100
AcDbLine
 10
-9.0
 20
-2.4500000000000002
 30
0.0
 11
-5.0
 21
-2.4500000000000002
 31
0.0
  0
LINE
  5
FE
100
AcDbEntity
  8
0
  6
CONTINUOUS
 62
               2
100
AcDbLine
 10
-9.0
 20
2.4500000000000002
 30
0.0
 11
-5.0
 21
2.4500000000000002
 31
0.0
  0
LINE
  5
FF
100
AcDbEntity
  8
0
  6
CONTINUOUS
 62
               2
100
AcDbLine
 10
-5.0
 20
-2.4500000000000002
 30
0.0
 11
-4.0599999999999996
 21
-3.0
 31
0.0
  0
LINE
  5
100
100
AcDbEntity
  8
0
  6
CONTINUOUS
 62
               2
100
AcDbLine
 10
-5.0
 20
2.4500000000000002
 30
0.0
 11
-4.0599999999999996
 21
3.0
 31
0.0
  0
LINE
  5
101
100
AcDbEntity
  8
0
  6
CONTINUOUS
 62
               2
100
AcDbLine
 10
-19.539999999999999
 20
-2.4500000000000002
 30
0.0
 11
-14.0
 21
-2.4500000000000002
 31
0.0
  0
LINE
  5
102
100
AcDbEntity
  8
0
  6
CONTINUOUS
 62
               2
100
AcDbLine
 10
-19.539999999999999
 20
2.4500000000000002
 30
0.0
 11
-14.0
 21
2.4500000000000002
 31
0.0
  0
LINE
  5
103
100
AcDbEntity
  8
0
  6
CONTINUOUS
 62
               7
100
AcDbLine
 10
0.0
 20
-8.0
 30
0.0
 11
0.5
 21
-8.5
 31
0.0
  0
LINE
  5
104
100
AcDbEntity
  8
0
  6
CONTINUOUS
 62
               7
100
AcDbLine
 10
0.0
 20
8.0
 30
0.0
 11
0.5
 21
8.5
 31
0.0
  0
LINE
  5
105
100
AcDbEntity
  8
0
  6
CONTINUOUS
 62
               7
100
AcDbLine
 10
0.5
 20
8.5
 30
0.0
 11
5.5
 21
8.5
 31
0.0
  0
LINE
  5
106
100
AcDbEntity
  8
0
  6
CONTINUOUS
 62
               7
100
AcDbLine
 10
0.5
 20
8.5
 30
0.0
 11
0.5
 21
-8.5
 31
0.0
  0
LINE
  5
107
100
AcDbEntity
  8
0
  6
CONTINUOUS
 62
               7
100
AcDbLine
 10
0.0
 20
8.0
 30
0.0
 11
0.0
 21
-8.0
 31
0.0
  0
LINE
  5
108
100
AcDbEntity
  8
0
  6
CONTINUOUS
 62
               7
100
AcDbLine
 10
-9.0
 20
-3.0
 30
0.0
 11
0.0
 21
-3.0
 31
0.0
  0
LINE
  5
109
100
AcDbEntity
  8
0
  6
CONTINUOUS
 62
               7
100
AcDbLine
 10
-9.0
 20
3.0
 30
0.0
 11
0.0
 21
3.0
 31
0.0
  0
LINE
  5
10A
100
AcDbEntity
  8
0
  6
CONTINUOUS
 62
               7
100
AcDbLine
 10
-13.550000000000001
 20
0.0
 30
0.0
 11
-9.4399999999999995
 21
0.0
 31
0.0
  0
LINE
  5
10B
100
AcDbEntity
  8
0
  6
CONTINUOUS
 62
               7
100
AcDbLine
 10
-9.0
 20
5.0
 30
0.0
 11
-9.0
 21
-5.0
 31
0.0
  0
LINE
  5
10C
100
AcDbEntity
  8
0
  6
CONTINUOUS
 62
               7
100
AcDbLine
 10
-14.0
 20
5.0
 30
0.0
 11
-14.0
 21
-5.0
 31
0.0
  0
LINE
  5
10D
100
AcDbEntity
  8
0
  6
CONTINUOUS
 62
               7
100
AcDbLine
 10
-5.0
 20
3.0
 30
0.0
 11
-5.0
 21
-3.0
 31
0.0
  0
LINE
  5
10E
100
AcDbEntity
  8
0
  6
CONTINUOUS
 62
               7
100
AcDbLine
 10
-20.0
 20
-2.0
 30
0.0
 11
-19.0
 21
-3.0
 31
0.0
  0
LINE
  5
10F
100
AcDbEntity
  8
0
  6
CONTINUOUS
 62
               7
100
AcDbLine
 10
-20.0
 20
2.0
 30
0.0
 11
-19.0
 21
3.0
 31
0.0
  0
LINE
  5
110
100
AcDbEntity
  8
0
  6
CONTINUOUS
 62
               7
100
AcDbLine
 10
-19.0
 20
3.0
 30
0.0
 11
-19.0
 21
-3.0
 31
0.0
  0
LINE
  5
111
100
AcDbEntity
  8
0
  6
CONTINUOUS
 62
               7
100
AcDbLine
 10
-19.0
 20
-3.0
 30
0.0
 11
-14.0
 21
-3.0
 31
0.0
  0
LINE
  5
112
100
AcDbEntity
  8
0
  6
CONTINUOUS
 62
               7
100
AcDbLine
 10
-19.0
 20
3.0
 30
0.0
 11
-14.0
 21
3.0
 31
0.0
  0
LINE
  5
113
100
AcDbEntity
  8
0
  6
CONTINUOUS
 62
               7
100
AcDbLine
 10
-20.0
 20
2.0
 30
0.0
 11
-20.0
 21
-2.0
 31
0.0
  0
ENDBLK
  5
114
100
AcDbEntity
  8
0
100
AcDbBlockEnd
  0
ENDSEC
  0
SECTION
  2
ENTITIES
  0
INSERT
  5
115
100
AcDbEntity
  8
0
100
AcDbBlockReference
  2
MS_4
 10
-52.75
 20
56.097930908203125
 30
0.0
  0
INSERT
  5
116
100
AcDbEntity
  8
0
100
AcDbBlockReference
  2
MS_3
 10
127.25
 20
-46.0
 30
0.0
  0
INSERT
  5
117
100
AcDbEntity
  8
0
100
AcDbBlockReference
  2
MS_2
 10
-137.74998474121094
 20
-46.0
 30
0.0
  0
INSERT
  5
118
100
AcDbEntity
  8
0
100
AcDbBlockReference
  2
MS_1
 10
-52.75
 20
-46.0
 30
0.0
  0
MTEXT
  5
119
100
AcDbEntity
  8
0
  6
CONTINUOUS
 62
               7
100
AcDbMText
 10
-185.69863013927642
 20
107.60000610351562
 30
0.0
 40
4.5
 41
0.0
 71
               4
 72
               1
  1
\W1.068;\A1;MODEL:CS-DAB16*ST(25)-HL-4
  7
MX_NOTE_STANDARD
  0
MTEXT
  5
11A
100
AcDbEntity
  8
0
  6
CONTINUOUS
 62
               7
100
AcDbMText
 10
-186.94642857356681
 20
125.10000610351562
 30
0.0
 40
4.5
 41
0.0
 71
               4
 72
               1
  1
\W1.071;\A1;CS-SLIM CYLINDER
  7
MX_NOTE_STANDARD
  0
MTEXT
  5
11B
100
AcDbEntity
  8
0
  6
CONTINUOUS
 62
               7
100
AcDbMText
 10
115.5267259825148
 20
-126.0
 30
0.0
 40
6.3000001907348633
 41
0.0
 71
               4
 72
               1
  1
\W1.121;\A1;KOGANEI CORP.
  7
MX_NOTE_STANDARD
  0
MTEXT
  5
11C
100
AcDbEntity
  8
0
  6
CONTINUOUS
 62
               7
100
AcDbMText
 10
135.28361320576767
 20
125.10000610351562
 30
0.0
 40
4.5
 41
0.0
 71
               4
 72
               1
  1
\W1.311;\A1;Ver. 1.0
  7
MX_NOTE_STANDARD
  0
LINE
  5
11D
100
AcDbEntity
  8
0
  6
CONTINUOUS
 62
               7
100
AcDbLine
 10
-109.25
 20
132.59999999999999
 30
0.0
 11
-109.25
 21
117.59999999999999
 31
0.0
  0
LINE
  5
11E
100
AcDbEntity
  8
0
  6
CONTINUOUS
 62
               7
100
AcDbLine
 10
-194.25
 20
117.59999999999999
 30
0.0
 11
-109.25
 21
117.59999999999999
 31
0.0
  0
LINE
  5
11F
100
AcDbEntity
  8
0
  6
CONTINUOUS
 62
               7
100
AcDbLine
 10
109.8
 20
117.59999999999999
 30
0.0
 11
194.80000000000001
 21
117.59999999999999
 31
0.0
  0
LINE
  5
120
100
AcDbEntity
  8
0
  6
CONTINUOUS
 62
               7
100
AcDbLine
 10
109.8
 20
132.59999999999999
 30
0.0
 11
109.8
 21
117.59999999999999
 31
0.0
  0
LINE
  5
121
100
AcDbEntity
  8
0
  6
CONTINUOUS
 62
               7
100
AcDbLine
 10
109.8
 20
-118.5
 30
0.0
 11
194.80000000000001
 21
-118.5
 31
0.0
  0
LINE
  5
122
100
AcDbEntity
  8
0
  6
CONTINUOUS
 62
               7
100
AcDbLine
 10
109.8
 20
-118.5
 30
0.0
 11
109.8
 21
-133.5
 31
0.0
  0
LINE
  5
123
100
AcDbEntity
  8
0
  6
CONTINUOUS
 62
               7
100
AcDbLine
 10
-194.25
 20
-133.5
 30
0.0
 11
194.80000000000001
 21
-133.5
 31
0.0
  0
LINE
  5
124
100
AcDbEntity
  8
0
  6
CONTINUOUS
 62
               7
100
AcDbLine
 10
-194.25
 20
132.59999999999999
 30
0.0
 11
-194.25
 21
-133.5
 31
0.0
  0
LINE
  5
125
100
AcDbEntity
  8
0
  6
CONTINUOUS
 62
               7
100
AcDbLine
 10
194.80000000000001
 20
132.59999999999999
 30
0.0
 11
194.80000000000001
 21
-133.5
 31
0.0
  0
LINE
  5
126
100
AcDbEntity
  8
0
  6
CONTINUOUS
 62
               7
100
AcDbLine
 10
-194.25
 20
132.59999999999999
 30
0.0
 11
194.80000000000001
 21
132.59999999999999
 31
0.0
  0
ENDSEC
  0
SECTION
  2
OBJECTS
  0
DICTIONARY
  5
19
100
AcDbDictionary
  3
ACAD_GROUP
350
1A
  3
ACAD_MLINESTYLE
350
1B
  0
DICTIONARY
  5
1A
102
{ACAD_REACTORS
330
19
102
}
100
AcDbDictionary
  0
DICTIONARY
  5
1B
102
{ACAD_REACTORS
330
19
102
}
100
AcDbDictionary
  3
STANDARD
350
1C
  0
MLINESTYLE
  5
1C
102
{ACAD_REACTORS
330
1B
102
}
100
AcDbMlineStyle
  2
Standard
 70
               0
  3

 62
               0
 51
90.0
 52
90.0
 71
               2
 49
0.5
 62
             256
  6
ByLayer
 49
-0.5
 62
             256
  6
ByLayer
  0
ENDSEC
  0
EOF
