  0
SECTION
  2
HEADER
  9
$ACADVER
  1
AC1012
  9
$DWGCODEPAGE
  3
dos932
  9
$INSBASE
 10
0.0
 20
0.0
 30
0.0
  9
$EXTMIN
 10
-281.25
 20
-195.0
 30
0.0
  9
$EXTMAX
 10
285.59998798370361
 20
195.5
 30
0.0
  9
$LIMMIN
 10
-281.25
 20
-195.0
  9
$LIMMAX
 10
285.59998798370361
 20
195.5
  9
$ORTHOMODE
 70
               0
  9
$REGENMODE
 70
               1
  9
$FILLMODE
 70
               1
  9
$QTEXTMODE
 70
               0
  9
$MIRRTEXT
 70
               1
  9
$DRAGMODE
 70
               2
  9
$LTSCALE
 40
1.0
  9
$OSMODE
 70
               0
  9
$ATTMODE
 70
               1
  9
$TEXTSIZE
 40
3.2000000476837158
  9
$TRACEWID
 40
0.05
  9
$TEXTSTYLE
  7
MX_NOTE_STANDARD
  9
$CLAYER
  8
0
  9
$CELTYPE
  6
CONTINUOUS
  9
$CECOLOR
 62
             256
  9
$CELTSCALE
 40
1.0
  9
$DELOBJ
 70
               1
  9
$DISPSILH
 70
               0
  9
$DIMSCALE
 40
1.0
  9
$DIMASZ
 40
2.5
  9
$DIMEXO
 40
1.5
  9
$DIMDLI
 40
3.75
  9
$DIMRND
 40
0.0
  9
$DIMDLE
 40
0.0
  9
$DIMEXE
 40
1.5
  9
$DIMTP
 40
0.0
  9
$DIMTM
 40
0.0
  9
$DIMTXT
 40
3.2000000476837158
  9
$DIMCEN
 40
2.5
  9
$DIMTSZ
 40
0.0
  9
$DIMTOL
 70
               0
  9
$DIMLIM
 70
               0
  9
$DIMTIH
 70
               0
  9
$DIMTOH
 70
               0
  9
$DIMSE1
 70
               0
  9
$DIMSE2
 70
               0
  9
$DIMTAD
 70
               1
  9
$DIMZIN
 70
               8
  9
$DIMBLK
  1

  9
$DIMASO
 70
               1
  9
$DIMSHO
 70
               1
  9
$DIMPOST
  1

  9
$DIMAPOST
  1

  9
$DIMALT
 70
               0
  9
$DIMALTD
 70
               4
  9
$DIMALTF
 40
0.0394
  9
$DIMLFAC
 40
1.0
  9
$DIMTOFL
 70
               1
  9
$DIMTVP
 40
0.0
  9
$DIMTIX
 70
               0
  9
$DIMSOXD
 70
               0
  9
$DIMSAH
 70
               0
  9
$DIMBLK1
  1

  9
$DIMBLK2
  1

  9
$DIMSTYLE
  2
MXDIMSTYLE
  9
$DIMCLRD
 70
               0
  9
$DIMCLRE
 70
               0
  9
$DIMCLRT
 70
               0
  9
$DIMTFAC
 40
1.0
  9
$DIMGAP
 40
1.0
  9
$DIMJUST
 70
               0
  9
$DIMSD1
 70
               0
  9
$DIMSD2
 70
               0
  9
$DIMTOLJ
 70
               1
  9
$DIMTZIN
 70
               0
  9
$DIMALTZ
 70
               0
  9
$DIMALTTZ
 70
               0
  9
$DIMFIT
 70
               3
  9
$DIMUPT
 70
               1
  9
$DIMUNIT
 70
               2
  9
$DIMDEC
 70
               4
  9
$DIMTDEC
 70
               4
  9
$DIMALTU
 70
               8
  9
$DIMALTTD
 70
               4
  9
$DIMTXSTY
  7
MX_NOTE_STANDARD
  9
$DIMAUNIT
 70
               0
  9
$LUNITS
 70
               2
  9
$LUPREC
 70
               4
  9
$SKETCHINC
 40
0.1
  9
$FILLETRAD
 40
0.0
  9
$AUNITS
 70
               0
  9
$AUPREC
 70
               0
  9
$MENU
  1
acad
  9
$ELEVATION
 40
0.0
  9
$PELEVATION
 40
0.0
  9
$THICKNESS
 40
0.0
  9
$LIMCHECK
 70
               0
  9
$BLIPMODE
 70
               1
  9
$CHAMFERA
 40
0.0
  9
$CHAMFERB
 40
0.0
  9
$CHAMFERC
 40
0.0
  9
$CHAMFERD
 40
0.0
  9
$SKPOLY
 70
               0
  9
$TDCREATE
 40
2452220.696886574
  9
$TDUPDATE
 40
2452220.696886574
  9
$TDINDWG
 40
0.0000000000
  9
$TDUSRTIMER
 40
0.0000000000
  9
$USRTIMER
 70
               1
  9
$ANGBASE
 50
0.0
  9
$ANGDIR
 70
               0
  9
$PDMODE
 70
               0
  9
$PDSIZE
 40
0.0
  9
$PLINEWID
 40
0.0
  9
$COORDS
 70
               1
  9
$SPLFRAME
 70
               0
  9
$SPLINETYPE
 70
               6
  9
$SPLINESEGS
 70
               8
  9
$ATTDIA
 70
               0
  9
$ATTREQ
 70
               1
  9
$HANDLING
 70
               1
  9
$HANDSEED
  5
1EB
  9
$SURFTAB1
 70
               6
  9
$SURFTAB2
 70
               6
  9
$SURFTYPE
 70
               6
  9
$SURFU
 70
               6
  9
$SURFV
 70
               6
  9
$UCSNAME
  2

  9
$UCSORG
 10
0.0
 20
0.0
 30
0.0
  9
$UCSXDIR
 10
1.0
 20
0.0
 30
0.0
  9
$UCSYDIR
 10
0.0
 20
1.0
 30
0.0
  9
$PUCSNAME
  2

  9
$PUCSORG
 10
0.0
 20
0.0
 30
0.0
  9
$PUCSXDIR
 10
1.0
 20
0.0
 30
0.0
  9
$PUCSYDIR
 10
0.0
 20
1.0
 30
0.0
  9
$USERI1
 70
               0
  9
$USERI2
 70
               0
  9
$USERI3
 70
               0
  9
$USERI4
 70
               0
  9
$USERI5
 70
               0
  9
$USERR1
 40
0.0
  9
$USERR2
 40
0.0
  9
$USERR3
 40
0.0
  9
$USERR4
 40
0.0
  9
$USERR5
 40
0.0
  9
$WORLDVIEW
 70
               1
  9
$SHADEDGE
 70
               3
  9
$SHADEDIF
 70
              70
  9
$TILEMODE
 70
               1
  9
$MAXACTVP
 70
              16
  9
$PINSBASE
 10
0.0
 20
0.0
 30
0.0
  9
$PLIMCHECK
 70
               0
  9
$PEXTMIN
 10
1.0000000000000000E+20
 20
1.0000000000000000E+20
 30
1.0000000000000000E+20
  9
$PEXTMAX
 10
-1.0000000000000000E+20
 20
-1.0000000000000000E+20
 30
-1.0000000000000000E+20
  9
$PLIMMIN
 10
0.0
 20
0.0
  9
$PLIMMAX
 10
12.0
 20
9.0
  9
$UNITMODE
 70
               0
  9
$VISRETAIN
 70
               0
  9
$PLINEGEN
 70
               1
  9
$PSLTSCALE
 70
               0
  9
$TREEDEPTH
 70
            3020
  9
$PICKSTYLE
 70
               1
  9
$CMLSTYLE
  2
Standard
  9
$CMLJUST
 70
               0
  9
$CMLSCALE
 40
1.0
  9
$SAVEIMAGES
 70
               0
  0
ENDSEC
  0
SECTION
  2
CLASSES
  0
CLASS
  1
LWPOLYLINE
  2
AcDbPolyline
  3
"AutoCAD"
 90
        0
280
               0
281
               1
  0
CLASS
  1
IMAGE
  2
AcDbRasterImage
  3
ISM
 90
      127
280
               0
281
               1
  0
CLASS
  1
OLE2FRAME
  2
AcDbOle2Frame
  3
""
 90
        0
280
               0
281
               1
  0
CLASS
  1
HATCH
  2
AcDbHatch
  3
"ACAD_SEDONA"
 90
        0
280
               0
281
               1
  0
CLASS
  1
DICTIONARYVAR
  2
AcDbDictionaryVar
  3
"AutoCAD"
 90
        0
280
               0
281
               0
  0
CLASS
  1
RASTERVARIABLES
  2
AcDbRasterVariables
  3
ISM
 90
        0
280
               0
281
               0
  0
CLASS
  1
IMAGEDEF
  2
AcDbRasterImageDef
  3
ISM
 90
        0
280
               0
281
               0
  0
CLASS
  1
IMAGEDEF_REACTOR
  2
AcDbRasterImageDefReactor
  3
ISM
 90
        1
280
               0
281
               0
  0
CLASS
  1
IDBUFFER
  2
AcDbIdBuffer
  3
"Acad"
 90
        0
280
               0
281
               0
  0
CLASS
  1
SPATIAL_FILTER
  2
AcDbSpatialFilter
  3
"Acad"
 90
        0
280
               0
281
               0
  0
CLASS
  1
XRECORD
  2
AcDbXrecord
  3
"<Built In>"
 90
        0
280
               0
281
               0
  0
CLASS
  1
SORTENTSTABLE
  2
AcDbSortentsTable
  3
"AutoCAD"
 90
        0
280
               0
281
               0
  0
CLASS
  1
LAYER_INDEX
  2
AcDbLayerIndex
  3
"Acad"
 90
        0
280
               0
281
               0
  0
CLASS
  1
SPATIAL_INDEX
  2
AcDbSpatialIndex
  3
"Acad"
 90
        0
280
               0
281
               0
  0
CLASS
  1
OBJECT_PTR
  2
CAseDLPNTableRecord
  3
"ASE-LPNTableRecord"
 90
        1
280
               0
281
               0
  0
CLASS
  1
LAYOUT
  2
AcDbLayout
  3
"AutoCAD 2000"
 90
        1
280
               0
281
               0
  0
CLASS
  1
PLOTSETTINGS
  2
AcDbPlotSettings
  3
"AutoCAD 2000"
 90
        1
280
               0
281
               0
  0
CLASS
  1
ACDBDICTIONARYWDFLT
  2
AcDbDictionaryWithDefault
  3
"AutoCAD 2000"
 90
        1
280
               0
281
               0
  0
CLASS
  1
ACDBPLACEHOLDER
  2
AcDbPlaceHolder
  3
"AutoCAD 2000"
 90
        1
280
               0
281
               0
  0
CLASS
  1
VBA_PROJECT
  2
AcDbVbaProject
  3
"acadvba"
 90
        1
280
               0
281
               0
  0
CLASS
  1
WIPEOUT
  2
AcDbWipeout
  3
WipeOut|AutoCAD Express Tool|expresstools@autodesk.com
 90
      127
280
               0
281
               1
  0
CLASS
  1
WIPEOUTVARIABLES
  2
AcDbWipeoutVariables
  3
WipeOut|AutoCAD Express Tool|expresstools@autodesk.com
 90
        0
280
               0
281
               0
  0
CLASS
  1
RTEXT
  2
RText
  3
RText|AutoCAD Express Tool|expresstools@autodesk.com
 90
        0
280
               0
281
               1
  0
CLASS
  1
ARCALIGNEDTEXT
  2
AcDbArcAlignedText
  3
ATEXT|AutoCAD Express Tool|expresstools@autodesk.com
 90
        0
280
               0
281
               1
  0
ENDSEC
  0
SECTION
  2
TABLES
  0
TABLE
  2
VPORT
  5
7
100
AcDbSymbolTable
 70
               1
  0
VPORT
  5
15
100
AcDbSymbolTableRecord
100
AcDbViewportTableRecord
  2
*ACTIVE
 70
               0
 10
0.0
 20
0.0
 11
1.0
 21
1.0
 12
2.1749939918518066
 22
0.25
 13
0.0
 23
0.0
 14
1.0
 24
1.0
 15
0.0
 25
0.0
 16
0.0
 26
0.0
 36
1.0
 17
0.0
 27
0.0
 37
0.0
 40
394.40500000000003
 41
1.7320508075688772
 42
50.0
 43
0.0
 44
0.0
 50
0.0
 51
0.0
 71
               0
 72
             100
 73
               1
 74
               1
 75
               0
 76
               0
 77
               0
 78
               0
  0
ENDTAB
  0
TABLE
  2
LTYPE
  5
4
100
AcDbSymbolTable
 70
               6
  0
LTYPE
  5
11
100
AcDbSymbolTableRecord
100
AcDbLinetypeTableRecord
  2
BYBLOCK
 70
              64
  3

 72
              65
 73
               0
 40
0.0
  0
LTYPE
  5
12
100
AcDbSymbolTableRecord
100
AcDbLinetypeTableRecord
  2
BYLAYER
 70
              64
  3

 72
              65
 73
               0
 40
0.0
  0
LTYPE
  5
13
100
AcDbSymbolTableRecord
100
AcDbLinetypeTableRecord
  2
CONTINUOUS
 70
              64
  3
Solid line
 72
              65
 73
               0
 40
0.0
  0
LTYPE
  5
39
100
AcDbSymbolTableRecord
100
AcDbLinetypeTableRecord
  2
DASHED
 70
              64
  3
Dashed __ __ __ __ __ __ __ __ __ __ __ __ __ _
 72
              65
 73
               2
 40
19.049999999999997
 49
12.699999999999999
 74
               0
 49
-6.3499999999999996
 74
               0
  0
LTYPE
  5
42
100
AcDbSymbolTableRecord
100
AcDbLinetypeTableRecord
  2
CENTER
 70
              64
  3
Center ____ _ ____ _ ____ _ ____ _ ____ _ ____
 72
              65
 73
               4
 40
50.800000000000004
 49
31.75
 74
               0
 49
-6.3499999999999996
 74
               0
 49
6.3499999999999996
 74
               0
 49
-6.3499999999999996
 74
               0
  0
LTYPE
  5
1DA
100
AcDbSymbolTableRecord
100
AcDbLinetypeTableRecord
  2
PHANTOM
 70
              64
  3
Phantom ______  __  __  ______  __  __  ______
 72
              65
 73
               6
 40
63.500000000000007
 49
31.75
 74
               0
 49
-6.3499999999999996
 74
               0
 49
6.3499999999999996
 74
               0
 49
-6.3499999999999996
 74
               0
 49
6.3499999999999996
 74
               0
 49
-6.3499999999999996
 74
               0
  0
ENDTAB
  0
TABLE
  2
LAYER
  5
2
100
AcDbSymbolTable
 70
               2
  0
LAYER
  5
14
100
AcDbSymbolTableRecord
100
AcDbLayerTableRecord
  2
0
 70
               0
 62
               7
  6
CONTINUOUS
  0
LAYER
  5
1D
100
AcDbSymbolTableRecord
100
AcDbLayerTableRecord
  2
DEFPOINTS
 70
               0
 62
               7
  6
CONTINUOUS
  0
ENDTAB
  0
TABLE
  2
STYLE
  5
3
100
AcDbSymbolTable
 70
               1
  0
STYLE
  5
17
100
AcDbSymbolTableRecord
100
AcDbTextStyleTableRecord
  2
MX_NOTE_STANDARD
 70
               0
 40
3.2000000476837158
 41
1.0
 50
0.0
 71
               0
 42
3.2000000476837158
  3
txt.shx
  4
extfont.shx
  0
ENDTAB
  0
TABLE
  2
VIEW
  5
5
100
AcDbSymbolTable
 70
               0
  0
ENDTAB
  0
TABLE
  2
UCS
  5
6
100
AcDbSymbolTable
 70
               0
  0
ENDTAB
  0
TABLE
  2
APPID
  5
8
100
AcDbSymbolTable
 70
               1
  0
APPID
  5
16
100
AcDbSymbolTableRecord
100
AcDbRegAppTableRecord
  2
ACAD
 70
               0
  0
ENDTAB
  0
TABLE
  2
DIMSTYLE
  5
9
100
AcDbSymbolTable
 70
               1
  0
DIMSTYLE
105
18
100
AcDbSymbolTableRecord
100
AcDbDimStyleTableRecord
  2
MXDIMSTYLE
 70
               0
  3

  4

  5

  6

  7

 40
1.0
 41
2.5
 42
1.5
 43
3.75
 44
1.5
 45
0.0
 46
0.0
 47
0.0
 48
0.0
 71
               0
 72
               0
 73
               0
 74
               0
 75
               0
 76
               0
 77
               1
 78
               8
140
3.2000000476837158
141
2.5
142
0.0
143
0.0394
144
1.0
145
0.0
146
1.0
147
1.0
170
               0
171
               4
172
               1
173
               0
174
               0
175
               0
176
               0
177
               0
178
               0
270
               2
271
               4
272
               4
273
               8
274
               4
275
               0
280
               0
281
               0
282
               0
283
               1
284
               0
285
               0
286
               0
287
               3
288
               1
340
17
  0
ENDTAB
  0
TABLE
  2
BLOCK_RECORD
  5
1
100
AcDbSymbolTable
 70
               6
  0
BLOCK_RECORD
  5
A
100
AcDbSymbolTableRecord
100
AcDbBlockTableRecord
  2
*MODEL_SPACE
  0
BLOCK_RECORD
  5
B
100
AcDbSymbolTableRecord
100
AcDbBlockTableRecord
  2
*PAPER_SPACE
  0
BLOCK_RECORD
  5
1E
100
AcDbSymbolTableRecord
100
AcDbBlockTableRecord
  2
MS_1
  0
BLOCK_RECORD
  5
1F
100
AcDbSymbolTableRecord
100
AcDbBlockTableRecord
  2
MS_2
  0
BLOCK_RECORD
  5
20
100
AcDbSymbolTableRecord
100
AcDbBlockTableRecord
  2
MS_3
  0
BLOCK_RECORD
  5
21
100
AcDbSymbolTableRecord
100
AcDbBlockTableRecord
  2
MS_4
  0
BLOCK_RECORD
  5
22
100
AcDbSymbolTableRecord
100
AcDbBlockTableRecord
  2
MS_5
  0
BLOCK_RECORD
  5
23
100
AcDbSymbolTableRecord
100
AcDbBlockTableRecord
  2
MS_6
  0
ENDTAB
  0
ENDSEC
  0
SECTION
  2
BLOCKS
  0
BLOCK
  5
D
100
AcDbEntity
  8
0
100
AcDbBlockBegin
  2
*MODEL_SPACE
 70
               0
 10
0.0
 20
0.0
 30
0.0
  3
*MODEL_SPACE
  1

  0
ENDBLK
  5
E
100
AcDbEntity
  8
0
100
AcDbBlockEnd
  0
BLOCK
  5
F
100
AcDbEntity
 67
               1
  8
0
100
AcDbBlockBegin
  2
*PAPER_SPACE
 70
               0
 10
0.0
 20
0.0
 30
0.0
  3
*PAPER_SPACE
  1

  0
ENDBLK
  5
10
100
AcDbEntity
 67
               1
  8
0
100
AcDbBlockEnd
  0
BLOCK
  5
24
100
AcDbEntity
  8
0
100
AcDbBlockBegin
  2
MS_1
 70
               0
 10
0.0
 20
0.0
 30
0.0
  3
MS_1
  1

  0
SPLINE
  5
25
100
AcDbEntity
  8
0
  6
CONTINUOUS
 62
               7
100
AcDbSpline
210
0.0
220
0.0
230
1.0
 70
               0
 71
               3
 72
               0
 73
               0
 74
               5
 44
0.000001
 12
0.5262023832401997
 22
-0.8503593663106992
 32
0.0
 13
-0.5262023832401995
 23
-0.8503593663106994
 33
0.0
 11
-36.840000000000003
 21
-5.4800000000000004
 31
0.0
 11
-36.231180305007371
 21
-6.7947078499335021
 31
0.0
 11
-36.0
 21
-8.2200000000000006
 31
0.0
 11
-36.231180308159644
 21
-9.6514947680869216
 31
0.0
 11
-36.840000000000003
 21
-10.970000000000001
 31
0.0
  0
SPLINE
  5
26
100
AcDbEntity
  8
0
  6
CONTINUOUS
 62
               7
100
AcDbSpline
210
0.0
220
0.0
230
1.0
 70
               0
 71
               3
 72
               0
 73
               0
 74
               5
 44
0.000001
 12
0.2955759791843881
 22
-0.9553192348786819
 32
0.0
 13
-0.2955759286928089
 23
-0.955319250500786
 33
0.0
 11
-36.840000000000003
 21
5.4800000000000004
 31
0.0
 11
-36.214941684547853
 21
2.7742627593267644
 31
0.0
 11
-36.0
 21
0.0
 31
0.0
 11
-36.21494163071506
 21
-2.774262635273081
 31
0.0
 11
-36.840000000000003
 21
-5.4800000000000031
 31
0.0
  0
SPLINE
  5
27
100
AcDbEntity
  8
0
  6
CONTINUOUS
 62
               7
100
AcDbSpline
210
0.0
220
0.0
230
1.0
 70
               0
 71
               3
 72
               0
 73
               0
 74
               5
 44
0.000001
 12
0.5262024613387968
 22
-0.8503593179832818
 32
0.0
 13
-0.5262022889356867
 23
-0.8503594246663255
 33
0.0
 11
-36.840000000000003
 21
10.970000000000001
 31
0.0
 11
-36.231180510003355
 21
9.6527019337340949
 31
0.0
 11
-36.0
 21
8.2200000000000006
 31
0.0
 11
-36.231180097823618
 21
6.7935051035836898
 31
0.0
 11
-36.840000000000003
 21
5.4800000000000004
 31
0.0
  0
SPLINE
  5
28
100
AcDbEntity
  8
0
  6
CONTINUOUS
 62
               7
100
AcDbSpline
210
0.0
220
0.0
230
1.0
 70
               0
 71
               3
 72
               0
 73
               0
 74
               5
 44
0.000001
 12
-0.5262023832401999
 22
-0.8503593663106992
 32
0.0
 13
0.5262023832401994
 23
-0.8503593663106994
 33
0.0
 11
-43.149999999999999
 21
-5.4800000000000004
 31
0.0
 11
-43.763819694992641
 21
-6.794705392711748
 31
0.0
 11
-44.0
 21
-8.2200000000000006
 31
0.0
 11
-43.763819691840354
 21
-9.6514947680869216
 31
0.0
 11
-43.149999999999999
 21
-10.970000000000001
 31
0.0
  0
SPLINE
  5
29
100
AcDbEntity
  8
0
  6
CONTINUOUS
 62
               7
100
AcDbSpline
210
0.0
220
0.0
230
1.0
 70
               0
 71
               3
 72
               0
 73
               0
 74
               5
 44
0.000001
 12
-0.295575979184388
 22
-0.9553192348786819
 32
0.0
 13
0.2955759286928088
 23
-0.955319250500786
 33
0.0
 11
-43.149999999999999
 21
5.4800000000000004
 31
0.0
 11
-43.780058315452145
 21
2.7742627593267652
 31
0.0
 11
-44.0
 21
0.0
 31
0.0
 11
-43.780058369284944
 21
-2.7742626352730815
 31
0.0
 11
-43.149999999999999
 21
-5.4800000000000031
 31
0.0
  0
SPLINE
  5
2A
100
AcDbEntity
  8
0
  6
CONTINUOUS
 62
               7
100
AcDbSpline
210
0.0
220
0.0
230
1.0
 70
               0
 71
               3
 72
               0
 73
               0
 74
               5
 44
0.000001
 12
-0.5262024613387967
 22
-0.8503593179832818
 32
0.0
 13
0.5262022889356871
 23
-0.8503594246663252
 33
0.0
 11
-43.149999999999999
 21
10.970000000000001
 31
0.0
 11
-43.763819489997488
 21
9.6526994601019052
 31
0.0
 11
-44.0
 21
8.2200000000000006
 31
0.0
 11
-43.76381990217638
 21
6.7935051035836898
 31
0.0
 11
-43.149999999999999
 21
5.4800000000000004
 31
0.0
  0
SPLINE
  5
2B
100
AcDbEntity
  8
0
  6
CONTINUOUS
 62
               7
100
AcDbSpline
210
0.0
220
0.0
230
1.0
 70
               0
 71
               3
 72
               0
 73
               0
 74
               5
 44
0.000001
 12
-0.4588313384373799
 22
-0.8885233834107927
 32
0.0
 13
0.4588314113367119
 23
-0.8885233457657492
 33
0.0
 11
-26.0
 21
3.8700000000000001
 31
0.0
 11
-26.729415681960123
 21
1.9947916530569196
 31
0.0
 11
-27.0
 21
0.0
 31
0.0
 11
-26.729415668285892
 21
-1.994791742463929
 31
0.0
 11
-26.0
 21
-3.8699999999999992
 31
0.0
  0
SPLINE
  5
2C
100
AcDbEntity
  8
0
  6
CONTINUOUS
 62
               7
100
AcDbSpline
210
0.0
220
0.0
230
1.0
 70
               0
 71
               3
 72
               0
 73
               0
 74
               5
 44
0.000001
 12
0.4588313384373798
 22
-0.8885233834107927
 32
0.0
 13
-0.458831411336712
 23
-0.8885233457657492
 33
0.0
 11
-22.0
 21
3.8700000000000001
 31
0.0
 11
-21.270584318039877
 21
1.9947916530569196
 31
0.0
 11
-21.0
 21
0.0
 31
0.0
 11
-21.270584331714108
 21
-1.994791742463929
 31
0.0
 11
-22.0
 21
-3.8699999999999992
 31
0.0
  0
SPLINE
  5
2D
100
AcDbEntity
  8
0
  6
CONTINUOUS
 62
               7
100
AcDbSpline
210
0.0
220
0.0
230
1.0
 70
               0
 71
               3
 72
               0
 73
               0
 74
               5
 44
0.000001
 12
-0.5262041646629224
 22
-0.8503582639637225
 32
0.0
 13
0.5262040948914479
 23
-0.8503583071385098
 33
0.0
 11
-14.94
 21
-13.4
 31
0.0
 11
-16.427143860188959
 21
-16.583221883288601
 31
0.0
 11
-17.0
 21
-20.039999999999999
 31
0.0
 11
-16.427144064480913
 21
-23.496777862188161
 31
0.0
 11
-14.939999999999998
 21
-26.68
 31
0.0
  0
SPLINE
  5
2E
100
AcDbEntity
  8
0
  6
CONTINUOUS
 62
               7
100
AcDbSpline
210
0.0
220
0.0
230
1.0
 70
               0
 71
               3
 72
               0
 73
               0
 74
               9
 44
0.000001
 12
-0.2955769712599656
 22
-0.9553189279297178
 32
0.0
 13
0.2955769712599655
 23
-0.9553189279297178
 33
0.0
 11
-14.94
 21
13.15
 31
0.0
 11
-15.820391459944281
 21
9.9037696946884175
 31
0.0
 11
-16.466459076201485
 21
6.5967115373395124
 31
0.0
 11
-16.864297154357946
 21
3.2487976113208514
 31
0.0
 11
-17.0
 21
-0.12
 31
0.0
 11
-16.864297152009915
 21
-3.4917560816596982
 31
0.0
 11
-16.466459074114347
 21
-6.8429523998629334
 31
0.0
 11
-15.820391459161604
 21
-10.152672518134702
 31
0.0
 11
-14.94
 21
-13.4
 31
0.0
  0
SPLINE
  5
2F
100
AcDbEntity
  8
0
  6
CONTINUOUS
 62
               7
100
AcDbSpline
210
0.0
220
0.0
230
1.0
 70
               0
 71
               3
 72
               0
 73
               0
 74
               5
 44
0.000001
 12
-0.5262041132365496
 22
-0.8503582957865093
 32
0.0
 13
0.5262041503698736
 23
-0.8503582728083026
 33
0.0
 11
-14.94
 21
26.43
 31
0.0
 11
-16.427144070486762
 21
23.246776446142384
 31
0.0
 11
-17.0
 21
19.789999999999999
 31
0.0
 11
-16.427143887021913
 21
16.333223370857098
 31
0.0
 11
-14.94
 21
13.150000000000002
 31
0.0
  0
CIRCLE
  5
30
100
AcDbEntity
  8
0
  6
CONTINUOUS
 62
               7
100
AcDbCircle
 10
5.0
 20
0.0
 30
0.0
 40
2.0669994354248047
  0
CIRCLE
  5
31
100
AcDbEntity
  8
0
  6
CONTINUOUS
 62
               2
100
AcDbCircle
 10
5.0
 20
0.0
 30
0.0
 40
2.5
  0
CIRCLE
  5
32
100
AcDbEntity
  8
0
  6
CONTINUOUS
 62
               7
100
AcDbCircle
 10
5.0
 20
0.0
 30
0.0
 40
4.25
  0
CIRCLE
  5
33
100
AcDbEntity
  8
0
  6
CONTINUOUS
 62
               7
100
AcDbCircle
 10
22.0
 20
0.0
 30
0.0
 40
5.0
  0
CIRCLE
  5
34
100
AcDbEntity
  8
0
  6
CONTINUOUS
 62
               7
100
AcDbCircle
 10
22.0
 20
0.0
 30
0.0
 40
2.5
  0
CIRCLE
  5
35
100
AcDbEntity
  8
0
  6
CONTINUOUS
 62
               7
100
AcDbCircle
 10
22.0
 20
0.0
 30
0.0
 40
7.0
  0
CIRCLE
  5
36
100
AcDbEntity
  8
0
  6
CONTINUOUS
 62
               7
100
AcDbCircle
 10
118.0
 20
0.0
 30
0.0
 40
2.5
  0
CIRCLE
  5
37
100
AcDbEntity
  8
0
  6
CONTINUOUS
 62
               7
100
AcDbCircle
 10
118.0
 20
0.0
 30
0.0
 40
5.0
  0
CIRCLE
  5
38
100
AcDbEntity
  8
0
  6
CONTINUOUS
 62
               7
100
AcDbCircle
 10
118.0
 20
0.0
 30
0.0
 40
7.0
  0
LINE
  5
3A
100
AcDbEntity
  8
0
  6
DASHED
 62
               2
100
AcDbLine
 10
111.42
 20
32.700000000000003
 30
0.0
 11
111.70999999999999
 21
23.300000000000001
 31
0.0
  0
LINE
  5
3B
100
AcDbEntity
  8
0
  6
DASHED
 62
               2
100
AcDbLine
 10
112.27
 20
32.700000000000003
 30
0.0
 11
112.56999999999999
 21
23.300000000000001
 31
0.0
  0
LINE
  5
3C
100
AcDbEntity
  8
0
  6
DASHED
 62
               2
100
AcDbLine
 10
123.72
 20
32.700000000000003
 30
0.0
 11
123.42
 21
23.300000000000001
 31
0.0
  0
LINE
  5
3D
100
AcDbEntity
  8
0
  6
DASHED
 62
               2
100
AcDbLine
 10
124.56999999999999
 20
32.700000000000003
 30
0.0
 11
124.28
 21
23.300000000000001
 31
0.0
  0
LINE
  5
3E
100
AcDbEntity
  8
0
  6
DASHED
 62
               2
100
AcDbLine
 10
15.42
 20
32.700000000000003
 30
0.0
 11
15.710000000000001
 21
23.300000000000001
 31
0.0
  0
LINE
  5
3F
100
AcDbEntity
  8
0
  6
DASHED
 62
               2
100
AcDbLine
 10
16.27
 20
32.700000000000003
 30
0.0
 11
16.57
 21
23.300000000000001
 31
0.0
  0
LINE
  5
40
100
AcDbEntity
  8
0
  6
DASHED
 62
               2
100
AcDbLine
 10
27.719999999999999
 20
32.700000000000003
 30
0.0
 11
27.420000000000002
 21
23.300000000000001
 31
0.0
  0
LINE
  5
41
100
AcDbEntity
  8
0
  6
DASHED
 62
               2
100
AcDbLine
 10
28.57
 20
32.700000000000003
 30
0.0
 11
28.280000000000001
 21
23.300000000000001
 31
0.0
  0
LINE
  5
43
100
AcDbEntity
  8
0
  6
CENTER
 62
               2
100
AcDbLine
 10
118.0
 20
8.8699999999999992
 30
0.0
 11
118.0
 21
-8.7699999999999996
 31
0.0
  0
LINE
  5
44
100
AcDbEntity
  8
0
  6
CENTER
 62
               2
100
AcDbLine
 10
22.0
 20
8.6699999999999999
 30
0.0
 11
22.0
 21
-8.3300000000000001
 31
0.0
  0
LINE
  5
45
100
AcDbEntity
  8
0
  6
CENTER
 62
               2
100
AcDbLine
 10
5.0
 20
5.3700000000000001
 30
0.0
 11
5.0
 21
-5.7599999999999998
 31
0.0
  0
LINE
  5
46
100
AcDbEntity
  8
0
  6
CONTINUOUS
 62
               7
100
AcDbLine
 10
0.0
 20
32.700000000000003
 30
0.0
 11
0.0
 21
-32.700000000000003
 31
0.0
  0
LINE
  5
47
100
AcDbEntity
  8
0
  6
CONTINUOUS
 62
               7
100
AcDbLine
 10
10.0
 20
32.700000000000003
 30
0.0
 11
10.0
 21
-32.700000000000003
 31
0.0
  0
LINE
  5
48
100
AcDbEntity
  8
0
  6
CONTINUOUS
 62
               7
100
AcDbLine
 10
-18.210000000000001
 20
-18.0
 30
0.0
 11
-17.0
 21
-18.0
 31
0.0
  0
LINE
  5
49
100
AcDbEntity
  8
0
  6
CONTINUOUS
 62
               2
100
AcDbLine
 10
133.12
 20
-18.0
 30
0.0
 11
135.0
 21
-16.91
 31
0.0
  0
LINE
  5
4A
100
AcDbEntity
  8
0
  6
CONTINUOUS
 62
               2
100
AcDbLine
 10
133.12
 20
18.0
 30
0.0
 11
135.0
 21
16.91
 31
0.0
  0
LINE
  5
4B
100
AcDbEntity
  8
0
  6
CONTINUOUS
 62
               2
100
AcDbLine
 10
135.0
 20
-16.91
 30
0.0
 11
149.65000000000001
 21
-16.91
 31
0.0
  0
LINE
  5
4C
100
AcDbEntity
  8
0
  6
CONTINUOUS
 62
               2
100
AcDbLine
 10
135.0
 20
16.91
 30
0.0
 11
149.65000000000001
 21
16.91
 31
0.0
  0
LINE
  5
4D
100
AcDbEntity
  8
0
  6
CONTINUOUS
 62
               7
100
AcDbLine
 10
148.74000000000001
 20
18.0
 30
0.0
 11
148.74000000000001
 21
-18.0
 31
0.0
  0
LINE
  5
4E
100
AcDbEntity
  8
0
  6
CONTINUOUS
 62
               7
100
AcDbLine
 10
148.74000000000001
 20
-18.0
 30
0.0
 11
150.0
 21
-16.5
 31
0.0
  0
LINE
  5
4F
100
AcDbEntity
  8
0
  6
CONTINUOUS
 62
               7
100
AcDbLine
 10
148.74000000000001
 20
18.0
 30
0.0
 11
150.0
 21
16.5
 31
0.0
  0
LINE
  5
50
100
AcDbEntity
  8
0
  6
CONTINUOUS
 62
               7
100
AcDbLine
 10
135.0
 20
18.0
 30
0.0
 11
135.0
 21
-18.0
 31
0.0
  0
LINE
  5
51
100
AcDbEntity
  8
0
  6
CONTINUOUS
 62
               7
100
AcDbLine
 10
130.0
 20
-18.0
 30
0.0
 11
148.74000000000001
 21
-18.0
 31
0.0
  0
LINE
  5
52
100
AcDbEntity
  8
0
  6
CONTINUOUS
 62
               7
100
AcDbLine
 10
130.0
 20
18.0
 30
0.0
 11
148.74000000000001
 21
18.0
 31
0.0
  0
LINE
  5
53
100
AcDbEntity
  8
0
  6
CONTINUOUS
 62
               7
100
AcDbLine
 10
150.0
 20
16.5
 30
0.0
 11
150.0
 21
-16.5
 31
0.0
  0
LINE
  5
54
100
AcDbEntity
  8
0
  6
CONTINUOUS
 62
               2
100
AcDbLine
 10
-36.0
 20
-6.1799999999999997
 30
0.0
 11
-29.0
 21
-6.1799999999999997
 31
0.0
  0
LINE
  5
55
100
AcDbEntity
  8
0
  6
CONTINUOUS
 62
               2
100
AcDbLine
 10
-36.0
 20
6.1799999999999997
 30
0.0
 11
-29.0
 21
6.1799999999999997
 31
0.0
  0
LINE
  5
56
100
AcDbEntity
  8
0
  6
CONTINUOUS
 62
               7
100
AcDbLine
 10
-36.0
 20
-7.0
 30
0.0
 11
-27.0
 21
-7.0
 31
0.0
  0
LINE
  5
57
100
AcDbEntity
  8
0
  6
CONTINUOUS
 62
               7
100
AcDbLine
 10
-36.0
 20
7.0
 30
0.0
 11
-27.0
 21
7.0
 31
0.0
  0
LINE
  5
58
100
AcDbEntity
  8
0
  6
CONTINUOUS
 62
               7
100
AcDbLine
 10
-44.0
 20
-9.5
 30
0.0
 11
-43.149999999999999
 21
-10.970000000000001
 31
0.0
  0
LINE
  5
59
100
AcDbEntity
  8
0
  6
CONTINUOUS
 62
               7
100
AcDbLine
 10
-36.840000000000003
 20
10.970000000000001
 30
0.0
 11
-36.0
 21
9.5
 31
0.0
  0
LINE
  5
5A
100
AcDbEntity
  8
0
  6
CONTINUOUS
 62
               7
100
AcDbLine
 10
-36.840000000000003
 20
-10.970000000000001
 30
0.0
 11
-36.0
 21
-9.5
 31
0.0
  0
LINE
  5
5B
100
AcDbEntity
  8
0
  6
CONTINUOUS
 62
               7
100
AcDbLine
 10
-44.0
 20
9.5
 30
0.0
 11
-43.149999999999999
 21
10.970000000000001
 31
0.0
  0
LINE
  5
5C
100
AcDbEntity
  8
0
  6
CONTINUOUS
 62
               7
100
AcDbLine
 10
-43.149999999999999
 20
-5.4800000000000004
 30
0.0
 11
-36.840000000000003
 21
-5.4800000000000004
 31
0.0
  0
LINE
  5
5D
100
AcDbEntity
  8
0
  6
CONTINUOUS
 62
               7
100
AcDbLine
 10
-43.149999999999999
 20
5.4800000000000004
 30
0.0
 11
-36.840000000000003
 21
5.4800000000000004
 31
0.0
  0
LINE
  5
5E
100
AcDbEntity
  8
0
  6
CONTINUOUS
 62
               7
100
AcDbLine
 10
-43.149999999999999
 20
-10.970000000000001
 30
0.0
 11
-36.840000000000003
 21
-10.970000000000001
 31
0.0
  0
LINE
  5
5F
100
AcDbEntity
  8
0
  6
CONTINUOUS
 62
               7
100
AcDbLine
 10
-43.149999999999999
 20
10.970000000000001
 30
0.0
 11
-36.840000000000003
 21
10.970000000000001
 31
0.0
  0
LINE
  5
60
100
AcDbEntity
  8
0
  6
CONTINUOUS
 62
               7
100
AcDbLine
 10
-36.0
 20
9.5
 30
0.0
 11
-36.0
 21
-9.5
 31
0.0
  0
LINE
  5
61
100
AcDbEntity
  8
0
  6
CONTINUOUS
 62
               7
100
AcDbLine
 10
-44.0
 20
9.5
 30
0.0
 11
-44.0
 21
-9.5
 31
0.0
  0
LINE
  5
62
100
AcDbEntity
  8
0
  6
CONTINUOUS
 62
               7
100
AcDbLine
 10
-27.0
 20
7.0
 30
0.0
 11
-27.0
 21
-7.0
 31
0.0
  0
LINE
  5
63
100
AcDbEntity
  8
0
  6
CONTINUOUS
 62
               7
100
AcDbLine
 10
-26.0
 20
-3.8700000000000001
 30
0.0
 11
-26.0
 21
-8.0
 31
0.0
  0
LINE
  5
64
100
AcDbEntity
  8
0
  6
CONTINUOUS
 62
               7
100
AcDbLine
 10
-26.0
 20
8.0
 30
0.0
 11
-26.0
 21
3.8700000000000001
 31
0.0
  0
LINE
  5
65
100
AcDbEntity
  8
0
  6
CONTINUOUS
 62
               7
100
AcDbLine
 10
-26.0
 20
-3.8700000000000001
 30
0.0
 11
-22.0
 21
-3.8700000000000001
 31
0.0
  0
LINE
  5
66
100
AcDbEntity
  8
0
  6
CONTINUOUS
 62
               7
100
AcDbLine
 10
-22.0
 20
3.8700000000000001
 30
0.0
 11
-22.0
 21
-3.8700000000000001
 31
0.0
  0
LINE
  5
67
100
AcDbEntity
  8
0
  6
CONTINUOUS
 62
               2
100
AcDbLine
 10
-22.0
 20
3.8700000000000001
 30
0.0
 11
-26.0
 21
-3.8700000000000001
 31
0.0
  0
LINE
  5
68
100
AcDbEntity
  8
0
  6
CONTINUOUS
 62
               2
100
AcDbLine
 10
-26.0
 20
3.8700000000000001
 30
0.0
 11
-22.0
 21
-3.8700000000000001
 31
0.0
  0
LINE
  5
69
100
AcDbEntity
  8
0
  6
CONTINUOUS
 62
               7
100
AcDbLine
 10
-26.0
 20
3.8700000000000001
 30
0.0
 11
-22.0
 21
3.8700000000000001
 31
0.0
  0
LINE
  5
6A
100
AcDbEntity
  8
0
  6
CONTINUOUS
 62
               7
100
AcDbLine
 10
-27.0
 20
-7.0
 30
0.0
 11
-26.0
 21
-8.0
 31
0.0
  0
LINE
  5
6B
100
AcDbEntity
  8
0
  6
CONTINUOUS
 62
               7
100
AcDbLine
 10
-27.0
 20
7.0
 30
0.0
 11
-26.0
 21
8.0
 31
0.0
  0
LINE
  5
6C
100
AcDbEntity
  8
0
  6
CONTINUOUS
 62
               7
100
AcDbLine
 10
-26.0
 20
-8.0
 30
0.0
 11
-20.0
 21
-8.0
 31
0.0
  0
LINE
  5
6D
100
AcDbEntity
  8
0
  6
CONTINUOUS
 62
               7
100
AcDbLine
 10
-26.0
 20
8.0
 30
0.0
 11
-20.0
 21
8.0
 31
0.0
  0
LINE
  5
6E
100
AcDbEntity
  8
0
  6
CONTINUOUS
 62
               2
100
AcDbLine
 10
-29.0
 20
-6.1799999999999997
 30
0.0
 11
-27.59
 21
-7.0
 31
0.0
  0
LINE
  5
6F
100
AcDbEntity
  8
0
  6
CONTINUOUS
 62
               2
100
AcDbLine
 10
-29.0
 20
6.1799999999999997
 30
0.0
 11
-27.59
 21
7.0
 31
0.0
  0
LINE
  5
70
100
AcDbEntity
  8
0
  6
CONTINUOUS
 62
               7
100
AcDbLine
 10
-51.0
 20
7.0
 30
0.0
 11
-51.0
 21
-7.0
 31
0.0
  0
LINE
  5
71
100
AcDbEntity
  8
0
  6
CONTINUOUS
 62
               2
100
AcDbLine
 10
-51.810000000000002
 20
-6.1799999999999997
 30
0.0
 11
-44.0
 21
-6.1799999999999997
 31
0.0
  0
LINE
  5
72
100
AcDbEntity
  8
0
  6
CONTINUOUS
 62
               2
100
AcDbLine
 10
-51.810000000000002
 20
6.1799999999999997
 30
0.0
 11
-44.0
 21
6.1799999999999997
 31
0.0
  0
LINE
  5
73
100
AcDbEntity
  8
0
  6
CONTINUOUS
 62
               7
100
AcDbLine
 10
-29.0
 20
7.0
 30
0.0
 11
-29.0
 21
-7.0
 31
0.0
  0
LINE
  5
74
100
AcDbEntity
  8
0
  6
CONTINUOUS
 62
               7
100
AcDbLine
 10
-52.0
 20
-6.0
 30
0.0
 11
-51.0
 21
-7.0
 31
0.0
  0
LINE
  5
75
100
AcDbEntity
  8
0
  6
CONTINUOUS
 62
               7
100
AcDbLine
 10
-52.0
 20
6.0
 30
0.0
 11
-51.0
 21
7.0
 31
0.0
  0
LINE
  5
76
100
AcDbEntity
  8
0
  6
CONTINUOUS
 62
               7
100
AcDbLine
 10
-51.0
 20
-7.0
 30
0.0
 11
-44.0
 21
-7.0
 31
0.0
  0
LINE
  5
77
100
AcDbEntity
  8
0
  6
CONTINUOUS
 62
               7
100
AcDbLine
 10
-51.0
 20
7.0
 30
0.0
 11
-44.0
 21
7.0
 31
0.0
  0
LINE
  5
78
100
AcDbEntity
  8
0
  6
CONTINUOUS
 62
               7
100
AcDbLine
 10
-52.0
 20
6.1799999999999997
 30
0.0
 11
-52.0
 21
-6.1799999999999997
 31
0.0
  0
LINE
  5
79
100
AcDbEntity
  8
0
  6
CENTER
 62
               2
100
AcDbLine
 10
-58.0
 20
0.0
 30
0.0
 11
156.99000000000001
 21
0.0
 31
0.0
  0
LINE
  5
7A
100
AcDbEntity
  8
0
  6
CONTINUOUS
 62
               7
100
AcDbLine
 10
19.550000000000001
 20
-0.5
 30
0.0
 11
24.440000000000001
 21
-0.5
 31
0.0
  0
LINE
  5
7B
100
AcDbEntity
  8
0
  6
CONTINUOUS
 62
               7
100
AcDbLine
 10
19.550000000000001
 20
0.5
 30
0.0
 11
24.440000000000001
 21
0.5
 31
0.0
  0
LINE
  5
7C
100
AcDbEntity
  8
0
  6
CONTINUOUS
 62
               7
100
AcDbLine
 10
22.0
 20
5.7699999999999996
 30
0.0
 11
27.0
 21
2.8799999999999999
 31
0.0
  0
LINE
  5
7D
100
AcDbEntity
  8
0
  6
CONTINUOUS
 62
               7
100
AcDbLine
 10
27.0
 20
2.8799999999999999
 30
0.0
 11
27.0
 21
-2.8799999999999999
 31
0.0
  0
LINE
  5
7E
100
AcDbEntity
  8
0
  6
CONTINUOUS
 62
               7
100
AcDbLine
 10
22.0
 20
-5.7699999999999996
 30
0.0
 11
27.0
 21
-2.8799999999999999
 31
0.0
  0
LINE
  5
7F
100
AcDbEntity
  8
0
  6
CONTINUOUS
 62
               7
100
AcDbLine
 10
17.0
 20
-2.8799999999999999
 30
0.0
 11
22.0
 21
-5.7699999999999996
 31
0.0
  0
LINE
  5
80
100
AcDbEntity
  8
0
  6
CONTINUOUS
 62
               7
100
AcDbLine
 10
17.0
 20
2.8799999999999999
 30
0.0
 11
17.0
 21
-2.8799999999999999
 31
0.0
  0
LINE
  5
81
100
AcDbEntity
  8
0
  6
CONTINUOUS
 62
               7
100
AcDbLine
 10
17.0
 20
2.8799999999999999
 30
0.0
 11
22.0
 21
5.7699999999999996
 31
0.0
  0
LINE
  5
82
100
AcDbEntity
  8
0
  6
CONTINUOUS
 62
               7
100
AcDbLine
 10
107.0
 20
-32.700000000000003
 30
0.0
 11
130.0
 21
-32.700000000000003
 31
0.0
  0
LINE
  5
83
100
AcDbEntity
  8
0
  6
CONTINUOUS
 62
               7
100
AcDbLine
 10
107.0
 20
32.700000000000003
 30
0.0
 11
130.0
 21
32.700000000000003
 31
0.0
  0
LINE
  5
84
100
AcDbEntity
  8
0
  6
CENTER
 62
               2
100
AcDbLine
 10
118.0
 20
34.869999999999997
 30
0.0
 11
118.0
 21
22.870000000000001
 31
0.0
  0
LINE
  5
85
100
AcDbEntity
  8
0
  6
CONTINUOUS
 62
               7
100
AcDbLine
 10
130.0
 20
32.700000000000003
 30
0.0
 11
130.0
 21
-32.700000000000003
 31
0.0
  0
LINE
  5
86
100
AcDbEntity
  8
0
  6
CONTINUOUS
 62
               7
100
AcDbLine
 10
107.0
 20
32.700000000000003
 30
0.0
 11
107.0
 21
-32.700000000000003
 31
0.0
  0
LINE
  5
87
100
AcDbEntity
  8
0
  6
CONTINUOUS
 62
               7
100
AcDbLine
 10
33.0
 20
32.700000000000003
 30
0.0
 11
33.0
 21
-32.700000000000003
 31
0.0
  0
LINE
  5
88
100
AcDbEntity
  8
0
  6
CONTINUOUS
 62
               7
100
AcDbLine
 10
115.55
 20
-0.5
 30
0.0
 11
120.45
 21
-0.5
 31
0.0
  0
LINE
  5
89
100
AcDbEntity
  8
0
  6
CONTINUOUS
 62
               7
100
AcDbLine
 10
115.55
 20
0.5
 30
0.0
 11
120.45
 21
0.5
 31
0.0
  0
LINE
  5
8A
100
AcDbEntity
  8
0
  6
CONTINUOUS
 62
               7
100
AcDbLine
 10
113.0
 20
-2.8799999999999999
 30
0.0
 11
118.0
 21
-5.7699999999999996
 31
0.0
  0
LINE
  5
8B
100
AcDbEntity
  8
0
  6
CONTINUOUS
 62
               7
100
AcDbLine
 10
118.0
 20
5.7699999999999996
 30
0.0
 11
123.0
 21
2.8799999999999999
 31
0.0
  0
LINE
  5
8C
100
AcDbEntity
  8
0
  6
CONTINUOUS
 62
               7
100
AcDbLine
 10
118.0
 20
-5.7699999999999996
 30
0.0
 11
123.0
 21
-2.8799999999999999
 31
0.0
  0
LINE
  5
8D
100
AcDbEntity
  8
0
  6
CONTINUOUS
 62
               7
100
AcDbLine
 10
113.0
 20
2.8799999999999999
 30
0.0
 11
118.0
 21
5.7699999999999996
 31
0.0
  0
LINE
  5
8E
100
AcDbEntity
  8
0
  6
CONTINUOUS
 62
               7
100
AcDbLine
 10
123.0
 20
2.8799999999999999
 30
0.0
 11
123.0
 21
-2.8799999999999999
 31
0.0
  0
LINE
  5
8F
100
AcDbEntity
  8
0
  6
CONTINUOUS
 62
               7
100
AcDbLine
 10
113.0
 20
2.8799999999999999
 30
0.0
 11
113.0
 21
-2.8799999999999999
 31
0.0
  0
LINE
  5
90
100
AcDbEntity
  8
0
  6
CONTINUOUS
 62
               7
100
AcDbLine
 10
0.0
 20
-32.700000000000003
 30
0.0
 11
107.0
 21
-32.700000000000003
 31
0.0
  0
LINE
  5
91
100
AcDbEntity
  8
0
  6
CONTINUOUS
 62
               7
100
AcDbLine
 10
0.0
 20
32.700000000000003
 30
0.0
 11
107.0
 21
32.700000000000003
 31
0.0
  0
LINE
  5
92
100
AcDbEntity
  8
0
  6
CENTER
 62
               2
100
AcDbLine
 10
22.0
 20
34.25
 30
0.0
 11
22.0
 21
22.370000000000001
 31
0.0
  0
LINE
  5
93
100
AcDbEntity
  8
0
  6
CONTINUOUS
 62
               2
100
AcDbLine
 10
-5.0
 20
-16.91
 30
0.0
 11
-6.0
 21
-16.91
 31
0.0
  0
LINE
  5
94
100
AcDbEntity
  8
0
  6
CONTINUOUS
 62
               2
100
AcDbLine
 10
-5.0
 20
-16.91
 30
0.0
 11
-3.1200000000000001
 21
-18.0
 31
0.0
  0
LINE
  5
95
100
AcDbEntity
  8
0
  6
CONTINUOUS
 62
               2
100
AcDbLine
 10
-5.0
 20
16.91
 30
0.0
 11
-6.0
 21
16.91
 31
0.0
  0
LINE
  5
96
100
AcDbEntity
  8
0
  6
CONTINUOUS
 62
               2
100
AcDbLine
 10
-5.0
 20
16.91
 30
0.0
 11
-3.1200000000000001
 21
18.0
 31
0.0
  0
LINE
  5
97
100
AcDbEntity
  8
0
  6
CONTINUOUS
 62
               7
100
AcDbLine
 10
-6.0
 20
-18.0
 30
0.0
 11
0.0
 21
-18.0
 31
0.0
  0
LINE
  5
98
100
AcDbEntity
  8
0
  6
CONTINUOUS
 62
               7
100
AcDbLine
 10
-6.0
 20
18.0
 30
0.0
 11
0.0
 21
18.0
 31
0.0
  0
LINE
  5
99
100
AcDbEntity
  8
0
  6
CONTINUOUS
 62
               7
100
AcDbLine
 10
-5.0
 20
18.0
 30
0.0
 11
-5.0
 21
-18.0
 31
0.0
  0
LINE
  5
9A
100
AcDbEntity
  8
0
  6
CONTINUOUS
 62
               7
100
AcDbLine
 10
-18.210000000000001
 20
18.0
 30
0.0
 11
-18.210000000000001
 21
-18.0
 31
0.0
  0
LINE
  5
9B
100
AcDbEntity
  8
0
  6
CONTINUOUS
 62
               7
100
AcDbLine
 10
-14.94
 20
13.15
 30
0.0
 11
-6.5
 21
13.15
 31
0.0
  0
LINE
  5
9C
100
AcDbEntity
  8
0
  6
CONTINUOUS
 62
               7
100
AcDbLine
 10
-14.94
 20
-13.4
 30
0.0
 11
-6.5
 21
-13.4
 31
0.0
  0
LINE
  5
9D
100
AcDbEntity
  8
0
  6
CONTINUOUS
 62
               7
100
AcDbLine
 10
-17.0
 20
-23.120000000000001
 30
0.0
 11
-14.94
 21
-26.68
 31
0.0
  0
LINE
  5
9E
100
AcDbEntity
  8
0
  6
CONTINUOUS
 62
               7
100
AcDbLine
 10
-17.0
 20
22.870000000000001
 30
0.0
 11
-14.94
 21
26.43
 31
0.0
  0
LINE
  5
9F
100
AcDbEntity
  8
0
  6
CONTINUOUS
 62
               7
100
AcDbLine
 10
-6.5
 20
26.43
 30
0.0
 11
-6.5
 21
-26.68
 31
0.0
  0
LINE
  5
A0
100
AcDbEntity
  8
0
  6
CONTINUOUS
 62
               7
100
AcDbLine
 10
-6.5
 20
-23.120000000000001
 30
0.0
 11
-6.0
 21
-23.120000000000001
 31
0.0
  0
LINE
  5
A1
100
AcDbEntity
  8
0
  6
CONTINUOUS
 62
               7
100
AcDbLine
 10
-6.5
 20
22.870000000000001
 30
0.0
 11
-6.0
 21
22.870000000000001
 31
0.0
  0
LINE
  5
A2
100
AcDbEntity
  8
0
  6
CONTINUOUS
 62
               7
100
AcDbLine
 10
-14.94
 20
-26.68
 30
0.0
 11
-6.5
 21
-26.68
 31
0.0
  0
LINE
  5
A3
100
AcDbEntity
  8
0
  6
CONTINUOUS
 62
               7
100
AcDbLine
 10
-14.94
 20
26.43
 30
0.0
 11
-6.5
 21
26.43
 31
0.0
  0
LINE
  5
A4
100
AcDbEntity
  8
0
  6
CONTINUOUS
 62
               7
100
AcDbLine
 10
-17.0
 20
22.870000000000001
 30
0.0
 11
-17.0
 21
-23.120000000000001
 31
0.0
  0
LINE
  5
A5
100
AcDbEntity
  8
0
  6
CONTINUOUS
 62
               7
100
AcDbLine
 10
-6.0
 20
22.870000000000001
 30
0.0
 11
-6.0
 21
-23.120000000000001
 31
0.0
  0
LINE
  5
A6
100
AcDbEntity
  8
0
  6
CONTINUOUS
 62
               7
100
AcDbLine
 10
-20.0
 20
-16.5
 30
0.0
 11
-18.210000000000001
 21
-18.0
 31
0.0
  0
LINE
  5
A7
100
AcDbEntity
  8
0
  6
CONTINUOUS
 62
               7
100
AcDbLine
 10
-20.0
 20
16.5
 30
0.0
 11
-18.210000000000001
 21
18.0
 31
0.0
  0
LINE
  5
A8
100
AcDbEntity
  8
0
  6
CONTINUOUS
 62
               2
100
AcDbLine
 10
-20.0
 20
-16.5
 30
0.0
 11
-17.0
 21
-16.5
 31
0.0
  0
LINE
  5
A9
100
AcDbEntity
  8
0
  6
CONTINUOUS
 62
               2
100
AcDbLine
 10
-20.0
 20
16.5
 30
0.0
 11
-17.0
 21
16.5
 31
0.0
  0
LINE
  5
AA
100
AcDbEntity
  8
0
  6
CONTINUOUS
 62
               7
100
AcDbLine
 10
-18.210000000000001
 20
18.0
 30
0.0
 11
-17.0
 21
18.0
 31
0.0
  0
LINE
  5
AB
100
AcDbEntity
  8
0
  6
CONTINUOUS
 62
               7
100
AcDbLine
 10
-20.0
 20
16.5
 30
0.0
 11
-20.0
 21
-16.5
 31
0.0
  0
ENDBLK
  5
AC
100
AcDbEntity
  8
0
100
AcDbBlockEnd
  0
BLOCK
  5
AD
100
AcDbEntity
  8
0
100
AcDbBlockBegin
  2
MS_2
 70
               0
 10
0.0
 20
0.0
 30
0.0
  3
MS_2
  1

  0
SPLINE
  5
AE
100
AcDbEntity
  8
0
  6
CONTINUOUS
 62
               7
100
AcDbSpline
210
0.0
220
0.0
230
1.0
 70
               0
 71
               3
 72
               0
 73
               0
 74
               5
 44
0.000001
 12
0.5160406521158438
 22
-0.8565640929690286
 32
0.0
 13
-0.5160406521158435
 23
-0.8565640929690288
 33
0.0
 11
35.960000000000001
 21
5.75
 31
0.0
 11
36.276841587066897
 21
5.0584134054463155
 31
0.0
 11
36.399999999999999
 21
4.3099999999999996
 31
0.0
 11
36.276841587591079
 21
3.5615865945536846
 31
0.0
 11
35.960000000000001
 21
2.8699999999999992
 31
0.0
  0
SPLINE
  5
AF
100
AcDbEntity
  8
0
  6
CONTINUOUS
 62
               7
100
AcDbSpline
210
0.0
220
0.0
230
1.0
 70
               0
 71
               3
 72
               0
 73
               0
 74
               5
 44
0.000001
 12
0.5160406521158438
 22
-0.8565640929690286
 32
0.0
 13
-0.5160406521158443
 23
-0.8565640929690284
 33
0.0
 11
35.960000000000001
 21
-2.8700000000000001
 31
0.0
 11
36.276841587066897
 21
-3.5615865945536846
 31
0.0
 11
36.399999999999999
 21
-4.3099999999999996
 31
0.0
 11
36.276841587591079
 21
-5.0584134054463146
 31
0.0
 11
35.960000000000001
 21
-5.7499999999999991
 31
0.0
  0
SPLINE
  5
B0
100
AcDbEntity
  8
0
  6
CONTINUOUS
 62
               7
100
AcDbSpline
210
0.0
220
0.0
230
1.0
 70
               0
 71
               3
 72
               0
 73
               0
 74
               5
 44
0.000001
 12
0.2884256235275011
 22
-0.9575023027088615
 32
0.0
 13
-0.288425623527501
 23
-0.9575023027088615
 33
0.0
 11
35.960000000000001
 21
2.8700000000000001
 31
0.0
 11
36.28482201548487
 21
1.4520873624140389
 31
0.0
 11
36.399999999999999
 21
0.0
 31
0.0
 11
36.28482201573383
 21
-1.4520873624140387
 31
0.0
 11
35.960000000000001
 21
-2.870000000000001
 31
0.0
  0
SPLINE
  5
B1
100
AcDbEntity
  8
0
  6
CONTINUOUS
 62
               7
100
AcDbSpline
210
0.0
220
0.0
230
1.0
 70
               0
 71
               3
 72
               0
 73
               0
 74
               5
 44
0.000001
 12
-0.5160406236227639
 22
-0.8565641101348042
 32
0.0
 13
0.5160406236227643
 23
-0.8565641101348039
 33
0.0
 11
33.229999999999997
 21
-2.8700000000000001
 31
0.0
 11
32.918158463257022
 21
-3.5615865256599299
 31
0.0
 11
32.799999999999997
 21
-4.3099999999999996
 31
0.0
 11
32.918158462732848
 21
-5.0584134743400693
 31
0.0
 11
33.229999999999997
 21
-5.75
 31
0.0
  0
SPLINE
  5
B2
100
AcDbEntity
  8
0
  6
CONTINUOUS
 62
               7
100
AcDbSpline
210
0.0
220
0.0
230
1.0
 70
               0
 71
               3
 72
               0
 73
               0
 74
               5
 44
0.000001
 12
-0.2884256340544003
 22
-0.9575022995378744
 32
0.0
 13
0.2884256340544004
 23
-0.9575022995378743
 33
0.0
 11
33.229999999999997
 21
2.8700000000000001
 31
0.0
 11
32.910178009957164
 21
1.4520872212322948
 31
0.0
 11
32.799999999999997
 21
0.0
 31
0.0
 11
32.910178009708197
 21
-1.4520872212322946
 31
0.0
 11
33.229999999999997
 21
-2.8699999999999988
 31
0.0
  0
SPLINE
  5
B3
100
AcDbEntity
  8
0
  6
CONTINUOUS
 62
               7
100
AcDbSpline
210
0.0
220
0.0
230
1.0
 70
               0
 71
               3
 72
               0
 73
               0
 74
               5
 44
0.000001
 12
-0.5160406236227639
 22
-0.8565641101348042
 32
0.0
 13
0.516040623622764
 23
-0.8565641101348041
 33
0.0
 11
33.229999999999997
 21
5.75
 31
0.0
 11
32.918158463257022
 21
5.0584134743400702
 31
0.0
 11
32.799999999999997
 21
4.3099999999999996
 31
0.0
 11
32.918158462732848
 21
3.5615865256599299
 31
0.0
 11
33.229999999999997
 21
2.8700000000000001
 31
0.0
  0
CIRCLE
  5
B4
100
AcDbEntity
  8
0
  6
CONTINUOUS
 62
               7
100
AcDbCircle
 10
0.0
 20
0.0
 30
0.0
 40
32.699996948242188
  0
ARC
  5
B5
100
AcDbEntity
  8
0
  6
CONTINUOUS
 62
               7
100
AcDbCircle
 10
0.0024619955883676
 20
0.0014219367390176
 30
0.0
 40
25.997912382373006
100
AcDbArc
 50
92.209834513348738
 51
147.81326260263728
  0
ARC
  5
B6
100
AcDbEntity
  8
0
  6
CONTINUOUS
 62
               7
100
AcDbCircle
 10
-0.0024619955883676
 20
-0.0014219367390176
 30
0.0
 40
25.997912382373006
100
AcDbArc
 50
272.20983451334831
 51
327.81326260263688
  0
ARC
  5
B7
100
AcDbEntity
  8
0
  6
CONTINUOUS
 62
               7
100
AcDbCircle
 10
0.0024619955883676
 20
-0.0014219367390176
 30
0.0
 40
25.997912382373006
100
AcDbArc
 50
212.18673739736192
 51
267.79016548665044
  0
ARC
  5
B8
100
AcDbEntity
  8
0
  6
CONTINUOUS
 62
               7
100
AcDbCircle
 10
0.0
 20
0.0
 30
0.0
 40
25.997969151454889
100
AcDbArc
 50
152.21271913215691
 51
207.7872808678423
  0
ARC
  5
B9
100
AcDbEntity
  8
0
  6
CONTINUOUS
 62
               7
100
AcDbCircle
 10
-0.0024619955883676
 20
0.0014219367390176
 30
0.0
 40
25.997912382373006
100
AcDbArc
 50
32.18673739736235
 51
87.790165486650864
  0
ARC
  5
BA
100
AcDbEntity
  8
0
  6
CONTINUOUS
 62
               7
100
AcDbCircle
 10
0.0010157483454059
 20
0.0041050127857911
 30
0.0
 40
25.998984575727444
100
AcDbArc
 50
332.20367227519239
 51
359.99095349636497
  0
ARC
  5
BB
100
AcDbEntity
  8
0
  6
CONTINUOUS
 62
               7
100
AcDbCircle
 10
0.0010157483454059
 20
-0.0041050127857911
 30
0.0
 40
25.998984575727444
100
AcDbArc
 50
0.0090465036342187
 51
27.796327724806826
  0
CIRCLE
  5
BC
100
AcDbEntity
  8
0
  6
CONTINUOUS
 62
               7
100
AcDbCircle
 10
0.0
 20
0.0
 30
0.0
 40
18.0
  0
CIRCLE
  5
BD
100
AcDbEntity
  8
0
  6
CONTINUOUS
 62
               2
100
AcDbCircle
 10
0.0
 20
0.0
 30
0.0
 40
16.5
  0
CIRCLE
  5
BE
100
AcDbEntity
  8
0
  6
CONTINUOUS
 62
               7
100
AcDbCircle
 10
0.0
 20
0.0
 30
0.0
 40
23.0
  0
CIRCLE
  5
BF
100
AcDbEntity
  8
0
  6
CONTINUOUS
 62
               2
100
AcDbCircle
 10
0.0
 20
0.0
 30
0.0
 40
6.1879997253417969
  0
CIRCLE
  5
C0
100
AcDbEntity
  8
0
  6
CONTINUOUS
 62
               7
100
AcDbCircle
 10
0.0
 20
0.0
 30
0.0
 40
7.0
  0
CIRCLE
  5
C1
100
AcDbEntity
  8
0
  6
CONTINUOUS
 62
               7
100
AcDbCircle
 10
0.0
 20
0.0
 30
0.0
 40
9.5
  0
LINE
  5
C2
100
AcDbEntity
  8
0
  6
CONTINUOUS
 62
               7
100
AcDbLine
 10
36.600000000000001
 20
2.5
 30
0.0
 11
36.600000000000001
 21
-2.5
 31
0.0
  0
LINE
  5
C3
100
AcDbEntity
  8
0
  6
CONTINUOUS
 62
               7
100
AcDbLine
 10
37.100000000000001
 20
-2.0
 30
0.0
 11
36.600000000000001
 21
-2.5
 31
0.0
  0
LINE
  5
C4
100
AcDbEntity
  8
0
  6
CONTINUOUS
 62
               7
100
AcDbLine
 10
36.600000000000001
 20
2.5
 30
0.0
 11
37.100000000000001
 21
2.0
 31
0.0
  0
LINE
  5
C5
100
AcDbEntity
  8
0
  6
CONTINUOUS
 62
               7
100
AcDbLine
 10
37.100000000000001
 20
-2.0
 30
0.0
 11
38.600000000000001
 21
-2.0
 31
0.0
  0
LINE
  5
C6
100
AcDbEntity
  8
0
  6
CONTINUOUS
 62
               7
100
AcDbLine
 10
37.100000000000001
 20
2.0
 30
0.0
 11
38.600000000000001
 21
2.0
 31
0.0
  0
LINE
  5
C7
100
AcDbEntity
  8
0
  6
CONTINUOUS
 62
               7
100
AcDbLine
 10
-20.629999999999999
 20
-14.98
 30
0.0
 11
-20.420000000000002
 21
-14.76
 31
0.0
  0
LINE
  5
C8
100
AcDbEntity
  8
0
  6
CENTER
 62
               2
100
AcDbLine
 10
-36.350000000000001
 20
0.0
 30
0.0
 11
41.369999999999997
 21
0.0
 31
0.0
  0
LINE
  5
C9
100
AcDbEntity
  8
0
  6
CONTINUOUS
 62
               2
100
AcDbLine
 10
36.399999999999999
 20
2.1000000000000001
 30
0.0
 11
37.0
 21
2.1000000000000001
 31
0.0
  0
LINE
  5
CA
100
AcDbEntity
  8
0
  6
CONTINUOUS
 62
               2
100
AcDbLine
 10
36.399999999999999
 20
-2.1000000000000001
 30
0.0
 11
37.0
 21
-2.1000000000000001
 31
0.0
  0
LINE
  5
CB
100
AcDbEntity
  8
0
  6
CONTINUOUS
 62
               7
100
AcDbLine
 10
38.600000000000001
 20
2.0
 30
0.0
 11
38.600000000000001
 21
-2.0
 31
0.0
  0
LINE
  5
CC
100
AcDbEntity
  8
0
  6
CONTINUOUS
 62
               7
100
AcDbLine
 10
37.100000000000001
 20
2.0
 30
0.0
 11
37.100000000000001
 21
-2.0
 31
0.0
  0
LINE
  5
CD
100
AcDbEntity
  8
0
  6
CONTINUOUS
 62
               7
100
AcDbLine
 10
36.399999999999999
 20
2.5
 30
0.0
 11
36.600000000000001
 21
2.5
 31
0.0
  0
LINE
  5
CE
100
AcDbEntity
  8
0
  6
CONTINUOUS
 62
               7
100
AcDbLine
 10
36.399999999999999
 20
-2.5
 30
0.0
 11
36.600000000000001
 21
-2.5
 31
0.0
  0
LINE
  5
CF
100
AcDbEntity
  8
0
  6
CONTINUOUS
 62
               7
100
AcDbLine
 10
32.799999999999997
 20
-5.0
 30
0.0
 11
33.229999999999997
 21
-5.75
 31
0.0
  0
LINE
  5
D0
100
AcDbEntity
  8
0
  6
CONTINUOUS
 62
               7
100
AcDbLine
 10
35.960000000000001
 20
5.75
 30
0.0
 11
36.399999999999999
 21
5.0
 31
0.0
  0
LINE
  5
D1
100
AcDbEntity
  8
0
  6
CONTINUOUS
 62
               7
100
AcDbLine
 10
35.960000000000001
 20
-5.75
 30
0.0
 11
36.399999999999999
 21
-5.0
 31
0.0
  0
LINE
  5
D2
100
AcDbEntity
  8
0
  6
CONTINUOUS
 62
               7
100
AcDbLine
 10
32.799999999999997
 20
5.0
 30
0.0
 11
33.229999999999997
 21
5.75
 31
0.0
  0
LINE
  5
D3
100
AcDbEntity
  8
0
  6
CONTINUOUS
 62
               7
100
AcDbLine
 10
36.399999999999999
 20
5.0
 30
0.0
 11
36.399999999999999
 21
-5.0
 31
0.0
  0
LINE
  5
D4
100
AcDbEntity
  8
0
  6
CONTINUOUS
 62
               7
100
AcDbLine
 10
33.229999999999997
 20
-2.8700000000000001
 30
0.0
 11
35.960000000000001
 21
-2.8700000000000001
 31
0.0
  0
LINE
  5
D5
100
AcDbEntity
  8
0
  6
CONTINUOUS
 62
               7
100
AcDbLine
 10
33.229999999999997
 20
2.8700000000000001
 30
0.0
 11
35.960000000000001
 21
2.8700000000000001
 31
0.0
  0
LINE
  5
D6
100
AcDbEntity
  8
0
  6
CONTINUOUS
 62
               7
100
AcDbLine
 10
33.229999999999997
 20
-5.75
 30
0.0
 11
35.960000000000001
 21
-5.75
 31
0.0
  0
LINE
  5
D7
100
AcDbEntity
  8
0
  6
CONTINUOUS
 62
               7
100
AcDbLine
 10
33.229999999999997
 20
5.75
 30
0.0
 11
35.960000000000001
 21
5.75
 31
0.0
  0
LINE
  5
D8
100
AcDbEntity
  8
0
  6
CONTINUOUS
 62
               7
100
AcDbLine
 10
32.090000000000003
 20
-6.25
 30
0.0
 11
32.799999999999997
 21
-6.25
 31
0.0
  0
LINE
  5
D9
100
AcDbEntity
  8
0
  6
CONTINUOUS
 62
               7
100
AcDbLine
 10
32.090000000000003
 20
6.25
 30
0.0
 11
32.799999999999997
 21
6.25
 31
0.0
  0
LINE
  5
DA
100
AcDbEntity
  8
0
  6
CONTINUOUS
 62
               7
100
AcDbLine
 10
32.799999999999997
 20
6.25
 30
0.0
 11
32.799999999999997
 21
-6.25
 31
0.0
  0
LINE
  5
DB
100
AcDbEntity
  8
0
  6
CONTINUOUS
 62
               7
100
AcDbLine
 10
-23.0
 20
-13.27
 30
0.0
 11
0.0
 21
-26.550000000000001
 31
0.0
  0
LINE
  5
DC
100
AcDbEntity
  8
0
  6
CONTINUOUS
 62
               7
100
AcDbLine
 10
0.0
 20
26.550000000000001
 30
0.0
 11
23.0
 21
13.27
 31
0.0
  0
LINE
  5
DD
100
AcDbEntity
  8
0
  6
CONTINUOUS
 62
               7
100
AcDbLine
 10
0.0
 20
-26.550000000000001
 30
0.0
 11
23.0
 21
-13.27
 31
0.0
  0
LINE
  5
DE
100
AcDbEntity
  8
0
  6
CONTINUOUS
 62
               7
100
AcDbLine
 10
-23.0
 20
13.27
 30
0.0
 11
0.0
 21
26.550000000000001
 31
0.0
  0
LINE
  5
DF
100
AcDbEntity
  8
0
  6
CONTINUOUS
 62
               7
100
AcDbLine
 10
23.0
 20
13.27
 30
0.0
 11
23.0
 21
-13.27
 31
0.0
  0
LINE
  5
E0
100
AcDbEntity
  8
0
  6
CONTINUOUS
 62
               7
100
AcDbLine
 10
-23.0
 20
13.27
 30
0.0
 11
-23.0
 21
-13.27
 31
0.0
  0
LINE
  5
E1
100
AcDbEntity
  8
0
  6
CONTINUOUS
 62
               7
100
AcDbLine
 10
-9.5
 20
-5.4800000000000004
 30
0.0
 11
0.0
 21
-10.970000000000001
 31
0.0
  0
LINE
  5
E2
100
AcDbEntity
  8
0
  6
CONTINUOUS
 62
               7
100
AcDbLine
 10
0.0
 20
10.970000000000001
 30
0.0
 11
9.5
 21
5.4800000000000004
 31
0.0
  0
LINE
  5
E3
100
AcDbEntity
  8
0
  6
CONTINUOUS
 62
               7
100
AcDbLine
 10
0.0
 20
-10.970000000000001
 30
0.0
 11
9.5
 21
-5.4800000000000004
 31
0.0
  0
LINE
  5
E4
100
AcDbEntity
  8
0
  6
CONTINUOUS
 62
               7
100
AcDbLine
 10
-9.5
 20
5.4800000000000004
 30
0.0
 11
0.0
 21
10.970000000000001
 31
0.0
  0
LINE
  5
E5
100
AcDbEntity
  8
0
  6
CONTINUOUS
 62
               7
100
AcDbLine
 10
9.5
 20
5.4800000000000004
 30
0.0
 11
9.5
 21
-5.4800000000000004
 31
0.0
  0
LINE
  5
E6
100
AcDbEntity
  8
0
  6
CONTINUOUS
 62
               7
100
AcDbLine
 10
-9.5
 20
5.4800000000000004
 30
0.0
 11
-9.5
 21
-5.4800000000000004
 31
0.0
  0
LINE
  5
E7
100
AcDbEntity
  8
0
  6
CENTER
 62
               2
100
AcDbLine
 10
0.0
 20
34.039999999999999
 30
0.0
 11
0.0
 21
-36.240000000000002
 31
0.0
  0
ENDBLK
  5
E8
100
AcDbEntity
  8
0
100
AcDbBlockEnd
  0
BLOCK
  5
E9
100
AcDbEntity
  8
0
100
AcDbBlockBegin
  2
MS_3
 70
               0
 10
0.0
 20
0.0
 30
0.0
  3
MS_3
  1

  0
SPLINE
  5
EA
100
AcDbEntity
  8
0
  6
CONTINUOUS
 62
               7
100
AcDbSpline
210
0.0
220
0.0
230
1.0
 70
               0
 71
               3
 72
               0
 73
               0
 74
               5
 44
0.000001
 12
-0.5160406521158439
 22
-0.8565640929690286
 32
0.0
 13
0.5160406521158435
 23
-0.8565640929690288
 33
0.0
 11
-35.960000000000001
 21
5.75
 31
0.0
 11
-36.276841587066897
 21
5.0584134054463155
 31
0.0
 11
-36.399999999999999
 21
4.3099999999999996
 31
0.0
 11
-36.276841587591079
 21
3.5615865945536846
 31
0.0
 11
-35.960000000000001
 21
2.8699999999999992
 31
0.0
  0
SPLINE
  5
EB
100
AcDbEntity
  8
0
  6
CONTINUOUS
 62
               7
100
AcDbSpline
210
0.0
220
0.0
230
1.0
 70
               0
 71
               3
 72
               0
 73
               0
 74
               5
 44
0.000001
 12
-0.5160406521158439
 22
-0.8565640929690286
 32
0.0
 13
0.5160406521158444
 23
-0.8565640929690283
 33
0.0
 11
-35.960000000000001
 21
-2.8700000000000001
 31
0.0
 11
-36.276841587066897
 21
-3.5615865945536846
 31
0.0
 11
-36.399999999999999
 21
-4.3099999999999996
 31
0.0
 11
-36.276841587591079
 21
-5.0584134054463146
 31
0.0
 11
-35.960000000000001
 21
-5.7499999999999991
 31
0.0
  0
SPLINE
  5
EC
100
AcDbEntity
  8
0
  6
CONTINUOUS
 62
               7
100
AcDbSpline
210
0.0
220
0.0
230
1.0
 70
               0
 71
               3
 72
               0
 73
               0
 74
               5
 44
0.000001
 12
-0.2884256235275012
 22
-0.9575023027088615
 32
0.0
 13
0.2884256235275008
 23
-0.9575023027088616
 33
0.0
 11
-35.960000000000001
 21
2.8700000000000001
 31
0.0
 11
-36.28482201548487
 21
1.4520873624140389
 31
0.0
 11
-36.399999999999999
 21
0.0
 31
0.0
 11
-36.28482201573383
 21
-1.4520873624140387
 31
0.0
 11
-35.960000000000001
 21
-2.870000000000001
 31
0.0
  0
SPLINE
  5
ED
100
AcDbEntity
  8
0
  6
CONTINUOUS
 62
               7
100
AcDbSpline
210
0.0
220
0.0
230
1.0
 70
               0
 71
               3
 72
               0
 73
               0
 74
               5
 44
0.000001
 12
0.516040623622764
 22
-0.8565641101348041
 32
0.0
 13
-0.5160406236227644
 23
-0.8565641101348039
 33
0.0
 11
-33.229999999999997
 21
-2.8700000000000001
 31
0.0
 11
-32.918158463257022
 21
-3.5615865256599299
 31
0.0
 11
-32.799999999999997
 21
-4.3099999999999996
 31
0.0
 11
-32.918158462732848
 21
-5.0584134743400693
 31
0.0
 11
-33.229999999999997
 21
-5.75
 31
0.0
  0
SPLINE
  5
EE
100
AcDbEntity
  8
0
  6
CONTINUOUS
 62
               7
100
AcDbSpline
210
0.0
220
0.0
230
1.0
 70
               0
 71
               3
 72
               0
 73
               0
 74
               5
 44
0.000001
 12
0.2884256340544001
 22
-0.9575022995378744
 32
0.0
 13
-0.2884256340544003
 23
-0.9575022995378744
 33
0.0
 11
-33.229999999999997
 21
2.8700000000000001
 31
0.0
 11
-32.910178009957164
 21
1.4520872212322948
 31
0.0
 11
-32.799999999999997
 21
0.0
 31
0.0
 11
-32.910178009708197
 21
-1.4520872212322946
 31
0.0
 11
-33.229999999999997
 21
-2.8699999999999988
 31
0.0
  0
SPLINE
  5
EF
100
AcDbEntity
  8
0
  6
CONTINUOUS
 62
               7
100
AcDbSpline
210
0.0
220
0.0
230
1.0
 70
               0
 71
               3
 72
               0
 73
               0
 74
               5
 44
0.000001
 12
0.516040623622764
 22
-0.8565641101348041
 32
0.0
 13
-0.5160406236227639
 23
-0.8565641101348042
 33
0.0
 11
-33.229999999999997
 21
5.75
 31
0.0
 11
-32.918158463257022
 21
5.0584134743400702
 31
0.0
 11
-32.799999999999997
 21
4.3099999999999996
 31
0.0
 11
-32.918158462732848
 21
3.5615865256599299
 31
0.0
 11
-33.229999999999997
 21
2.8700000000000001
 31
0.0
  0
CIRCLE
  5
F0
100
AcDbEntity
  8
0
  6
CONTINUOUS
 62
               7
100
AcDbCircle
 10
0.0
 20
0.0
 30
0.0
 40
32.699996948242188
  0
CIRCLE
  5
F1
100
AcDbEntity
  8
0
  6
CONTINUOUS
 62
               2
100
AcDbCircle
 10
0.0
 20
0.0
 30
0.0
 40
17.0
  0
CIRCLE
  5
F2
100
AcDbEntity
  8
0
  6
CONTINUOUS
 62
               7
100
AcDbCircle
 10
0.0
 20
0.0
 30
0.0
 40
18.0
  0
LINE
  5
F3
100
AcDbEntity
  8
0
  6
CONTINUOUS
 62
               7
100
AcDbLine
 10
-36.600000000000001
 20
2.5
 30
0.0
 11
-36.600000000000001
 21
-2.5
 31
0.0
  0
LINE
  5
F4
100
AcDbEntity
  8
0
  6
CONTINUOUS
 62
               7
100
AcDbLine
 10
-37.100000000000001
 20
-2.0
 30
0.0
 11
-36.600000000000001
 21
-2.5
 31
0.0
  0
LINE
  5
F5
100
AcDbEntity
  8
0
  6
CONTINUOUS
 62
               7
100
AcDbLine
 10
-36.600000000000001
 20
2.5
 30
0.0
 11
-37.100000000000001
 21
2.0
 31
0.0
  0
LINE
  5
F6
100
AcDbEntity
  8
0
  6
CONTINUOUS
 62
               7
100
AcDbLine
 10
-37.100000000000001
 20
-2.0
 30
0.0
 11
-38.600000000000001
 21
-2.0
 31
0.0
  0
LINE
  5
F7
100
AcDbEntity
  8
0
  6
CONTINUOUS
 62
               7
100
AcDbLine
 10
-37.100000000000001
 20
2.0
 30
0.0
 11
-38.600000000000001
 21
2.0
 31
0.0
  0
LINE
  5
F8
100
AcDbEntity
  8
0
  6
CENTER
 62
               2
100
AcDbLine
 10
36.659999999999997
 20
0.0
 30
0.0
 11
-41.060000000000002
 21
0.0
 31
0.0
  0
LINE
  5
F9
100
AcDbEntity
  8
0
  6
CONTINUOUS
 62
               2
100
AcDbLine
 10
-36.399999999999999
 20
2.1000000000000001
 30
0.0
 11
-37.0
 21
2.1000000000000001
 31
0.0
  0
LINE
  5
FA
100
AcDbEntity
  8
0
  6
CONTINUOUS
 62
               2
100
AcDbLine
 10
-36.399999999999999
 20
-2.1000000000000001
 30
0.0
 11
-37.0
 21
-2.1000000000000001
 31
0.0
  0
LINE
  5
FB
100
AcDbEntity
  8
0
  6
CONTINUOUS
 62
               7
100
AcDbLine
 10
-38.600000000000001
 20
2.0
 30
0.0
 11
-38.600000000000001
 21
-2.0
 31
0.0
  0
LINE
  5
FC
100
AcDbEntity
  8
0
  6
CONTINUOUS
 62
               7
100
AcDbLine
 10
-37.100000000000001
 20
2.0
 30
0.0
 11
-37.100000000000001
 21
-2.0
 31
0.0
  0
LINE
  5
FD
100
AcDbEntity
  8
0
  6
CONTINUOUS
 62
               7
100
AcDbLine
 10
-36.399999999999999
 20
2.5
 30
0.0
 11
-36.600000000000001
 21
2.5
 31
0.0
  0
LINE
  5
FE
100
AcDbEntity
  8
0
  6
CONTINUOUS
 62
               7
100
AcDbLine
 10
-36.399999999999999
 20
-2.5
 30
0.0
 11
-36.600000000000001
 21
-2.5
 31
0.0
  0
LINE
  5
FF
100
AcDbEntity
  8
0
  6
CONTINUOUS
 62
               7
100
AcDbLine
 10
-32.799999999999997
 20
-5.0
 30
0.0
 11
-33.229999999999997
 21
-5.75
 31
0.0
  0
LINE
  5
100
100
AcDbEntity
  8
0
  6
CONTINUOUS
 62
               7
100
AcDbLine
 10
-35.960000000000001
 20
5.75
 30
0.0
 11
-36.399999999999999
 21
5.0
 31
0.0
  0
LINE
  5
101
100
AcDbEntity
  8
0
  6
CONTINUOUS
 62
               7
100
AcDbLine
 10
-35.960000000000001
 20
-5.75
 30
0.0
 11
-36.399999999999999
 21
-5.0
 31
0.0
  0
LINE
  5
102
100
AcDbEntity
  8
0
  6
CONTINUOUS
 62
               7
100
AcDbLine
 10
-32.799999999999997
 20
5.0
 30
0.0
 11
-33.229999999999997
 21
5.75
 31
0.0
  0
LINE
  5
103
100
AcDbEntity
  8
0
  6
CONTINUOUS
 62
               7
100
AcDbLine
 10
-36.399999999999999
 20
5.0
 30
0.0
 11
-36.399999999999999
 21
-5.0
 31
0.0
  0
LINE
  5
104
100
AcDbEntity
  8
0
  6
CONTINUOUS
 62
               7
100
AcDbLine
 10
-33.229999999999997
 20
-2.8700000000000001
 30
0.0
 11
-35.960000000000001
 21
-2.8700000000000001
 31
0.0
  0
LINE
  5
105
100
AcDbEntity
  8
0
  6
CONTINUOUS
 62
               7
100
AcDbLine
 10
-33.229999999999997
 20
2.8700000000000001
 30
0.0
 11
-35.960000000000001
 21
2.8700000000000001
 31
0.0
  0
LINE
  5
106
100
AcDbEntity
  8
0
  6
CONTINUOUS
 62
               7
100
AcDbLine
 10
-33.229999999999997
 20
-5.75
 30
0.0
 11
-35.960000000000001
 21
-5.75
 31
0.0
  0
LINE
  5
107
100
AcDbEntity
  8
0
  6
CONTINUOUS
 62
               7
100
AcDbLine
 10
-33.229999999999997
 20
5.75
 30
0.0
 11
-35.960000000000001
 21
5.75
 31
0.0
  0
LINE
  5
108
100
AcDbEntity
  8
0
  6
CONTINUOUS
 62
               7
100
AcDbLine
 10
-31.93
 20
-6.25
 30
0.0
 11
-32.799999999999997
 21
-6.25
 31
0.0
  0
LINE
  5
109
100
AcDbEntity
  8
0
  6
CONTINUOUS
 62
               7
100
AcDbLine
 10
-31.93
 20
6.25
 30
0.0
 11
-32.799999999999997
 21
6.25
 31
0.0
  0
LINE
  5
10A
100
AcDbEntity
  8
0
  6
CONTINUOUS
 62
               7
100
AcDbLine
 10
-32.799999999999997
 20
6.25
 30
0.0
 11
-32.799999999999997
 21
-6.25
 31
0.0
  0
LINE
  5
10B
100
AcDbEntity
  8
0
  6
CENTER
 62
               2
100
AcDbLine
 10
0.0
 20
37.600000000000001
 30
0.0
 11
0.0
 21
-37.270000000000003
 31
0.0
  0
ENDBLK
  5
10C
100
AcDbEntity
  8
0
100
AcDbBlockEnd
  0
BLOCK
  5
10D
100
AcDbEntity
  8
0
100
AcDbBlockBegin
  2
MS_4
 70
               0
 10
0.0
 20
0.0
 30
0.0
  3
MS_4
  1

  0
ARC
  5
10E
100
AcDbEntity
  8
0
  6
CONTINUOUS
 62
               7
100
AcDbCircle
 10
19.5
 20
-29.782150268539553
 30
0.0
 40
7.2148312515005664
100
AcDbArc
 50
249.72609556150778
 51
290.27390443849094
  0
ARC
  5
10F
100
AcDbEntity
  8
0
  6
CONTINUOUS
 62
               7
100
AcDbCircle
 10
19.5
 20
-40.623535156265106
 30
0.0
 40
7.2295469578864111
100
AcDbArc
 50
69.769170206455627
 51
110.23082979354399
  0
ARC
  5
110
100
AcDbEntity
  8
0
  6
CONTINUOUS
 62
               7
100
AcDbCircle
 10
24.5
 20
-40.623535156265106
 30
0.0
 40
7.2295469578864111
100
AcDbArc
 50
69.769170206455627
 51
110.23082979354399
  0
ARC
  5
111
100
AcDbEntity
  8
0
  6
CONTINUOUS
 62
               7
100
AcDbCircle
 10
24.5
 20
-29.782150268539553
 30
0.0
 40
7.2148312515005664
100
AcDbArc
 50
249.72609556150778
 51
290.27390443849094
  0
ARC
  5
112
100
AcDbEntity
  8
0
  6
CONTINUOUS
 62
               7
100
AcDbCircle
 10
120.5
 20
-29.782150268554688
 30
0.0
 40
7.2148312514863679
100
AcDbArc
 50
249.72609556146617
 51
290.27390443853261
  0
ARC
  5
113
100
AcDbEntity
  8
0
  6
CONTINUOUS
 62
               7
100
AcDbCircle
 10
120.5
 20
-40.62353515625
 30
0.0
 40
7.229546957872234
100
AcDbArc
 50
69.769170206414231
 51
110.23082979358539
  0
ARC
  5
114
100
AcDbEntity
  8
0
  6
CONTINUOUS
 62
               7
100
AcDbCircle
 10
115.5
 20
-29.782150268554688
 30
0.0
 40
7.2148312514863679
100
AcDbArc
 50
249.72609556146617
 51
290.27390443853261
  0
ARC
  5
115
100
AcDbEntity
  8
0
  6
CONTINUOUS
 62
               7
100
AcDbCircle
 10
115.5
 20
-40.62353515625
 30
0.0
 40
7.229546957872234
100
AcDbArc
 50
69.769170206414231
 51
110.23082979358539
  0
ARC
  5
116
100
AcDbEntity
  8
0
  6
CONTINUOUS
 62
               7
100
AcDbCircle
 10
16.216094970703139
 20
11.5
 30
0.0
 40
33.210724981901151
100
AcDbArc
 50
159.7404345881119
 51
200.25956541188731
  0
ARC
  5
117
100
AcDbEntity
  8
0
  6
CONTINUOUS
 62
               7
100
AcDbCircle
 10
16.216094970703125
 20
-11.5
 30
0.0
 40
33.210724981901137
100
AcDbArc
 50
159.7404345881119
 51
200.25956541188731
  0
ARC
  5
118
100
AcDbEntity
  8
0
  6
CONTINUOUS
 62
               7
100
AcDbCircle
 10
-49.7196044921875
 20
-4.75
 30
0.0
 40
13.727589441528922
100
AcDbArc
 50
339.75601839681917
 51
20.243981603180043
  0
ARC
  5
119
100
AcDbEntity
  8
0
  6
CONTINUOUS
 62
               7
100
AcDbCircle
 10
-30.280380249023438
 20
-4.75
 30
0.0
 40
13.718221915930869
100
AcDbArc
 50
159.74158857549017
 51
200.25841142450901
  0
ARC
  5
11A
100
AcDbEntity
  8
0
  6
CONTINUOUS
 62
               7
100
AcDbCircle
 10
-49.7196044921875
 20
4.75
 30
0.0
 40
13.727589441528922
100
AcDbArc
 50
339.75601839681917
 51
20.243981603180043
  0
ARC
  5
11B
100
AcDbEntity
  8
0
  6
CONTINUOUS
 62
               7
100
AcDbCircle
 10
-30.280380249023438
 20
4.75
 30
0.0
 40
13.718221915930869
100
AcDbArc
 50
159.74158857549017
 51
200.25841142450901
  0
CIRCLE
  5
11C
100
AcDbEntity
  8
0
  6
CONTINUOUS
 62
               7
100
AcDbCircle
 10
118.0
 20
0.0
 30
0.0
 40
5.7224998474121094
  0
CIRCLE
  5
11D
100
AcDbEntity
  8
0
  6
CONTINUOUS
 62
               2
100
AcDbCircle
 10
118.0
 20
0.0
 30
0.0
 40
6.5784997940063477
  0
CIRCLE
  5
11E
100
AcDbEntity
  8
0
  6
CONTINUOUS
 62
               7
100
AcDbCircle
 10
22.0
 20
0.0
 30
0.0
 40
5.7224998474121094
  0
CIRCLE
  5
11F
100
AcDbEntity
  8
0
  6
CONTINUOUS
 62
               2
100
AcDbCircle
 10
22.0
 20
0.0
 30
0.0
 40
6.5784997940063477
  0
LINE
  5
120
100
AcDbEntity
  8
0
  6
CONTINUOUS
 62
               7
100
AcDbLine
 10
17.0
 20
-33.399999999999999
 30
0.0
 11
17.0
 21
-37.0
 31
0.0
  0
LINE
  5
121
100
AcDbEntity
  8
0
  6
CONTINUOUS
 62
               7
100
AcDbLine
 10
27.0
 20
-33.399999999999999
 30
0.0
 11
27.0
 21
-37.0
 31
0.0
  0
LINE
  5
122
100
AcDbEntity
  8
0
  6
CONTINUOUS
 62
               7
100
AcDbLine
 10
27.0
 20
-37.0
 30
0.0
 11
17.0
 21
-37.0
 31
0.0
  0
LINE
  5
123
100
AcDbEntity
  8
0
  6
CONTINUOUS
 62
               7
100
AcDbLine
 10
113.0
 20
-33.399999999999999
 30
0.0
 11
113.0
 21
-37.0
 31
0.0
  0
LINE
  5
124
100
AcDbEntity
  8
0
  6
CONTINUOUS
 62
               7
100
AcDbLine
 10
123.0
 20
-33.399999999999999
 30
0.0
 11
123.0
 21
-37.0
 31
0.0
  0
LINE
  5
125
100
AcDbEntity
  8
0
  6
CONTINUOUS
 62
               7
100
AcDbLine
 10
-6.5
 20
-23.0
 30
0.0
 11
-6.5
 21
23.0
 31
0.0
  0
LINE
  5
126
100
AcDbEntity
  8
0
  6
CONTINUOUS
 62
               7
100
AcDbLine
 10
-17.0
 20
-23.0
 30
0.0
 11
-6.0
 21
-23.0
 31
0.0
  0
LINE
  5
127
100
AcDbEntity
  8
0
  6
CONTINUOUS
 62
               7
100
AcDbLine
 10
-17.0
 20
23.0
 30
0.0
 11
-6.0
 21
23.0
 31
0.0
  0
LINE
  5
128
100
AcDbEntity
  8
0
  6
CONTINUOUS
 62
               7
100
AcDbLine
 10
-44.0
 20
9.5
 30
0.0
 11
-36.0
 21
9.5
 31
0.0
  0
LINE
  5
129
100
AcDbEntity
  8
0
  6
CONTINUOUS
 62
               7
100
AcDbLine
 10
-44.0
 20
-9.5
 30
0.0
 11
-36.0
 21
-9.5
 31
0.0
  0
LINE
  5
12A
100
AcDbEntity
  8
0
  6
CONTINUOUS
 62
               2
100
AcDbLine
 10
-17.0
 20
16.91
 30
0.0
 11
-19.5
 21
16.91
 31
0.0
  0
LINE
  5
12B
100
AcDbEntity
  8
0
  6
CONTINUOUS
 62
               2
100
AcDbLine
 10
-17.0
 20
-16.91
 30
0.0
 11
-19.5
 21
-16.91
 31
0.0
  0
LINE
  5
12C
100
AcDbEntity
  8
0
  6
CONTINUOUS
 62
               2
100
AcDbLine
 10
-5.0
 20
-16.91
 30
0.0
 11
-6.0
 21
-16.91
 31
0.0
  0
LINE
  5
12D
100
AcDbEntity
  8
0
  6
CONTINUOUS
 62
               2
100
AcDbLine
 10
-5.0
 20
16.91
 30
0.0
 11
-6.0
 21
16.91
 31
0.0
  0
LINE
  5
12E
100
AcDbEntity
  8
0
  6
CONTINUOUS
 62
               7
100
AcDbLine
 10
20.0
 20
-37.700000000000003
 30
0.0
 11
19.5
 21
-37.200000000000003
 31
0.0
  0
LINE
  5
12F
100
AcDbEntity
  8
0
  6
CONTINUOUS
 62
               7
100
AcDbLine
 10
24.0
 20
-37.700000000000003
 30
0.0
 11
24.5
 21
-37.200000000000003
 31
0.0
  0
LINE
  5
130
100
AcDbEntity
  8
0
  6
CONTINUOUS
 62
               7
100
AcDbLine
 10
24.5
 20
-37.200000000000003
 30
0.0
 11
19.5
 21
-37.200000000000003
 31
0.0
  0
LINE
  5
131
100
AcDbEntity
  8
0
  6
CONTINUOUS
 62
               7
100
AcDbLine
 10
20.0
 20
-37.700000000000003
 30
0.0
 11
20.0
 21
-39.200000000000003
 31
0.0
  0
LINE
  5
132
100
AcDbEntity
  8
0
  6
CONTINUOUS
 62
               7
100
AcDbLine
 10
24.0
 20
-37.700000000000003
 30
0.0
 11
24.0
 21
-39.200000000000003
 31
0.0
  0
LINE
  5
133
100
AcDbEntity
  8
0
  6
CONTINUOUS
 62
               2
100
AcDbLine
 10
19.899999999999999
 20
-37.0
 30
0.0
 11
19.899999999999999
 21
-37.600000000000001
 31
0.0
  0
LINE
  5
134
100
AcDbEntity
  8
0
  6
CONTINUOUS
 62
               7
100
AcDbLine
 10
24.0
 20
-39.200000000000003
 30
0.0
 11
20.0
 21
-39.200000000000003
 31
0.0
  0
LINE
  5
135
100
AcDbEntity
  8
0
  6
CONTINUOUS
 62
               7
100
AcDbLine
 10
24.0
 20
-37.700000000000003
 30
0.0
 11
20.0
 21
-37.700000000000003
 31
0.0
  0
LINE
  5
136
100
AcDbEntity
  8
0
  6
CONTINUOUS
 62
               7
100
AcDbLine
 10
24.5
 20
-37.0
 30
0.0
 11
24.5
 21
-37.200000000000003
 31
0.0
  0
LINE
  5
137
100
AcDbEntity
  8
0
  6
CONTINUOUS
 62
               7
100
AcDbLine
 10
19.5
 20
-37.0
 30
0.0
 11
19.5
 21
-37.200000000000003
 31
0.0
  0
LINE
  5
138
100
AcDbEntity
  8
0
  6
CONTINUOUS
 62
               2
100
AcDbLine
 10
24.100000000000001
 20
-37.0
 30
0.0
 11
24.100000000000001
 21
-37.600000000000001
 31
0.0
  0
LINE
  5
139
100
AcDbEntity
  8
0
  6
CONTINUOUS
 62
               7
100
AcDbLine
 10
28.25
 20
-33.399999999999999
 30
0.0
 11
15.75
 21
-33.399999999999999
 31
0.0
  0
LINE
  5
13A
100
AcDbEntity
  8
0
  6
CONTINUOUS
 62
               7
100
AcDbLine
 10
22.0
 20
-33.840000000000003
 30
0.0
 11
22.0
 21
-36.549999999999997
 31
0.0
  0
LINE
  5
13B
100
AcDbEntity
  8
0
  6
CONTINUOUS
 62
               7
100
AcDbLine
 10
123.0
 20
-37.0
 30
0.0
 11
113.0
 21
-37.0
 31
0.0
  0
LINE
  5
13C
100
AcDbEntity
  8
0
  6
CONTINUOUS
 62
               7
100
AcDbLine
 10
15.75
 20
-32.700000000000003
 30
0.0
 11
15.75
 21
-33.399999999999999
 31
0.0
  0
LINE
  5
13D
100
AcDbEntity
  8
0
  6
CONTINUOUS
 62
               7
100
AcDbLine
 10
28.25
 20
-32.700000000000003
 30
0.0
 11
28.25
 21
-33.399999999999999
 31
0.0
  0
LINE
  5
13E
100
AcDbEntity
  8
0
  6
CONTINUOUS
 62
               7
100
AcDbLine
 10
27.0
 20
-33.399999999999999
 30
0.0
 11
17.0
 21
-33.399999999999999
 31
0.0
  0
LINE
  5
13F
100
AcDbEntity
  8
0
  6
CONTINUOUS
 62
               2
100
AcDbLine
 10
22.0
 20
-31.16
 30
0.0
 11
22.0
 21
-40.170000000000002
 31
0.0
  0
LINE
  5
140
100
AcDbEntity
  8
0
  6
CONTINUOUS
 62
               7
100
AcDbLine
 10
-22.0
 20
-7.0
 30
0.0
 11
-21.0
 21
-8.0
 31
0.0
  0
LINE
  5
141
100
AcDbEntity
  8
0
  6
CONTINUOUS
 62
               7
100
AcDbLine
 10
-21.0
 20
-8.0
 30
0.0
 11
-20.0
 21
-8.0
 31
0.0
  0
LINE
  5
142
100
AcDbEntity
  8
0
  6
CONTINUOUS
 62
               7
100
AcDbLine
 10
-22.0
 20
7.0
 30
0.0
 11
-21.0
 21
8.0
 31
0.0
  0
LINE
  5
143
100
AcDbEntity
  8
0
  6
DASHED
 62
               2
100
AcDbLine
 10
2.5
 20
-27.699999999999999
 30
0.0
 11
2.5
 21
-31.699999999999999
 31
0.0
  0
LINE
  5
144
100
AcDbEntity
  8
0
  6
DASHED
 62
               2
100
AcDbLine
 10
2.8999999999999999
 20
-27.699999999999999
 30
0.0
 11
2.8999999999999999
 21
-31.699999999999999
 31
0.0
  0
LINE
  5
145
100
AcDbEntity
  8
0
  6
CENTER
 62
               2
100
AcDbLine
 10
5.0
 20
-26.719999999999999
 30
0.0
 11
5.0
 21
-34.039999999999999
 31
0.0
  0
LINE
  5
146
100
AcDbEntity
  8
0
  6
DASHED
 62
               2
100
AcDbLine
 10
7.5
 20
-27.699999999999999
 30
0.0
 11
7.5
 21
-31.699999999999999
 31
0.0
  0
LINE
  5
147
100
AcDbEntity
  8
0
  6
DASHED
 62
               2
100
AcDbLine
 10
7.0999999999999996
 20
-27.699999999999999
 30
0.0
 11
7.0999999999999996
 21
-31.699999999999999
 31
0.0
  0
LINE
  5
148
100
AcDbEntity
  8
0
  6
DASHED
 62
               2
100
AcDbLine
 10
0.75
 20
-31.699999999999999
 30
0.0
 11
9.25
 21
-31.699999999999999
 31
0.0
  0
LINE
  5
149
100
AcDbEntity
  8
0
  6
DASHED
 62
               2
100
AcDbLine
 10
0.75
 20
-32.700000000000003
 30
0.0
 11
0.75
 21
-31.699999999999999
 31
0.0
  0
LINE
  5
14A
100
AcDbEntity
  8
0
  6
DASHED
 62
               2
100
AcDbLine
 10
9.25
 20
-32.700000000000003
 30
0.0
 11
9.25
 21
-31.699999999999999
 31
0.0
  0
LINE
  5
14B
100
AcDbEntity
  8
0
  6
CENTER
 62
               2
100
AcDbLine
 10
118.0
 20
8.8699999999999992
 30
0.0
 11
118.0
 21
-8.7699999999999996
 31
0.0
  0
LINE
  5
14C
100
AcDbEntity
  8
0
  6
CENTER
 62
               2
100
AcDbLine
 10
22.0
 20
8.6699999999999999
 30
0.0
 11
22.0
 21
-8.3300000000000001
 31
0.0
  0
LINE
  5
14D
100
AcDbEntity
  8
0
  6
CONTINUOUS
 62
               7
100
AcDbLine
 10
0.0
 20
32.700000000000003
 30
0.0
 11
0.0
 21
-32.700000000000003
 31
0.0
  0
LINE
  5
14E
100
AcDbEntity
  8
0
  6
CONTINUOUS
 62
               7
100
AcDbLine
 10
10.0
 20
32.700000000000003
 30
0.0
 11
10.0
 21
-32.700000000000003
 31
0.0
  0
LINE
  5
14F
100
AcDbEntity
  8
0
  6
CONTINUOUS
 62
               7
100
AcDbLine
 10
-18.210000000000001
 20
-18.0
 30
0.0
 11
-17.0
 21
-18.0
 31
0.0
  0
LINE
  5
150
100
AcDbEntity
  8
0
  6
CONTINUOUS
 62
               2
100
AcDbLine
 10
133.12
 20
-18.0
 30
0.0
 11
135.0
 21
-16.91
 31
0.0
  0
LINE
  5
151
100
AcDbEntity
  8
0
  6
CONTINUOUS
 62
               2
100
AcDbLine
 10
133.12
 20
18.0
 30
0.0
 11
135.0
 21
16.91
 31
0.0
  0
LINE
  5
152
100
AcDbEntity
  8
0
  6
CONTINUOUS
 62
               2
100
AcDbLine
 10
135.0
 20
-16.91
 30
0.0
 11
149.65000000000001
 21
-16.91
 31
0.0
  0
LINE
  5
153
100
AcDbEntity
  8
0
  6
CONTINUOUS
 62
               2
100
AcDbLine
 10
135.0
 20
16.91
 30
0.0
 11
149.65000000000001
 21
16.91
 31
0.0
  0
LINE
  5
154
100
AcDbEntity
  8
0
  6
CONTINUOUS
 62
               7
100
AcDbLine
 10
148.74000000000001
 20
18.0
 30
0.0
 11
148.74000000000001
 21
-18.0
 31
0.0
  0
LINE
  5
155
100
AcDbEntity
  8
0
  6
CONTINUOUS
 62
               7
100
AcDbLine
 10
148.74000000000001
 20
-18.0
 30
0.0
 11
150.0
 21
-16.5
 31
0.0
  0
LINE
  5
156
100
AcDbEntity
  8
0
  6
CONTINUOUS
 62
               7
100
AcDbLine
 10
148.74000000000001
 20
18.0
 30
0.0
 11
150.0
 21
16.5
 31
0.0
  0
LINE
  5
157
100
AcDbEntity
  8
0
  6
CONTINUOUS
 62
               7
100
AcDbLine
 10
135.0
 20
18.0
 30
0.0
 11
135.0
 21
-18.0
 31
0.0
  0
LINE
  5
158
100
AcDbEntity
  8
0
  6
CONTINUOUS
 62
               7
100
AcDbLine
 10
130.0
 20
-18.0
 30
0.0
 11
148.74000000000001
 21
-18.0
 31
0.0
  0
LINE
  5
159
100
AcDbEntity
  8
0
  6
CONTINUOUS
 62
               7
100
AcDbLine
 10
130.0
 20
18.0
 30
0.0
 11
148.74000000000001
 21
18.0
 31
0.0
  0
LINE
  5
15A
100
AcDbEntity
  8
0
  6
CONTINUOUS
 62
               7
100
AcDbLine
 10
150.0
 20
16.5
 30
0.0
 11
150.0
 21
-16.5
 31
0.0
  0
LINE
  5
15B
100
AcDbEntity
  8
0
  6
CONTINUOUS
 62
               2
100
AcDbLine
 10
-36.0
 20
-6.1799999999999997
 30
0.0
 11
-29.0
 21
-6.1799999999999997
 31
0.0
  0
LINE
  5
15C
100
AcDbEntity
  8
0
  6
CONTINUOUS
 62
               2
100
AcDbLine
 10
-36.0
 20
6.1799999999999997
 30
0.0
 11
-29.0
 21
6.1799999999999997
 31
0.0
  0
LINE
  5
15D
100
AcDbEntity
  8
0
  6
CONTINUOUS
 62
               7
100
AcDbLine
 10
-36.0
 20
-7.0
 30
0.0
 11
-22.0
 21
-7.0
 31
0.0
  0
LINE
  5
15E
100
AcDbEntity
  8
0
  6
CONTINUOUS
 62
               7
100
AcDbLine
 10
-36.0
 20
7.0
 30
0.0
 11
-22.0
 21
7.0
 31
0.0
  0
LINE
  5
15F
100
AcDbEntity
  8
0
  6
CONTINUOUS
 62
               7
100
AcDbLine
 10
-43.149999999999999
 20
0.0
 30
0.0
 11
-36.840000000000003
 21
0.0
 31
0.0
  0
LINE
  5
160
100
AcDbEntity
  8
0
  6
CONTINUOUS
 62
               7
100
AcDbLine
 10
-36.0
 20
9.5
 30
0.0
 11
-36.0
 21
-9.5
 31
0.0
  0
LINE
  5
161
100
AcDbEntity
  8
0
  6
CONTINUOUS
 62
               7
100
AcDbLine
 10
-44.0
 20
9.5
 30
0.0
 11
-44.0
 21
-9.5
 31
0.0
  0
LINE
  5
162
100
AcDbEntity
  8
0
  6
CONTINUOUS
 62
               7
100
AcDbLine
 10
-21.0
 20
8.0
 30
0.0
 11
-20.0
 21
8.0
 31
0.0
  0
LINE
  5
163
100
AcDbEntity
  8
0
  6
CONTINUOUS
 62
               2
100
AcDbLine
 10
-29.0
 20
-6.1799999999999997
 30
0.0
 11
-27.59
 21
-7.0
 31
0.0
  0
LINE
  5
164
100
AcDbEntity
  8
0
  6
CONTINUOUS
 62
               2
100
AcDbLine
 10
-29.0
 20
6.1799999999999997
 30
0.0
 11
-27.59
 21
7.0
 31
0.0
  0
LINE
  5
165
100
AcDbEntity
  8
0
  6
CONTINUOUS
 62
               7
100
AcDbLine
 10
-51.0
 20
7.0
 30
0.0
 11
-51.0
 21
-7.0
 31
0.0
  0
LINE
  5
166
100
AcDbEntity
  8
0
  6
CONTINUOUS
 62
               2
100
AcDbLine
 10
-51.810000000000002
 20
-6.1799999999999997
 30
0.0
 11
-44.0
 21
-6.1799999999999997
 31
0.0
  0
LINE
  5
167
100
AcDbEntity
  8
0
  6
CONTINUOUS
 62
               2
100
AcDbLine
 10
-51.810000000000002
 20
6.1799999999999997
 30
0.0
 11
-44.0
 21
6.1799999999999997
 31
0.0
  0
LINE
  5
168
100
AcDbEntity
  8
0
  6
CONTINUOUS
 62
               7
100
AcDbLine
 10
-29.0
 20
7.0
 30
0.0
 11
-29.0
 21
-7.0
 31
0.0
  0
LINE
  5
169
100
AcDbEntity
  8
0
  6
CONTINUOUS
 62
               7
100
AcDbLine
 10
-52.0
 20
-6.0
 30
0.0
 11
-51.0
 21
-7.0
 31
0.0
  0
LINE
  5
16A
100
AcDbEntity
  8
0
  6
CONTINUOUS
 62
               7
100
AcDbLine
 10
-52.0
 20
6.0
 30
0.0
 11
-51.0
 21
7.0
 31
0.0
  0
LINE
  5
16B
100
AcDbEntity
  8
0
  6
CONTINUOUS
 62
               7
100
AcDbLine
 10
-51.0
 20
-7.0
 30
0.0
 11
-44.0
 21
-7.0
 31
0.0
  0
LINE
  5
16C
100
AcDbEntity
  8
0
  6
CONTINUOUS
 62
               7
100
AcDbLine
 10
-51.0
 20
7.0
 30
0.0
 11
-44.0
 21
7.0
 31
0.0
  0
LINE
  5
16D
100
AcDbEntity
  8
0
  6
CONTINUOUS
 62
               7
100
AcDbLine
 10
-52.0
 20
6.0
 30
0.0
 11
-52.0
 21
-6.0
 31
0.0
  0
LINE
  5
16E
100
AcDbEntity
  8
0
  6
CENTER
 62
               2
100
AcDbLine
 10
-58.0
 20
0.0
 30
0.0
 11
156.99000000000001
 21
0.0
 31
0.0
  0
LINE
  5
16F
100
AcDbEntity
  8
0
  6
CONTINUOUS
 62
               7
100
AcDbLine
 10
107.0
 20
-32.700000000000003
 30
0.0
 11
130.0
 21
-32.700000000000003
 31
0.0
  0
LINE
  5
170
100
AcDbEntity
  8
0
  6
CONTINUOUS
 62
               7
100
AcDbLine
 10
107.0
 20
32.700000000000003
 30
0.0
 11
130.0
 21
32.700000000000003
 31
0.0
  0
LINE
  5
171
100
AcDbEntity
  8
0
  6
CONTINUOUS
 62
               7
100
AcDbLine
 10
130.0
 20
32.700000000000003
 30
0.0
 11
130.0
 21
-32.700000000000003
 31
0.0
  0
LINE
  5
172
100
AcDbEntity
  8
0
  6
CONTINUOUS
 62
               7
100
AcDbLine
 10
107.0
 20
32.700000000000003
 30
0.0
 11
107.0
 21
-32.700000000000003
 31
0.0
  0
LINE
  5
173
100
AcDbEntity
  8
0
  6
CONTINUOUS
 62
               7
100
AcDbLine
 10
33.0
 20
32.700000000000003
 30
0.0
 11
33.0
 21
-32.700000000000003
 31
0.0
  0
LINE
  5
174
100
AcDbEntity
  8
0
  6
CONTINUOUS
 62
               7
100
AcDbLine
 10
0.0
 20
-32.700000000000003
 30
0.0
 11
107.0
 21
-32.700000000000003
 31
0.0
  0
LINE
  5
175
100
AcDbEntity
  8
0
  6
CONTINUOUS
 62
               7
100
AcDbLine
 10
0.0
 20
32.700000000000003
 30
0.0
 11
107.0
 21
32.700000000000003
 31
0.0
  0
LINE
  5
176
100
AcDbEntity
  8
0
  6
CONTINUOUS
 62
               7
100
AcDbLine
 10
-6.0
 20
-18.0
 30
0.0
 11
0.0
 21
-18.0
 31
0.0
  0
LINE
  5
177
100
AcDbEntity
  8
0
  6
CONTINUOUS
 62
               7
100
AcDbLine
 10
-6.0
 20
18.0
 30
0.0
 11
0.0
 21
18.0
 31
0.0
  0
LINE
  5
178
100
AcDbEntity
  8
0
  6
CONTINUOUS
 62
               7
100
AcDbLine
 10
-5.0
 20
18.0
 30
0.0
 11
-5.0
 21
-18.0
 31
0.0
  0
LINE
  5
179
100
AcDbEntity
  8
0
  6
CONTINUOUS
 62
               7
100
AcDbLine
 10
-18.210000000000001
 20
18.0
 30
0.0
 11
-18.210000000000001
 21
-18.0
 31
0.0
  0
LINE
  5
17A
100
AcDbEntity
  8
0
  6
CONTINUOUS
 62
               7
100
AcDbLine
 10
-14.94
 20
0.0
 30
0.0
 11
-6.5
 21
0.0
 31
0.0
  0
LINE
  5
17B
100
AcDbEntity
  8
0
  6
CONTINUOUS
 62
               7
100
AcDbLine
 10
-17.0
 20
23.0
 30
0.0
 11
-17.0
 21
-23.0
 31
0.0
  0
LINE
  5
17C
100
AcDbEntity
  8
0
  6
CONTINUOUS
 62
               7
100
AcDbLine
 10
-6.0
 20
23.0
 30
0.0
 11
-6.0
 21
-23.0
 31
0.0
  0
LINE
  5
17D
100
AcDbEntity
  8
0
  6
CONTINUOUS
 62
               7
100
AcDbLine
 10
-20.0
 20
-16.5
 30
0.0
 11
-18.210000000000001
 21
-18.0
 31
0.0
  0
LINE
  5
17E
100
AcDbEntity
  8
0
  6
CONTINUOUS
 62
               7
100
AcDbLine
 10
-20.0
 20
16.5
 30
0.0
 11
-18.210000000000001
 21
18.0
 31
0.0
  0
LINE
  5
17F
100
AcDbEntity
  8
0
  6
CONTINUOUS
 62
               7
100
AcDbLine
 10
-18.210000000000001
 20
18.0
 30
0.0
 11
-17.0
 21
18.0
 31
0.0
  0
LINE
  5
180
100
AcDbEntity
  8
0
  6
CONTINUOUS
 62
               7
100
AcDbLine
 10
-20.0
 20
16.5
 30
0.0
 11
-20.0
 21
-16.5
 31
0.0
  0
LINE
  5
181
100
AcDbEntity
  8
0
  6
CONTINUOUS
 62
               7
100
AcDbLine
 10
116.0
 20
-37.700000000000003
 30
0.0
 11
115.5
 21
-37.200000000000003
 31
0.0
  0
LINE
  5
182
100
AcDbEntity
  8
0
  6
CONTINUOUS
 62
               7
100
AcDbLine
 10
120.0
 20
-37.700000000000003
 30
0.0
 11
120.5
 21
-37.200000000000003
 31
0.0
  0
LINE
  5
183
100
AcDbEntity
  8
0
  6
CONTINUOUS
 62
               7
100
AcDbLine
 10
120.5
 20
-37.200000000000003
 30
0.0
 11
115.5
 21
-37.200000000000003
 31
0.0
  0
LINE
  5
184
100
AcDbEntity
  8
0
  6
CONTINUOUS
 62
               7
100
AcDbLine
 10
116.0
 20
-37.700000000000003
 30
0.0
 11
116.0
 21
-39.200000000000003
 31
0.0
  0
LINE
  5
185
100
AcDbEntity
  8
0
  6
CONTINUOUS
 62
               7
100
AcDbLine
 10
120.0
 20
-37.700000000000003
 30
0.0
 11
120.0
 21
-39.200000000000003
 31
0.0
  0
LINE
  5
186
100
AcDbEntity
  8
0
  6
CONTINUOUS
 62
               2
100
AcDbLine
 10
115.90000000000001
 20
-37.0
 30
0.0
 11
115.90000000000001
 21
-37.600000000000001
 31
0.0
  0
LINE
  5
187
100
AcDbEntity
  8
0
  6
CONTINUOUS
 62
               7
100
AcDbLine
 10
120.0
 20
-39.200000000000003
 30
0.0
 11
116.0
 21
-39.200000000000003
 31
0.0
  0
LINE
  5
188
100
AcDbEntity
  8
0
  6
CONTINUOUS
 62
               7
100
AcDbLine
 10
120.0
 20
-37.700000000000003
 30
0.0
 11
116.0
 21
-37.700000000000003
 31
0.0
  0
LINE
  5
189
100
AcDbEntity
  8
0
  6
CONTINUOUS
 62
               7
100
AcDbLine
 10
120.5
 20
-37.0
 30
0.0
 11
120.5
 21
-37.200000000000003
 31
0.0
  0
LINE
  5
18A
100
AcDbEntity
  8
0
  6
CONTINUOUS
 62
               7
100
AcDbLine
 10
115.5
 20
-37.0
 30
0.0
 11
115.5
 21
-37.200000000000003
 31
0.0
  0
LINE
  5
18B
100
AcDbEntity
  8
0
  6
CONTINUOUS
 62
               2
100
AcDbLine
 10
120.09999999999999
 20
-37.0
 30
0.0
 11
120.09999999999999
 21
-37.600000000000001
 31
0.0
  0
LINE
  5
18C
100
AcDbEntity
  8
0
  6
CONTINUOUS
 62
               7
100
AcDbLine
 10
124.25
 20
-33.399999999999999
 30
0.0
 11
111.75
 21
-33.399999999999999
 31
0.0
  0
LINE
  5
18D
100
AcDbEntity
  8
0
  6
CONTINUOUS
 62
               7
100
AcDbLine
 10
118.0
 20
-33.840000000000003
 30
0.0
 11
118.0
 21
-36.549999999999997
 31
0.0
  0
LINE
  5
18E
100
AcDbEntity
  8
0
  6
CONTINUOUS
 62
               7
100
AcDbLine
 10
111.75
 20
-32.700000000000003
 30
0.0
 11
111.75
 21
-33.399999999999999
 31
0.0
  0
LINE
  5
18F
100
AcDbEntity
  8
0
  6
CONTINUOUS
 62
               7
100
AcDbLine
 10
124.25
 20
-32.700000000000003
 30
0.0
 11
124.25
 21
-33.399999999999999
 31
0.0
  0
LINE
  5
190
100
AcDbEntity
  8
0
  6
CONTINUOUS
 62
               7
100
AcDbLine
 10
123.0
 20
-33.399999999999999
 30
0.0
 11
113.0
 21
-33.399999999999999
 31
0.0
  0
LINE
  5
191
100
AcDbEntity
  8
0
  6
CONTINUOUS
 62
               2
100
AcDbLine
 10
118.0
 20
-31.16
 30
0.0
 11
118.0
 21
-40.170000000000002
 31
0.0
  0
ENDBLK
  5
192
100
AcDbEntity
  8
0
100
AcDbBlockEnd
  0
BLOCK
  5
193
100
AcDbEntity
  8
0
100
AcDbBlockBegin
  2
MS_5
 70
               0
 10
0.0
 20
0.0
 30
0.0
  3
MS_5
  1

  0
CIRCLE
  5
194
100
AcDbEntity
  8
0
  6
CONTINUOUS
 62
               7
100
AcDbCircle
 10
11.0
 20
0.0
 30
0.0
 40
5.0
  0
CIRCLE
  5
195
100
AcDbEntity
  8
0
  6
CONTINUOUS
 62
               7
100
AcDbCircle
 10
11.0
 20
0.0
 30
0.0
 40
2.5
  0
CIRCLE
  5
196
100
AcDbEntity
  8
0
  6
CONTINUOUS
 62
               7
100
AcDbCircle
 10
11.0
 20
0.0
 30
0.0
 40
7.0
  0
LINE
  5
197
100
AcDbEntity
  8
0
  6
DASHED
 62
               2
100
AcDbLine
 10
4.4199999999999999
 20
32.700000000000003
 30
0.0
 11
4.71
 21
23.300000000000001
 31
0.0
  0
LINE
  5
198
100
AcDbEntity
  8
0
  6
DASHED
 62
               2
100
AcDbLine
 10
5.2699999999999996
 20
32.700000000000003
 30
0.0
 11
5.5700000000000003
 21
23.300000000000001
 31
0.0
  0
LINE
  5
199
100
AcDbEntity
  8
0
  6
DASHED
 62
               2
100
AcDbLine
 10
16.719999999999999
 20
32.700000000000003
 30
0.0
 11
16.420000000000002
 21
23.300000000000001
 31
0.0
  0
LINE
  5
19A
100
AcDbEntity
  8
0
  6
DASHED
 62
               2
100
AcDbLine
 10
17.57
 20
32.700000000000003
 30
0.0
 11
17.280000000000001
 21
23.300000000000001
 31
0.0
  0
LINE
  5
19B
100
AcDbEntity
  8
0
  6
CONTINUOUS
 62
               7
100
AcDbLine
 10
24.0
 20
18.0
 30
0.0
 11
24.0
 21
-18.0
 31
0.0
  0
LINE
  5
19C
100
AcDbEntity
  8
0
  6
CONTINUOUS
 62
               7
100
AcDbLine
 10
23.0
 20
18.0
 30
0.0
 11
24.0
 21
18.0
 31
0.0
  0
LINE
  5
19D
100
AcDbEntity
  8
0
  6
CONTINUOUS
 62
               7
100
AcDbLine
 10
6.0
 20
2.8799999999999999
 30
0.0
 11
11.0
 21
5.7699999999999996
 31
0.0
  0
LINE
  5
19E
100
AcDbEntity
  8
0
  6
CONTINUOUS
 62
               7
100
AcDbLine
 10
23.0
 20
-18.0
 30
0.0
 11
24.0
 21
-18.0
 31
0.0
  0
LINE
  5
19F
100
AcDbEntity
  8
0
  6
CONTINUOUS
 62
               7
100
AcDbLine
 10
0.0
 20
-32.700000000000003
 30
0.0
 11
23.0
 21
-32.700000000000003
 31
0.0
  0
LINE
  5
1A0
100
AcDbEntity
  8
0
  6
CONTINUOUS
 62
               7
100
AcDbLine
 10
0.0
 20
32.700000000000003
 30
0.0
 11
23.0
 21
32.700000000000003
 31
0.0
  0
LINE
  5
1A1
100
AcDbEntity
  8
0
  6
CENTER
 62
               2
100
AcDbLine
 10
11.0
 20
35.479999999999997
 30
0.0
 11
11.0
 21
22.0
 31
0.0
  0
LINE
  5
1A2
100
AcDbEntity
  8
0
  6
CONTINUOUS
 62
               7
100
AcDbLine
 10
23.0
 20
32.700000000000003
 30
0.0
 11
23.0
 21
-32.700000000000003
 31
0.0
  0
LINE
  5
1A3
100
AcDbEntity
  8
0
  6
CONTINUOUS
 62
               7
100
AcDbLine
 10
0.0
 20
32.700000000000003
 30
0.0
 11
0.0
 21
-32.700000000000003
 31
0.0
  0
LINE
  5
1A4
100
AcDbEntity
  8
0
  6
CONTINUOUS
 62
               7
100
AcDbLine
 10
8.5500000000000007
 20
-0.5
 30
0.0
 11
13.44
 21
-0.5
 31
0.0
  0
LINE
  5
1A5
100
AcDbEntity
  8
0
  6
CONTINUOUS
 62
               7
100
AcDbLine
 10
8.5500000000000007
 20
0.5
 30
0.0
 11
13.44
 21
0.5
 31
0.0
  0
LINE
  5
1A6
100
AcDbEntity
  8
0
  6
CONTINUOUS
 62
               7
100
AcDbLine
 10
6.0
 20
-2.8799999999999999
 30
0.0
 11
11.0
 21
-5.7699999999999996
 31
0.0
  0
LINE
  5
1A7
100
AcDbEntity
  8
0
  6
CONTINUOUS
 62
               7
100
AcDbLine
 10
11.0
 20
5.7699999999999996
 30
0.0
 11
16.0
 21
2.8799999999999999
 31
0.0
  0
LINE
  5
1A8
100
AcDbEntity
  8
0
  6
CONTINUOUS
 62
               7
100
AcDbLine
 10
11.0
 20
-5.7699999999999996
 30
0.0
 11
16.0
 21
-2.8799999999999999
 31
0.0
  0
LINE
  5
1A9
100
AcDbEntity
  8
0
  6
CONTINUOUS
 62
               7
100
AcDbLine
 10
16.0
 20
2.8799999999999999
 30
0.0
 11
16.0
 21
-2.8799999999999999
 31
0.0
  0
LINE
  5
1AA
100
AcDbEntity
  8
0
  6
CONTINUOUS
 62
               7
100
AcDbLine
 10
6.0
 20
2.8799999999999999
 30
0.0
 11
6.0
 21
-2.8799999999999999
 31
0.0
  0
ENDBLK
  5
1AB
100
AcDbEntity
  8
0
100
AcDbBlockEnd
  0
BLOCK
  5
1AC
100
AcDbEntity
  8
0
100
AcDbBlockBegin
  2
MS_6
 70
               0
 10
0.0
 20
0.0
 30
0.0
  3
MS_6
  1

  0
SPLINE
  5
1AD
100
AcDbEntity
  8
0
  6
CONTINUOUS
 62
               7
100
AcDbSpline
210
0.0
220
0.0
230
1.0
 70
               0
 71
               3
 72
               0
 73
               0
 74
               5
 44
0.000001
 12
-0.5160406521158439
 22
-0.8565640929690286
 32
0.0
 13
0.5160406521158435
 23
-0.8565640929690288
 33
0.0
 11
-36.32
 21
5.75
 31
0.0
 11
-36.636841587066897
 21
5.0584134054463155
 31
0.0
 11
-36.759999999999998
 21
4.3099999999999996
 31
0.0
 11
-36.636841587591078
 21
3.5615865945536846
 31
0.0
 11
-36.32
 21
2.8699999999999992
 31
0.0
  0
SPLINE
  5
1AE
100
AcDbEntity
  8
0
  6
CONTINUOUS
 62
               7
100
AcDbSpline
210
0.0
220
0.0
230
1.0
 70
               0
 71
               3
 72
               0
 73
               0
 74
               5
 44
0.000001
 12
-0.5160406521158439
 22
-0.8565640929690286
 32
0.0
 13
0.5160406521158444
 23
-0.8565640929690283
 33
0.0
 11
-36.32
 21
-2.8700000000000001
 31
0.0
 11
-36.636841587066897
 21
-3.5615865945536846
 31
0.0
 11
-36.759999999999998
 21
-4.3099999999999996
 31
0.0
 11
-36.636841587591078
 21
-5.0584134054463146
 31
0.0
 11
-36.32
 21
-5.7499999999999991
 31
0.0
  0
SPLINE
  5
1AF
100
AcDbEntity
  8
0
  6
CONTINUOUS
 62
               7
100
AcDbSpline
210
0.0
220
0.0
230
1.0
 70
               0
 71
               3
 72
               0
 73
               0
 74
               5
 44
0.000001
 12
-0.2884256235275012
 22
-0.9575023027088615
 32
0.0
 13
0.2884256235275008
 23
-0.9575023027088616
 33
0.0
 11
-36.32
 21
2.8700000000000001
 31
0.0
 11
-36.64482201548487
 21
1.4520873624140389
 31
0.0
 11
-36.759999999999998
 21
0.0
 31
0.0
 11
-36.64482201573383
 21
-1.4520873624140387
 31
0.0
 11
-36.32
 21
-2.870000000000001
 31
0.0
  0
SPLINE
  5
1B0
100
AcDbEntity
  8
0
  6
CONTINUOUS
 62
               7
100
AcDbSpline
210
0.0
220
0.0
230
1.0
 70
               0
 71
               3
 72
               0
 73
               0
 74
               5
 44
0.000001
 12
0.516040623622764
 22
-0.8565641101348041
 32
0.0
 13
-0.5160406236227644
 23
-0.8565641101348039
 33
0.0
 11
-33.590000000000003
 21
-2.8700000000000001
 31
0.0
 11
-33.278158463257029
 21
-3.5615865256599299
 31
0.0
 11
-33.159999999999997
 21
-4.3099999999999996
 31
0.0
 11
-33.278158462732847
 21
-5.0584134743400693
 31
0.0
 11
-33.590000000000003
 21
-5.75
 31
0.0
  0
SPLINE
  5
1B1
100
AcDbEntity
  8
0
  6
CONTINUOUS
 62
               7
100
AcDbSpline
210
0.0
220
0.0
230
1.0
 70
               0
 71
               3
 72
               0
 73
               0
 74
               5
 44
0.000001
 12
0.2884256340544001
 22
-0.9575022995378744
 32
0.0
 13
-0.2884256340543998
 23
-0.9575022995378745
 33
0.0
 11
-33.590000000000003
 21
2.8700000000000001
 31
0.0
 11
-33.270178009957164
 21
1.4520872212322951
 31
0.0
 11
-33.159999999999997
 21
0.0
 31
0.0
 11
-33.270178009708204
 21
-1.4520872212322951
 31
0.0
 11
-33.590000000000003
 21
-2.870000000000001
 31
0.0
  0
SPLINE
  5
1B2
100
AcDbEntity
  8
0
  6
CONTINUOUS
 62
               7
100
AcDbSpline
210
0.0
220
0.0
230
1.0
 70
               0
 71
               3
 72
               0
 73
               0
 74
               5
 44
0.000001
 12
0.516040623622764
 22
-0.8565641101348041
 32
0.0
 13
-0.5160406236227639
 23
-0.8565641101348042
 33
0.0
 11
-33.590000000000003
 21
5.75
 31
0.0
 11
-33.278158463257029
 21
5.0584134743400702
 31
0.0
 11
-33.159999999999997
 21
4.3099999999999996
 31
0.0
 11
-33.278158462732847
 21
3.5615865256599299
 31
0.0
 11
-33.590000000000003
 21
2.8700000000000001
 31
0.0
  0
CIRCLE
  5
1B3
100
AcDbEntity
  8
0
  6
CONTINUOUS
 62
               7
100
AcDbCircle
 10
0.0
 20
0.0
 30
0.0
 40
32.699996948242188
  0
CIRCLE
  5
1B4
100
AcDbEntity
  8
0
  6
CONTINUOUS
 62
               7
100
AcDbCircle
 10
0.0
 20
0.0
 30
0.0
 40
18.0
  0
LINE
  5
1B5
100
AcDbEntity
  8
0
  6
CONTINUOUS
 62
               7
100
AcDbLine
 10
-36.960000000000001
 20
2.5
 30
0.0
 11
-36.960000000000001
 21
-2.5
 31
0.0
  0
LINE
  5
1B6
100
AcDbEntity
  8
0
  6
CONTINUOUS
 62
               7
100
AcDbLine
 10
-37.460000000000001
 20
-2.0
 30
0.0
 11
-36.960000000000001
 21
-2.5
 31
0.0
  0
LINE
  5
1B7
100
AcDbEntity
  8
0
  6
CONTINUOUS
 62
               7
100
AcDbLine
 10
-36.960000000000001
 20
2.5
 30
0.0
 11
-37.460000000000001
 21
2.0
 31
0.0
  0
LINE
  5
1B8
100
AcDbEntity
  8
0
  6
CONTINUOUS
 62
               7
100
AcDbLine
 10
-37.460000000000001
 20
-2.0
 30
0.0
 11
-38.960000000000001
 21
-2.0
 31
0.0
  0
LINE
  5
1B9
100
AcDbEntity
  8
0
  6
CONTINUOUS
 62
               7
100
AcDbLine
 10
-37.460000000000001
 20
2.0
 30
0.0
 11
-38.960000000000001
 21
2.0
 31
0.0
  0
LINE
  5
1BA
100
AcDbEntity
  8
0
  6
CENTER
 62
               2
100
AcDbLine
 10
35.299999999999997
 20
0.0
 30
0.0
 11
-41.229999999999997
 21
0.0
 31
0.0
  0
LINE
  5
1BB
100
AcDbEntity
  8
0
  6
CONTINUOUS
 62
               2
100
AcDbLine
 10
-36.759999999999998
 20
2.1000000000000001
 30
0.0
 11
-37.359999999999999
 21
2.1000000000000001
 31
0.0
  0
LINE
  5
1BC
100
AcDbEntity
  8
0
  6
CONTINUOUS
 62
               2
100
AcDbLine
 10
-36.759999999999998
 20
-2.1000000000000001
 30
0.0
 11
-37.359999999999999
 21
-2.1000000000000001
 31
0.0
  0
LINE
  5
1BD
100
AcDbEntity
  8
0
  6
CONTINUOUS
 62
               7
100
AcDbLine
 10
-38.960000000000001
 20
2.0
 30
0.0
 11
-38.960000000000001
 21
-2.0
 31
0.0
  0
LINE
  5
1BE
100
AcDbEntity
  8
0
  6
CONTINUOUS
 62
               7
100
AcDbLine
 10
-37.460000000000001
 20
2.0
 30
0.0
 11
-37.460000000000001
 21
-2.0
 31
0.0
  0
LINE
  5
1BF
100
AcDbEntity
  8
0
  6
CONTINUOUS
 62
               7
100
AcDbLine
 10
-36.759999999999998
 20
2.5
 30
0.0
 11
-36.960000000000001
 21
2.5
 31
0.0
  0
LINE
  5
1C0
100
AcDbEntity
  8
0
  6
CONTINUOUS
 62
               7
100
AcDbLine
 10
-36.759999999999998
 20
-2.5
 30
0.0
 11
-36.960000000000001
 21
-2.5
 31
0.0
  0
LINE
  5
1C1
100
AcDbEntity
  8
0
  6
CONTINUOUS
 62
               7
100
AcDbLine
 10
-33.159999999999997
 20
-5.0
 30
0.0
 11
-33.590000000000003
 21
-5.75
 31
0.0
  0
LINE
  5
1C2
100
AcDbEntity
  8
0
  6
CONTINUOUS
 62
               7
100
AcDbLine
 10
-36.32
 20
5.75
 30
0.0
 11
-36.759999999999998
 21
5.0
 31
0.0
  0
LINE
  5
1C3
100
AcDbEntity
  8
0
  6
CONTINUOUS
 62
               7
100
AcDbLine
 10
-36.32
 20
-5.75
 30
0.0
 11
-36.759999999999998
 21
-5.0
 31
0.0
  0
LINE
  5
1C4
100
AcDbEntity
  8
0
  6
CONTINUOUS
 62
               7
100
AcDbLine
 10
-33.159999999999997
 20
5.0
 30
0.0
 11
-33.590000000000003
 21
5.75
 31
0.0
  0
LINE
  5
1C5
100
AcDbEntity
  8
0
  6
CONTINUOUS
 62
               7
100
AcDbLine
 10
-36.759999999999998
 20
5.0
 30
0.0
 11
-36.759999999999998
 21
-5.0
 31
0.0
  0
LINE
  5
1C6
100
AcDbEntity
  8
0
  6
CONTINUOUS
 62
               7
100
AcDbLine
 10
-33.590000000000003
 20
-2.8700000000000001
 30
0.0
 11
-36.32
 21
-2.8700000000000001
 31
0.0
  0
LINE
  5
1C7
100
AcDbEntity
  8
0
  6
CONTINUOUS
 62
               7
100
AcDbLine
 10
-33.590000000000003
 20
2.8700000000000001
 30
0.0
 11
-36.32
 21
2.8700000000000001
 31
0.0
  0
LINE
  5
1C8
100
AcDbEntity
  8
0
  6
CONTINUOUS
 62
               7
100
AcDbLine
 10
-33.590000000000003
 20
-5.75
 30
0.0
 11
-36.32
 21
-5.75
 31
0.0
  0
LINE
  5
1C9
100
AcDbEntity
  8
0
  6
CONTINUOUS
 62
               7
100
AcDbLine
 10
-33.590000000000003
 20
5.75
 30
0.0
 11
-36.32
 21
5.75
 31
0.0
  0
LINE
  5
1CA
100
AcDbEntity
  8
0
  6
CONTINUOUS
 62
               7
100
AcDbLine
 10
-32.090000000000003
 20
-6.25
 30
0.0
 11
-33.159999999999997
 21
-6.25
 31
0.0
  0
LINE
  5
1CB
100
AcDbEntity
  8
0
  6
CONTINUOUS
 62
               7
100
AcDbLine
 10
-32.090000000000003
 20
6.25
 30
0.0
 11
-33.159999999999997
 21
6.25
 31
0.0
  0
LINE
  5
1CC
100
AcDbEntity
  8
0
  6
CONTINUOUS
 62
               7
100
AcDbLine
 10
-33.159999999999997
 20
6.25
 30
0.0
 11
-33.159999999999997
 21
-6.25
 31
0.0
  0
LINE
  5
1CD
100
AcDbEntity
  8
0
  6
CENTER
 62
               2
100
AcDbLine
 10
0.0
 20
36.039999999999999
 30
0.0
 11
0.0
 21
-36.270000000000003
 31
0.0
  0
ENDBLK
  5
1CE
100
AcDbEntity
  8
0
100
AcDbBlockEnd
  0
ENDSEC
  0
SECTION
  2
ENTITIES
  0
INSERT
  5
1CF
100
AcDbEntity
  8
0
100
AcDbBlockReference
  2
MS_6
 10
61.537094116210937
 20
-119.64390563964844
 30
0.0
  0
INSERT
  5
1D0
100
AcDbEntity
  8
0
100
AcDbBlockReference
  2
MS_5
 10
-42.462905883789063
 20
-119.64390563964844
 30
0.0
  0
INSERT
  5
1D1
100
AcDbEntity
  8
0
100
AcDbBlockReference
  2
MS_4
 10
-67.839675903320313
 20
131.20307922363281
 30
0.0
  0
INSERT
  5
1D2
100
AcDbEntity
  8
0
100
AcDbBlockReference
  2
MS_3
 10
177.16030883789062
 20
22.203079223632813
 30
0.0
  0
INSERT
  5
1D3
100
AcDbEntity
  8
0
100
AcDbBlockReference
  2
MS_2
 10
-205.83969116210937
 20
22.203079223632813
 30
0.0
  0
INSERT
  5
1D4
100
AcDbEntity
  8
0
100
AcDbBlockReference
  2
MS_1
 10
-67.839675903320313
 20
22.203079223632813
 30
0.0
  0
MTEXT
  5
1D5
100
AcDbEntity
  8
0
  6
CONTINUOUS
 62
               7
100
AcDbMText
 10
-9.6578077836470175
 20
-174.480712890625
 30
0.0
 40
4.5
 41
0.0
 71
               4
 72
               1
  1
\W1.061;\A1;-A TYPE
  7
MX_NOTE_STANDARD
  0
MTEXT
  5
1D6
100
AcDbEntity
  8
0
  6
CONTINUOUS
 62
               7
100
AcDbMText
 10
-268.2750000643012
 20
160.5
 30
0.0
 40
6.3000001907348633
 41
0.0
 71
               4
 72
               1
  1
\W1.071;\A1;MODEL:CS-DA63*ST(25)
  7
MX_NOTE_STANDARD
  0
MTEXT
  5
1D7
100
AcDbEntity
  8
0
  6
CONTINUOUS
 62
               7
100
AcDbMText
 10
-270.52500149481267
 20
185.5
 30
0.0
 40
6.3000001907348633
 41
0.0
 71
               4
 72
               1
  1
\W1.071;\A1;CS-SLIM CYLINDER
  7
MX_NOTE_STANDARD
  0
MTEXT
  5
1D8
100
AcDbEntity
  8
0
  6
CONTINUOUS
 62
               7
100
AcDbMText
 10
170.2809980228688
 20
-185.0
 30
0.0
 40
9.0
 41
0.0
 71
               4
 72
               1
  1
\W1.121;\A1;KOGANEI CORP.
  7
MX_NOTE_STANDARD
  0
MTEXT
  5
1D9
100
AcDbEntity
  8
0
  6
CONTINUOUS
 62
               7
100
AcDbMText
 10
198.2770240315611
 20
185.5
 30
0.0
 40
6.3000001907348633
 41
0.0
 71
               4
 72
               1
  1
\W1.311;\A1;Ver. 1.0
  7
MX_NOTE_STANDARD
  0
LINE
  5
1DB
100
AcDbEntity
  8
0
  6
PHANTOM
 62
               2
100
AcDbLine
 10
-88.430000000000007
 20
-152.34
 30
0.0
 11
-70.909999999999997
 21
-86.939999999999998
 31
0.0
  0
LINE
  5
1DC
100
AcDbEntity
  8
0
  6
CENTER
 62
               2
100
AcDbLine
 10
-84.060000000000002
 20
-119.64
 30
0.0
 11
10.029999999999999
 21
-119.64
 31
0.0
  0
LINE
  5
1DD
100
AcDbEntity
  8
0
  6
CONTINUOUS
 62
               7
100
AcDbLine
 10
-88.430000000000007
 20
-152.34
 30
0.0
 11
-42.460000000000001
 21
-152.34
 31
0.0
  0
LINE
  5
1DE
100
AcDbEntity
  8
0
  6
CONTINUOUS
 62
               7
100
AcDbLine
 10
-70.909999999999997
 20
-86.939999999999998
 30
0.0
 11
-42.460000000000001
 21
-86.939999999999998
 31
0.0
  0
LINE
  5
1DF
100
AcDbEntity
  8
0
  6
CONTINUOUS
 62
               7
100
AcDbLine
 10
-161.25
 20
195.5
 30
0.0
 11
-161.25
 21
175.5
 31
0.0
  0
LINE
  5
1E0
100
AcDbEntity
  8
0
  6
CONTINUOUS
 62
               7
100
AcDbLine
 10
162.09999999999999
 20
195.5
 30
0.0
 11
162.09999999999999
 21
175.5
 31
0.0
  0
LINE
  5
1E1
100
AcDbEntity
  8
0
  6
CONTINUOUS
 62
               7
100
AcDbLine
 10
-281.25
 20
175.5
 30
0.0
 11
-161.25
 21
175.5
 31
0.0
  0
LINE
  5
1E2
100
AcDbEntity
  8
0
  6
CONTINUOUS
 62
               7
100
AcDbLine
 10
162.09999999999999
 20
175.5
 30
0.0
 11
282.10000000000002
 21
175.5
 31
0.0
  0
LINE
  5
1E3
100
AcDbEntity
  8
0
  6
CONTINUOUS
 62
               7
100
AcDbLine
 10
162.09999999999999
 20
-175.0
 30
0.0
 11
282.10000000000002
 21
-175.0
 31
0.0
  0
LINE
  5
1E4
100
AcDbEntity
  8
0
  6
CONTINUOUS
 62
               7
100
AcDbLine
 10
162.09999999999999
 20
-175.0
 30
0.0
 11
162.09999999999999
 21
-195.0
 31
0.0
  0
LINE
  5
1E5
100
AcDbEntity
  8
0
  6
CONTINUOUS
 62
               7
100
AcDbLine
 10
-281.25
 20
-195.0
 30
0.0
 11
282.10000000000002
 21
-195.0
 31
0.0
  0
LINE
  5
1E6
100
AcDbEntity
  8
0
  6
CONTINUOUS
 62
               7
100
AcDbLine
 10
282.10000000000002
 20
195.5
 30
0.0
 11
282.10000000000002
 21
-195.0
 31
0.0
  0
LINE
  5
1E7
100
AcDbEntity
  8
0
  6
CONTINUOUS
 62
               7
100
AcDbLine
 10
-281.25
 20
195.5
 30
0.0
 11
-281.25
 21
-195.0
 31
0.0
  0
LINE
  5
1E8
100
AcDbEntity
  8
0
  6
CONTINUOUS
 62
               7
100
AcDbLine
 10
-281.25
 20
195.5
 30
0.0
 11
282.10000000000002
 21
195.5
 31
0.0
  0
ENDSEC
  0
SECTION
  2
OBJECTS
  0
DICTIONARY
  5
19
100
AcDbDictionary
  3
ACAD_GROUP
350
1A
  3
ACAD_MLINESTYLE
350
1B
  0
DICTIONARY
  5
1A
102
{ACAD_REACTORS
330
19
102
}
100
AcDbDictionary
  0
DICTIONARY
  5
1B
102
{ACAD_REACTORS
330
19
102
}
100
AcDbDictionary
  3
STANDARD
350
1C
  0
MLINESTYLE
  5
1C
102
{ACAD_REACTORS
330
1B
102
}
100
AcDbMlineStyle
  2
Standard
 70
               0
  3

 62
               0
 51
90.0
 52
90.0
 71
               2
 49
0.5
 62
             256
  6
ByLayer
 49
-0.5
 62
             256
  6
ByLayer
  0
ENDSEC
  0
EOF
