  0
SECTION
  2
HEADER
  9
$ACADVER
  1
AC1012
  9
$DWGCODEPAGE
  3
dos932
  9
$INSBASE
 10
0.0
 20
0.0
 30
0.0
  9
$EXTMIN
 10
-194.25
 20
-133.5
 30
0.0
  9
$EXTMAX
 10
196.25000429153442
 20
132.59999999999999
 30
0.0
  9
$LIMMIN
 10
-194.25
 20
-133.5
  9
$LIMMAX
 10
196.25000429153442
 20
132.59999999999999
  9
$ORTHOMODE
 70
               0
  9
$REGENMODE
 70
               1
  9
$FILLMODE
 70
               1
  9
$QTEXTMODE
 70
               0
  9
$MIRRTEXT
 70
               1
  9
$DRAGMODE
 70
               2
  9
$LTSCALE
 40
1.0
  9
$OSMODE
 70
               0
  9
$ATTMODE
 70
               1
  9
$TEXTSIZE
 40
3.2000000476837158
  9
$TRACEWID
 40
0.05
  9
$TEXTSTYLE
  7
MX_NOTE_STANDARD
  9
$CLAYER
  8
0
  9
$CELTYPE
  6
CONTINUOUS
  9
$CECOLOR
 62
             256
  9
$CELTSCALE
 40
1.0
  9
$DELOBJ
 70
               1
  9
$DISPSILH
 70
               0
  9
$DIMSCALE
 40
1.0
  9
$DIMASZ
 40
2.5
  9
$DIMEXO
 40
1.5
  9
$DIMDLI
 40
3.75
  9
$DIMRND
 40
0.0
  9
$DIMDLE
 40
0.0
  9
$DIMEXE
 40
1.5
  9
$DIMTP
 40
0.0
  9
$DIMTM
 40
0.0
  9
$DIMTXT
 40
3.2000000476837158
  9
$DIMCEN
 40
2.5
  9
$DIMTSZ
 40
0.0
  9
$DIMTOL
 70
               0
  9
$DIMLIM
 70
               0
  9
$DIMTIH
 70
               0
  9
$DIMTOH
 70
               0
  9
$DIMSE1
 70
               0
  9
$DIMSE2
 70
               0
  9
$DIMTAD
 70
               1
  9
$DIMZIN
 70
               8
  9
$DIMBLK
  1

  9
$DIMASO
 70
               1
  9
$DIMSHO
 70
               1
  9
$DIMPOST
  1

  9
$DIMAPOST
  1

  9
$DIMALT
 70
               0
  9
$DIMALTD
 70
               4
  9
$DIMALTF
 40
0.0394
  9
$DIMLFAC
 40
1.0
  9
$DIMTOFL
 70
               1
  9
$DIMTVP
 40
0.0
  9
$DIMTIX
 70
               0
  9
$DIMSOXD
 70
               0
  9
$DIMSAH
 70
               0
  9
$DIMBLK1
  1

  9
$DIMBLK2
  1

  9
$DIMSTYLE
  2
MXDIMSTYLE
  9
$DIMCLRD
 70
               0
  9
$DIMCLRE
 70
               0
  9
$DIMCLRT
 70
               0
  9
$DIMTFAC
 40
1.0
  9
$DIMGAP
 40
1.0
  9
$DIMJUST
 70
               0
  9
$DIMSD1
 70
               0
  9
$DIMSD2
 70
               0
  9
$DIMTOLJ
 70
               1
  9
$DIMTZIN
 70
               0
  9
$DIMALTZ
 70
               0
  9
$DIMALTTZ
 70
               0
  9
$DIMFIT
 70
               3
  9
$DIMUPT
 70
               1
  9
$DIMUNIT
 70
               2
  9
$DIMDEC
 70
               4
  9
$DIMTDEC
 70
               4
  9
$DIMALTU
 70
               8
  9
$DIMALTTD
 70
               4
  9
$DIMTXSTY
  7
MX_NOTE_STANDARD
  9
$DIMAUNIT
 70
               0
  9
$LUNITS
 70
               2
  9
$LUPREC
 70
               4
  9
$SKETCHINC
 40
0.1
  9
$FILLETRAD
 40
0.0
  9
$AUNITS
 70
               0
  9
$AUPREC
 70
               0
  9
$MENU
  1
acad
  9
$ELEVATION
 40
0.0
  9
$PELEVATION
 40
0.0
  9
$THICKNESS
 40
0.0
  9
$LIMCHECK
 70
               0
  9
$BLIPMODE
 70
               1
  9
$CHAMFERA
 40
0.0
  9
$CHAMFERB
 40
0.0
  9
$CHAMFERC
 40
0.0
  9
$CHAMFERD
 40
0.0
  9
$SKPOLY
 70
               0
  9
$TDCREATE
 40
2452220.696863426
  9
$TDUPDATE
 40
2452220.696863426
  9
$TDINDWG
 40
0.0000000000
  9
$TDUSRTIMER
 40
0.0000000000
  9
$USRTIMER
 70
               1
  9
$ANGBASE
 50
0.0
  9
$ANGDIR
 70
               0
  9
$PDMODE
 70
               0
  9
$PDSIZE
 40
0.0
  9
$PLINEWID
 40
0.0
  9
$COORDS
 70
               1
  9
$SPLFRAME
 70
               0
  9
$SPLINETYPE
 70
               6
  9
$SPLINESEGS
 70
               8
  9
$ATTDIA
 70
               0
  9
$ATTREQ
 70
               1
  9
$HANDLING
 70
               1
  9
$HANDSEED
  5
159
  9
$SURFTAB1
 70
               6
  9
$SURFTAB2
 70
               6
  9
$SURFTYPE
 70
               6
  9
$SURFU
 70
               6
  9
$SURFV
 70
               6
  9
$UCSNAME
  2

  9
$UCSORG
 10
0.0
 20
0.0
 30
0.0
  9
$UCSXDIR
 10
1.0
 20
0.0
 30
0.0
  9
$UCSYDIR
 10
0.0
 20
1.0
 30
0.0
  9
$PUCSNAME
  2

  9
$PUCSORG
 10
0.0
 20
0.0
 30
0.0
  9
$PUCSXDIR
 10
1.0
 20
0.0
 30
0.0
  9
$PUCSYDIR
 10
0.0
 20
1.0
 30
0.0
  9
$USERI1
 70
               0
  9
$USERI2
 70
               0
  9
$USERI3
 70
               0
  9
$USERI4
 70
               0
  9
$USERI5
 70
               0
  9
$USERR1
 40
0.0
  9
$USERR2
 40
0.0
  9
$USERR3
 40
0.0
  9
$USERR4
 40
0.0
  9
$USERR5
 40
0.0
  9
$WORLDVIEW
 70
               1
  9
$SHADEDGE
 70
               3
  9
$SHADEDIF
 70
              70
  9
$TILEMODE
 70
               1
  9
$MAXACTVP
 70
              16
  9
$PINSBASE
 10
0.0
 20
0.0
 30
0.0
  9
$PLIMCHECK
 70
               0
  9
$PEXTMIN
 10
1.0000000000000000E+20
 20
1.0000000000000000E+20
 30
1.0000000000000000E+20
  9
$PEXTMAX
 10
-1.0000000000000000E+20
 20
-1.0000000000000000E+20
 30
-1.0000000000000000E+20
  9
$PLIMMIN
 10
0.0
 20
0.0
  9
$PLIMMAX
 10
12.0
 20
9.0
  9
$UNITMODE
 70
               0
  9
$VISRETAIN
 70
               0
  9
$PLINEGEN
 70
               1
  9
$PSLTSCALE
 70
               0
  9
$TREEDEPTH
 70
            3020
  9
$PICKSTYLE
 70
               1
  9
$CMLSTYLE
  2
Standard
  9
$CMLJUST
 70
               0
  9
$CMLSCALE
 40
1.0
  9
$SAVEIMAGES
 70
               0
  0
ENDSEC
  0
SECTION
  2
CLASSES
  0
CLASS
  1
LWPOLYLINE
  2
AcDbPolyline
  3
"AutoCAD"
 90
        0
280
               0
281
               1
  0
CLASS
  1
IMAGE
  2
AcDbRasterImage
  3
ISM
 90
      127
280
               0
281
               1
  0
CLASS
  1
OLE2FRAME
  2
AcDbOle2Frame
  3
""
 90
        0
280
               0
281
               1
  0
CLASS
  1
HATCH
  2
AcDbHatch
  3
"ACAD_SEDONA"
 90
        0
280
               0
281
               1
  0
CLASS
  1
DICTIONARYVAR
  2
AcDbDictionaryVar
  3
"AutoCAD"
 90
        0
280
               0
281
               0
  0
CLASS
  1
RASTERVARIABLES
  2
AcDbRasterVariables
  3
ISM
 90
        0
280
               0
281
               0
  0
CLASS
  1
IMAGEDEF
  2
AcDbRasterImageDef
  3
ISM
 90
        0
280
               0
281
               0
  0
CLASS
  1
IMAGEDEF_REACTOR
  2
AcDbRasterImageDefReactor
  3
ISM
 90
        1
280
               0
281
               0
  0
CLASS
  1
IDBUFFER
  2
AcDbIdBuffer
  3
"Acad"
 90
        0
280
               0
281
               0
  0
CLASS
  1
SPATIAL_FILTER
  2
AcDbSpatialFilter
  3
"Acad"
 90
        0
280
               0
281
               0
  0
CLASS
  1
XRECORD
  2
AcDbXrecord
  3
"<Built In>"
 90
        0
280
               0
281
               0
  0
CLASS
  1
SORTENTSTABLE
  2
AcDbSortentsTable
  3
"AutoCAD"
 90
        0
280
               0
281
               0
  0
CLASS
  1
LAYER_INDEX
  2
AcDbLayerIndex
  3
"Acad"
 90
        0
280
               0
281
               0
  0
CLASS
  1
SPATIAL_INDEX
  2
AcDbSpatialIndex
  3
"Acad"
 90
        0
280
               0
281
               0
  0
CLASS
  1
OBJECT_PTR
  2
CAseDLPNTableRecord
  3
"ASE-LPNTableRecord"
 90
        1
280
               0
281
               0
  0
CLASS
  1
LAYOUT
  2
AcDbLayout
  3
"AutoCAD 2000"
 90
        1
280
               0
281
               0
  0
CLASS
  1
PLOTSETTINGS
  2
AcDbPlotSettings
  3
"AutoCAD 2000"
 90
        1
280
               0
281
               0
  0
CLASS
  1
ACDBDICTIONARYWDFLT
  2
AcDbDictionaryWithDefault
  3
"AutoCAD 2000"
 90
        1
280
               0
281
               0
  0
CLASS
  1
ACDBPLACEHOLDER
  2
AcDbPlaceHolder
  3
"AutoCAD 2000"
 90
        1
280
               0
281
               0
  0
CLASS
  1
VBA_PROJECT
  2
AcDbVbaProject
  3
"acadvba"
 90
        1
280
               0
281
               0
  0
CLASS
  1
WIPEOUT
  2
AcDbWipeout
  3
WipeOut|AutoCAD Express Tool|expresstools@autodesk.com
 90
      127
280
               0
281
               1
  0
CLASS
  1
WIPEOUTVARIABLES
  2
AcDbWipeoutVariables
  3
WipeOut|AutoCAD Express Tool|expresstools@autodesk.com
 90
        0
280
               0
281
               0
  0
CLASS
  1
RTEXT
  2
RText
  3
RText|AutoCAD Express Tool|expresstools@autodesk.com
 90
        0
280
               0
281
               1
  0
CLASS
  1
ARCALIGNEDTEXT
  2
AcDbArcAlignedText
  3
ATEXT|AutoCAD Express Tool|expresstools@autodesk.com
 90
        0
280
               0
281
               1
  0
ENDSEC
  0
SECTION
  2
TABLES
  0
TABLE
  2
VPORT
  5
7
100
AcDbSymbolTable
 70
               1
  0
VPORT
  5
15
100
AcDbSymbolTableRecord
100
AcDbViewportTableRecord
  2
*ACTIVE
 70
               0
 10
0.0
 20
0.0
 11
1.0
 21
1.0
 12
1.0000021457672119
 22
-0.4499999999999886
 13
0.0
 23
0.0
 14
1.0
 24
1.0
 15
0.0
 25
0.0
 16
0.0
 26
0.0
 36
1.0
 17
0.0
 27
0.0
 37
0.0
 40
268.76100000000002
 41
1.7320508075688772
 42
50.0
 43
0.0
 44
0.0
 50
0.0
 51
0.0
 71
               0
 72
             100
 73
               1
 74
               1
 75
               0
 76
               0
 77
               0
 78
               0
  0
ENDTAB
  0
TABLE
  2
LTYPE
  5
4
100
AcDbSymbolTable
 70
               6
  0
LTYPE
  5
11
100
AcDbSymbolTableRecord
100
AcDbLinetypeTableRecord
  2
BYBLOCK
 70
              64
  3

 72
              65
 73
               0
 40
0.0
  0
LTYPE
  5
12
100
AcDbSymbolTableRecord
100
AcDbLinetypeTableRecord
  2
BYLAYER
 70
              64
  3

 72
              65
 73
               0
 40
0.0
  0
LTYPE
  5
13
100
AcDbSymbolTableRecord
100
AcDbLinetypeTableRecord
  2
CONTINUOUS
 70
              64
  3
Solid line
 72
              65
 73
               0
 40
0.0
  0
LTYPE
  5
3D
100
AcDbSymbolTableRecord
100
AcDbLinetypeTableRecord
  2
CENTER
 70
              64
  3
Center ____ _ ____ _ ____ _ ____ _ ____ _ ____
 72
              65
 73
               4
 40
50.800000000000004
 49
31.75
 74
               0
 49
-6.3499999999999996
 74
               0
 49
6.3499999999999996
 74
               0
 49
-6.3499999999999996
 74
               0
  0
LTYPE
  5
3F
100
AcDbSymbolTableRecord
100
AcDbLinetypeTableRecord
  2
DASHED
 70
              64
  3
Dashed __ __ __ __ __ __ __ __ __ __ __ __ __ _
 72
              65
 73
               2
 40
19.049999999999997
 49
12.699999999999999
 74
               0
 49
-6.3499999999999996
 74
               0
  0
LTYPE
  5
148
100
AcDbSymbolTableRecord
100
AcDbLinetypeTableRecord
  2
PHANTOM
 70
              64
  3
Phantom ______  __  __  ______  __  __  ______
 72
              65
 73
               6
 40
63.500000000000007
 49
31.75
 74
               0
 49
-6.3499999999999996
 74
               0
 49
6.3499999999999996
 74
               0
 49
-6.3499999999999996
 74
               0
 49
6.3499999999999996
 74
               0
 49
-6.3499999999999996
 74
               0
  0
ENDTAB
  0
TABLE
  2
LAYER
  5
2
100
AcDbSymbolTable
 70
               2
  0
LAYER
  5
14
100
AcDbSymbolTableRecord
100
AcDbLayerTableRecord
  2
0
 70
               0
 62
               7
  6
CONTINUOUS
  0
LAYER
  5
1D
100
AcDbSymbolTableRecord
100
AcDbLayerTableRecord
  2
DEFPOINTS
 70
               0
 62
               7
  6
CONTINUOUS
  0
ENDTAB
  0
TABLE
  2
STYLE
  5
3
100
AcDbSymbolTable
 70
               1
  0
STYLE
  5
17
100
AcDbSymbolTableRecord
100
AcDbTextStyleTableRecord
  2
MX_NOTE_STANDARD
 70
               0
 40
3.2000000476837158
 41
1.0
 50
0.0
 71
               0
 42
3.2000000476837158
  3
txt.shx
  4
extfont.shx
  0
ENDTAB
  0
TABLE
  2
VIEW
  5
5
100
AcDbSymbolTable
 70
               0
  0
ENDTAB
  0
TABLE
  2
UCS
  5
6
100
AcDbSymbolTable
 70
               0
  0
ENDTAB
  0
TABLE
  2
APPID
  5
8
100
AcDbSymbolTable
 70
               1
  0
APPID
  5
16
100
AcDbSymbolTableRecord
100
AcDbRegAppTableRecord
  2
ACAD
 70
               0
  0
ENDTAB
  0
TABLE
  2
DIMSTYLE
  5
9
100
AcDbSymbolTable
 70
               1
  0
DIMSTYLE
105
18
100
AcDbSymbolTableRecord
100
AcDbDimStyleTableRecord
  2
MXDIMSTYLE
 70
               0
  3

  4

  5

  6

  7

 40
1.0
 41
2.5
 42
1.5
 43
3.75
 44
1.5
 45
0.0
 46
0.0
 47
0.0
 48
0.0
 71
               0
 72
               0
 73
               0
 74
               0
 75
               0
 76
               0
 77
               1
 78
               8
140
3.2000000476837158
141
2.5
142
0.0
143
0.0394
144
1.0
145
0.0
146
1.0
147
1.0
170
               0
171
               4
172
               1
173
               0
174
               0
175
               0
176
               0
177
               0
178
               0
270
               2
271
               4
272
               4
273
               8
274
               4
275
               0
280
               0
281
               0
282
               0
283
               1
284
               0
285
               0
286
               0
287
               3
288
               1
340
17
  0
ENDTAB
  0
TABLE
  2
BLOCK_RECORD
  5
1
100
AcDbSymbolTable
 70
               6
  0
BLOCK_RECORD
  5
A
100
AcDbSymbolTableRecord
100
AcDbBlockTableRecord
  2
*MODEL_SPACE
  0
BLOCK_RECORD
  5
B
100
AcDbSymbolTableRecord
100
AcDbBlockTableRecord
  2
*PAPER_SPACE
  0
BLOCK_RECORD
  5
1E
100
AcDbSymbolTableRecord
100
AcDbBlockTableRecord
  2
MS_1
  0
BLOCK_RECORD
  5
1F
100
AcDbSymbolTableRecord
100
AcDbBlockTableRecord
  2
MS_2
  0
BLOCK_RECORD
  5
20
100
AcDbSymbolTableRecord
100
AcDbBlockTableRecord
  2
MS_3
  0
BLOCK_RECORD
  5
21
100
AcDbSymbolTableRecord
100
AcDbBlockTableRecord
  2
MS_4
  0
BLOCK_RECORD
  5
22
100
AcDbSymbolTableRecord
100
AcDbBlockTableRecord
  2
MS_5
  0
BLOCK_RECORD
  5
23
100
AcDbSymbolTableRecord
100
AcDbBlockTableRecord
  2
MS_6
  0
ENDTAB
  0
ENDSEC
  0
SECTION
  2
BLOCKS
  0
BLOCK
  5
D
100
AcDbEntity
  8
0
100
AcDbBlockBegin
  2
*MODEL_SPACE
 70
               0
 10
0.0
 20
0.0
 30
0.0
  3
*MODEL_SPACE
  1

  0
ENDBLK
  5
E
100
AcDbEntity
  8
0
100
AcDbBlockEnd
  0
BLOCK
  5
F
100
AcDbEntity
 67
               1
  8
0
100
AcDbBlockBegin
  2
*PAPER_SPACE
 70
               0
 10
0.0
 20
0.0
 30
0.0
  3
*PAPER_SPACE
  1

  0
ENDBLK
  5
10
100
AcDbEntity
 67
               1
  8
0
100
AcDbBlockEnd
  0
BLOCK
  5
24
100
AcDbEntity
  8
0
100
AcDbBlockBegin
  2
MS_1
 70
               0
 10
0.0
 20
0.0
 30
0.0
  3
MS_1
  1

  0
SPLINE
  5
25
100
AcDbEntity
  8
0
  6
CONTINUOUS
 62
               7
100
AcDbSpline
210
0.0
220
0.0
230
1.0
 70
               0
 71
               3
 72
               0
 73
               0
 74
               5
 44
0.000001
 12
-0.5262027894913314
 22
-0.8503591149223613
 32
0.0
 13
0.5262023077277767
 23
-0.8503594130377826
 33
0.0
 11
-9.2899999999999991
 21
-7.79
 31
0.0
 11
-10.163322793144371
 21
-9.6585151897316592
 31
0.0
 11
-10.5
 21
-11.69
 31
0.0
 11
-10.163322661516089
 21
-13.71528008393542
 31
0.0
 11
-9.2899999999999991
 21
-15.58
 31
0.0
  0
SPLINE
  5
26
100
AcDbEntity
  8
0
  6
CONTINUOUS
 62
               7
100
AcDbSpline
210
0.0
220
0.0
230
1.0
 70
               0
 71
               3
 72
               0
 73
               0
 74
               5
 44
0.000001
 12
-0.5262043285187388
 22
-0.8503581625692454
 32
0.0
 13
0.5262032428953649
 23
-0.8503588343554747
 33
0.0
 11
-9.2899999999999991
 21
15.58
 31
0.0
 11
-10.163323336271828
 21
13.714080502061337
 31
0.0
 11
-10.5
 21
11.69
 31
0.0
 11
-10.163323501421637
 21
9.6597179486019424
 31
0.0
 11
-9.2899999999999991
 21
7.7900000000000009
 31
0.0
  0
SPLINE
  5
27
100
AcDbEntity
  8
0
  6
CONTINUOUS
 62
               7
100
AcDbSpline
210
0.0
220
0.0
230
1.0
 70
               0
 71
               3
 72
               0
 73
               0
 74
               5
 44
0.000001
 12
0.526200492990469
 22
-0.8503605359943436
 32
0.0
 13
-0.526201906203858
 23
-0.8503596615006066
 33
0.0
 11
-25.530000000000001
 21
6.9199999999999999
 31
0.0
 11
-25.145745819942775
 21
6.0906787420976158
 31
0.0
 11
-25.0
 21
5.1900000000000004
 31
0.0
 11
-25.14574579562035
 21
4.2893210813539939
 31
0.0
 11
-25.530000000000001
 21
3.46
 31
0.0
  0
SPLINE
  5
28
100
AcDbEntity
  8
0
  6
CONTINUOUS
 62
               7
100
AcDbSpline
210
0.0
220
0.0
230
1.0
 70
               0
 71
               3
 72
               0
 73
               0
 74
               5
 44
0.000001
 12
-0.5262151667511351
 22
-0.8503514557411395
 32
0.0
 13
0.526206751565985
 23
-0.850356663175149
 33
0.0
 11
-29.460000000000001
 21
6.9199999999999999
 31
0.0
 11
-29.849256915424998
 21
6.090680795361429
 31
0.0
 11
-30.0
 21
5.1900000000000004
 31
0.0
 11
-29.849256575162418
 21
4.289319771053866
 31
0.0
 11
-29.460000000000001
 21
3.4600000000000004
 31
0.0
  0
SPLINE
  5
29
100
AcDbEntity
  8
0
  6
CONTINUOUS
 62
               7
100
AcDbSpline
210
0.0
220
0.0
230
1.0
 70
               0
 71
               3
 72
               0
 73
               0
 74
               5
 44
0.000001
 12
0.5301692826850147
 22
0.8478918160338953
 32
0.0
 13
-0.5301692826850146
 23
0.8478918160338954
 33
0.0
 11
-25.530000000000001
 21
-6.9199999999999999
 31
0.0
 11
-25.145982341318991
 21
-6.1008790766924239
 31
0.0
 11
-25.0
 21
-5.21
 31
0.0
 11
-25.145982340841464
 21
-4.319120923307576
 31
0.0
 11
-25.530000000000001
 21
-3.5
 31
0.0
  0
SPLINE
  5
2A
100
AcDbEntity
  8
0
  6
CONTINUOUS
 62
               7
100
AcDbSpline
210
0.0
220
0.0
230
1.0
 70
               0
 71
               3
 72
               0
 73
               0
 74
               5
 44
0.000001
 12
-0.530172245091657
 22
-0.8478899636948606
 32
0.0
 13
0.5301722450916571
 23
-0.8478899636948606
 33
0.0
 11
-29.460000000000001
 21
-3.5
 31
0.0
 11
-29.849018340823328
 21
-4.3191205352705957
 31
0.0
 11
-30.0
 21
-5.21
 31
0.0
 11
-29.849018341835944
 21
-6.1008794647294042
 31
0.0
 11
-29.460000000000001
 21
-6.9199999999999999
 31
0.0
  0
SPLINE
  5
2B
100
AcDbEntity
  8
0
  6
CONTINUOUS
 62
               7
100
AcDbSpline
210
0.0
220
0.0
230
1.0
 70
               0
 71
               3
 72
               0
 73
               0
 74
               5
 44
0.000001
 12
0.6030225731296739
 22
-0.7977241229247535
 32
0.0
 13
-0.6030228487985586
 23
-0.7977239145386521
 33
0.0
 11
-13.0
 21
2.6400000000000001
 31
0.0
 11
-12.286799304519919
 21
1.3930212322651339
 31
0.0
 11
-12.0
 21
0.0
 31
0.0
 11
-12.286799335649453
 21
-1.3930212954854109
 31
0.0
 11
-13.0
 21
-2.6399999999999992
 31
0.0
  0
SPLINE
  5
2C
100
AcDbEntity
  8
0
  6
CONTINUOUS
 62
               7
100
AcDbSpline
210
0.0
220
0.0
230
1.0
 70
               0
 71
               3
 72
               0
 73
               0
 74
               5
 44
0.000001
 12
-0.603022573129674
 22
0.7977241229247534
 32
0.0
 13
0.6030228487985586
 23
0.7977239145386521
 33
0.0
 11
-18.0
 21
-2.6400000000000001
 31
0.0
 11
-18.713200695480083
 21
-1.3930212322651339
 31
0.0
 11
-19.0
 21
0.0
 31
0.0
 11
-18.713200664350548
 21
1.3930212954854109
 31
0.0
 11
-18.0
 21
2.6399999999999992
 31
0.0
  0
SPLINE
  5
2D
100
AcDbEntity
  8
0
  6
CONTINUOUS
 62
               7
100
AcDbSpline
210
0.0
220
0.0
230
1.0
 70
               0
 71
               3
 72
               0
 73
               0
 74
               5
 44
0.000001
 12
-0.2955759016354603
 22
0.9553192588723336
 32
0.0
 13
0.2955762872478649
 23
0.9553191395637207
 33
0.0
 11
-9.2899999999999991
 21
-7.79
 31
0.0
 11
-10.186398981572927
 21
-3.9436927241283088
 31
0.0
 11
-10.5
 21
0.0
 31
0.0
 11
-10.186398974548178
 21
3.9436928188127469
 31
0.0
 11
-9.2899999999999991
 21
7.7900000000000009
 31
0.0
  0
SPLINE
  5
2E
100
AcDbEntity
  8
0
  6
CONTINUOUS
 62
               7
100
AcDbSpline
210
0.0
220
0.0
230
1.0
 70
               0
 71
               3
 72
               0
 73
               0
 74
               5
 44
0.000001
 12
0.2942550071286592
 22
-0.9557269436296713
 32
0.0
 13
-0.2941271465160001
 23
-0.955766300767272
 33
0.0
 11
-25.530000000000001
 21
3.46
 31
0.0
 11
-25.136735626457845
 21
1.7509317534754349
 31
0.0
 11
-25.0
 21
0.0
 31
0.0
 11
-25.134144829503221
 21
-1.7716429570739365
 31
0.0
 11
-25.530000000000001
 21
-3.5
 31
0.0
  0
SPLINE
  5
2F
100
AcDbEntity
  8
0
  6
CONTINUOUS
 62
               7
100
AcDbSpline
210
0.0
220
0.0
230
1.0
 70
               0
 71
               3
 72
               0
 73
               0
 74
               5
 44
0.000001
 12
-0.2941286836397146
 22
0.9557658277320699
 32
0.0
 13
0.2942572436188299
 23
0.9557262550426501
 33
0.0
 11
-29.460000000000001
 21
-3.5
 31
0.0
 11
-29.860856853871098
 21
-1.7721585563295958
 31
0.0
 11
-30.0
 21
0.0
 31
0.0
 11
-29.858264399254541
 21
1.7514460165975791
 31
0.0
 11
-29.460000000000001
 21
3.4599999999999995
 31
0.0
  0
CIRCLE
  5
30
100
AcDbEntity
  8
0
  6
CONTINUOUS
 62
               7
100
AcDbCircle
 10
5.0
 20
0.0
 30
0.0
 40
2.0669994354248047
  0
CIRCLE
  5
31
100
AcDbEntity
  8
0
  6
CONTINUOUS
 62
               2
100
AcDbCircle
 10
5.0
 20
0.0
 30
0.0
 40
2.5
  0
CIRCLE
  5
32
100
AcDbEntity
  8
0
  6
CONTINUOUS
 62
               7
100
AcDbCircle
 10
5.0
 20
0.0
 30
0.0
 40
4.25
  0
CIRCLE
  5
33
100
AcDbEntity
  8
0
  6
CONTINUOUS
 62
               7
100
AcDbCircle
 10
123.0
 20
-0.0000152587890625
 30
0.0
 40
4.0
  0
LINE
  5
34
100
AcDbEntity
  8
0
  6
CONTINUOUS
 62
               2
100
AcDbLine
 10
131.78999999999999
 20
-9.25
 30
0.0
 11
113.0
 21
-9.25
 31
0.0
  0
LINE
  5
35
100
AcDbEntity
  8
0
  6
CONTINUOUS
 62
               2
100
AcDbLine
 10
113.0
 20
-9.25
 30
0.0
 11
111.7
 21
-10.0
 31
0.0
  0
LINE
  5
36
100
AcDbEntity
  8
0
  6
CONTINUOUS
 62
               2
100
AcDbLine
 10
-2.0
 20
-9.25
 30
0.0
 11
-0.7
 21
-10.0
 31
0.0
  0
LINE
  5
37
100
AcDbEntity
  8
0
  6
CONTINUOUS
 62
               2
100
AcDbLine
 10
-2.0
 20
9.25
 30
0.0
 11
-0.7
 21
10.0
 31
0.0
  0
LINE
  5
38
100
AcDbEntity
  8
0
  6
CONTINUOUS
 62
               7
100
AcDbLine
 10
-2.0
 20
-10.0
 30
0.0
 11
-2.0
 21
10.0
 31
0.0
  0
LINE
  5
39
100
AcDbEntity
  8
0
  6
CONTINUOUS
 62
               2
100
AcDbLine
 10
-10.5
 20
9.25
 30
0.0
 11
-11.75
 21
9.25
 31
0.0
  0
LINE
  5
3A
100
AcDbEntity
  8
0
  6
CONTINUOUS
 62
               2
100
AcDbLine
 10
-10.5
 20
-9.25
 30
0.0
 11
-11.75
 21
-9.25
 31
0.0
  0
LINE
  5
3B
100
AcDbEntity
  8
0
  6
CONTINUOUS
 62
               2
100
AcDbLine
 10
-3.0
 20
-9.25
 30
0.0
 11
-2.0
 21
-9.25
 31
0.0
  0
LINE
  5
3C
100
AcDbEntity
  8
0
  6
CONTINUOUS
 62
               2
100
AcDbLine
 10
-2.0
 20
9.25
 30
0.0
 11
-3.0
 21
9.25
 31
0.0
  0
LINE
  5
3E
100
AcDbEntity
  8
0
  6
CENTER
 62
               2
100
AcDbLine
 10
123.0
 20
6.0
 30
0.0
 11
123.0
 21
-6.0
 31
0.0
  0
LINE
  5
40
100
AcDbEntity
  8
0
  6
DASHED
 62
               2
100
AcDbLine
 10
98.129999999999995
 20
13.5
 30
0.0
 11
98.329999999999998
 21
7.2999999999999998
 31
0.0
  0
LINE
  5
41
100
AcDbEntity
  8
0
  6
DASHED
 62
               2
100
AcDbLine
 10
98.719999999999999
 20
13.5
 30
0.0
 11
98.909999999999997
 21
7.2999999999999998
 31
0.0
  0
LINE
  5
42
100
AcDbEntity
  8
0
  6
DASHED
 62
               2
100
AcDbLine
 10
107.27
 20
13.5
 30
0.0
 11
107.08
 21
7.2999999999999998
 31
0.0
  0
LINE
  5
43
100
AcDbEntity
  8
0
  6
DASHED
 62
               2
100
AcDbLine
 10
107.86
 20
13.5
 30
0.0
 11
107.67
 21
7.2999999999999998
 31
0.0
  0
LINE
  5
44
100
AcDbEntity
  8
0
  6
DASHED
 62
               2
100
AcDbLine
 10
13.130000000000001
 20
13.5
 30
0.0
 11
13.33
 21
7.2999999999999998
 31
0.0
  0
LINE
  5
45
100
AcDbEntity
  8
0
  6
DASHED
 62
               2
100
AcDbLine
 10
13.720000000000001
 20
13.5
 30
0.0
 11
13.91
 21
7.2999999999999998
 31
0.0
  0
LINE
  5
46
100
AcDbEntity
  8
0
  6
DASHED
 62
               2
100
AcDbLine
 10
22.27
 20
13.5
 30
0.0
 11
22.079999999999998
 21
7.2999999999999998
 31
0.0
  0
LINE
  5
47
100
AcDbEntity
  8
0
  6
DASHED
 62
               2
100
AcDbLine
 10
22.859999999999999
 20
13.5
 30
0.0
 11
22.670000000000002
 21
7.2999999999999998
 31
0.0
  0
LINE
  5
48
100
AcDbEntity
  8
0
  6
CONTINUOUS
 62
               7
100
AcDbLine
 10
-34.32
 20
4.0
 30
0.0
 11
-34.32
 21
-4.0
 31
0.0
  0
LINE
  5
49
100
AcDbEntity
  8
0
  6
CONTINUOUS
 62
               2
100
AcDbLine
 10
-25.0
 20
-3.3199999999999998
 30
0.0
 11
-20.0
 21
-3.3199999999999998
 31
0.0
  0
LINE
  5
4A
100
AcDbEntity
  8
0
  6
CONTINUOUS
 62
               2
100
AcDbLine
 10
-25.0
 20
3.3199999999999998
 30
0.0
 11
-20.0
 21
3.3199999999999998
 31
0.0
  0
LINE
  5
4B
100
AcDbEntity
  8
0
  6
CONTINUOUS
 62
               7
100
AcDbLine
 10
-35.0
 20
-3.3199999999999998
 30
0.0
 11
-34.32
 21
-4.0
 31
0.0
  0
LINE
  5
4C
100
AcDbEntity
  8
0
  6
CONTINUOUS
 62
               7
100
AcDbLine
 10
-35.0
 20
3.3199999999999998
 30
0.0
 11
-34.32
 21
4.0
 31
0.0
  0
LINE
  5
4D
100
AcDbEntity
  8
0
  6
CONTINUOUS
 62
               2
100
AcDbLine
 10
-20.0
 20
-3.3199999999999998
 30
0.0
 11
-18.82
 21
-4.0
 31
0.0
  0
LINE
  5
4E
100
AcDbEntity
  8
0
  6
CONTINUOUS
 62
               2
100
AcDbLine
 10
-20.0
 20
3.3199999999999998
 30
0.0
 11
-18.82
 21
4.0
 31
0.0
  0
LINE
  5
4F
100
AcDbEntity
  8
0
  6
CONTINUOUS
 62
               2
100
AcDbLine
 10
-35.0
 20
-3.3199999999999998
 30
0.0
 11
-30.0
 21
-3.3199999999999998
 31
0.0
  0
LINE
  5
50
100
AcDbEntity
  8
0
  6
CONTINUOUS
 62
               2
100
AcDbLine
 10
-35.0
 20
3.3199999999999998
 30
0.0
 11
-30.0
 21
3.3199999999999998
 31
0.0
  0
LINE
  5
51
100
AcDbEntity
  8
0
  6
CENTER
 62
               2
100
AcDbLine
 10
5.0
 20
-7.5
 30
0.0
 11
5.0
 21
7.5
 31
0.0
  0
LINE
  5
52
100
AcDbEntity
  8
0
  6
CONTINUOUS
 62
               7
100
AcDbLine
 10
94.0
 20
10.699999999999999
 30
0.0
 11
94.0
 21
-10.699999999999999
 31
0.0
  0
LINE
  5
53
100
AcDbEntity
  8
0
  6
CONTINUOUS
 62
               7
100
AcDbLine
 10
27.0
 20
10.699999999999999
 30
0.0
 11
27.0
 21
-10.699999999999999
 31
0.0
  0
LINE
  5
54
100
AcDbEntity
  8
0
  6
CONTINUOUS
 62
               7
100
AcDbLine
 10
0.0
 20
-13.5
 30
0.0
 11
0.0
 21
13.5
 31
0.0
  0
LINE
  5
55
100
AcDbEntity
  8
0
  6
CENTER
 62
               2
100
AcDbLine
 10
103.0
 20
17.82
 30
0.0
 11
103.0
 21
5.8200000000000003
 31
0.0
  0
LINE
  5
56
100
AcDbEntity
  8
0
  6
CENTER
 62
               2
100
AcDbLine
 10
18.0
 20
17.82
 30
0.0
 11
18.0
 21
5.8200000000000003
 31
0.0
  0
LINE
  5
57
100
AcDbEntity
  8
0
  6
CONTINUOUS
 62
               7
100
AcDbLine
 10
131.16
 20
8.0
 30
0.0
 11
132.0
 21
7.1600000000000001
 31
0.0
  0
LINE
  5
58
100
AcDbEntity
  8
0
  6
CONTINUOUS
 62
               7
100
AcDbLine
 10
131.16
 20
-8.0
 30
0.0
 11
132.0
 21
-7.1600000000000001
 31
0.0
  0
LINE
  5
59
100
AcDbEntity
  8
0
  6
CONTINUOUS
 62
               7
100
AcDbLine
 10
-30.0
 20
-6.0
 30
0.0
 11
-29.460000000000001
 21
-6.9199999999999999
 31
0.0
  0
LINE
  5
5A
100
AcDbEntity
  8
0
  6
CONTINUOUS
 62
               7
100
AcDbLine
 10
26.0
 20
10.699999999999999
 30
0.0
 11
95.0
 21
10.699999999999999
 31
0.0
  0
LINE
  5
5B
100
AcDbEntity
  8
0
  6
CONTINUOUS
 62
               7
100
AcDbLine
 10
26.0
 20
-10.699999999999999
 30
0.0
 11
95.0
 21
-10.699999999999999
 31
0.0
  0
LINE
  5
5C
100
AcDbEntity
  8
0
  6
CONTINUOUS
 62
               7
100
AcDbLine
 10
131.16
 20
8.0
 30
0.0
 11
131.16
 21
10.0
 31
0.0
  0
LINE
  5
5D
100
AcDbEntity
  8
0
  6
CENTER
 62
               2
100
AcDbLine
 10
-37.490000000000002
 20
0.0
 30
0.0
 11
134.5
 21
0.0
 31
0.0
  0
LINE
  5
5E
100
AcDbEntity
  8
0
  6
CONTINUOUS
 62
               7
100
AcDbLine
 10
-25.0
 20
-4.0
 30
0.0
 11
-12.0
 21
-4.0
 31
0.0
  0
LINE
  5
5F
100
AcDbEntity
  8
0
  6
CONTINUOUS
 62
               2
100
AcDbLine
 10
113.0
 20
9.25
 30
0.0
 11
111.7
 21
10.0
 31
0.0
  0
LINE
  5
60
100
AcDbEntity
  8
0
  6
CONTINUOUS
 62
               7
100
AcDbLine
 10
131.16
 20
-10.0
 30
0.0
 11
131.16
 21
-8.0
 31
0.0
  0
LINE
  5
61
100
AcDbEntity
  8
0
  6
CONTINUOUS
 62
               7
100
AcDbLine
 10
132.0
 20
-9.0
 30
0.0
 11
131.16
 21
-10.0
 31
0.0
  0
LINE
  5
62
100
AcDbEntity
  8
0
  6
CONTINUOUS
 62
               7
100
AcDbLine
 10
132.0
 20
9.0
 30
0.0
 11
131.16
 21
10.0
 31
0.0
  0
LINE
  5
63
100
AcDbEntity
  8
0
  6
CONTINUOUS
 62
               7
100
AcDbLine
 10
113.0
 20
8.0
 30
0.0
 11
113.0
 21
10.0
 31
0.0
  0
LINE
  5
64
100
AcDbEntity
  8
0
  6
CONTINUOUS
 62
               7
100
AcDbLine
 10
131.16
 20
-10.0
 30
0.0
 11
111.0
 21
-10.0
 31
0.0
  0
LINE
  5
65
100
AcDbEntity
  8
0
  6
CONTINUOUS
 62
               2
100
AcDbLine
 10
131.78999999999999
 20
9.25
 30
0.0
 11
113.0
 21
9.25
 31
0.0
  0
LINE
  5
66
100
AcDbEntity
  8
0
  6
CONTINUOUS
 62
               7
100
AcDbLine
 10
111.0
 20
10.0
 30
0.0
 11
131.16
 21
10.0
 31
0.0
  0
LINE
  5
67
100
AcDbEntity
  8
0
  6
CONTINUOUS
 62
               7
100
AcDbLine
 10
112.0
 20
-8.0
 30
0.0
 11
131.16
 21
-8.0
 31
0.0
  0
LINE
  5
68
100
AcDbEntity
  8
0
  6
CONTINUOUS
 62
               7
100
AcDbLine
 10
112.0
 20
8.0
 30
0.0
 11
131.16
 21
8.0
 31
0.0
  0
LINE
  5
69
100
AcDbEntity
  8
0
  6
CONTINUOUS
 62
               7
100
AcDbLine
 10
112.0
 20
-8.0
 30
0.0
 11
112.0
 21
8.0
 31
0.0
  0
LINE
  5
6A
100
AcDbEntity
  8
0
  6
CONTINUOUS
 62
               7
100
AcDbLine
 10
113.0
 20
-10.0
 30
0.0
 11
113.0
 21
-8.0
 31
0.0
  0
LINE
  5
6B
100
AcDbEntity
  8
0
  6
CONTINUOUS
 62
               7
100
AcDbLine
 10
132.0
 20
-9.0
 30
0.0
 11
132.0
 21
9.0
 31
0.0
  0
LINE
  5
6C
100
AcDbEntity
  8
0
  6
CONTINUOUS
 62
               7
100
AcDbLine
 10
111.0
 20
-13.5
 30
0.0
 11
95.0
 21
-13.5
 31
0.0
  0
LINE
  5
6D
100
AcDbEntity
  8
0
  6
CONTINUOUS
 62
               7
100
AcDbLine
 10
111.0
 20
13.5
 30
0.0
 11
95.0
 21
13.5
 31
0.0
  0
LINE
  5
6E
100
AcDbEntity
  8
0
  6
CONTINUOUS
 62
               7
100
AcDbLine
 10
95.0
 20
13.5
 30
0.0
 11
95.0
 21
-13.5
 31
0.0
  0
LINE
  5
6F
100
AcDbEntity
  8
0
  6
CONTINUOUS
 62
               7
100
AcDbLine
 10
111.0
 20
-13.5
 30
0.0
 11
111.0
 21
13.5
 31
0.0
  0
LINE
  5
70
100
AcDbEntity
  8
0
  6
CONTINUOUS
 62
               7
100
AcDbLine
 10
-34.32
 20
4.0
 30
0.0
 11
-30.0
 21
4.0
 31
0.0
  0
LINE
  5
71
100
AcDbEntity
  8
0
  6
CONTINUOUS
 62
               7
100
AcDbLine
 10
-30.0
 20
-4.0
 30
0.0
 11
-34.32
 21
-4.0
 31
0.0
  0
LINE
  5
72
100
AcDbEntity
  8
0
  6
CONTINUOUS
 62
               7
100
AcDbLine
 10
-35.0
 20
3.3199999999999998
 30
0.0
 11
-35.0
 21
-3.3199999999999998
 31
0.0
  0
LINE
  5
73
100
AcDbEntity
  8
0
  6
CONTINUOUS
 62
               7
100
AcDbLine
 10
-33.700000000000003
 20
-4.0
 30
0.0
 11
-30.0
 21
-4.0
 31
0.0
  0
LINE
  5
74
100
AcDbEntity
  8
0
  6
CONTINUOUS
 62
               7
100
AcDbLine
 10
-30.0
 20
6.0
 30
0.0
 11
-30.0
 21
-6.0
 31
0.0
  0
LINE
  5
75
100
AcDbEntity
  8
0
  6
CONTINUOUS
 62
               7
100
AcDbLine
 10
-20.0
 20
-4.0
 30
0.0
 11
-20.0
 21
4.0
 31
0.0
  0
LINE
  5
76
100
AcDbEntity
  8
0
  6
CONTINUOUS
 62
               7
100
AcDbLine
 10
-12.0
 20
4.0
 30
0.0
 11
-25.0
 21
4.0
 31
0.0
  0
LINE
  5
77
100
AcDbEntity
  8
0
  6
CONTINUOUS
 62
               7
100
AcDbLine
 10
-25.0
 20
-6.0
 30
0.0
 11
-25.0
 21
6.0
 31
0.0
  0
LINE
  5
78
100
AcDbEntity
  8
0
  6
CONTINUOUS
 62
               7
100
AcDbLine
 10
0.0
 20
10.0
 30
0.0
 11
-3.0
 21
10.0
 31
0.0
  0
LINE
  5
79
100
AcDbEntity
  8
0
  6
CONTINUOUS
 62
               7
100
AcDbLine
 10
-3.0
 20
-10.0
 30
0.0
 11
0.0
 21
-10.0
 31
0.0
  0
LINE
  5
7A
100
AcDbEntity
  8
0
  6
CONTINUOUS
 62
               7
100
AcDbLine
 10
0.0
 20
-13.5
 30
0.0
 11
26.0
 21
-13.5
 31
0.0
  0
LINE
  5
7B
100
AcDbEntity
  8
0
  6
CONTINUOUS
 62
               7
100
AcDbLine
 10
0.0
 20
13.5
 30
0.0
 11
26.0
 21
13.5
 31
0.0
  0
LINE
  5
7C
100
AcDbEntity
  8
0
  6
CONTINUOUS
 62
               7
100
AcDbLine
 10
26.0
 20
13.5
 30
0.0
 11
26.0
 21
-13.5
 31
0.0
  0
LINE
  5
7D
100
AcDbEntity
  8
0
  6
CONTINUOUS
 62
               7
100
AcDbLine
 10
10.0
 20
-13.5
 30
0.0
 11
10.0
 21
13.5
 31
0.0
  0
LINE
  5
7E
100
AcDbEntity
  8
0
  6
CONTINUOUS
 62
               7
100
AcDbLine
 10
-10.5
 20
13.5
 30
0.0
 11
-10.5
 21
-13.5
 31
0.0
  0
LINE
  5
7F
100
AcDbEntity
  8
0
  6
CONTINUOUS
 62
               7
100
AcDbLine
 10
-12.0
 20
-9.0
 30
0.0
 11
-12.0
 21
9.0
 31
0.0
  0
LINE
  5
80
100
AcDbEntity
  8
0
  6
CONTINUOUS
 62
               7
100
AcDbLine
 10
-3.5
 20
-15.58
 30
0.0
 11
-3.5
 21
15.58
 31
0.0
  0
LINE
  5
81
100
AcDbEntity
  8
0
  6
CONTINUOUS
 62
               7
100
AcDbLine
 10
-3.0
 20
-13.5
 30
0.0
 11
-3.0
 21
13.5
 31
0.0
  0
LINE
  5
82
100
AcDbEntity
  8
0
  6
CONTINUOUS
 62
               2
100
AcDbLine
 10
-18.0
 20
2.6400000000000001
 30
0.0
 11
-13.0
 21
-2.6400000000000001
 31
0.0
  0
LINE
  5
83
100
AcDbEntity
  8
0
  6
CONTINUOUS
 62
               2
100
AcDbLine
 10
-18.0
 20
-2.6400000000000001
 30
0.0
 11
-13.0
 21
2.6400000000000001
 31
0.0
  0
LINE
  5
84
100
AcDbEntity
  8
0
  6
CONTINUOUS
 62
               7
100
AcDbLine
 10
-18.0
 20
-2.6400000000000001
 30
0.0
 11
-13.0
 21
-2.6400000000000001
 31
0.0
  0
LINE
  5
85
100
AcDbEntity
  8
0
  6
CONTINUOUS
 62
               7
100
AcDbLine
 10
-18.0
 20
2.6400000000000001
 30
0.0
 11
-13.0
 21
2.6400000000000001
 31
0.0
  0
LINE
  5
86
100
AcDbEntity
  8
0
  6
CONTINUOUS
 62
               7
100
AcDbLine
 10
-13.0
 20
-2.6400000000000001
 30
0.0
 11
-13.0
 21
2.6400000000000001
 31
0.0
  0
LINE
  5
87
100
AcDbEntity
  8
0
  6
CONTINUOUS
 62
               7
100
AcDbLine
 10
-18.0
 20
-2.6400000000000001
 30
0.0
 11
-18.0
 21
2.6400000000000001
 31
0.0
  0
LINE
  5
88
100
AcDbEntity
  8
0
  6
CONTINUOUS
 62
               7
100
AcDbLine
 10
-9.2899999999999991
 20
15.58
 30
0.0
 11
-3.5
 21
15.58
 31
0.0
  0
LINE
  5
89
100
AcDbEntity
  8
0
  6
CONTINUOUS
 62
               7
100
AcDbLine
 10
-9.2899999999999991
 20
-15.58
 30
0.0
 11
-3.5
 21
-15.58
 31
0.0
  0
LINE
  5
8A
100
AcDbEntity
  8
0
  6
CONTINUOUS
 62
               7
100
AcDbLine
 10
-3.5
 20
13.5
 30
0.0
 11
-3.0
 21
13.5
 31
0.0
  0
LINE
  5
8B
100
AcDbEntity
  8
0
  6
CONTINUOUS
 62
               7
100
AcDbLine
 10
-3.5
 20
-13.5
 30
0.0
 11
-3.0
 21
-13.5
 31
0.0
  0
LINE
  5
8C
100
AcDbEntity
  8
0
  6
CONTINUOUS
 62
               7
100
AcDbLine
 10
-11.0
 20
10.0
 30
0.0
 11
-10.5
 21
10.0
 31
0.0
  0
LINE
  5
8D
100
AcDbEntity
  8
0
  6
CONTINUOUS
 62
               7
100
AcDbLine
 10
-11.0
 20
-10.0
 30
0.0
 11
-10.5
 21
-10.0
 31
0.0
  0
LINE
  5
8E
100
AcDbEntity
  8
0
  6
CONTINUOUS
 62
               7
100
AcDbLine
 10
-11.0
 20
10.0
 30
0.0
 11
-10.5
 21
10.0
 31
0.0
  0
LINE
  5
8F
100
AcDbEntity
  8
0
  6
CONTINUOUS
 62
               7
100
AcDbLine
 10
-12.0
 20
9.0
 30
0.0
 11
-11.0
 21
10.0
 31
0.0
  0
LINE
  5
90
100
AcDbEntity
  8
0
  6
CONTINUOUS
 62
               7
100
AcDbLine
 10
-12.0
 20
-9.0
 30
0.0
 11
-11.0
 21
-10.0
 31
0.0
  0
LINE
  5
91
100
AcDbEntity
  8
0
  6
CONTINUOUS
 62
               7
100
AcDbLine
 10
-3.5
 20
7.79
 30
0.0
 11
-9.2899999999999991
 21
7.79
 31
0.0
  0
LINE
  5
92
100
AcDbEntity
  8
0
  6
CONTINUOUS
 62
               7
100
AcDbLine
 10
-3.5
 20
-7.79
 30
0.0
 11
-9.2899999999999991
 21
-7.79
 31
0.0
  0
LINE
  5
93
100
AcDbEntity
  8
0
  6
CONTINUOUS
 62
               7
100
AcDbLine
 10
-9.2899999999999991
 20
-15.58
 30
0.0
 11
-10.5
 21
-13.5
 31
0.0
  0
LINE
  5
94
100
AcDbEntity
  8
0
  6
CONTINUOUS
 62
               7
100
AcDbLine
 10
-10.5
 20
13.5
 30
0.0
 11
-9.2899999999999991
 21
15.58
 31
0.0
  0
LINE
  5
95
100
AcDbEntity
  8
0
  6
CONTINUOUS
 62
               7
100
AcDbLine
 10
-25.530000000000001
 20
6.9199999999999999
 30
0.0
 11
-29.460000000000001
 21
6.9199999999999999
 31
0.0
  0
LINE
  5
96
100
AcDbEntity
  8
0
  6
CONTINUOUS
 62
               7
100
AcDbLine
 10
-29.460000000000001
 20
-6.9199999999999999
 30
0.0
 11
-25.530000000000001
 21
-6.9199999999999999
 31
0.0
  0
LINE
  5
97
100
AcDbEntity
  8
0
  6
CONTINUOUS
 62
               7
100
AcDbLine
 10
-29.460000000000001
 20
-3.5
 30
0.0
 11
-25.530000000000001
 21
-3.5
 31
0.0
  0
LINE
  5
98
100
AcDbEntity
  8
0
  6
CONTINUOUS
 62
               7
100
AcDbLine
 10
-29.460000000000001
 20
3.46
 30
0.0
 11
-25.530000000000001
 21
3.46
 31
0.0
  0
LINE
  5
99
100
AcDbEntity
  8
0
  6
CONTINUOUS
 62
               7
100
AcDbLine
 10
-25.0
 20
6.0
 30
0.0
 11
-25.530000000000001
 21
6.9199999999999999
 31
0.0
  0
LINE
  5
9A
100
AcDbEntity
  8
0
  6
CONTINUOUS
 62
               7
100
AcDbLine
 10
-25.530000000000001
 20
-6.9199999999999999
 30
0.0
 11
-25.0
 21
-6.0
 31
0.0
  0
LINE
  5
9B
100
AcDbEntity
  8
0
  6
CONTINUOUS
 62
               7
100
AcDbLine
 10
-30.0
 20
6.0
 30
0.0
 11
-29.460000000000001
 21
6.9199999999999999
 31
0.0
  0
LINE
  5
9C
100
AcDbEntity
  8
0
  6
CONTINUOUS
 62
               7
100
AcDbLine
 10
-10.5
 20
-10.0
 30
0.0
 11
-11.0
 21
-10.0
 31
0.0
  0
LINE
  5
9D
100
AcDbEntity
  8
0
  6
CONTINUOUS
 62
               7
100
AcDbLine
 10
-3.0
 20
-13.5
 30
0.0
 11
-3.5
 21
-13.5
 31
0.0
  0
LINE
  5
9E
100
AcDbEntity
  8
0
  6
CONTINUOUS
 62
               7
100
AcDbLine
 10
-3.5
 20
-15.58
 30
0.0
 11
-9.2899999999999991
 21
-15.58
 31
0.0
  0
LINE
  5
9F
100
AcDbEntity
  8
0
  6
CONTINUOUS
 62
               7
100
AcDbLine
 10
-10.5
 20
10.0
 30
0.0
 11
-11.0
 21
10.0
 31
0.0
  0
LINE
  5
A0
100
AcDbEntity
  8
0
  6
CONTINUOUS
 62
               7
100
AcDbLine
 10
-3.73
 20
15.58
 30
0.0
 11
-9.2899999999999991
 21
15.58
 31
0.0
  0
ENDBLK
  5
A1
100
AcDbEntity
  8
0
100
AcDbBlockEnd
  0
BLOCK
  5
A2
100
AcDbEntity
  8
0
100
AcDbBlockBegin
  2
MS_2
 70
               0
 10
0.0
 20
0.0
 30
0.0
  3
MS_2
  1

  0
CIRCLE
  5
A3
100
AcDbEntity
  8
0
  6
CONTINUOUS
 62
               2
100
AcDbCircle
 10
0.0
 20
0.0
 30
0.0
 40
3.3234996795654297
  0
CIRCLE
  5
A4
100
AcDbEntity
  8
0
  6
CONTINUOUS
 62
               7
100
AcDbCircle
 10
0.0
 20
0.0
 30
0.0
 40
4.0
  0
ARC
  5
A5
100
AcDbEntity
  8
0
  6
CONTINUOUS
 62
               2
100
AcDbCircle
 10
-0.2176290632059699
 20
0.1203991393895274
 30
0.0
 40
8.9948067660077289
100
AcDbArc
 50
60.511897364717271
 51
59.998340041398151
  0
CIRCLE
  5
A6
100
AcDbEntity
  8
0
  6
CONTINUOUS
 62
               7
100
AcDbCircle
 10
0.0
 20
0.0
 30
0.0
 40
6.0
  0
CIRCLE
  5
A7
100
AcDbEntity
  8
0
  6
CONTINUOUS
 62
               7
100
AcDbCircle
 10
0.0
 20
0.0
 30
0.0
 40
13.5
  0
CIRCLE
  5
A8
100
AcDbEntity
  8
0
  6
CONTINUOUS
 62
               7
100
AcDbCircle
 10
0.0
 20
0.0
 30
0.0
 40
10.0
  0
LINE
  5
A9
100
AcDbEntity
  8
0
  6
CONTINUOUS
 62
               7
100
AcDbLine
 10
-13.5
 20
7.79
 30
0.0
 11
-13.5
 21
-7.79
 31
0.0
  0
LINE
  5
AA
100
AcDbEntity
  8
0
  6
CONTINUOUS
 62
               7
100
AcDbLine
 10
-13.5
 20
7.79
 30
0.0
 11
0.0
 21
15.58
 31
0.0
  0
LINE
  5
AB
100
AcDbEntity
  8
0
  6
CENTER
 62
               2
100
AcDbLine
 10
-15.35
 20
0.0
 30
0.0
 11
15.35
 21
0.0
 31
0.0
  0
LINE
  5
AC
100
AcDbEntity
  8
0
  6
CENTER
 62
               2
100
AcDbLine
 10
0.0
 20
-16.93
 30
0.0
 11
0.0
 21
17.600000000000001
 31
0.0
  0
LINE
  5
AD
100
AcDbEntity
  8
0
  6
CONTINUOUS
 62
               7
100
AcDbLine
 10
0.0
 20
-15.58
 30
0.0
 11
13.5
 21
-7.79
 31
0.0
  0
LINE
  5
AE
100
AcDbEntity
  8
0
  6
CONTINUOUS
 62
               7
100
AcDbLine
 10
-6.0
 20
-3.46
 30
0.0
 11
0.0
 21
-6.9199999999999999
 31
0.0
  0
LINE
  5
AF
100
AcDbEntity
  8
0
  6
CONTINUOUS
 62
               7
100
AcDbLine
 10
0.0
 20
6.9199999999999999
 30
0.0
 11
6.0
 21
3.46
 31
0.0
  0
LINE
  5
B0
100
AcDbEntity
  8
0
  6
CONTINUOUS
 62
               7
100
AcDbLine
 10
0.0
 20
-6.9199999999999999
 30
0.0
 11
6.0
 21
-3.46
 31
0.0
  0
LINE
  5
B1
100
AcDbEntity
  8
0
  6
CONTINUOUS
 62
               7
100
AcDbLine
 10
-6.0
 20
3.46
 30
0.0
 11
0.0
 21
6.9199999999999999
 31
0.0
  0
LINE
  5
B2
100
AcDbEntity
  8
0
  6
CONTINUOUS
 62
               7
100
AcDbLine
 10
6.0
 20
3.46
 30
0.0
 11
6.0
 21
-3.46
 31
0.0
  0
LINE
  5
B3
100
AcDbEntity
  8
0
  6
CONTINUOUS
 62
               7
100
AcDbLine
 10
-6.0
 20
3.46
 30
0.0
 11
-6.0
 21
-3.46
 31
0.0
  0
LINE
  5
B4
100
AcDbEntity
  8
0
  6
CONTINUOUS
 62
               7
100
AcDbLine
 10
-13.5
 20
-7.79
 30
0.0
 11
0.0
 21
-15.58
 31
0.0
  0
LINE
  5
B5
100
AcDbEntity
  8
0
  6
CONTINUOUS
 62
               7
100
AcDbLine
 10
0.0
 20
15.58
 30
0.0
 11
13.5
 21
7.79
 31
0.0
  0
LINE
  5
B6
100
AcDbEntity
  8
0
  6
CONTINUOUS
 62
               7
100
AcDbLine
 10
13.5
 20
7.79
 30
0.0
 11
13.5
 21
-7.79
 31
0.0
  0
ENDBLK
  5
B7
100
AcDbEntity
  8
0
100
AcDbBlockEnd
  0
BLOCK
  5
B8
100
AcDbEntity
  8
0
100
AcDbBlockBegin
  2
MS_3
 70
               0
 10
0.0
 20
0.0
 30
0.0
  3
MS_3
  1

  0
ARC
  5
B9
100
AcDbEntity
  8
0
  6
CONTINUOUS
 62
               2
100
AcDbCircle
 10
0.0
 20
-0.0000000000000009
 30
0.0
 40
8.9938868127189586
100
AcDbArc
 50
228.15484286479145
 51
311.84515713520733
  0
CIRCLE
  5
BA
100
AcDbEntity
  8
0
  6
CONTINUOUS
 62
               7
100
AcDbCircle
 10
0.0
 20
0.0
 30
0.0
 40
13.5
  0
CIRCLE
  5
BB
100
AcDbEntity
  8
0
  6
CONTINUOUS
 62
               7
100
AcDbCircle
 10
0.0
 20
0.0
 30
0.0
 40
10.0
  0
ARC
  5
BC
100
AcDbEntity
  8
0
  6
CONTINUOUS
 62
               2
100
AcDbCircle
 10
0.0
 20
0.0000000000000009
 30
0.0
 40
8.9938868127189586
100
AcDbArc
 50
48.154842864791867
 51
131.84515713520773
  0
LINE
  5
BD
100
AcDbEntity
  8
0
  6
CONTINUOUS
 62
               7
100
AcDbLine
 10
-6.0
 20
-8.0
 30
0.0
 11
-6.0
 21
8.0
 31
0.0
  0
LINE
  5
BE
100
AcDbEntity
  8
0
  6
CONTINUOUS
 62
               7
100
AcDbLine
 10
6.0
 20
-8.0
 30
0.0
 11
6.0
 21
8.0
 31
0.0
  0
LINE
  5
BF
100
AcDbEntity
  8
0
  6
CENTER
 62
               2
100
AcDbLine
 10
-17.530000000000001
 20
0.0
 30
0.0
 11
17.710000000000001
 21
0.0
 31
0.0
  0
LINE
  5
C0
100
AcDbEntity
  8
0
  6
CENTER
 62
               2
100
AcDbLine
 10
0.0
 20
-17.600000000000001
 30
0.0
 11
0.0
 21
18.030000000000001
 31
0.0
  0
ENDBLK
  5
C1
100
AcDbEntity
  8
0
100
AcDbBlockEnd
  0
BLOCK
  5
C2
100
AcDbEntity
  8
0
100
AcDbBlockBegin
  2
MS_4
 70
               0
 10
0.0
 20
0.0
 30
0.0
  3
MS_4
  1

  0
ARC
  5
C3
100
AcDbEntity
  8
0
  6
CONTINUOUS
 62
               7
100
AcDbCircle
 10
8.9962615966796875
 20
6.75
 30
0.0
 40
19.492302664954757
100
AcDbArc
 50
159.73940500525973
 51
200.26059499473948
  0
ARC
  5
C4
100
AcDbEntity
  8
0
  6
CONTINUOUS
 62
               7
100
AcDbCircle
 10
8.9962615966796875
 20
-6.75
 30
0.0
 40
19.492302664954757
100
AcDbArc
 50
159.73940500525973
 51
200.26059499473948
  0
ARC
  5
C5
100
AcDbEntity
  8
0
  6
CONTINUOUS
 62
               7
100
AcDbCircle
 10
-33.664749145507813
 20
3.0
 30
0.0
 40
8.6703023972835034
100
AcDbArc
 50
339.75661770624481
 51
20.243382293754408
  0
ARC
  5
C6
100
AcDbEntity
  8
0
  6
CONTINUOUS
 62
               7
100
AcDbCircle
 10
-21.335250854492187
 20
3.0
 30
0.0
 40
8.6609207753812143
100
AcDbArc
 50
159.73372771703666
 51
200.26627228296255
  0
ARC
  5
C7
100
AcDbEntity
  8
0
  6
CONTINUOUS
 62
               7
100
AcDbCircle
 10
-33.664749145507813
 20
-3.0
 30
0.0
 40
8.6703023972835034
100
AcDbArc
 50
339.75661770624481
 51
20.243382293754408
  0
ARC
  5
C8
100
AcDbEntity
  8
0
  6
CONTINUOUS
 62
               7
100
AcDbCircle
 10
-21.335250854492187
 20
-3.0
 30
0.0
 40
8.6609207753812143
100
AcDbArc
 50
159.73372771703666
 51
200.26627228296255
  0
CIRCLE
  5
C9
100
AcDbEntity
  8
0
  6
CONTINUOUS
 62
               7
100
AcDbCircle
 10
103.0
 20
0.0
 30
0.0
 40
4.2779998779296875
  0
CIRCLE
  5
CA
100
AcDbEntity
  8
0
  6
CONTINUOUS
 62
               2
100
AcDbCircle
 10
103.0
 20
0.0
 30
0.0
 40
4.8639993667602539
  0
CIRCLE
  5
CB
100
AcDbEntity
  8
0
  6
CONTINUOUS
 62
               7
100
AcDbCircle
 10
18.0
 20
0.0
 30
0.0
 40
4.2779998779296875
  0
CIRCLE
  5
CC
100
AcDbEntity
  8
0
  6
CONTINUOUS
 62
               2
100
AcDbCircle
 10
18.0
 20
0.0
 30
0.0
 40
4.8639993667602539
  0
LINE
  5
CD
100
AcDbEntity
  8
0
  6
CONTINUOUS
 62
               7
100
AcDbLine
 10
-3.5
 20
-13.5
 30
0.0
 11
-3.5
 21
13.5
 31
0.0
  0
LINE
  5
CE
100
AcDbEntity
  8
0
  6
CONTINUOUS
 62
               7
100
AcDbLine
 10
-10.5
 20
13.5
 30
0.0
 11
-3.0
 21
13.5
 31
0.0
  0
LINE
  5
CF
100
AcDbEntity
  8
0
  6
CONTINUOUS
 62
               7
100
AcDbLine
 10
-10.5
 20
-13.5
 30
0.0
 11
-3.0
 21
-13.5
 31
0.0
  0
LINE
  5
D0
100
AcDbEntity
  8
0
  6
CONTINUOUS
 62
               7
100
AcDbLine
 10
-30.0
 20
-6.0
 30
0.0
 11
-25.0
 21
-6.0
 31
0.0
  0
LINE
  5
D1
100
AcDbEntity
  8
0
  6
CONTINUOUS
 62
               7
100
AcDbLine
 10
-30.0
 20
6.0
 30
0.0
 11
-25.0
 21
6.0
 31
0.0
  0
LINE
  5
D2
100
AcDbEntity
  8
0
  6
CONTINUOUS
 62
               2
100
AcDbLine
 10
-2.0
 20
-9.25
 30
0.0
 11
-0.7
 21
-10.0
 31
0.0
  0
LINE
  5
D3
100
AcDbEntity
  8
0
  6
CONTINUOUS
 62
               2
100
AcDbLine
 10
-2.0
 20
9.25
 30
0.0
 11
-0.7
 21
10.0
 31
0.0
  0
LINE
  5
D4
100
AcDbEntity
  8
0
  6
CONTINUOUS
 62
               7
100
AcDbLine
 10
-2.0
 20
-10.0
 30
0.0
 11
-2.0
 21
10.0
 31
0.0
  0
LINE
  5
D5
100
AcDbEntity
  8
0
  6
CONTINUOUS
 62
               2
100
AcDbLine
 10
-10.5
 20
9.25
 30
0.0
 11
-11.75
 21
9.25
 31
0.0
  0
LINE
  5
D6
100
AcDbEntity
  8
0
  6
CONTINUOUS
 62
               2
100
AcDbLine
 10
-10.5
 20
-9.25
 30
0.0
 11
-11.75
 21
-9.25
 31
0.0
  0
LINE
  5
D7
100
AcDbEntity
  8
0
  6
CONTINUOUS
 62
               2
100
AcDbLine
 10
-3.0
 20
-9.25
 30
0.0
 11
-2.0
 21
-9.25
 31
0.0
  0
LINE
  5
D8
100
AcDbEntity
  8
0
  6
CONTINUOUS
 62
               2
100
AcDbLine
 10
-2.0
 20
9.25
 30
0.0
 11
-3.0
 21
9.25
 31
0.0
  0
LINE
  5
D9
100
AcDbEntity
  8
0
  6
CONTINUOUS
 62
               7
100
AcDbLine
 10
-34.32
 20
4.0
 30
0.0
 11
-34.32
 21
-4.0
 31
0.0
  0
LINE
  5
DA
100
AcDbEntity
  8
0
  6
CONTINUOUS
 62
               2
100
AcDbLine
 10
-25.0
 20
-3.3199999999999998
 30
0.0
 11
-20.0
 21
-3.3199999999999998
 31
0.0
  0
LINE
  5
DB
100
AcDbEntity
  8
0
  6
CONTINUOUS
 62
               2
100
AcDbLine
 10
-25.0
 20
3.3199999999999998
 30
0.0
 11
-20.0
 21
3.3199999999999998
 31
0.0
  0
LINE
  5
DC
100
AcDbEntity
  8
0
  6
CONTINUOUS
 62
               7
100
AcDbLine
 10
-35.0
 20
-3.3199999999999998
 30
0.0
 11
-34.32
 21
-4.0
 31
0.0
  0
LINE
  5
DD
100
AcDbEntity
  8
0
  6
CONTINUOUS
 62
               7
100
AcDbLine
 10
-35.0
 20
3.3199999999999998
 30
0.0
 11
-34.32
 21
4.0
 31
0.0
  0
LINE
  5
DE
100
AcDbEntity
  8
0
  6
CONTINUOUS
 62
               2
100
AcDbLine
 10
-20.0
 20
-3.3199999999999998
 30
0.0
 11
-18.82
 21
-4.0
 31
0.0
  0
LINE
  5
DF
100
AcDbEntity
  8
0
  6
CONTINUOUS
 62
               2
100
AcDbLine
 10
-20.0
 20
3.3199999999999998
 30
0.0
 11
-18.82
 21
4.0
 31
0.0
  0
LINE
  5
E0
100
AcDbEntity
  8
0
  6
CONTINUOUS
 62
               2
100
AcDbLine
 10
-35.0
 20
-3.3199999999999998
 30
0.0
 11
-30.0
 21
-3.3199999999999998
 31
0.0
  0
LINE
  5
E1
100
AcDbEntity
  8
0
  6
CONTINUOUS
 62
               2
100
AcDbLine
 10
-35.0
 20
3.3199999999999998
 30
0.0
 11
-30.0
 21
3.3199999999999998
 31
0.0
  0
LINE
  5
E2
100
AcDbEntity
  8
0
  6
CONTINUOUS
 62
               7
100
AcDbLine
 10
-35.0
 20
3.3199999999999998
 30
0.0
 11
-35.0
 21
-3.3199999999999998
 31
0.0
  0
LINE
  5
E3
100
AcDbEntity
  8
0
  6
CONTINUOUS
 62
               7
100
AcDbLine
 10
-20.0
 20
-4.0
 30
0.0
 11
-20.0
 21
4.0
 31
0.0
  0
LINE
  5
E4
100
AcDbEntity
  8
0
  6
CONTINUOUS
 62
               7
100
AcDbLine
 10
94.0
 20
10.699999999999999
 30
0.0
 11
94.0
 21
-10.699999999999999
 31
0.0
  0
LINE
  5
E5
100
AcDbEntity
  8
0
  6
CONTINUOUS
 62
               7
100
AcDbLine
 10
27.0
 20
10.699999999999999
 30
0.0
 11
27.0
 21
-10.699999999999999
 31
0.0
  0
LINE
  5
E6
100
AcDbEntity
  8
0
  6
CONTINUOUS
 62
               7
100
AcDbLine
 10
111.0
 20
-10.0
 30
0.0
 11
112.0
 21
-10.0
 31
0.0
  0
LINE
  5
E7
100
AcDbEntity
  8
0
  6
CONTINUOUS
 62
               7
100
AcDbLine
 10
111.0
 20
10.0
 30
0.0
 11
112.0
 21
10.0
 31
0.0
  0
LINE
  5
E8
100
AcDbEntity
  8
0
  6
CONTINUOUS
 62
               7
100
AcDbLine
 10
112.0
 20
-10.0
 30
0.0
 11
112.0
 21
10.0
 31
0.0
  0
LINE
  5
E9
100
AcDbEntity
  8
0
  6
CONTINUOUS
 62
               7
100
AcDbLine
 10
132.0
 20
-6.0
 30
0.0
 11
132.0
 21
6.0
 31
0.0
  0
LINE
  5
EA
100
AcDbEntity
  8
0
  6
CONTINUOUS
 62
               7
100
AcDbLine
 10
112.0
 20
-6.0
 30
0.0
 11
132.0
 21
-6.0
 31
0.0
  0
LINE
  5
EB
100
AcDbEntity
  8
0
  6
CONTINUOUS
 62
               7
100
AcDbLine
 10
112.0
 20
6.0
 30
0.0
 11
132.0
 21
6.0
 31
0.0
  0
LINE
  5
EC
100
AcDbEntity
  8
0
  6
DASHED
 62
               7
100
AcDbLine
 10
119.0
 20
-6.0
 30
0.0
 11
119.0
 21
6.0
 31
0.0
  0
LINE
  5
ED
100
AcDbEntity
  8
0
  6
DASHED
 62
               7
100
AcDbLine
 10
127.0
 20
-6.0
 30
0.0
 11
127.0
 21
6.0
 31
0.0
  0
LINE
  5
EE
100
AcDbEntity
  8
0
  6
CENTER
 62
               2
100
AcDbLine
 10
123.0
 20
-7.7800000000000002
 30
0.0
 11
123.0
 21
7.8300000000000001
 31
0.0
  0
LINE
  5
EF
100
AcDbEntity
  8
0
  6
CONTINUOUS
 62
               7
100
AcDbLine
 10
-17.5
 20
-3.0
 30
0.0
 11
-18.5
 21
-4.0
 31
0.0
  0
LINE
  5
F0
100
AcDbEntity
  8
0
  6
CONTINUOUS
 62
               7
100
AcDbLine
 10
-13.0
 20
-3.0
 30
0.0
 11
-12.0
 21
-4.0
 31
0.0
  0
LINE
  5
F1
100
AcDbEntity
  8
0
  6
CONTINUOUS
 62
               7
100
AcDbLine
 10
-13.0
 20
3.0
 30
0.0
 11
-12.0
 21
4.0
 31
0.0
  0
LINE
  5
F2
100
AcDbEntity
  8
0
  6
CONTINUOUS
 62
               7
100
AcDbLine
 10
-18.5
 20
4.0
 30
0.0
 11
-17.5
 21
3.0
 31
0.0
  0
LINE
  5
F3
100
AcDbEntity
  8
0
  6
CONTINUOUS
 62
               7
100
AcDbLine
 10
-17.5
 20
-3.0
 30
0.0
 11
-13.0
 21
-3.0
 31
0.0
  0
LINE
  5
F4
100
AcDbEntity
  8
0
  6
CONTINUOUS
 62
               7
100
AcDbLine
 10
-13.0
 20
3.0
 30
0.0
 11
-17.5
 21
3.0
 31
0.0
  0
LINE
  5
F5
100
AcDbEntity
  8
0
  6
DASHED
 62
               2
100
AcDbLine
 10
0.75
 20
-12.5
 30
0.0
 11
9.25
 21
-12.5
 31
0.0
  0
LINE
  5
F6
100
AcDbEntity
  8
0
  6
DASHED
 62
               2
100
AcDbLine
 10
9.25
 20
-12.5
 30
0.0
 11
9.25
 21
-13.5
 31
0.0
  0
LINE
  5
F7
100
AcDbEntity
  8
0
  6
DASHED
 62
               2
100
AcDbLine
 10
7.5
 20
-9.5
 30
0.0
 11
7.5
 21
-12.5
 31
0.0
  0
LINE
  5
F8
100
AcDbEntity
  8
0
  6
DASHED
 62
               2
100
AcDbLine
 10
7.0599999999999996
 20
-9.5
 30
0.0
 11
7.0599999999999996
 21
-12.5
 31
0.0
  0
LINE
  5
F9
100
AcDbEntity
  8
0
  6
DASHED
 62
               2
100
AcDbLine
 10
0.75
 20
-12.5
 30
0.0
 11
0.75
 21
-13.5
 31
0.0
  0
LINE
  5
FA
100
AcDbEntity
  8
0
  6
DASHED
 62
               2
100
AcDbLine
 10
2.9300000000000002
 20
-9.5
 30
0.0
 11
2.9300000000000002
 21
-12.5
 31
0.0
  0
LINE
  5
FB
100
AcDbEntity
  8
0
  6
DASHED
 62
               2
100
AcDbLine
 10
2.5
 20
-9.5
 30
0.0
 11
2.5
 21
-12.5
 31
0.0
  0
LINE
  5
FC
100
AcDbEntity
  8
0
  6
CONTINUOUS
 62
               7
100
AcDbLine
 10
0.0
 20
-13.5
 30
0.0
 11
0.0
 21
13.5
 31
0.0
  0
LINE
  5
FD
100
AcDbEntity
  8
0
  6
CONTINUOUS
 62
               7
100
AcDbLine
 10
-2.0
 20
4.1699999999999999
 30
0.0
 11
-2.0
 21
-4.1699999999999999
 31
0.0
  0
LINE
  5
FE
100
AcDbEntity
  8
0
  6
CENTER
 62
               2
100
AcDbLine
 10
103.0
 20
7.5499999999999998
 30
0.0
 11
103.0
 21
-7.29
 31
0.0
  0
LINE
  5
FF
100
AcDbEntity
  8
0
  6
CENTER
 62
               2
100
AcDbLine
 10
18.0
 20
7.1299999999999999
 30
0.0
 11
18.0
 21
-6.9400000000000004
 31
0.0
  0
LINE
  5
100
100
AcDbEntity
  8
0
  6
CONTINUOUS
 62
               7
100
AcDbLine
 10
26.0
 20
10.699999999999999
 30
0.0
 11
95.0
 21
10.699999999999999
 31
0.0
  0
LINE
  5
101
100
AcDbEntity
  8
0
  6
CONTINUOUS
 62
               7
100
AcDbLine
 10
26.0
 20
-10.699999999999999
 30
0.0
 11
95.0
 21
-10.699999999999999
 31
0.0
  0
LINE
  5
102
100
AcDbEntity
  8
0
  6
CONTINUOUS
 62
               7
100
AcDbLine
 10
131.16
 20
-6.0
 30
0.0
 11
131.16
 21
6.0
 31
0.0
  0
LINE
  5
103
100
AcDbEntity
  8
0
  6
CENTER
 62
               2
100
AcDbLine
 10
-38.469999999999999
 20
0.0
 30
0.0
 11
134.5
 21
0.0
 31
0.0
  0
LINE
  5
104
100
AcDbEntity
  8
0
  6
CONTINUOUS
 62
               7
100
AcDbLine
 10
-25.0
 20
-4.0
 30
0.0
 11
-18.5
 21
-4.0
 31
0.0
  0
LINE
  5
105
100
AcDbEntity
  8
0
  6
CONTINUOUS
 62
               7
100
AcDbLine
 10
113.0
 20
-6.0
 30
0.0
 11
113.0
 21
6.0
 31
0.0
  0
LINE
  5
106
100
AcDbEntity
  8
0
  6
CONTINUOUS
 62
               7
100
AcDbLine
 10
111.0
 20
-10.0
 30
0.0
 11
111.0
 21
10.0
 31
0.0
  0
LINE
  5
107
100
AcDbEntity
  8
0
  6
CONTINUOUS
 62
               7
100
AcDbLine
 10
111.0
 20
-13.5
 30
0.0
 11
95.0
 21
-13.5
 31
0.0
  0
LINE
  5
108
100
AcDbEntity
  8
0
  6
CONTINUOUS
 62
               7
100
AcDbLine
 10
111.0
 20
13.5
 30
0.0
 11
95.0
 21
13.5
 31
0.0
  0
LINE
  5
109
100
AcDbEntity
  8
0
  6
CONTINUOUS
 62
               7
100
AcDbLine
 10
95.0
 20
13.5
 30
0.0
 11
95.0
 21
-13.5
 31
0.0
  0
LINE
  5
10A
100
AcDbEntity
  8
0
  6
CONTINUOUS
 62
               7
100
AcDbLine
 10
111.0
 20
-13.5
 30
0.0
 11
111.0
 21
13.5
 31
0.0
  0
LINE
  5
10B
100
AcDbEntity
  8
0
  6
CONTINUOUS
 62
               7
100
AcDbLine
 10
-34.32
 20
4.0
 30
0.0
 11
-30.0
 21
4.0
 31
0.0
  0
LINE
  5
10C
100
AcDbEntity
  8
0
  6
CONTINUOUS
 62
               7
100
AcDbLine
 10
-34.32
 20
-4.0
 30
0.0
 11
-30.0
 21
-4.0
 31
0.0
  0
LINE
  5
10D
100
AcDbEntity
  8
0
  6
CONTINUOUS
 62
               7
100
AcDbLine
 10
-30.0
 20
6.0
 30
0.0
 11
-30.0
 21
-6.0
 31
0.0
  0
LINE
  5
10E
100
AcDbEntity
  8
0
  6
CONTINUOUS
 62
               7
100
AcDbLine
 10
-20.0
 20
-4.0
 30
0.0
 11
-20.0
 21
4.0
 31
0.0
  0
LINE
  5
10F
100
AcDbEntity
  8
0
  6
CONTINUOUS
 62
               7
100
AcDbLine
 10
-18.5
 20
4.0
 30
0.0
 11
-25.0
 21
4.0
 31
0.0
  0
LINE
  5
110
100
AcDbEntity
  8
0
  6
CONTINUOUS
 62
               7
100
AcDbLine
 10
-25.0
 20
-6.0
 30
0.0
 11
-25.0
 21
6.0
 31
0.0
  0
LINE
  5
111
100
AcDbEntity
  8
0
  6
CONTINUOUS
 62
               7
100
AcDbLine
 10
0.0
 20
10.0
 30
0.0
 11
-3.0
 21
10.0
 31
0.0
  0
LINE
  5
112
100
AcDbEntity
  8
0
  6
CONTINUOUS
 62
               7
100
AcDbLine
 10
-3.0
 20
-10.0
 30
0.0
 11
0.0
 21
-10.0
 31
0.0
  0
LINE
  5
113
100
AcDbEntity
  8
0
  6
CONTINUOUS
 62
               7
100
AcDbLine
 10
0.0
 20
-13.5
 30
0.0
 11
26.0
 21
-13.5
 31
0.0
  0
LINE
  5
114
100
AcDbEntity
  8
0
  6
CONTINUOUS
 62
               7
100
AcDbLine
 10
0.0
 20
13.5
 30
0.0
 11
26.0
 21
13.5
 31
0.0
  0
LINE
  5
115
100
AcDbEntity
  8
0
  6
CONTINUOUS
 62
               7
100
AcDbLine
 10
26.0
 20
13.5
 30
0.0
 11
26.0
 21
-13.5
 31
0.0
  0
LINE
  5
116
100
AcDbEntity
  8
0
  6
CONTINUOUS
 62
               7
100
AcDbLine
 10
10.0
 20
-13.5
 30
0.0
 11
10.0
 21
13.5
 31
0.0
  0
LINE
  5
117
100
AcDbEntity
  8
0
  6
CONTINUOUS
 62
               7
100
AcDbLine
 10
-10.5
 20
13.5
 30
0.0
 11
-10.5
 21
-13.5
 31
0.0
  0
LINE
  5
118
100
AcDbEntity
  8
0
  6
CONTINUOUS
 62
               7
100
AcDbLine
 10
-12.0
 20
-9.0
 30
0.0
 11
-12.0
 21
9.0
 31
0.0
  0
LINE
  5
119
100
AcDbEntity
  8
0
  6
CONTINUOUS
 62
               7
100
AcDbLine
 10
-3.0
 20
-13.5
 30
0.0
 11
-3.0
 21
13.5
 31
0.0
  0
LINE
  5
11A
100
AcDbEntity
  8
0
  6
CONTINUOUS
 62
               7
100
AcDbLine
 10
-3.5
 20
13.5
 30
0.0
 11
-3.0
 21
13.5
 31
0.0
  0
LINE
  5
11B
100
AcDbEntity
  8
0
  6
CONTINUOUS
 62
               7
100
AcDbLine
 10
-3.5
 20
-13.5
 30
0.0
 11
-3.0
 21
-13.5
 31
0.0
  0
LINE
  5
11C
100
AcDbEntity
  8
0
  6
CONTINUOUS
 62
               7
100
AcDbLine
 10
-11.0
 20
10.0
 30
0.0
 11
-10.5
 21
10.0
 31
0.0
  0
LINE
  5
11D
100
AcDbEntity
  8
0
  6
CONTINUOUS
 62
               7
100
AcDbLine
 10
-11.0
 20
-10.0
 30
0.0
 11
-10.5
 21
-10.0
 31
0.0
  0
LINE
  5
11E
100
AcDbEntity
  8
0
  6
CONTINUOUS
 62
               7
100
AcDbLine
 10
-11.0
 20
10.0
 30
0.0
 11
-10.5
 21
10.0
 31
0.0
  0
LINE
  5
11F
100
AcDbEntity
  8
0
  6
CONTINUOUS
 62
               7
100
AcDbLine
 10
-12.0
 20
9.0
 30
0.0
 11
-11.0
 21
10.0
 31
0.0
  0
LINE
  5
120
100
AcDbEntity
  8
0
  6
CONTINUOUS
 62
               7
100
AcDbLine
 10
-12.0
 20
-9.0
 30
0.0
 11
-11.0
 21
-10.0
 31
0.0
  0
LINE
  5
121
100
AcDbEntity
  8
0
  6
CONTINUOUS
 62
               7
100
AcDbLine
 10
-3.5
 20
0.0
 30
0.0
 11
-9.2899999999999991
 21
0.0
 31
0.0
  0
LINE
  5
122
100
AcDbEntity
  8
0
  6
CONTINUOUS
 62
               7
100
AcDbLine
 10
-29.460000000000001
 20
0.0
 30
0.0
 11
-25.530000000000001
 21
0.0
 31
0.0
  0
LINE
  5
123
100
AcDbEntity
  8
0
  6
CONTINUOUS
 62
               7
100
AcDbLine
 10
-10.5
 20
-10.0
 30
0.0
 11
-11.0
 21
-10.0
 31
0.0
  0
LINE
  5
124
100
AcDbEntity
  8
0
  6
CONTINUOUS
 62
               7
100
AcDbLine
 10
-3.0
 20
-13.5
 30
0.0
 11
-3.5
 21
-13.5
 31
0.0
  0
LINE
  5
125
100
AcDbEntity
  8
0
  6
CONTINUOUS
 62
               7
100
AcDbLine
 10
-10.5
 20
10.0
 30
0.0
 11
-11.0
 21
10.0
 31
0.0
  0
ENDBLK
  5
126
100
AcDbEntity
  8
0
100
AcDbBlockEnd
  0
BLOCK
  5
127
100
AcDbEntity
  8
0
100
AcDbBlockBegin
  2
MS_5
 70
               0
 10
0.0
 20
0.0
 30
0.0
  3
MS_5
  1

  0
LINE
  5
128
100
AcDbEntity
  8
0
  6
DASHED
 62
               2
100
AcDbLine
 10
3.1299999999999999
 20
13.5
 30
0.0
 11
3.3300000000000001
 21
7.2999999999999998
 31
0.0
  0
LINE
  5
129
100
AcDbEntity
  8
0
  6
DASHED
 62
               2
100
AcDbLine
 10
3.7200000000000002
 20
13.5
 30
0.0
 11
3.9100000000000001
 21
7.2999999999999998
 31
0.0
  0
LINE
  5
12A
100
AcDbEntity
  8
0
  6
DASHED
 62
               2
100
AcDbLine
 10
12.27
 20
13.5
 30
0.0
 11
12.08
 21
7.2999999999999998
 31
0.0
  0
LINE
  5
12B
100
AcDbEntity
  8
0
  6
DASHED
 62
               2
100
AcDbLine
 10
12.859999999999999
 20
13.5
 30
0.0
 11
12.67
 21
7.2999999999999998
 31
0.0
  0
LINE
  5
12C
100
AcDbEntity
  8
0
  6
CENTER
 62
               2
100
AcDbLine
 10
8.0
 20
15.199999999999999
 30
0.0
 11
8.0
 21
6.2999999999999998
 31
0.0
  0
LINE
  5
12D
100
AcDbEntity
  8
0
  6
CONTINUOUS
 62
               7
100
AcDbLine
 10
17.0
 20
10.0
 30
0.0
 11
17.0
 21
-10.0
 31
0.0
  0
LINE
  5
12E
100
AcDbEntity
  8
0
  6
CONTINUOUS
 62
               7
100
AcDbLine
 10
16.0
 20
-10.0
 30
0.0
 11
17.0
 21
-10.0
 31
0.0
  0
LINE
  5
12F
100
AcDbEntity
  8
0
  6
CONTINUOUS
 62
               7
100
AcDbLine
 10
16.0
 20
10.0
 30
0.0
 11
17.0
 21
10.0
 31
0.0
  0
LINE
  5
130
100
AcDbEntity
  8
0
  6
CONTINUOUS
 62
               7
100
AcDbLine
 10
16.0
 20
-10.0
 30
0.0
 11
16.0
 21
10.0
 31
0.0
  0
LINE
  5
131
100
AcDbEntity
  8
0
  6
CONTINUOUS
 62
               7
100
AcDbLine
 10
16.0
 20
-13.5
 30
0.0
 11
16.0
 21
13.5
 31
0.0
  0
LINE
  5
132
100
AcDbEntity
  8
0
  6
CONTINUOUS
 62
               7
100
AcDbLine
 10
16.0
 20
-13.5
 30
0.0
 11
0.0
 21
-13.5
 31
0.0
  0
LINE
  5
133
100
AcDbEntity
  8
0
  6
CONTINUOUS
 62
               7
100
AcDbLine
 10
16.0
 20
13.5
 30
0.0
 11
0.0
 21
13.5
 31
0.0
  0
LINE
  5
134
100
AcDbEntity
  8
0
  6
CONTINUOUS
 62
               7
100
AcDbLine
 10
0.0
 20
13.5
 30
0.0
 11
0.0
 21
-13.5
 31
0.0
  0
ENDBLK
  5
135
100
AcDbEntity
  8
0
100
AcDbBlockEnd
  0
BLOCK
  5
136
100
AcDbEntity
  8
0
100
AcDbBlockBegin
  2
MS_6
 70
               0
 10
0.0
 20
0.0
 30
0.0
  3
MS_6
  1

  0
CIRCLE
  5
137
100
AcDbEntity
  8
0
  6
CONTINUOUS
 62
               7
100
AcDbCircle
 10
0.0
 20
0.0
 30
0.0
 40
13.5
  0
CIRCLE
  5
138
100
AcDbEntity
  8
0
  6
CONTINUOUS
 62
               7
100
AcDbCircle
 10
0.0
 20
0.0
 30
0.0
 40
10.0
  0
LINE
  5
139
100
AcDbEntity
  8
0
  6
CENTER
 62
               2
100
AcDbLine
 10
-17.530000000000001
 20
0.0
 30
0.0
 11
17.710000000000001
 21
0.0
 31
0.0
  0
LINE
  5
13A
100
AcDbEntity
  8
0
  6
CENTER
 62
               2
100
AcDbLine
 10
0.0
 20
-17.600000000000001
 30
0.0
 11
0.0
 21
18.030000000000001
 31
0.0
  0
ENDBLK
  5
13B
100
AcDbEntity
  8
0
100
AcDbBlockEnd
  0
ENDSEC
  0
SECTION
  2
ENTITIES
  0
INSERT
  5
13C
100
AcDbEntity
  8
0
100
AcDbBlockReference
  2
MS_6
 10
36.654815673828125
 20
-86.832504272460938
 30
0.0
  0
INSERT
  5
13D
100
AcDbEntity
  8
0
100
AcDbBlockReference
  2
MS_5
 10
-53.345169067382813
 20
-86.832504272460938
 30
0.0
  0
INSERT
  5
13E
100
AcDbEntity
  8
0
100
AcDbBlockReference
  2
MS_4
 10
-53.785842895507813
 20
69.872222900390625
 30
0.0
  0
INSERT
  5
13F
100
AcDbEntity
  8
0
100
AcDbBlockReference
  2
MS_3
 10
136.21414184570312
 20
-10.127773284912109
 30
0.0
  0
INSERT
  5
140
100
AcDbEntity
  8
0
100
AcDbBlockReference
  2
MS_2
 10
-143.78582763671875
 20
-10.127761840820312
 30
0.0
  0
INSERT
  5
141
100
AcDbEntity
  8
0
100
AcDbBlockReference
  2
MS_1
 10
-53.785842895507813
 20
-10.127773284912109
 30
0.0
  0
MTEXT
  5
142
100
AcDbEntity
  8
0
  6
CONTINUOUS
 62
               7
100
AcDbMText
 10
-12.252526890147816
 20
-121.71232604980469
 30
0.0
 40
3.1999998092651367
 41
0.0
 71
               4
 72
               1
  1
\W1.061;\A1;-A TYPE
  7
MX_NOTE_STANDARD
  0
MTEXT
  5
143
100
AcDbEntity
  8
0
  6
CONTINUOUS
 62
               7
100
AcDbMText
 10
-185.68918919049534
 20
107.60000610351562
 30
0.0
 40
4.5
 41
0.0
 71
               4
 72
               1
  1
\W1.081;\A1;MODEL:CS-DA20*ST(25)
  7
MX_NOTE_STANDARD
  0
MTEXT
  5
144
100
AcDbEntity
  8
0
  6
CONTINUOUS
 62
               7
100
AcDbMText
 10
-186.94642857356681
 20
125.10000610351562
 30
0.0
 40
4.5
 41
0.0
 71
               4
 72
               1
  1
\W1.071;\A1;CS-SLIM CYLINDER
  7
MX_NOTE_STANDARD
  0
MTEXT
  5
145
100
AcDbEntity
  8
0
  6
CONTINUOUS
 62
               7
100
AcDbMText
 10
115.5267259825148
 20
-126.0
 30
0.0
 40
6.3000001907348633
 41
0.0
 71
               4
 72
               1
  1
\W1.121;\A1;KOGANEI CORP.
  7
MX_NOTE_STANDARD
  0
MTEXT
  5
146
100
AcDbEntity
  8
0
  6
CONTINUOUS
 62
               7
100
AcDbMText
 10
135.28361320576767
 20
125.10000610351562
 30
0.0
 40
4.5
 41
0.0
 71
               4
 72
               1
  1
\W1.311;\A1;Ver. 1.0
  7
MX_NOTE_STANDARD
  0
LINE
  5
147
100
AcDbEntity
  8
0
  6
CONTINUOUS
 62
               7
100
AcDbLine
 10
-54.340000000000003
 20
-76.129999999999995
 30
0.0
 11
-54.340000000000003
 21
-97.530000000000001
 31
0.0
  0
LINE
  5
149
100
AcDbEntity
  8
0
  6
PHANTOM
 62
               2
100
AcDbLine
 10
-78.609999999999999
 20
-97.530000000000001
 30
0.0
 11
-70.819999999999993
 21
-76.129999999999995
 31
0.0
  0
LINE
  5
14A
100
AcDbEntity
  8
0
  6
CONTINUOUS
 62
               7
100
AcDbLine
 10
-70.819999999999993
 20
-76.129999999999995
 30
0.0
 11
-53.340000000000003
 21
-76.129999999999995
 31
0.0
  0
LINE
  5
14B
100
AcDbEntity
  8
0
  6
CONTINUOUS
 62
               7
100
AcDbLine
 10
-78.609999999999999
 20
-97.530000000000001
 30
0.0
 11
-53.340000000000003
 21
-97.530000000000001
 31
0.0
  0
LINE
  5
14C
100
AcDbEntity
  8
0
  6
CENTER
 62
               2
100
AcDbLine
 10
-80.340000000000003
 20
-86.829999999999998
 30
0.0
 11
-34.390000000000001
 21
-86.829999999999998
 31
0.0
  0
LINE
  5
14D
100
AcDbEntity
  8
0
  6
CONTINUOUS
 62
               7
100
AcDbLine
 10
-109.25
 20
132.59999999999999
 30
0.0
 11
-109.25
 21
117.59999999999999
 31
0.0
  0
LINE
  5
14E
100
AcDbEntity
  8
0
  6
CONTINUOUS
 62
               7
100
AcDbLine
 10
-194.25
 20
117.59999999999999
 30
0.0
 11
-109.25
 21
117.59999999999999
 31
0.0
  0
LINE
  5
14F
100
AcDbEntity
  8
0
  6
CONTINUOUS
 62
               7
100
AcDbLine
 10
109.8
 20
117.59999999999999
 30
0.0
 11
194.80000000000001
 21
117.59999999999999
 31
0.0
  0
LINE
  5
150
100
AcDbEntity
  8
0
  6
CONTINUOUS
 62
               7
100
AcDbLine
 10
109.8
 20
132.59999999999999
 30
0.0
 11
109.8
 21
117.59999999999999
 31
0.0
  0
LINE
  5
151
100
AcDbEntity
  8
0
  6
CONTINUOUS
 62
               7
100
AcDbLine
 10
109.8
 20
-118.5
 30
0.0
 11
194.80000000000001
 21
-118.5
 31
0.0
  0
LINE
  5
152
100
AcDbEntity
  8
0
  6
CONTINUOUS
 62
               7
100
AcDbLine
 10
109.8
 20
-118.5
 30
0.0
 11
109.8
 21
-133.5
 31
0.0
  0
LINE
  5
153
100
AcDbEntity
  8
0
  6
CONTINUOUS
 62
               7
100
AcDbLine
 10
-194.25
 20
-133.5
 30
0.0
 11
194.80000000000001
 21
-133.5
 31
0.0
  0
LINE
  5
154
100
AcDbEntity
  8
0
  6
CONTINUOUS
 62
               7
100
AcDbLine
 10
-194.25
 20
132.59999999999999
 30
0.0
 11
-194.25
 21
-133.5
 31
0.0
  0
LINE
  5
155
100
AcDbEntity
  8
0
  6
CONTINUOUS
 62
               7
100
AcDbLine
 10
194.80000000000001
 20
132.59999999999999
 30
0.0
 11
194.80000000000001
 21
-133.5
 31
0.0
  0
LINE
  5
156
100
AcDbEntity
  8
0
  6
CONTINUOUS
 62
               7
100
AcDbLine
 10
-194.25
 20
132.59999999999999
 30
0.0
 11
194.80000000000001
 21
132.59999999999999
 31
0.0
  0
ENDSEC
  0
SECTION
  2
OBJECTS
  0
DICTIONARY
  5
19
100
AcDbDictionary
  3
ACAD_GROUP
350
1A
  3
ACAD_MLINESTYLE
350
1B
  0
DICTIONARY
  5
1A
102
{ACAD_REACTORS
330
19
102
}
100
AcDbDictionary
  0
DICTIONARY
  5
1B
102
{ACAD_REACTORS
330
19
102
}
100
AcDbDictionary
  3
STANDARD
350
1C
  0
MLINESTYLE
  5
1C
102
{ACAD_REACTORS
330
1B
102
}
100
AcDbMlineStyle
  2
Standard
 70
               0
  3

 62
               0
 51
90.0
 52
90.0
 71
               2
 49
0.5
 62
             256
  6
ByLayer
 49
-0.5
 62
             256
  6
ByLayer
  0
ENDSEC
  0
EOF
