  0
SECTION
  2
HEADER
  9
$ACADVER
  1
AC1012
  9
$DWGCODEPAGE
  3
dos932
  9
$INSBASE
 10
0.0
 20
0.0
 30
0.0
  9
$EXTMIN
 10
-399.52490234375
 20
-276.5
 30
0.0
  9
$EXTMAX
 10
403.02503681182861
 20
276.5
 30
0.0
  9
$LIMMIN
 10
-399.52490234375
 20
-276.5
  9
$LIMMAX
 10
403.02503681182861
 20
276.5
  9
$ORTHOMODE
 70
               0
  9
$REGENMODE
 70
               1
  9
$FILLMODE
 70
               1
  9
$QTEXTMODE
 70
               0
  9
$MIRRTEXT
 70
               1
  9
$DRAGMODE
 70
               2
  9
$LTSCALE
 40
1.0
  9
$OSMODE
 70
               0
  9
$ATTMODE
 70
               1
  9
$TEXTSIZE
 40
3.2000000476837158
  9
$TRACEWID
 40
0.05
  9
$TEXTSTYLE
  7
MX_NOTE_STANDARD
  9
$CLAYER
  8
0
  9
$CELTYPE
  6
CONTINUOUS
  9
$CECOLOR
 62
             256
  9
$CELTSCALE
 40
1.0
  9
$DELOBJ
 70
               1
  9
$DISPSILH
 70
               0
  9
$DIMSCALE
 40
1.0
  9
$DIMASZ
 40
2.5
  9
$DIMEXO
 40
1.5
  9
$DIMDLI
 40
3.75
  9
$DIMRND
 40
0.0
  9
$DIMDLE
 40
0.0
  9
$DIMEXE
 40
1.5
  9
$DIMTP
 40
0.0
  9
$DIMTM
 40
0.0
  9
$DIMTXT
 40
3.2000000476837158
  9
$DIMCEN
 40
2.5
  9
$DIMTSZ
 40
0.0
  9
$DIMTOL
 70
               0
  9
$DIMLIM
 70
               0
  9
$DIMTIH
 70
               0
  9
$DIMTOH
 70
               0
  9
$DIMSE1
 70
               0
  9
$DIMSE2
 70
               0
  9
$DIMTAD
 70
               1
  9
$DIMZIN
 70
               8
  9
$DIMBLK
  1

  9
$DIMASO
 70
               1
  9
$DIMSHO
 70
               1
  9
$DIMPOST
  1

  9
$DIMAPOST
  1

  9
$DIMALT
 70
               0
  9
$DIMALTD
 70
               4
  9
$DIMALTF
 40
0.0394
  9
$DIMLFAC
 40
1.0
  9
$DIMTOFL
 70
               1
  9
$DIMTVP
 40
0.0
  9
$DIMTIX
 70
               0
  9
$DIMSOXD
 70
               0
  9
$DIMSAH
 70
               0
  9
$DIMBLK1
  1

  9
$DIMBLK2
  1

  9
$DIMSTYLE
  2
MXDIMSTYLE
  9
$DIMCLRD
 70
               0
  9
$DIMCLRE
 70
               0
  9
$DIMCLRT
 70
               0
  9
$DIMTFAC
 40
1.0
  9
$DIMGAP
 40
1.0
  9
$DIMJUST
 70
               0
  9
$DIMSD1
 70
               0
  9
$DIMSD2
 70
               0
  9
$DIMTOLJ
 70
               1
  9
$DIMTZIN
 70
               0
  9
$DIMALTZ
 70
               0
  9
$DIMALTTZ
 70
               0
  9
$DIMFIT
 70
               3
  9
$DIMUPT
 70
               1
  9
$DIMUNIT
 70
               2
  9
$DIMDEC
 70
               4
  9
$DIMTDEC
 70
               4
  9
$DIMALTU
 70
               8
  9
$DIMALTTD
 70
               4
  9
$DIMTXSTY
  7
MX_NOTE_STANDARD
  9
$DIMAUNIT
 70
               0
  9
$LUNITS
 70
               2
  9
$LUPREC
 70
               4
  9
$SKETCHINC
 40
0.1
  9
$FILLETRAD
 40
0.0
  9
$AUNITS
 70
               0
  9
$AUPREC
 70
               0
  9
$MENU
  1
acad
  9
$ELEVATION
 40
0.0
  9
$PELEVATION
 40
0.0
  9
$THICKNESS
 40
0.0
  9
$LIMCHECK
 70
               0
  9
$BLIPMODE
 70
               1
  9
$CHAMFERA
 40
0.0
  9
$CHAMFERB
 40
0.0
  9
$CHAMFERC
 40
0.0
  9
$CHAMFERD
 40
0.0
  9
$SKPOLY
 70
               0
  9
$TDCREATE
 40
2452220.696851852
  9
$TDUPDATE
 40
2452220.696851852
  9
$TDINDWG
 40
0.0000000000
  9
$TDUSRTIMER
 40
0.0000000000
  9
$USRTIMER
 70
               1
  9
$ANGBASE
 50
0.0
  9
$ANGDIR
 70
               0
  9
$PDMODE
 70
               0
  9
$PDSIZE
 40
0.0
  9
$PLINEWID
 40
0.0
  9
$COORDS
 70
               1
  9
$SPLFRAME
 70
               0
  9
$SPLINETYPE
 70
               6
  9
$SPLINESEGS
 70
               8
  9
$ATTDIA
 70
               0
  9
$ATTREQ
 70
               1
  9
$HANDLING
 70
               1
  9
$HANDSEED
  5
158
  9
$SURFTAB1
 70
               6
  9
$SURFTAB2
 70
               6
  9
$SURFTYPE
 70
               6
  9
$SURFU
 70
               6
  9
$SURFV
 70
               6
  9
$UCSNAME
  2

  9
$UCSORG
 10
0.0
 20
0.0
 30
0.0
  9
$UCSXDIR
 10
1.0
 20
0.0
 30
0.0
  9
$UCSYDIR
 10
0.0
 20
1.0
 30
0.0
  9
$PUCSNAME
  2

  9
$PUCSORG
 10
0.0
 20
0.0
 30
0.0
  9
$PUCSXDIR
 10
1.0
 20
0.0
 30
0.0
  9
$PUCSYDIR
 10
0.0
 20
1.0
 30
0.0
  9
$USERI1
 70
               0
  9
$USERI2
 70
               0
  9
$USERI3
 70
               0
  9
$USERI4
 70
               0
  9
$USERI5
 70
               0
  9
$USERR1
 40
0.0
  9
$USERR2
 40
0.0
  9
$USERR3
 40
0.0
  9
$USERR4
 40
0.0
  9
$USERR5
 40
0.0
  9
$WORLDVIEW
 70
               1
  9
$SHADEDGE
 70
               3
  9
$SHADEDIF
 70
              70
  9
$TILEMODE
 70
               1
  9
$MAXACTVP
 70
              16
  9
$PINSBASE
 10
0.0
 20
0.0
 30
0.0
  9
$PLIMCHECK
 70
               0
  9
$PEXTMIN
 10
1.0000000000000000E+20
 20
1.0000000000000000E+20
 30
1.0000000000000000E+20
  9
$PEXTMAX
 10
-1.0000000000000000E+20
 20
-1.0000000000000000E+20
 30
-1.0000000000000000E+20
  9
$PLIMMIN
 10
0.0
 20
0.0
  9
$PLIMMAX
 10
12.0
 20
9.0
  9
$UNITMODE
 70
               0
  9
$VISRETAIN
 70
               0
  9
$PLINEGEN
 70
               1
  9
$PSLTSCALE
 70
               0
  9
$TREEDEPTH
 70
            3020
  9
$PICKSTYLE
 70
               1
  9
$CMLSTYLE
  2
Standard
  9
$CMLJUST
 70
               0
  9
$CMLSCALE
 40
1.0
  9
$SAVEIMAGES
 70
               0
  0
ENDSEC
  0
SECTION
  2
CLASSES
  0
CLASS
  1
LWPOLYLINE
  2
AcDbPolyline
  3
"AutoCAD"
 90
        0
280
               0
281
               1
  0
CLASS
  1
IMAGE
  2
AcDbRasterImage
  3
ISM
 90
      127
280
               0
281
               1
  0
CLASS
  1
OLE2FRAME
  2
AcDbOle2Frame
  3
""
 90
        0
280
               0
281
               1
  0
CLASS
  1
HATCH
  2
AcDbHatch
  3
"ACAD_SEDONA"
 90
        0
280
               0
281
               1
  0
CLASS
  1
DICTIONARYVAR
  2
AcDbDictionaryVar
  3
"AutoCAD"
 90
        0
280
               0
281
               0
  0
CLASS
  1
RASTERVARIABLES
  2
AcDbRasterVariables
  3
ISM
 90
        0
280
               0
281
               0
  0
CLASS
  1
IMAGEDEF
  2
AcDbRasterImageDef
  3
ISM
 90
        0
280
               0
281
               0
  0
CLASS
  1
IMAGEDEF_REACTOR
  2
AcDbRasterImageDefReactor
  3
ISM
 90
        1
280
               0
281
               0
  0
CLASS
  1
IDBUFFER
  2
AcDbIdBuffer
  3
"Acad"
 90
        0
280
               0
281
               0
  0
CLASS
  1
SPATIAL_FILTER
  2
AcDbSpatialFilter
  3
"Acad"
 90
        0
280
               0
281
               0
  0
CLASS
  1
XRECORD
  2
AcDbXrecord
  3
"<Built In>"
 90
        0
280
               0
281
               0
  0
CLASS
  1
SORTENTSTABLE
  2
AcDbSortentsTable
  3
"AutoCAD"
 90
        0
280
               0
281
               0
  0
CLASS
  1
LAYER_INDEX
  2
AcDbLayerIndex
  3
"Acad"
 90
        0
280
               0
281
               0
  0
CLASS
  1
SPATIAL_INDEX
  2
AcDbSpatialIndex
  3
"Acad"
 90
        0
280
               0
281
               0
  0
CLASS
  1
OBJECT_PTR
  2
CAseDLPNTableRecord
  3
"ASE-LPNTableRecord"
 90
        1
280
               0
281
               0
  0
CLASS
  1
LAYOUT
  2
AcDbLayout
  3
"AutoCAD 2000"
 90
        1
280
               0
281
               0
  0
CLASS
  1
PLOTSETTINGS
  2
AcDbPlotSettings
  3
"AutoCAD 2000"
 90
        1
280
               0
281
               0
  0
CLASS
  1
ACDBDICTIONARYWDFLT
  2
AcDbDictionaryWithDefault
  3
"AutoCAD 2000"
 90
        1
280
               0
281
               0
  0
CLASS
  1
ACDBPLACEHOLDER
  2
AcDbPlaceHolder
  3
"AutoCAD 2000"
 90
        1
280
               0
281
               0
  0
CLASS
  1
VBA_PROJECT
  2
AcDbVbaProject
  3
"acadvba"
 90
        1
280
               0
281
               0
  0
CLASS
  1
WIPEOUT
  2
AcDbWipeout
  3
WipeOut|AutoCAD Express Tool|expresstools@autodesk.com
 90
      127
280
               0
281
               1
  0
CLASS
  1
WIPEOUTVARIABLES
  2
AcDbWipeoutVariables
  3
WipeOut|AutoCAD Express Tool|expresstools@autodesk.com
 90
        0
280
               0
281
               0
  0
CLASS
  1
RTEXT
  2
RText
  3
RText|AutoCAD Express Tool|expresstools@autodesk.com
 90
        0
280
               0
281
               1
  0
CLASS
  1
ARCALIGNEDTEXT
  2
AcDbArcAlignedText
  3
ATEXT|AutoCAD Express Tool|expresstools@autodesk.com
 90
        0
280
               0
281
               1
  0
ENDSEC
  0
SECTION
  2
TABLES
  0
TABLE
  2
VPORT
  5
7
100
AcDbSymbolTable
 70
               1
  0
VPORT
  5
15
100
AcDbSymbolTableRecord
100
AcDbViewportTableRecord
  2
*ACTIVE
 70
               0
 10
0.0
 20
0.0
 11
1.0
 21
1.0
 12
1.7500672340393066
 22
0.0
 13
0.0
 23
0.0
 14
1.0
 24
1.0
 15
0.0
 25
0.0
 16
0.0
 26
0.0
 36
1.0
 17
0.0
 27
0.0
 37
0.0
 40
558.52999999999997
 41
1.7320508075688772
 42
50.0
 43
0.0
 44
0.0
 50
0.0
 51
0.0
 71
               0
 72
             100
 73
               1
 74
               1
 75
               0
 76
               0
 77
               0
 78
               0
  0
ENDTAB
  0
TABLE
  2
LTYPE
  5
4
100
AcDbSymbolTable
 70
               4
  0
LTYPE
  5
11
100
AcDbSymbolTableRecord
100
AcDbLinetypeTableRecord
  2
BYBLOCK
 70
              64
  3

 72
              65
 73
               0
 40
0.0
  0
LTYPE
  5
12
100
AcDbSymbolTableRecord
100
AcDbLinetypeTableRecord
  2
BYLAYER
 70
              64
  3

 72
              65
 73
               0
 40
0.0
  0
LTYPE
  5
13
100
AcDbSymbolTableRecord
100
AcDbLinetypeTableRecord
  2
CONTINUOUS
 70
              64
  3
Solid line
 72
              65
 73
               0
 40
0.0
  0
LTYPE
  5
35
100
AcDbSymbolTableRecord
100
AcDbLinetypeTableRecord
  2
CENTER
 70
              64
  3
Center ____ _ ____ _ ____ _ ____ _ ____ _ ____
 72
              65
 73
               4
 40
50.800000000000004
 49
31.75
 74
               0
 49
-6.3499999999999996
 74
               0
 49
6.3499999999999996
 74
               0
 49
-6.3499999999999996
 74
               0
  0
ENDTAB
  0
TABLE
  2
LAYER
  5
2
100
AcDbSymbolTable
 70
               2
  0
LAYER
  5
14
100
AcDbSymbolTableRecord
100
AcDbLayerTableRecord
  2
0
 70
               0
 62
               7
  6
CONTINUOUS
  0
LAYER
  5
1D
100
AcDbSymbolTableRecord
100
AcDbLayerTableRecord
  2
DEFPOINTS
 70
               0
 62
               7
  6
CONTINUOUS
  0
ENDTAB
  0
TABLE
  2
STYLE
  5
3
100
AcDbSymbolTable
 70
               1
  0
STYLE
  5
17
100
AcDbSymbolTableRecord
100
AcDbTextStyleTableRecord
  2
MX_NOTE_STANDARD
 70
               0
 40
3.2000000476837158
 41
1.0
 50
0.0
 71
               0
 42
3.2000000476837158
  3
txt.shx
  4
extfont.shx
  0
ENDTAB
  0
TABLE
  2
VIEW
  5
5
100
AcDbSymbolTable
 70
               0
  0
ENDTAB
  0
TABLE
  2
UCS
  5
6
100
AcDbSymbolTable
 70
               0
  0
ENDTAB
  0
TABLE
  2
APPID
  5
8
100
AcDbSymbolTable
 70
               1
  0
APPID
  5
16
100
AcDbSymbolTableRecord
100
AcDbRegAppTableRecord
  2
ACAD
 70
               0
  0
ENDTAB
  0
TABLE
  2
DIMSTYLE
  5
9
100
AcDbSymbolTable
 70
               1
  0
DIMSTYLE
105
18
100
AcDbSymbolTableRecord
100
AcDbDimStyleTableRecord
  2
MXDIMSTYLE
 70
               0
  3

  4

  5

  6

  7

 40
1.0
 41
2.5
 42
1.5
 43
3.75
 44
1.5
 45
0.0
 46
0.0
 47
0.0
 48
0.0
 71
               0
 72
               0
 73
               0
 74
               0
 75
               0
 76
               0
 77
               1
 78
               8
140
3.2000000476837158
141
2.5
142
0.0
143
0.0394
144
1.0
145
0.0
146
1.0
147
1.0
170
               0
171
               4
172
               1
173
               0
174
               0
175
               0
176
               0
177
               0
178
               0
270
               2
271
               4
272
               4
273
               8
274
               4
275
               0
280
               0
281
               0
282
               0
283
               1
284
               0
285
               0
286
               0
287
               3
288
               1
340
17
  0
ENDTAB
  0
TABLE
  2
BLOCK_RECORD
  5
1
100
AcDbSymbolTable
 70
              18
  0
BLOCK_RECORD
  5
A
100
AcDbSymbolTableRecord
100
AcDbBlockTableRecord
  2
*MODEL_SPACE
  0
BLOCK_RECORD
  5
B
100
AcDbSymbolTableRecord
100
AcDbBlockTableRecord
  2
*PAPER_SPACE
  0
BLOCK_RECORD
  5
1E
100
AcDbSymbolTableRecord
100
AcDbBlockTableRecord
  2
MS_1
  0
BLOCK_RECORD
  5
1F
100
AcDbSymbolTableRecord
100
AcDbBlockTableRecord
  2
MS_2
  0
BLOCK_RECORD
  5
20
100
AcDbSymbolTableRecord
100
AcDbBlockTableRecord
  2
MS_3
  0
BLOCK_RECORD
  5
21
100
AcDbSymbolTableRecord
100
AcDbBlockTableRecord
  2
MS_4
  0
BLOCK_RECORD
  5
22
100
AcDbSymbolTableRecord
100
AcDbBlockTableRecord
  2
MS_5
  0
BLOCK_RECORD
  5
23
100
AcDbSymbolTableRecord
100
AcDbBlockTableRecord
  2
MS_6
  0
BLOCK_RECORD
  5
24
100
AcDbSymbolTableRecord
100
AcDbBlockTableRecord
  2
MS_7
  0
BLOCK_RECORD
  5
25
100
AcDbSymbolTableRecord
100
AcDbBlockTableRecord
  2
MS_8
  0
BLOCK_RECORD
  5
26
100
AcDbSymbolTableRecord
100
AcDbBlockTableRecord
  2
MS_9
  0
BLOCK_RECORD
  5
27
100
AcDbSymbolTableRecord
100
AcDbBlockTableRecord
  2
MS_10
  0
BLOCK_RECORD
  5
28
100
AcDbSymbolTableRecord
100
AcDbBlockTableRecord
  2
MS_11
  0
BLOCK_RECORD
  5
29
100
AcDbSymbolTableRecord
100
AcDbBlockTableRecord
  2
MS_12
  0
BLOCK_RECORD
  5
2A
100
AcDbSymbolTableRecord
100
AcDbBlockTableRecord
  2
MS_13
  0
BLOCK_RECORD
  5
2B
100
AcDbSymbolTableRecord
100
AcDbBlockTableRecord
  2
MS_14
  0
BLOCK_RECORD
  5
2C
100
AcDbSymbolTableRecord
100
AcDbBlockTableRecord
  2
MS_15
  0
BLOCK_RECORD
  5
2D
100
AcDbSymbolTableRecord
100
AcDbBlockTableRecord
  2
MS_16
  0
BLOCK_RECORD
  5
2E
100
AcDbSymbolTableRecord
100
AcDbBlockTableRecord
  2
MS_17
  0
BLOCK_RECORD
  5
2F
100
AcDbSymbolTableRecord
100
AcDbBlockTableRecord
  2
MS_18
  0
ENDTAB
  0
ENDSEC
  0
SECTION
  2
BLOCKS
  0
BLOCK
  5
D
100
AcDbEntity
  8
0
100
AcDbBlockBegin
  2
*MODEL_SPACE
 70
               0
 10
0.0
 20
0.0
 30
0.0
  3
*MODEL_SPACE
  1

  0
ENDBLK
  5
E
100
AcDbEntity
  8
0
100
AcDbBlockEnd
  0
BLOCK
  5
F
100
AcDbEntity
 67
               1
  8
0
100
AcDbBlockBegin
  2
*PAPER_SPACE
 70
               0
 10
0.0
 20
0.0
 30
0.0
  3
*PAPER_SPACE
  1

  0
ENDBLK
  5
10
100
AcDbEntity
 67
               1
  8
0
100
AcDbBlockEnd
  0
BLOCK
  5
30
100
AcDbEntity
  8
0
100
AcDbBlockBegin
  2
MS_1
 70
               0
 10
0.0
 20
0.0
 30
0.0
  3
MS_1
  1

  0
LINE
  5
31
100
AcDbEntity
  8
0
  6
CONTINUOUS
 62
               4
100
AcDbLine
 10
-27.5
 20
-21.800000000000001
 30
0.0
 11
-13.44
 21
7.71
 31
0.0
  0
LINE
  5
32
100
AcDbEntity
  8
0
  6
CONTINUOUS
 62
               4
100
AcDbLine
 10
-27.5
 20
-21.800000000000001
 30
0.0
 11
27.5
 21
-21.800000000000001
 31
0.0
  0
LINE
  5
33
100
AcDbEntity
  8
0
  6
CONTINUOUS
 62
               4
100
AcDbLine
 10
-27.5
 20
-21.800000000000001
 30
0.0
 11
-27.5
 21
-25.0
 31
0.0
  0
LINE
  5
34
100
AcDbEntity
  8
0
  6
CONTINUOUS
 62
               4
100
AcDbLine
 10
-27.5
 20
-25.0
 30
0.0
 11
27.5
 21
-25.0
 31
0.0
  0
LINE
  5
36
100
AcDbEntity
  8
0
  6
CENTER
 62
             200
100
AcDbLine
 10
-20.0
 20
-20.0
 30
0.0
 11
-20.0
 21
-27.77
 31
0.0
  0
LINE
  5
37
100
AcDbEntity
  8
0
  6
CENTER
 62
             200
100
AcDbLine
 10
0.0
 20
17.5
 30
0.0
 11
0.0
 21
-28.469999999999999
 31
0.0
  0
LINE
  5
38
100
AcDbEntity
  8
0
  6
CENTER
 62
             200
100
AcDbLine
 10
20.0
 20
-20.0
 30
0.0
 11
20.0
 21
-27.420000000000002
 31
0.0
  0
LINE
  5
39
100
AcDbEntity
  8
0
  6
CONTINUOUS
 62
               4
100
AcDbLine
 10
27.5
 20
-21.800000000000001
 30
0.0
 11
27.5
 21
-25.0
 31
0.0
  0
LINE
  5
3A
100
AcDbEntity
  8
0
  6
CONTINUOUS
 62
               4
100
AcDbLine
 10
27.5
 20
-21.800000000000001
 30
0.0
 11
13.44
 21
7.71
 31
0.0
  0
LINE
  5
3B
100
AcDbEntity
  8
0
  6
CENTER
 62
             200
100
AcDbLine
 10
-15.0
 20
0.0
 30
0.0
 11
15.0
 21
0.0
 31
0.0
  0
CIRCLE
  5
3C
100
AcDbEntity
  8
0
  6
CONTINUOUS
 62
               4
100
AcDbCircle
 10
0.0
 20
0.0
 30
0.0
 40
10.5
  0
ARC
  5
3D
100
AcDbEntity
  8
0
  6
CONTINUOUS
 62
               4
100
AcDbCircle
 10
0.0
 20
-0.0000000000000018
 30
0.0
 40
15.494440938607626
100
AcDbArc
 50
29.841199759665912
 51
150.15880024033368
  0
ENDBLK
  5
3E
100
AcDbEntity
  8
0
100
AcDbBlockEnd
  0
BLOCK
  5
3F
100
AcDbEntity
  8
0
100
AcDbBlockBegin
  2
MS_2
 70
               0
 10
0.0
 20
0.0
 30
0.0
  3
MS_2
  1

  0
LINE
  5
40
100
AcDbEntity
  8
0
  6
CONTINUOUS
 62
               4
100
AcDbLine
 10
-26.800000000000001
 20
-21.800000000000001
 30
0.0
 11
-26.800000000000001
 21
-25.0
 31
0.0
  0
LINE
  5
41
100
AcDbEntity
  8
0
  6
CONTINUOUS
 62
               4
100
AcDbLine
 10
-26.800000000000001
 20
-21.800000000000001
 30
0.0
 11
-3.0
 21
-21.800000000000001
 31
0.0
  0
LINE
  5
42
100
AcDbEntity
  8
0
  6
CONTINUOUS
 62
               4
100
AcDbLine
 10
-26.800000000000001
 20
-25.0
 30
0.0
 11
-3.0
 21
-25.0
 31
0.0
  0
LINE
  5
43
100
AcDbEntity
  8
0
  6
CENTER
 62
             200
100
AcDbLine
 10
-16.800000000000001
 20
-20.0
 30
0.0
 11
-16.800000000000001
 21
-27.600000000000001
 31
0.0
  0
LINE
  5
44
100
AcDbEntity
  8
0
  6
CONTINUOUS
 62
               4
100
AcDbLine
 10
0.0
 20
15.5
 30
0.0
 11
0.0
 21
-18.800000000000001
 31
0.0
  0
LINE
  5
45
100
AcDbEntity
  8
0
  6
CONTINUOUS
 62
               4
100
AcDbLine
 10
3.2000000000000002
 20
15.5
 30
0.0
 11
3.2000000000000002
 21
-18.800000000000001
 31
0.0
  0
LINE
  5
46
100
AcDbEntity
  8
0
  6
CONTINUOUS
 62
               4
100
AcDbLine
 10
0.0
 20
15.5
 30
0.0
 11
3.2000000000000002
 21
15.5
 31
0.0
  0
LINE
  5
47
100
AcDbEntity
  8
0
  6
CENTER
 62
             200
100
AcDbLine
 10
-6.7999999999999998
 20
0.0
 30
0.0
 11
8.1999999999999993
 21
0.0
 31
0.0
  0
ARC
  5
48
100
AcDbEntity
  8
0
  6
CONTINUOUS
 62
               4
100
AcDbCircle
 10
-3.0000045776414117
 20
-18.799995422358585
 30
0.0
 40
6.200004577643103
100
AcDbArc
 50
270.00004230311862
 51
359.9999576968799
  0
ARC
  5
49
100
AcDbEntity
  8
0
  6
CONTINUOUS
 62
               4
100
AcDbCircle
 10
-3.0000045776464201
 20
-18.799995422353579
 30
0.0
 40
3.0000045776499125
100
AcDbArc
 50
270.00008742647265
 51
359.99991257352588
  0
ENDBLK
  5
4A
100
AcDbEntity
  8
0
100
AcDbBlockEnd
  0
BLOCK
  5
4B
100
AcDbEntity
  8
0
100
AcDbBlockBegin
  2
MS_3
 70
               0
 10
0.0
 20
0.0
 30
0.0
  3
MS_3
  1

  0
LINE
  5
4C
100
AcDbEntity
  8
0
  6
CONTINUOUS
 62
               4
100
AcDbLine
 10
-27.5
 20
-3.2000000000000002
 30
0.0
 11
27.5
 21
-3.2000000000000002
 31
0.0
  0
LINE
  5
4D
100
AcDbEntity
  8
0
  6
CONTINUOUS
 62
               4
100
AcDbLine
 10
-22.5
 20
-30.0
 30
0.0
 11
22.5
 21
-30.0
 31
0.0
  0
LINE
  5
4E
100
AcDbEntity
  8
0
  6
CONTINUOUS
 62
               4
100
AcDbLine
 10
27.5
 20
-25.0
 30
0.0
 11
27.5
 21
0.0
 31
0.0
  0
LINE
  5
4F
100
AcDbEntity
  8
0
  6
CONTINUOUS
 62
               4
100
AcDbLine
 10
-27.5
 20
0.0
 30
0.0
 11
27.5
 21
0.0
 31
0.0
  0
LINE
  5
50
100
AcDbEntity
  8
0
  6
CENTER
 62
             200
100
AcDbLine
 10
0.0
 20
3.5
 30
0.0
 11
0.0
 21
-34.75
 31
0.0
  0
LINE
  5
51
100
AcDbEntity
  8
0
  6
CONTINUOUS
 62
               4
100
AcDbLine
 10
-27.5
 20
0.0
 30
0.0
 11
-27.5
 21
-25.0
 31
0.0
  0
LINE
  5
52
100
AcDbEntity
  8
0
  6
CENTER
 62
             200
100
AcDbLine
 10
-26.0
 20
-20.0
 30
0.0
 11
-14.0
 21
-20.0
 31
0.0
  0
LINE
  5
53
100
AcDbEntity
  8
0
  6
CENTER
 62
             200
100
AcDbLine
 10
14.0
 20
-20.0
 30
0.0
 11
26.0
 21
-20.0
 31
0.0
  0
LINE
  5
54
100
AcDbEntity
  8
0
  6
CENTER
 62
             200
100
AcDbLine
 10
-20.0
 20
-14.0
 30
0.0
 11
-20.0
 21
-26.0
 31
0.0
  0
LINE
  5
55
100
AcDbEntity
  8
0
  6
CENTER
 62
             200
100
AcDbLine
 10
20.0
 20
-14.0
 30
0.0
 11
20.0
 21
-26.0
 31
0.0
  0
ARC
  5
56
100
AcDbEntity
  8
0
  6
CONTINUOUS
 62
               4
100
AcDbCircle
 10
-22.499992370599649
 20
-24.999992370599649
 30
0.0
 40
5.0000076294061726
100
AcDbArc
 50
180.00008742635424
 51
269.99991257364468
  0
CIRCLE
  5
57
100
AcDbEntity
  8
0
  6
CONTINUOUS
 62
               4
100
AcDbCircle
 10
-20.0
 20
-19.999984741210937
 30
0.0
 40
3.3999996185302734
  0
ARC
  5
58
100
AcDbEntity
  8
0
  6
CONTINUOUS
 62
               4
100
AcDbCircle
 10
22.499992370599649
 20
-24.999992370599649
 30
0.0
 40
5.0000076294061726
100
AcDbArc
 50
270.00008742635401
 51
359.99991257364456
  0
CIRCLE
  5
59
100
AcDbEntity
  8
0
  6
CONTINUOUS
 62
               4
100
AcDbCircle
 10
19.999969482421875
 20
-20.0
 30
0.0
 40
3.3999996185302734
  0
ENDBLK
  5
5A
100
AcDbEntity
  8
0
100
AcDbBlockEnd
  0
BLOCK
  5
5B
100
AcDbEntity
  8
0
100
AcDbBlockBegin
  2
MS_4
 70
               0
 10
0.0
 20
0.0
 30
0.0
  3
MS_4
  1

  0
LINE
  5
5C
100
AcDbEntity
  8
0
  6
CONTINUOUS
 62
               4
100
AcDbLine
 10
-27.5
 20
-26.800000000000001
 30
0.0
 11
27.5
 21
-26.800000000000001
 31
0.0
  0
LINE
  5
5D
100
AcDbEntity
  8
0
  6
CONTINUOUS
 62
               4
100
AcDbLine
 10
-27.5
 20
-26.800000000000001
 30
0.0
 11
-27.5
 21
-30.0
 31
0.0
  0
LINE
  5
5E
100
AcDbEntity
  8
0
  6
CONTINUOUS
 62
               4
100
AcDbLine
 10
-27.5
 20
-30.0
 30
0.0
 11
27.5
 21
-30.0
 31
0.0
  0
LINE
  5
5F
100
AcDbEntity
  8
0
  6
CENTER
 62
             200
100
AcDbLine
 10
-20.0
 20
-25.0
 30
0.0
 11
-20.0
 21
-32.770000000000003
 31
0.0
  0
LINE
  5
60
100
AcDbEntity
  8
0
  6
CENTER
 62
             200
100
AcDbLine
 10
0.0
 20
19.170000000000002
 30
0.0
 11
0.0
 21
-33.469999999999999
 31
0.0
  0
LINE
  5
61
100
AcDbEntity
  8
0
  6
CENTER
 62
             200
100
AcDbLine
 10
20.0
 20
-25.0
 30
0.0
 11
20.0
 21
-32.420000000000002
 31
0.0
  0
LINE
  5
62
100
AcDbEntity
  8
0
  6
CONTINUOUS
 62
               4
100
AcDbLine
 10
27.5
 20
-26.800000000000001
 30
0.0
 11
27.5
 21
-30.0
 31
0.0
  0
LINE
  5
63
100
AcDbEntity
  8
0
  6
CENTER
 62
             200
100
AcDbLine
 10
-15.0
 20
0.0
 30
0.0
 11
15.0
 21
0.0
 31
0.0
  0
LINE
  5
64
100
AcDbEntity
  8
0
  6
CONTINUOUS
 62
               4
100
AcDbLine
 10
-16.02
 20
5.6600000000000001
 30
0.0
 11
-27.5
 21
-26.800000000000001
 31
0.0
  0
LINE
  5
65
100
AcDbEntity
  8
0
  6
CONTINUOUS
 62
               4
100
AcDbLine
 10
16.02
 20
5.6600000000000001
 30
0.0
 11
27.5
 21
-26.800000000000001
 31
0.0
  0
CIRCLE
  5
66
100
AcDbEntity
  8
0
  6
CONTINUOUS
 62
               4
100
AcDbCircle
 10
0.0
 20
0.0
 30
0.0
 40
11.0
  0
ARC
  5
67
100
AcDbEntity
  8
0
  6
CONTINUOUS
 62
               4
100
AcDbCircle
 10
0.0
 20
0.0000000000000062
 30
0.0
 40
16.990467915863881
100
AcDbArc
 50
19.458740599471401
 51
160.54125940052819
  0
ENDBLK
  5
68
100
AcDbEntity
  8
0
100
AcDbBlockEnd
  0
BLOCK
  5
69
100
AcDbEntity
  8
0
100
AcDbBlockBegin
  2
MS_5
 70
               0
 10
0.0
 20
0.0
 30
0.0
  3
MS_5
  1

  0
LINE
  5
6A
100
AcDbEntity
  8
0
  6
CONTINUOUS
 62
               4
100
AcDbLine
 10
-26.800000000000001
 20
-26.800000000000001
 30
0.0
 11
-26.800000000000001
 21
-30.0
 31
0.0
  0
LINE
  5
6B
100
AcDbEntity
  8
0
  6
CONTINUOUS
 62
               4
100
AcDbLine
 10
-26.800000000000001
 20
-26.800000000000001
 30
0.0
 11
-3.0
 21
-26.800000000000001
 31
0.0
  0
LINE
  5
6C
100
AcDbEntity
  8
0
  6
CONTINUOUS
 62
               4
100
AcDbLine
 10
-26.800000000000001
 20
-30.0
 30
0.0
 11
-3.0
 21
-30.0
 31
0.0
  0
LINE
  5
6D
100
AcDbEntity
  8
0
  6
CENTER
 62
             200
100
AcDbLine
 10
-16.800000000000001
 20
-25.0
 30
0.0
 11
-16.800000000000001
 21
-32.600000000000001
 31
0.0
  0
LINE
  5
6E
100
AcDbEntity
  8
0
  6
CONTINUOUS
 62
               4
100
AcDbLine
 10
0.0
 20
17.0
 30
0.0
 11
0.0
 21
-23.800000000000001
 31
0.0
  0
LINE
  5
6F
100
AcDbEntity
  8
0
  6
CONTINUOUS
 62
               4
100
AcDbLine
 10
3.2000000000000002
 20
17.0
 30
0.0
 11
3.2000000000000002
 21
-23.800000000000001
 31
0.0
  0
LINE
  5
70
100
AcDbEntity
  8
0
  6
CENTER
 62
             200
100
AcDbLine
 10
-6.7999999999999998
 20
0.0
 30
0.0
 11
8.1999999999999993
 21
0.0
 31
0.0
  0
LINE
  5
71
100
AcDbEntity
  8
0
  6
CONTINUOUS
 62
               4
100
AcDbLine
 10
0.0
 20
17.0
 30
0.0
 11
3.2000000000000002
 21
17.0
 31
0.0
  0
ARC
  5
72
100
AcDbEntity
  8
0
  6
CONTINUOUS
 62
               4
100
AcDbCircle
 10
-3.0000083923445455
 20
-23.799991607655453
 30
0.0
 40
6.2000083923502265
100
AcDbArc
 50
270.00007755568839
 51
359.99992244431019
  0
ARC
  5
73
100
AcDbEntity
  8
0
  6
CONTINUOUS
 62
               4
100
AcDbCircle
 10
-3.000008392355813
 20
-23.799991607644188
 30
0.0
 40
3.0000083923675511
100
AcDbArc
 50
270.00016028174042
 51
359.99983971825816
  0
ENDBLK
  5
74
100
AcDbEntity
  8
0
100
AcDbBlockEnd
  0
BLOCK
  5
75
100
AcDbEntity
  8
0
100
AcDbBlockBegin
  2
MS_6
 70
               0
 10
0.0
 20
0.0
 30
0.0
  3
MS_6
  1

  0
LINE
  5
76
100
AcDbEntity
  8
0
  6
CONTINUOUS
 62
               4
100
AcDbLine
 10
-27.5
 20
-3.2000000000000002
 30
0.0
 11
27.5
 21
-3.2000000000000002
 31
0.0
  0
LINE
  5
77
100
AcDbEntity
  8
0
  6
CONTINUOUS
 62
               4
100
AcDbLine
 10
-22.5
 20
-30.0
 30
0.0
 11
22.5
 21
-30.0
 31
0.0
  0
LINE
  5
78
100
AcDbEntity
  8
0
  6
CONTINUOUS
 62
               4
100
AcDbLine
 10
27.5
 20
-25.0
 30
0.0
 11
27.5
 21
0.0
 31
0.0
  0
LINE
  5
79
100
AcDbEntity
  8
0
  6
CONTINUOUS
 62
               4
100
AcDbLine
 10
-27.5
 20
0.0
 30
0.0
 11
27.5
 21
0.0
 31
0.0
  0
LINE
  5
7A
100
AcDbEntity
  8
0
  6
CENTER
 62
             200
100
AcDbLine
 10
0.0
 20
3.5
 30
0.0
 11
0.0
 21
-32.560000000000002
 31
0.0
  0
LINE
  5
7B
100
AcDbEntity
  8
0
  6
CONTINUOUS
 62
               4
100
AcDbLine
 10
-27.5
 20
0.0
 30
0.0
 11
-27.5
 21
-25.0
 31
0.0
  0
LINE
  5
7C
100
AcDbEntity
  8
0
  6
CENTER
 62
             200
100
AcDbLine
 10
-26.0
 20
-20.0
 30
0.0
 11
-14.0
 21
-20.0
 31
0.0
  0
LINE
  5
7D
100
AcDbEntity
  8
0
  6
CENTER
 62
             200
100
AcDbLine
 10
14.0
 20
-20.0
 30
0.0
 11
26.0
 21
-20.0
 31
0.0
  0
LINE
  5
7E
100
AcDbEntity
  8
0
  6
CENTER
 62
             200
100
AcDbLine
 10
-20.0
 20
-14.0
 30
0.0
 11
-20.0
 21
-26.0
 31
0.0
  0
LINE
  5
7F
100
AcDbEntity
  8
0
  6
CENTER
 62
             200
100
AcDbLine
 10
20.0
 20
-14.0
 30
0.0
 11
20.0
 21
-26.0
 31
0.0
  0
ARC
  5
80
100
AcDbEntity
  8
0
  6
CONTINUOUS
 62
               4
100
AcDbCircle
 10
-22.499992370599649
 20
-24.999992370599649
 30
0.0
 40
5.0000076294061726
100
AcDbArc
 50
180.00008742635424
 51
269.99991257364468
  0
CIRCLE
  5
81
100
AcDbEntity
  8
0
  6
CONTINUOUS
 62
               4
100
AcDbCircle
 10
-20.0
 20
-19.999984741210937
 30
0.0
 40
3.3999996185302734
  0
ARC
  5
82
100
AcDbEntity
  8
0
  6
CONTINUOUS
 62
               4
100
AcDbCircle
 10
22.499992370599649
 20
-24.999992370599649
 30
0.0
 40
5.0000076294061726
100
AcDbArc
 50
270.00008742635401
 51
359.99991257364456
  0
CIRCLE
  5
83
100
AcDbEntity
  8
0
  6
CONTINUOUS
 62
               4
100
AcDbCircle
 10
19.999984741210937
 20
-20.0
 30
0.0
 40
3.3999996185302734
  0
ENDBLK
  5
84
100
AcDbEntity
  8
0
100
AcDbBlockEnd
  0
BLOCK
  5
85
100
AcDbEntity
  8
0
100
AcDbBlockBegin
  2
MS_7
 70
               0
 10
0.0
 20
0.0
 30
0.0
  3
MS_7
  1

  0
LINE
  5
86
100
AcDbEntity
  8
0
  6
CENTER
 62
             200
100
AcDbLine
 10
-18.16
 20
0.0
 30
0.0
 11
17.370000000000001
 21
0.0
 31
0.0
  0
LINE
  5
87
100
AcDbEntity
  8
0
  6
CONTINUOUS
 62
               4
100
AcDbLine
 10
-27.5
 20
-31.800000000000001
 30
0.0
 11
27.5
 21
-31.800000000000001
 31
0.0
  0
LINE
  5
88
100
AcDbEntity
  8
0
  6
CONTINUOUS
 62
               4
100
AcDbLine
 10
-27.5
 20
-31.800000000000001
 30
0.0
 11
-27.5
 21
-35.0
 31
0.0
  0
LINE
  5
89
100
AcDbEntity
  8
0
  6
CONTINUOUS
 62
               4
100
AcDbLine
 10
-27.5
 20
-35.0
 30
0.0
 11
27.5
 21
-35.0
 31
0.0
  0
LINE
  5
8A
100
AcDbEntity
  8
0
  6
CENTER
 62
             200
100
AcDbLine
 10
-20.0
 20
-30.0
 30
0.0
 11
-20.0
 21
-38.079999999999998
 31
0.0
  0
LINE
  5
8B
100
AcDbEntity
  8
0
  6
CENTER
 62
             200
100
AcDbLine
 10
0.0
 20
22.57
 30
0.0
 11
0.0
 21
-38.469999999999999
 31
0.0
  0
LINE
  5
8C
100
AcDbEntity
  8
0
  6
CENTER
 62
             200
100
AcDbLine
 10
20.0
 20
-30.0
 30
0.0
 11
20.0
 21
-37.420000000000002
 31
0.0
  0
LINE
  5
8D
100
AcDbEntity
  8
0
  6
CONTINUOUS
 62
               4
100
AcDbLine
 10
27.5
 20
-31.800000000000001
 30
0.0
 11
27.5
 21
-35.0
 31
0.0
  0
LINE
  5
8E
100
AcDbEntity
  8
0
  6
CONTINUOUS
 62
               4
100
AcDbLine
 10
-19.530000000000001
 20
4.3099999999999996
 30
0.0
 11
-27.5
 21
-31.800000000000001
 31
0.0
  0
LINE
  5
8F
100
AcDbEntity
  8
0
  6
CONTINUOUS
 62
               4
100
AcDbLine
 10
19.530000000000001
 20
4.3099999999999996
 30
0.0
 11
27.5
 21
-31.800000000000001
 31
0.0
  0
ARC
  5
90
100
AcDbEntity
  8
0
  6
CONTINUOUS
 62
               4
100
AcDbCircle
 10
0.0
 20
0.0000000000000062
 30
0.0
 40
19.999924999859374
100
AcDbArc
 50
12.444910266708602
 51
167.555089733291
  0
CIRCLE
  5
91
100
AcDbEntity
  8
0
  6
CONTINUOUS
 62
               4
100
AcDbCircle
 10
0.0
 20
0.0
 30
0.0
 40
13.5
  0
ENDBLK
  5
92
100
AcDbEntity
  8
0
100
AcDbBlockEnd
  0
BLOCK
  5
93
100
AcDbEntity
  8
0
100
AcDbBlockBegin
  2
MS_8
 70
               0
 10
0.0
 20
0.0
 30
0.0
  3
MS_8
  1

  0
LINE
  5
94
100
AcDbEntity
  8
0
  6
CONTINUOUS
 62
               4
100
AcDbLine
 10
-26.800000000000001
 20
-31.800000000000001
 30
0.0
 11
-26.800000000000001
 21
-35.0
 31
0.0
  0
LINE
  5
95
100
AcDbEntity
  8
0
  6
CONTINUOUS
 62
               4
100
AcDbLine
 10
-26.800000000000001
 20
-31.800000000000001
 30
0.0
 11
-3.0
 21
-31.800000000000001
 31
0.0
  0
LINE
  5
96
100
AcDbEntity
  8
0
  6
CONTINUOUS
 62
               4
100
AcDbLine
 10
-26.800000000000001
 20
-35.0
 30
0.0
 11
-3.0
 21
-35.0
 31
0.0
  0
LINE
  5
97
100
AcDbEntity
  8
0
  6
CENTER
 62
             200
100
AcDbLine
 10
-16.800000000000001
 20
-30.0
 30
0.0
 11
-16.800000000000001
 21
-37.140000000000001
 31
0.0
  0
LINE
  5
98
100
AcDbEntity
  8
0
  6
CONTINUOUS
 62
               4
100
AcDbLine
 10
0.0
 20
20.0
 30
0.0
 11
0.0
 21
-28.800000000000001
 31
0.0
  0
LINE
  5
99
100
AcDbEntity
  8
0
  6
CONTINUOUS
 62
               4
100
AcDbLine
 10
3.2000000000000002
 20
20.0
 30
0.0
 11
3.2000000000000002
 21
-28.800000000000001
 31
0.0
  0
LINE
  5
9A
100
AcDbEntity
  8
0
  6
CENTER
 62
             200
100
AcDbLine
 10
-6.7999999999999998
 20
0.0
 30
0.0
 11
8.1999999999999993
 21
0.0
 31
0.0
  0
LINE
  5
9B
100
AcDbEntity
  8
0
  6
CONTINUOUS
 62
               4
100
AcDbLine
 10
0.0
 20
20.0
 30
0.0
 11
3.2000000000000002
 21
20.0
 31
0.0
  0
ARC
  5
9C
100
AcDbEntity
  8
0
  6
CONTINUOUS
 62
               4
100
AcDbCircle
 10
-3.0000045776464201
 20
-28.799995422353579
 30
0.0
 40
3.0000045776499125
100
AcDbArc
 50
270.00008742647265
 51
359.99991257352588
  0
ARC
  5
9D
100
AcDbEntity
  8
0
  6
CONTINUOUS
 62
               4
100
AcDbCircle
 10
-3.0000045776414117
 20
-28.799995422358585
 30
0.0
 40
6.200004577643103
100
AcDbArc
 50
270.00004230311862
 51
359.9999576968799
  0
ENDBLK
  5
9E
100
AcDbEntity
  8
0
100
AcDbBlockEnd
  0
BLOCK
  5
9F
100
AcDbEntity
  8
0
100
AcDbBlockBegin
  2
MS_9
 70
               0
 10
0.0
 20
0.0
 30
0.0
  3
MS_9
  1

  0
LINE
  5
A0
100
AcDbEntity
  8
0
  6
CONTINUOUS
 62
               4
100
AcDbLine
 10
-27.5
 20
-3.2000000000000002
 30
0.0
 11
27.5
 21
-3.2000000000000002
 31
0.0
  0
LINE
  5
A1
100
AcDbEntity
  8
0
  6
CONTINUOUS
 62
               4
100
AcDbLine
 10
-22.5
 20
-30.0
 30
0.0
 11
22.5
 21
-30.0
 31
0.0
  0
LINE
  5
A2
100
AcDbEntity
  8
0
  6
CONTINUOUS
 62
               4
100
AcDbLine
 10
27.5
 20
-25.0
 30
0.0
 11
27.5
 21
0.0
 31
0.0
  0
LINE
  5
A3
100
AcDbEntity
  8
0
  6
CONTINUOUS
 62
               4
100
AcDbLine
 10
-27.5
 20
0.0
 30
0.0
 11
27.5
 21
0.0
 31
0.0
  0
LINE
  5
A4
100
AcDbEntity
  8
0
  6
CENTER
 62
             200
100
AcDbLine
 10
0.0
 20
3.5
 30
0.0
 11
0.0
 21
-32.560000000000002
 31
0.0
  0
LINE
  5
A5
100
AcDbEntity
  8
0
  6
CONTINUOUS
 62
               4
100
AcDbLine
 10
-27.5
 20
0.0
 30
0.0
 11
-27.5
 21
-25.0
 31
0.0
  0
LINE
  5
A6
100
AcDbEntity
  8
0
  6
CENTER
 62
             200
100
AcDbLine
 10
-26.0
 20
-20.0
 30
0.0
 11
-14.0
 21
-20.0
 31
0.0
  0
LINE
  5
A7
100
AcDbEntity
  8
0
  6
CENTER
 62
             200
100
AcDbLine
 10
14.0
 20
-20.0
 30
0.0
 11
26.0
 21
-20.0
 31
0.0
  0
LINE
  5
A8
100
AcDbEntity
  8
0
  6
CENTER
 62
             200
100
AcDbLine
 10
-20.0
 20
-14.0
 30
0.0
 11
-20.0
 21
-26.0
 31
0.0
  0
LINE
  5
A9
100
AcDbEntity
  8
0
  6
CENTER
 62
             200
100
AcDbLine
 10
20.0
 20
-14.0
 30
0.0
 11
20.0
 21
-26.0
 31
0.0
  0
ARC
  5
AA
100
AcDbEntity
  8
0
  6
CONTINUOUS
 62
               4
100
AcDbCircle
 10
-22.499992370599649
 20
-24.999992370599649
 30
0.0
 40
5.0000076294061726
100
AcDbArc
 50
180.00008742635424
 51
269.99991257364468
  0
CIRCLE
  5
AB
100
AcDbEntity
  8
0
  6
CONTINUOUS
 62
               4
100
AcDbCircle
 10
-20.0
 20
-19.999984741210937
 30
0.0
 40
3.3999996185302734
  0
ARC
  5
AC
100
AcDbEntity
  8
0
  6
CONTINUOUS
 62
               4
100
AcDbCircle
 10
22.499992370599649
 20
-24.999992370599649
 30
0.0
 40
5.0000076294061726
100
AcDbArc
 50
270.00008742635401
 51
359.99991257364456
  0
CIRCLE
  5
AD
100
AcDbEntity
  8
0
  6
CONTINUOUS
 62
               4
100
AcDbCircle
 10
19.999984741210937
 20
-20.0
 30
0.0
 40
3.3999996185302734
  0
ENDBLK
  5
AE
100
AcDbEntity
  8
0
100
AcDbBlockEnd
  0
BLOCK
  5
AF
100
AcDbEntity
  8
0
100
AcDbBlockBegin
  2
MS_10
 70
               0
 10
0.0
 20
0.0
 30
0.0
  3
MS_10
  1

  0
LINE
  5
B0
100
AcDbEntity
  8
0
  6
CONTINUOUS
 62
               4
100
AcDbLine
 10
-37.5
 20
-36.0
 30
0.0
 11
-37.5
 21
-40.0
 31
0.0
  0
LINE
  5
B1
100
AcDbEntity
  8
0
  6
CONTINUOUS
 62
               4
100
AcDbLine
 10
-37.5
 20
-40.0
 30
0.0
 11
37.5
 21
-40.0
 31
0.0
  0
LINE
  5
B2
100
AcDbEntity
  8
0
  6
CENTER
 62
             200
100
AcDbLine
 10
-27.5
 20
-35.0
 30
0.0
 11
-27.5
 21
-43.079999999999998
 31
0.0
  0
LINE
  5
B3
100
AcDbEntity
  8
0
  6
CENTER
 62
             200
100
AcDbLine
 10
0.0
 20
26.629999999999999
 30
0.0
 11
0.0
 21
-43.469999999999999
 31
0.0
  0
LINE
  5
B4
100
AcDbEntity
  8
0
  6
CENTER
 62
             200
100
AcDbLine
 10
27.5
 20
-35.0
 30
0.0
 11
27.5
 21
-42.420000000000002
 31
0.0
  0
LINE
  5
B5
100
AcDbEntity
  8
0
  6
CONTINUOUS
 62
               4
100
AcDbLine
 10
37.5
 20
-36.0
 30
0.0
 11
37.5
 21
-40.0
 31
0.0
  0
LINE
  5
B6
100
AcDbEntity
  8
0
  6
CENTER
 62
             200
100
AcDbLine
 10
-20.629999999999999
 20
0.0
 30
0.0
 11
20.129999999999999
 21
0.0
 31
0.0
  0
LINE
  5
B7
100
AcDbEntity
  8
0
  6
CONTINUOUS
 62
               4
100
AcDbLine
 10
-37.5
 20
-36.0
 30
0.0
 11
37.5
 21
-36.0
 31
0.0
  0
LINE
  5
B8
100
AcDbEntity
  8
0
  6
CONTINUOUS
 62
               4
100
AcDbLine
 10
-22.18
 20
7.7599999999999998
 30
0.0
 11
-37.5
 21
-36.0
 31
0.0
  0
LINE
  5
B9
100
AcDbEntity
  8
0
  6
CONTINUOUS
 62
               4
100
AcDbLine
 10
22.18
 20
7.7599999999999998
 30
0.0
 11
37.5
 21
-36.0
 31
0.0
  0
CIRCLE
  5
BA
100
AcDbEntity
  8
0
  6
CONTINUOUS
 62
               4
100
AcDbCircle
 10
0.0
 20
0.0
 30
0.0
 40
16.5
  0
ARC
  5
BB
100
AcDbEntity
  8
0
  6
CONTINUOUS
 62
               4
100
AcDbCircle
 10
0.0
 20
0.0000000000000107
 30
0.0
 40
23.498297810692584
100
AcDbArc
 50
19.283142004145798
 51
160.71685799585379
  0
ENDBLK
  5
BC
100
AcDbEntity
  8
0
100
AcDbBlockEnd
  0
BLOCK
  5
BD
100
AcDbEntity
  8
0
100
AcDbBlockBegin
  2
MS_11
 70
               0
 10
0.0
 20
0.0
 30
0.0
  3
MS_11
  1

  0
LINE
  5
BE
100
AcDbEntity
  8
0
  6
CENTER
 62
             200
100
AcDbLine
 10
-6.0
 20
0.0
 30
0.0
 11
9.0
 21
0.0
 31
0.0
  0
LINE
  5
BF
100
AcDbEntity
  8
0
  6
CONTINUOUS
 62
               4
100
AcDbLine
 10
-26.0
 20
-36.0
 30
0.0
 11
-26.0
 21
-40.0
 31
0.0
  0
LINE
  5
C0
100
AcDbEntity
  8
0
  6
CONTINUOUS
 62
               4
100
AcDbLine
 10
-26.0
 20
-40.0
 30
0.0
 11
-2.2000000000000002
 21
-40.0
 31
0.0
  0
LINE
  5
C1
100
AcDbEntity
  8
0
  6
CENTER
 62
             200
100
AcDbLine
 10
-16.0
 20
-35.0
 30
0.0
 11
-16.0
 21
-42.140000000000001
 31
0.0
  0
LINE
  5
C2
100
AcDbEntity
  8
0
  6
CONTINUOUS
 62
               4
100
AcDbLine
 10
4.0
 20
23.5
 30
0.0
 11
4.0
 21
-33.799999999999997
 31
0.0
  0
LINE
  5
C3
100
AcDbEntity
  8
0
  6
CONTINUOUS
 62
               4
100
AcDbLine
 10
0.0
 20
23.5
 30
0.0
 11
4.0
 21
23.5
 31
0.0
  0
LINE
  5
C4
100
AcDbEntity
  8
0
  6
CONTINUOUS
 62
               4
100
AcDbLine
 10
0.0
 20
23.5
 30
0.0
 11
0.0
 21
-33.799999999999997
 31
0.0
  0
LINE
  5
C5
100
AcDbEntity
  8
0
  6
CONTINUOUS
 62
               4
100
AcDbLine
 10
-26.0
 20
-36.0
 30
0.0
 11
-2.2000000000000002
 21
-36.0
 31
0.0
  0
ARC
  5
C6
100
AcDbEntity
  8
0
  6
CONTINUOUS
 62
               4
100
AcDbCircle
 10
-2.2000045776499473
 20
-33.799995422350051
 30
0.0
 40
2.2000045776547101
100
AcDbArc
 50
270.00011921794322
 51
359.99988078205541
  0
ARC
  5
C7
100
AcDbEntity
  8
0
  6
CONTINUOUS
 62
               4
100
AcDbCircle
 10
-2.2000045776414137
 20
-33.799995422358585
 30
0.0
 40
6.200004577643103
100
AcDbArc
 50
270.00004230311868
 51
359.99995769687996
  0
ENDBLK
  5
C8
100
AcDbEntity
  8
0
100
AcDbBlockEnd
  0
BLOCK
  5
C9
100
AcDbEntity
  8
0
100
AcDbBlockBegin
  2
MS_12
 70
               0
 10
0.0
 20
0.0
 30
0.0
  3
MS_12
  1

  0
LINE
  5
CA
100
AcDbEntity
  8
0
  6
CONTINUOUS
 62
               4
100
AcDbLine
 10
-32.5
 20
-30.0
 30
0.0
 11
32.5
 21
-30.0
 31
0.0
  0
LINE
  5
CB
100
AcDbEntity
  8
0
  6
CONTINUOUS
 62
               4
100
AcDbLine
 10
37.5
 20
-25.0
 30
0.0
 11
37.5
 21
0.0
 31
0.0
  0
LINE
  5
CC
100
AcDbEntity
  8
0
  6
CONTINUOUS
 62
               4
100
AcDbLine
 10
-37.5
 20
0.0
 30
0.0
 11
37.5
 21
0.0
 31
0.0
  0
LINE
  5
CD
100
AcDbEntity
  8
0
  6
CENTER
 62
             200
100
AcDbLine
 10
0.0
 20
3.5
 30
0.0
 11
0.0
 21
-32.560000000000002
 31
0.0
  0
LINE
  5
CE
100
AcDbEntity
  8
0
  6
CONTINUOUS
 62
               4
100
AcDbLine
 10
-37.5
 20
0.0
 30
0.0
 11
-37.5
 21
-25.0
 31
0.0
  0
LINE
  5
CF
100
AcDbEntity
  8
0
  6
CENTER
 62
             200
100
AcDbLine
 10
-33.5
 20
-20.0
 30
0.0
 11
-21.5
 21
-20.0
 31
0.0
  0
LINE
  5
D0
100
AcDbEntity
  8
0
  6
CENTER
 62
             200
100
AcDbLine
 10
21.5
 20
-20.0
 30
0.0
 11
33.5
 21
-20.0
 31
0.0
  0
LINE
  5
D1
100
AcDbEntity
  8
0
  6
CENTER
 62
             200
100
AcDbLine
 10
-27.5
 20
-14.0
 30
0.0
 11
-27.5
 21
-26.0
 31
0.0
  0
LINE
  5
D2
100
AcDbEntity
  8
0
  6
CENTER
 62
             200
100
AcDbLine
 10
27.5
 20
-14.0
 30
0.0
 11
27.5
 21
-26.0
 31
0.0
  0
LINE
  5
D3
100
AcDbEntity
  8
0
  6
CONTINUOUS
 62
               4
100
AcDbLine
 10
-37.5
 20
-4.0
 30
0.0
 11
37.5
 21
-4.0
 31
0.0
  0
ARC
  5
D4
100
AcDbEntity
  8
0
  6
CONTINUOUS
 62
               4
100
AcDbCircle
 10
-32.499992370599649
 20
-24.999992370599649
 30
0.0
 40
5.0000076294061726
100
AcDbArc
 50
180.00008742635424
 51
269.99991257364468
  0
CIRCLE
  5
D5
100
AcDbEntity
  8
0
  6
CONTINUOUS
 62
               4
100
AcDbCircle
 10
-27.5
 20
-19.999984741210937
 30
0.0
 40
4.5
  0
ARC
  5
D6
100
AcDbEntity
  8
0
  6
CONTINUOUS
 62
               4
100
AcDbCircle
 10
32.499992370599649
 20
-24.999992370599649
 30
0.0
 40
5.0000076294061726
100
AcDbArc
 50
270.00008742635401
 51
359.99991257364456
  0
CIRCLE
  5
D7
100
AcDbEntity
  8
0
  6
CONTINUOUS
 62
               4
100
AcDbCircle
 10
27.499984741210938
 20
-20.0
 30
0.0
 40
4.5
  0
ENDBLK
  5
D8
100
AcDbEntity
  8
0
100
AcDbBlockEnd
  0
BLOCK
  5
D9
100
AcDbEntity
  8
0
100
AcDbBlockBegin
  2
MS_13
 70
               0
 10
0.0
 20
0.0
 30
0.0
  3
MS_13
  1

  0
LINE
  5
DA
100
AcDbEntity
  8
0
  6
CENTER
 62
             200
100
AcDbLine
 10
-23.09
 20
0.0
 30
0.0
 11
22.989999999999998
 21
0.0
 31
0.0
  0
LINE
  5
DB
100
AcDbEntity
  8
0
  6
CONTINUOUS
 62
               4
100
AcDbLine
 10
-40.0
 20
-34.0
 30
0.0
 11
-40.0
 21
-40.0
 31
0.0
  0
LINE
  5
DC
100
AcDbEntity
  8
0
  6
CONTINUOUS
 62
               4
100
AcDbLine
 10
-40.0
 20
-40.0
 30
0.0
 11
40.0
 21
-40.0
 31
0.0
  0
LINE
  5
DD
100
AcDbEntity
  8
0
  6
CENTER
 62
             200
100
AcDbLine
 10
-30.0
 20
-31.5
 30
0.0
 11
-30.0
 21
-43.079999999999998
 31
0.0
  0
LINE
  5
DE
100
AcDbEntity
  8
0
  6
CENTER
 62
             200
100
AcDbLine
 10
0.0
 20
30.649999999999999
 30
0.0
 11
0.0
 21
-43.469999999999999
 31
0.0
  0
LINE
  5
DF
100
AcDbEntity
  8
0
  6
CENTER
 62
             200
100
AcDbLine
 10
30.0
 20
-31.039999999999999
 30
0.0
 11
30.0
 21
-42.420000000000002
 31
0.0
  0
LINE
  5
E0
100
AcDbEntity
  8
0
  6
CONTINUOUS
 62
               4
100
AcDbLine
 10
40.0
 20
-34.0
 30
0.0
 11
40.0
 21
-40.0
 31
0.0
  0
LINE
  5
E1
100
AcDbEntity
  8
0
  6
CONTINUOUS
 62
               4
100
AcDbLine
 10
-40.0
 20
-34.0
 30
0.0
 11
40.0
 21
-34.0
 31
0.0
  0
LINE
  5
E2
100
AcDbEntity
  8
0
  6
CONTINUOUS
 62
               4
100
AcDbLine
 10
-24.440000000000001
 20
8.8699999999999992
 30
0.0
 11
-40.0
 21
-34.0
 31
0.0
  0
LINE
  5
E3
100
AcDbEntity
  8
0
  6
CONTINUOUS
 62
               4
100
AcDbLine
 10
24.440000000000001
 20
8.8699999999999992
 30
0.0
 11
40.0
 21
-34.0
 31
0.0
  0
ARC
  5
E4
100
AcDbEntity
  8
0
  6
CONTINUOUS
 62
               4
100
AcDbCircle
 10
0.0
 20
-0.0000000000000036
 30
0.0
 40
25.999817307050449
100
AcDbArc
 50
19.947334319307302
 51
160.05266568069234
  0
CIRCLE
  5
E5
100
AcDbEntity
  8
0
  6
CONTINUOUS
 62
               4
100
AcDbCircle
 10
0.0
 20
0.0
 30
0.0
 40
18.0
  0
ENDBLK
  5
E6
100
AcDbEntity
  8
0
100
AcDbBlockEnd
  0
BLOCK
  5
E7
100
AcDbEntity
  8
0
100
AcDbBlockBegin
  2
MS_14
 70
               0
 10
0.0
 20
0.0
 30
0.0
  3
MS_14
  1

  0
LINE
  5
E8
100
AcDbEntity
  8
0
  6
CONTINUOUS
 62
               4
100
AcDbLine
 10
-34.0
 20
-34.0
 30
0.0
 11
-34.0
 21
-40.0
 31
0.0
  0
LINE
  5
E9
100
AcDbEntity
  8
0
  6
CONTINUOUS
 62
               4
100
AcDbLine
 10
-34.0
 20
-40.0
 30
0.0
 11
-5.0
 21
-40.0
 31
0.0
  0
LINE
  5
EA
100
AcDbEntity
  8
0
  6
CENTER
 62
             200
100
AcDbLine
 10
-19.0
 20
-30.640000000000001
 30
0.0
 11
-19.0
 21
-42.140000000000001
 31
0.0
  0
LINE
  5
EB
100
AcDbEntity
  8
0
  6
CONTINUOUS
 62
               4
100
AcDbLine
 10
6.0
 20
26.0
 30
0.0
 11
6.0
 21
-29.0
 31
0.0
  0
LINE
  5
EC
100
AcDbEntity
  8
0
  6
CENTER
 62
             200
100
AcDbLine
 10
-4.0
 20
0.0
 30
0.0
 11
11.0
 21
0.0
 31
0.0
  0
LINE
  5
ED
100
AcDbEntity
  8
0
  6
CONTINUOUS
 62
               4
100
AcDbLine
 10
-34.0
 20
-34.0
 30
0.0
 11
-5.0
 21
-34.0
 31
0.0
  0
LINE
  5
EE
100
AcDbEntity
  8
0
  6
CONTINUOUS
 62
               4
100
AcDbLine
 10
0.0
 20
26.0
 30
0.0
 11
0.0
 21
-29.0
 31
0.0
  0
LINE
  5
EF
100
AcDbEntity
  8
0
  6
CONTINUOUS
 62
               4
100
AcDbLine
 10
0.0
 20
26.0
 30
0.0
 11
6.0
 21
26.0
 31
0.0
  0
ARC
  5
F0
100
AcDbEntity
  8
0
  6
CONTINUOUS
 62
               4
100
AcDbCircle
 10
-5.0000076294003506
 20
-28.999992370599649
 30
0.0
 40
5.0000076294061726
100
AcDbArc
 50
270.00008742635401
 51
359.99991257364456
  0
ARC
  5
F1
100
AcDbEntity
  8
0
  6
CONTINUOUS
 62
               4
100
AcDbCircle
 10
-5.000007629397178
 20
-28.999992370602822
 30
0.0
 40
11.000007629399823
100
AcDbArc
 50
270.00003973926806
 51
359.99996026073052
  0
ENDBLK
  5
F2
100
AcDbEntity
  8
0
100
AcDbBlockEnd
  0
BLOCK
  5
F3
100
AcDbEntity
  8
0
100
AcDbBlockBegin
  2
MS_15
 70
               0
 10
0.0
 20
0.0
 30
0.0
  3
MS_15
  1

  0
LINE
  5
F4
100
AcDbEntity
  8
0
  6
CONTINUOUS
 62
               4
100
AcDbLine
 10
-35.0
 20
-40.0
 30
0.0
 11
35.0
 21
-40.0
 31
0.0
  0
LINE
  5
F5
100
AcDbEntity
  8
0
  6
CONTINUOUS
 62
               4
100
AcDbLine
 10
40.0
 20
-35.0
 30
0.0
 11
40.0
 21
0.0
 31
0.0
  0
LINE
  5
F6
100
AcDbEntity
  8
0
  6
CONTINUOUS
 62
               4
100
AcDbLine
 10
-40.0
 20
0.0
 30
0.0
 11
40.0
 21
0.0
 31
0.0
  0
LINE
  5
F7
100
AcDbEntity
  8
0
  6
CENTER
 62
             200
100
AcDbLine
 10
0.0
 20
3.5
 30
0.0
 11
0.0
 21
-42.560000000000002
 31
0.0
  0
LINE
  5
F8
100
AcDbEntity
  8
0
  6
CONTINUOUS
 62
               4
100
AcDbLine
 10
-40.0
 20
0.0
 30
0.0
 11
-40.0
 21
-35.0
 31
0.0
  0
LINE
  5
F9
100
AcDbEntity
  8
0
  6
CENTER
 62
             200
100
AcDbLine
 10
-36.850000000000001
 20
-25.0
 30
0.0
 11
-22.640000000000001
 21
-25.0
 31
0.0
  0
LINE
  5
FA
100
AcDbEntity
  8
0
  6
CENTER
 62
             200
100
AcDbLine
 10
22.809999999999999
 20
-25.0
 30
0.0
 11
36.840000000000003
 21
-25.0
 31
0.0
  0
LINE
  5
FB
100
AcDbEntity
  8
0
  6
CENTER
 62
             200
100
AcDbLine
 10
-30.0
 20
-19.0
 30
0.0
 11
-30.0
 21
-31.0
 31
0.0
  0
LINE
  5
FC
100
AcDbEntity
  8
0
  6
CENTER
 62
             200
100
AcDbLine
 10
30.0
 20
-19.0
 30
0.0
 11
30.0
 21
-31.0
 31
0.0
  0
LINE
  5
FD
100
AcDbEntity
  8
0
  6
CONTINUOUS
 62
               4
100
AcDbLine
 10
-40.0
 20
-6.0
 30
0.0
 11
40.0
 21
-6.0
 31
0.0
  0
ARC
  5
FE
100
AcDbEntity
  8
0
  6
CONTINUOUS
 62
               4
100
AcDbCircle
 10
-34.999984741210938
 20
-34.999984741210938
 30
0.0
 40
5.0000152588123452
100
AcDbArc
 50
180.00017485230873
 51
269.99982514769027
  0
CIRCLE
  5
FF
100
AcDbEntity
  8
0
  6
CONTINUOUS
 62
               4
100
AcDbCircle
 10
-30.0
 20
-24.999984741210937
 30
0.0
 40
4.5
  0
ARC
  5
100
100
AcDbEntity
  8
0
  6
CONTINUOUS
 62
               4
100
AcDbCircle
 10
34.999992370599649
 20
-34.999992370599649
 30
0.0
 40
5.0000076294061726
100
AcDbArc
 50
270.00008742635401
 51
359.99991257364456
  0
CIRCLE
  5
101
100
AcDbEntity
  8
0
  6
CONTINUOUS
 62
               4
100
AcDbCircle
 10
29.999984741210937
 20
-25.0
 30
0.0
 40
4.5
  0
ENDBLK
  5
102
100
AcDbEntity
  8
0
100
AcDbBlockEnd
  0
BLOCK
  5
103
100
AcDbEntity
  8
0
100
AcDbBlockBegin
  2
MS_16
 70
               0
 10
0.0
 20
0.0
 30
0.0
  3
MS_16
  1

  0
LINE
  5
104
100
AcDbEntity
  8
0
  6
CONTINUOUS
 62
               4
100
AcDbLine
 10
-47.5
 20
-39.0
 30
0.0
 11
-47.5
 21
-45.0
 31
0.0
  0
LINE
  5
105
100
AcDbEntity
  8
0
  6
CONTINUOUS
 62
               4
100
AcDbLine
 10
-47.5
 20
-45.0
 30
0.0
 11
47.5
 21
-45.0
 31
0.0
  0
LINE
  5
106
100
AcDbEntity
  8
0
  6
CENTER
 62
             200
100
AcDbLine
 10
-37.0
 20
-36.5
 30
0.0
 11
-37.0
 21
-49.030000000000001
 31
0.0
  0
LINE
  5
107
100
AcDbEntity
  8
0
  6
CENTER
 62
             200
100
AcDbLine
 10
0.0
 20
34.119999999999997
 30
0.0
 11
0.0
 21
-48.469999999999999
 31
0.0
  0
LINE
  5
108
100
AcDbEntity
  8
0
  6
CENTER
 62
             200
100
AcDbLine
 10
37.0
 20
-36.039999999999999
 30
0.0
 11
37.0
 21
-48.25
 31
0.0
  0
LINE
  5
109
100
AcDbEntity
  8
0
  6
CONTINUOUS
 62
               4
100
AcDbLine
 10
47.5
 20
-39.0
 30
0.0
 11
47.5
 21
-45.0
 31
0.0
  0
LINE
  5
10A
100
AcDbEntity
  8
0
  6
CENTER
 62
             200
100
AcDbLine
 10
-23.09
 20
0.0
 30
0.0
 11
22.989999999999998
 21
0.0
 31
0.0
  0
LINE
  5
10B
100
AcDbEntity
  8
0
  6
CONTINUOUS
 62
               4
100
AcDbLine
 10
-47.5
 20
-39.0
 30
0.0
 11
47.5
 21
-39.0
 31
0.0
  0
LINE
  5
10C
100
AcDbEntity
  8
0
  6
CONTINUOUS
 62
               4
100
AcDbLine
 10
-30.210000000000001
 20
10.539999999999999
 30
0.0
 11
-47.5
 21
-39.0
 31
0.0
  0
LINE
  5
10D
100
AcDbEntity
  8
0
  6
CONTINUOUS
 62
               4
100
AcDbLine
 10
30.210000000000001
 20
10.539999999999999
 30
0.0
 11
47.5
 21
-39.0
 31
0.0
  0
ARC
  5
10E
100
AcDbEntity
  8
0
  6
CONTINUOUS
 62
               4
100
AcDbCircle
 10
0.0
 20
-0.0000000000000053
 30
0.0
 40
31.995870045991875
100
AcDbArc
 50
19.233424844255559
 51
160.76657515574405
  0
CIRCLE
  5
10F
100
AcDbEntity
  8
0
  6
CONTINUOUS
 62
               4
100
AcDbCircle
 10
0.0
 20
0.0
 30
0.0
 40
18.0
  0
ENDBLK
  5
110
100
AcDbEntity
  8
0
100
AcDbBlockEnd
  0
BLOCK
  5
111
100
AcDbEntity
  8
0
100
AcDbBlockBegin
  2
MS_17
 70
               0
 10
0.0
 20
0.0
 30
0.0
  3
MS_17
  1

  0
LINE
  5
112
100
AcDbEntity
  8
0
  6
CONTINUOUS
 62
               4
100
AcDbLine
 10
-34.0
 20
-39.0
 30
0.0
 11
-34.0
 21
-45.0
 31
0.0
  0
LINE
  5
113
100
AcDbEntity
  8
0
  6
CONTINUOUS
 62
               4
100
AcDbLine
 10
-34.0
 20
-45.0
 30
0.0
 11
-5.0
 21
-45.0
 31
0.0
  0
LINE
  5
114
100
AcDbEntity
  8
0
  6
CENTER
 62
             200
100
AcDbLine
 10
-19.0
 20
-35.640000000000001
 30
0.0
 11
-19.0
 21
-47.140000000000001
 31
0.0
  0
LINE
  5
115
100
AcDbEntity
  8
0
  6
CONTINUOUS
 62
               4
100
AcDbLine
 10
6.0
 20
32.0
 30
0.0
 11
6.0
 21
-34.0
 31
0.0
  0
LINE
  5
116
100
AcDbEntity
  8
0
  6
CENTER
 62
             200
100
AcDbLine
 10
-4.0
 20
0.0
 30
0.0
 11
11.0
 21
0.0
 31
0.0
  0
LINE
  5
117
100
AcDbEntity
  8
0
  6
CONTINUOUS
 62
               4
100
AcDbLine
 10
-34.0
 20
-39.0
 30
0.0
 11
-5.0
 21
-39.0
 31
0.0
  0
LINE
  5
118
100
AcDbEntity
  8
0
  6
CONTINUOUS
 62
               4
100
AcDbLine
 10
0.0
 20
32.0
 30
0.0
 11
0.0
 21
-34.0
 31
0.0
  0
LINE
  5
119
100
AcDbEntity
  8
0
  6
CONTINUOUS
 62
               4
100
AcDbLine
 10
0.0
 20
32.0
 30
0.0
 11
6.0
 21
32.0
 31
0.0
  0
ARC
  5
11A
100
AcDbEntity
  8
0
  6
CONTINUOUS
 62
               4
100
AcDbCircle
 10
-5.0
 20
-34.0
 30
0.0
 40
5.0
100
AcDbArc
 50
269.99999999999937
 51
0.0
  0
ARC
  5
11B
100
AcDbEntity
  8
0
  6
CONTINUOUS
 62
               4
100
AcDbCircle
 10
-5.0
 20
-34.0
 30
0.0
 40
11.0
100
AcDbArc
 50
269.99999999999937
 51
0.0
  0
ENDBLK
  5
11C
100
AcDbEntity
  8
0
100
AcDbBlockEnd
  0
BLOCK
  5
11D
100
AcDbEntity
  8
0
100
AcDbBlockBegin
  2
MS_18
 70
               0
 10
0.0
 20
0.0
 30
0.0
  3
MS_18
  1

  0
LINE
  5
11E
100
AcDbEntity
  8
0
  6
CONTINUOUS
 62
               4
100
AcDbLine
 10
-42.5
 20
-40.0
 30
0.0
 11
42.5
 21
-40.0
 31
0.0
  0
LINE
  5
11F
100
AcDbEntity
  8
0
  6
CONTINUOUS
 62
               4
100
AcDbLine
 10
47.5
 20
-35.0
 30
0.0
 11
47.5
 21
0.0
 31
0.0
  0
LINE
  5
120
100
AcDbEntity
  8
0
  6
CONTINUOUS
 62
               4
100
AcDbLine
 10
-47.5
 20
0.0
 30
0.0
 11
47.5
 21
0.0
 31
0.0
  0
LINE
  5
121
100
AcDbEntity
  8
0
  6
CENTER
 62
             200
100
AcDbLine
 10
0.0
 20
3.5
 30
0.0
 11
0.0
 21
-42.560000000000002
 31
0.0
  0
LINE
  5
122
100
AcDbEntity
  8
0
  6
CONTINUOUS
 62
               4
100
AcDbLine
 10
-47.5
 20
0.0
 30
0.0
 11
-47.5
 21
-35.0
 31
0.0
  0
LINE
  5
123
100
AcDbEntity
  8
0
  6
CENTER
 62
             200
100
AcDbLine
 10
-43.850000000000001
 20
-25.0
 30
0.0
 11
-29.640000000000001
 21
-25.0
 31
0.0
  0
LINE
  5
124
100
AcDbEntity
  8
0
  6
CENTER
 62
             200
100
AcDbLine
 10
29.809999999999999
 20
-25.0
 30
0.0
 11
43.840000000000003
 21
-25.0
 31
0.0
  0
LINE
  5
125
100
AcDbEntity
  8
0
  6
CENTER
 62
             200
100
AcDbLine
 10
-37.0
 20
-19.0
 30
0.0
 11
-37.0
 21
-31.0
 31
0.0
  0
LINE
  5
126
100
AcDbEntity
  8
0
  6
CENTER
 62
             200
100
AcDbLine
 10
37.0
 20
-19.0
 30
0.0
 11
37.0
 21
-31.0
 31
0.0
  0
LINE
  5
127
100
AcDbEntity
  8
0
  6
CONTINUOUS
 62
               4
100
AcDbLine
 10
-47.5
 20
-6.0
 30
0.0
 11
47.5
 21
-6.0
 31
0.0
  0
ARC
  5
128
100
AcDbEntity
  8
0
  6
CONTINUOUS
 62
               4
100
AcDbCircle
 10
-42.499992370599649
 20
-34.999992370599649
 30
0.0
 40
5.0000076294061726
100
AcDbArc
 50
180.00008742635424
 51
269.99991257364468
  0
CIRCLE
  5
129
100
AcDbEntity
  8
0
  6
CONTINUOUS
 62
               4
100
AcDbCircle
 10
-37.0
 20
-24.999984741210937
 30
0.0
 40
4.5
  0
ARC
  5
12A
100
AcDbEntity
  8
0
  6
CONTINUOUS
 62
               4
100
AcDbCircle
 10
42.5
 20
-35.0
 30
0.0
 40
5.0
100
AcDbArc
 50
269.99999999999937
 51
0.0
  0
CIRCLE
  5
12B
100
AcDbEntity
  8
0
  6
CONTINUOUS
 62
               4
100
AcDbCircle
 10
36.999984741210938
 20
-25.0
 30
0.0
 40
4.5
  0
ENDBLK
  5
12C
100
AcDbEntity
  8
0
100
AcDbBlockEnd
  0
ENDSEC
  0
SECTION
  2
ENTITIES
  0
INSERT
  5
12D
100
AcDbEntity
  8
0
100
AcDbBlockReference
  2
MS_17
 10
322.45000000000027
 20
-150.64644960345612
 30
0.0
  0
INSERT
  5
12E
100
AcDbEntity
  8
0
100
AcDbBlockReference
  2
MS_14
 10
57.20114440917996
 20
-150.64644960345612
 30
0.0
  0
INSERT
  5
12F
100
AcDbEntity
  8
0
100
AcDbBlockReference
  2
MS_11
 10
-211.0479400634764
 20
-150.64645020911354
 30
0.0
  0
INSERT
  5
130
100
AcDbEntity
  8
0
100
AcDbBlockReference
  2
MS_8
 10
315.25000000000011
 20
75.310000966698411
 30
0.0
  0
INSERT
  5
131
100
AcDbEntity
  8
0
100
AcDbBlockReference
  2
MS_5
 10
50.00114440917983
 20
75.310000966698411
 30
0.0
  0
INSERT
  5
132
100
AcDbEntity
  8
0
100
AcDbBlockReference
  2
MS_2
 10
-215.24792480468736
 20
75.310000966698411
 30
0.0
  0
MTEXT
  5
133
100
AcDbEntity
  8
0
  6
CONTINUOUS
 62
               7
100
AcDbMText
 10
146.27939216763426
 20
-15.0
 30
0.0
 40
6.3000001907348633
 41
0.0
 71
               4
 72
               1
  1
\W1.195;\A1;BORE : 63
  7
MX_NOTE_STANDARD
  0
MTEXT
  5
134
100
AcDbEntity
  8
0
  6
CONTINUOUS
 62
               7
100
AcDbMText
 10
-120.04216207285256
 20
-15.0
 30
0.0
 40
6.3000001907348633
 41
0.0
 71
               4
 72
               1
  1
\W1.222;\A1;BORE : 50
  7
MX_NOTE_STANDARD
  0
MTEXT
  5
135
100
AcDbEntity
  8
0
  6
CONTINUOUS
 62
               7
100
AcDbMText
 10
-386.39209696868585
 20
-15.0
 30
0.0
 40
6.3000001907348633
 41
0.0
 71
               4
 72
               1
  1
\W1.222;\A1;BORE : 40
  7
MX_NOTE_STANDARD
  0
MTEXT
  5
136
100
AcDbEntity
  8
0
  6
CONTINUOUS
 62
               7
100
AcDbMText
 10
146.27939216763426
 20
261.5
 30
0.0
 40
6.3000001907348633
 41
0.0
 71
               4
 72
               1
  1
\W1.195;\A1;BORE : 32
  7
MX_NOTE_STANDARD
  0
MTEXT
  5
137
100
AcDbEntity
  8
0
  6
CONTINUOUS
 62
               7
100
AcDbMText
 10
-120.07054272819907
 20
261.5
 30
0.0
 40
6.3000001907348633
 41
0.0
 71
               4
 72
               1
  1
\W1.195;\A1;BORE : 25
  7
MX_NOTE_STANDARD
  0
LINE
  5
138
100
AcDbEntity
  8
0
  6
CONTINUOUS
 62
               7
100
AcDbLine
 10
-133.17496744791669
 20
-276.5
 30
0.0
 11
-133.17496744791669
 21
276.5
 31
0.0
  0
LINE
  5
139
100
AcDbEntity
  8
0
  6
CONTINUOUS
 62
               7
100
AcDbLine
 10
133.17496744791663
 20
-276.5
 30
0.0
 11
133.17496744791663
 21
276.5
 31
0.0
  0
LINE
  5
13A
100
AcDbEntity
  8
0
  6
CONTINUOUS
 62
               7
100
AcDbLine
 10
-399.52490234375
 20
0.0
 30
0.0
 11
399.52490234375
 21
0.0
 31
0.0
  0
MTEXT
  5
13B
100
AcDbEntity
  8
0
  6
CONTINUOUS
 62
               7
100
AcDbMText
 10
-379.31484689314044
 20
261.5
 30
0.0
 40
6.3000001907348633
 41
0.0
 71
               4
 72
               1
  1
\W1.105;\A1;FOOT MOUNT,-1
  7
MX_NOTE_STANDARD
  0
INSERT
  5
13C
100
AcDbEntity
  8
0
100
AcDbBlockReference
  2
MS_18
 10
216.0408935546875
 20
-45.31884765625
 30
0.0
  0
INSERT
  5
13D
100
AcDbEntity
  8
0
100
AcDbBlockReference
  2
MS_16
 10
216.0408935546875
 20
-150.63766479492187
 30
0.0
  0
INSERT
  5
13E
100
AcDbEntity
  8
0
100
AcDbBlockReference
  2
MS_15
 10
-49.208175659179688
 20
-45.31884765625
 30
0.0
  0
INSERT
  5
13F
100
AcDbEntity
  8
0
100
AcDbBlockReference
  2
MS_13
 10
-49.208175659179688
 20
-150.63766479492187
 30
0.0
  0
INSERT
  5
140
100
AcDbEntity
  8
0
100
AcDbBlockReference
  2
MS_12
 10
-309.45703125
 20
-45.31884765625
 30
0.0
  0
INSERT
  5
141
100
AcDbEntity
  8
0
100
AcDbBlockReference
  2
MS_10
 10
-309.45703125
 20
-150.63766479492187
 30
0.0
  0
INSERT
  5
142
100
AcDbEntity
  8
0
100
AcDbBlockReference
  2
MS_9
 10
216.0408935546875
 20
160.63760375976562
 30
0.0
  0
INSERT
  5
143
100
AcDbEntity
  8
0
100
AcDbBlockReference
  2
MS_7
 10
216.0408935546875
 20
75.31878662109375
 30
0.0
  0
INSERT
  5
144
100
AcDbEntity
  8
0
100
AcDbBlockReference
  2
MS_6
 10
-49.208175659179688
 20
160.63760375976562
 30
0.0
  0
INSERT
  5
145
100
AcDbEntity
  8
0
100
AcDbBlockReference
  2
MS_4
 10
-49.208175659179688
 20
75.31878662109375
 30
0.0
  0
INSERT
  5
146
100
AcDbEntity
  8
0
100
AcDbBlockReference
  2
MS_3
 10
-309.45703125
 20
160.63760375976562
 30
0.0
  0
INSERT
  5
147
100
AcDbEntity
  8
0
100
AcDbBlockReference
  2
MS_1
 10
-309.45703125
 20
75.31878662109375
 30
0.0
  0
LINE
  5
148
100
AcDbEntity
  8
0
  6
CONTINUOUS
 62
               7
100
AcDbLine
 10
279.5250244140625
 20
-256.5
 30
0.0
 11
399.52490234375
 21
-256.5
 31
0.0
  0
LINE
  5
149
100
AcDbEntity
  8
0
  6
CONTINUOUS
 62
               7
100
AcDbLine
 10
279.5250244140625
 20
-256.5
 30
0.0
 11
279.5250244140625
 21
-276.5
 31
0.0
  0
MTEXT
  5
14A
100
AcDbEntity
  8
0
  6
CONTINUOUS
 62
               7
100
AcDbMText
 10
287.7060468509938
 20
-266.5
 30
0.0
 40
9.0
 41
0.0
 71
               4
 72
               1
  1
\W1.121;\A1;KOGANEI CORP.
  7
MX_NOTE_STANDARD
  0
MTEXT
  5
14B
100
AcDbEntity
  8
0
  6
CONTINUOUS
 62
               7
100
AcDbMText
 10
315.7020728596861
 20
266.5
 30
0.0
 40
6.3000001907348633
 41
0.0
 71
               4
 72
               1
  1
\W1.311;\A1;Ver. 1.0
  7
MX_NOTE_STANDARD
  0
LINE
  5
14C
100
AcDbEntity
  8
0
  6
CONTINUOUS
 62
               7
100
AcDbLine
 10
279.5250244140625
 20
256.5
 30
0.0
 11
399.52490234375
 21
256.5
 31
0.0
  0
LINE
  5
14D
100
AcDbEntity
  8
0
  6
CONTINUOUS
 62
               7
100
AcDbLine
 10
279.5250244140625
 20
276.5
 30
0.0
 11
279.5250244140625
 21
256.5
 31
0.0
  0
MTEXT
  5
14E
100
AcDbEntity
  8
0
  6
CONTINUOUS
 62
               7
100
AcDbMText
 10
-386.39209696868585
 20
241.5
 30
0.0
 40
6.3000001907348633
 41
0.0
 71
               4
 72
               1
  1
\W1.222;\A1;BORE : 20
  7
MX_NOTE_STANDARD
  0
LINE
  5
14F
100
AcDbEntity
  8
0
  6
CONTINUOUS
 62
               7
100
AcDbLine
 10
-399.52490234375
 20
256.5
 30
0.0
 11
-279.52490234375
 21
256.5
 31
0.0
  0
LINE
  5
150
100
AcDbEntity
  8
0
  6
CONTINUOUS
 62
               7
100
AcDbLine
 10
-279.52490234375
 20
276.5
 30
0.0
 11
-279.52490234375
 21
256.5
 31
0.0
  0
MTEXT
  5
151
100
AcDbEntity
  8
0
  6
CONTINUOUS
 62
               7
100
AcDbMText
 10
-388.79990383856267
 20
271.5
 30
0.0
 40
6.3000001907348633
 41
0.0
 71
               4
 72
               1
  1
\W1.071;\A1;CS-SLIM CYLINDER
  7
MX_NOTE_STANDARD
  0
LINE
  5
152
100
AcDbEntity
  8
0
  6
CONTINUOUS
 62
               7
100
AcDbLine
 10
-399.52490234375
 20
-276.5
 30
0.0
 11
399.52490234375
 21
-276.5
 31
0.0
  0
LINE
  5
153
100
AcDbEntity
  8
0
  6
CONTINUOUS
 62
               7
100
AcDbLine
 10
-399.52490234375
 20
276.5
 30
0.0
 11
399.52490234375
 21
276.5
 31
0.0
  0
LINE
  5
154
100
AcDbEntity
  8
0
  6
CONTINUOUS
 62
               7
100
AcDbLine
 10
-399.52490234375
 20
276.5
 30
0.0
 11
-399.52490234375
 21
-276.5
 31
0.0
  0
LINE
  5
155
100
AcDbEntity
  8
0
  6
CONTINUOUS
 62
               7
100
AcDbLine
 10
399.52490234375
 20
276.5
 30
0.0
 11
399.52490234375
 21
-276.5
 31
0.0
  0
ENDSEC
  0
SECTION
  2
OBJECTS
  0
DICTIONARY
  5
19
100
AcDbDictionary
  3
ACAD_GROUP
350
1A
  3
ACAD_MLINESTYLE
350
1B
  0
DICTIONARY
  5
1A
102
{ACAD_REACTORS
330
19
102
}
100
AcDbDictionary
  0
DICTIONARY
  5
1B
102
{ACAD_REACTORS
330
19
102
}
100
AcDbDictionary
  3
STANDARD
350
1C
  0
MLINESTYLE
  5
1C
102
{ACAD_REACTORS
330
1B
102
}
100
AcDbMlineStyle
  2
Standard
 70
               0
  3

 62
               0
 51
90.0
 52
90.0
 71
               2
 49
0.5
 62
             256
  6
ByLayer
 49
-0.5
 62
             256
  6
ByLayer
  0
ENDSEC
  0
EOF
