  0
SECTION
  2
HEADER
  9
$ACADVER
  1
AC1012
  9
$DWGCODEPAGE
  3
dos932
  9
$INSBASE
 10
0.0
 20
0.0
 30
0.0
  9
$EXTMIN
 10
-138.40000000000001
 20
-94.799999999999997
 30
0.0
  9
$EXTMAX
 10
138.34999999999999
 20
94.5
 30
0.0
  9
$LIMMIN
 10
-138.40000000000001
 20
-94.799999999999997
  9
$LIMMAX
 10
138.34999999999999
 20
94.5
  9
$ORTHOMODE
 70
               0
  9
$REGENMODE
 70
               1
  9
$FILLMODE
 70
               1
  9
$QTEXTMODE
 70
               0
  9
$MIRRTEXT
 70
               1
  9
$DRAGMODE
 70
               2
  9
$LTSCALE
 40
1.0
  9
$OSMODE
 70
               0
  9
$ATTMODE
 70
               1
  9
$TEXTSIZE
 40
3.2000000476837158
  9
$TRACEWID
 40
0.05
  9
$TEXTSTYLE
  7
MX_NOTE_STANDARD
  9
$CLAYER
  8
0
  9
$CELTYPE
  6
CONTINUOUS
  9
$CECOLOR
 62
             256
  9
$CELTSCALE
 40
1.0
  9
$DELOBJ
 70
               1
  9
$DISPSILH
 70
               0
  9
$DIMSCALE
 40
1.0
  9
$DIMASZ
 40
2.5
  9
$DIMEXO
 40
1.5
  9
$DIMDLI
 40
3.75
  9
$DIMRND
 40
0.0
  9
$DIMDLE
 40
0.0
  9
$DIMEXE
 40
1.5
  9
$DIMTP
 40
0.0
  9
$DIMTM
 40
0.0
  9
$DIMTXT
 40
3.2000000476837158
  9
$DIMCEN
 40
2.5
  9
$DIMTSZ
 40
0.0
  9
$DIMTOL
 70
               0
  9
$DIMLIM
 70
               0
  9
$DIMTIH
 70
               0
  9
$DIMTOH
 70
               0
  9
$DIMSE1
 70
               0
  9
$DIMSE2
 70
               0
  9
$DIMTAD
 70
               1
  9
$DIMZIN
 70
               8
  9
$DIMBLK
  1

  9
$DIMASO
 70
               1
  9
$DIMSHO
 70
               1
  9
$DIMPOST
  1

  9
$DIMAPOST
  1

  9
$DIMALT
 70
               0
  9
$DIMALTD
 70
               4
  9
$DIMALTF
 40
0.0394
  9
$DIMLFAC
 40
1.0
  9
$DIMTOFL
 70
               1
  9
$DIMTVP
 40
0.0
  9
$DIMTIX
 70
               0
  9
$DIMSOXD
 70
               0
  9
$DIMSAH
 70
               0
  9
$DIMBLK1
  1

  9
$DIMBLK2
  1

  9
$DIMSTYLE
  2
MXDIMSTYLE
  9
$DIMCLRD
 70
               0
  9
$DIMCLRE
 70
               0
  9
$DIMCLRT
 70
               0
  9
$DIMTFAC
 40
1.0
  9
$DIMGAP
 40
1.0
  9
$DIMJUST
 70
               0
  9
$DIMSD1
 70
               0
  9
$DIMSD2
 70
               0
  9
$DIMTOLJ
 70
               1
  9
$DIMTZIN
 70
               0
  9
$DIMALTZ
 70
               0
  9
$DIMALTTZ
 70
               0
  9
$DIMFIT
 70
               3
  9
$DIMUPT
 70
               1
  9
$DIMUNIT
 70
               2
  9
$DIMDEC
 70
               4
  9
$DIMTDEC
 70
               4
  9
$DIMALTU
 70
               8
  9
$DIMALTTD
 70
               4
  9
$DIMTXSTY
  7
MX_NOTE_STANDARD
  9
$DIMAUNIT
 70
               0
  9
$LUNITS
 70
               2
  9
$LUPREC
 70
               4
  9
$SKETCHINC
 40
0.1
  9
$FILLETRAD
 40
0.0
  9
$AUNITS
 70
               0
  9
$AUPREC
 70
               0
  9
$MENU
  1
acad
  9
$ELEVATION
 40
0.0
  9
$PELEVATION
 40
0.0
  9
$THICKNESS
 40
0.0
  9
$LIMCHECK
 70
               0
  9
$BLIPMODE
 70
               1
  9
$CHAMFERA
 40
0.0
  9
$CHAMFERB
 40
0.0
  9
$CHAMFERC
 40
0.0
  9
$CHAMFERD
 40
0.0
  9
$SKPOLY
 70
               0
  9
$TDCREATE
 40
2452220.696840278
  9
$TDUPDATE
 40
2452220.696840278
  9
$TDINDWG
 40
0.0000000000
  9
$TDUSRTIMER
 40
0.0000000000
  9
$USRTIMER
 70
               1
  9
$ANGBASE
 50
0.0
  9
$ANGDIR
 70
               0
  9
$PDMODE
 70
               0
  9
$PDSIZE
 40
0.0
  9
$PLINEWID
 40
0.0
  9
$COORDS
 70
               1
  9
$SPLFRAME
 70
               0
  9
$SPLINETYPE
 70
               6
  9
$SPLINESEGS
 70
               8
  9
$ATTDIA
 70
               0
  9
$ATTREQ
 70
               1
  9
$HANDLING
 70
               1
  9
$HANDSEED
  5
F4
  9
$SURFTAB1
 70
               6
  9
$SURFTAB2
 70
               6
  9
$SURFTYPE
 70
               6
  9
$SURFU
 70
               6
  9
$SURFV
 70
               6
  9
$UCSNAME
  2

  9
$UCSORG
 10
0.0
 20
0.0
 30
0.0
  9
$UCSXDIR
 10
1.0
 20
0.0
 30
0.0
  9
$UCSYDIR
 10
0.0
 20
1.0
 30
0.0
  9
$PUCSNAME
  2

  9
$PUCSORG
 10
0.0
 20
0.0
 30
0.0
  9
$PUCSXDIR
 10
1.0
 20
0.0
 30
0.0
  9
$PUCSYDIR
 10
0.0
 20
1.0
 30
0.0
  9
$USERI1
 70
               0
  9
$USERI2
 70
               0
  9
$USERI3
 70
               0
  9
$USERI4
 70
               0
  9
$USERI5
 70
               0
  9
$USERR1
 40
0.0
  9
$USERR2
 40
0.0
  9
$USERR3
 40
0.0
  9
$USERR4
 40
0.0
  9
$USERR5
 40
0.0
  9
$WORLDVIEW
 70
               1
  9
$SHADEDGE
 70
               3
  9
$SHADEDIF
 70
              70
  9
$TILEMODE
 70
               1
  9
$MAXACTVP
 70
              16
  9
$PINSBASE
 10
0.0
 20
0.0
 30
0.0
  9
$PLIMCHECK
 70
               0
  9
$PEXTMIN
 10
1.0000000000000000E+20
 20
1.0000000000000000E+20
 30
1.0000000000000000E+20
  9
$PEXTMAX
 10
-1.0000000000000000E+20
 20
-1.0000000000000000E+20
 30
-1.0000000000000000E+20
  9
$PLIMMIN
 10
0.0
 20
0.0
  9
$PLIMMAX
 10
12.0
 20
9.0
  9
$UNITMODE
 70
               0
  9
$VISRETAIN
 70
               0
  9
$PLINEGEN
 70
               1
  9
$PSLTSCALE
 70
               0
  9
$TREEDEPTH
 70
            3020
  9
$PICKSTYLE
 70
               1
  9
$CMLSTYLE
  2
Standard
  9
$CMLJUST
 70
               0
  9
$CMLSCALE
 40
1.0
  9
$SAVEIMAGES
 70
               0
  0
ENDSEC
  0
SECTION
  2
CLASSES
  0
CLASS
  1
LWPOLYLINE
  2
AcDbPolyline
  3
"AutoCAD"
 90
        0
280
               0
281
               1
  0
CLASS
  1
IMAGE
  2
AcDbRasterImage
  3
ISM
 90
      127
280
               0
281
               1
  0
CLASS
  1
OLE2FRAME
  2
AcDbOle2Frame
  3
""
 90
        0
280
               0
281
               1
  0
CLASS
  1
HATCH
  2
AcDbHatch
  3
"ACAD_SEDONA"
 90
        0
280
               0
281
               1
  0
CLASS
  1
DICTIONARYVAR
  2
AcDbDictionaryVar
  3
"AutoCAD"
 90
        0
280
               0
281
               0
  0
CLASS
  1
RASTERVARIABLES
  2
AcDbRasterVariables
  3
ISM
 90
        0
280
               0
281
               0
  0
CLASS
  1
IMAGEDEF
  2
AcDbRasterImageDef
  3
ISM
 90
        0
280
               0
281
               0
  0
CLASS
  1
IMAGEDEF_REACTOR
  2
AcDbRasterImageDefReactor
  3
ISM
 90
        1
280
               0
281
               0
  0
CLASS
  1
IDBUFFER
  2
AcDbIdBuffer
  3
"Acad"
 90
        0
280
               0
281
               0
  0
CLASS
  1
SPATIAL_FILTER
  2
AcDbSpatialFilter
  3
"Acad"
 90
        0
280
               0
281
               0
  0
CLASS
  1
XRECORD
  2
AcDbXrecord
  3
"<Built In>"
 90
        0
280
               0
281
               0
  0
CLASS
  1
SORTENTSTABLE
  2
AcDbSortentsTable
  3
"AutoCAD"
 90
        0
280
               0
281
               0
  0
CLASS
  1
LAYER_INDEX
  2
AcDbLayerIndex
  3
"Acad"
 90
        0
280
               0
281
               0
  0
CLASS
  1
SPATIAL_INDEX
  2
AcDbSpatialIndex
  3
"Acad"
 90
        0
280
               0
281
               0
  0
CLASS
  1
OBJECT_PTR
  2
CAseDLPNTableRecord
  3
"ASE-LPNTableRecord"
 90
        1
280
               0
281
               0
  0
CLASS
  1
LAYOUT
  2
AcDbLayout
  3
"AutoCAD 2000"
 90
        1
280
               0
281
               0
  0
CLASS
  1
PLOTSETTINGS
  2
AcDbPlotSettings
  3
"AutoCAD 2000"
 90
        1
280
               0
281
               0
  0
CLASS
  1
ACDBDICTIONARYWDFLT
  2
AcDbDictionaryWithDefault
  3
"AutoCAD 2000"
 90
        1
280
               0
281
               0
  0
CLASS
  1
ACDBPLACEHOLDER
  2
AcDbPlaceHolder
  3
"AutoCAD 2000"
 90
        1
280
               0
281
               0
  0
CLASS
  1
VBA_PROJECT
  2
AcDbVbaProject
  3
"acadvba"
 90
        1
280
               0
281
               0
  0
CLASS
  1
WIPEOUT
  2
AcDbWipeout
  3
WipeOut|AutoCAD Express Tool|expresstools@autodesk.com
 90
      127
280
               0
281
               1
  0
CLASS
  1
WIPEOUTVARIABLES
  2
AcDbWipeoutVariables
  3
WipeOut|AutoCAD Express Tool|expresstools@autodesk.com
 90
        0
280
               0
281
               0
  0
CLASS
  1
RTEXT
  2
RText
  3
RText|AutoCAD Express Tool|expresstools@autodesk.com
 90
        0
280
               0
281
               1
  0
CLASS
  1
ARCALIGNEDTEXT
  2
AcDbArcAlignedText
  3
ATEXT|AutoCAD Express Tool|expresstools@autodesk.com
 90
        0
280
               0
281
               1
  0
ENDSEC
  0
SECTION
  2
TABLES
  0
TABLE
  2
VPORT
  5
7
100
AcDbSymbolTable
 70
               1
  0
VPORT
  5
15
100
AcDbSymbolTableRecord
100
AcDbViewportTableRecord
  2
*ACTIVE
 70
               0
 10
0.0
 20
0.0
 11
1.0
 21
1.0
 12
-0.0250000000000057
 22
-0.1499999999999915
 13
0.0
 23
0.0
 14
1.0
 24
1.0
 15
0.0
 25
0.0
 16
0.0
 26
0.0
 36
1.0
 17
0.0
 27
0.0
 37
0.0
 40
191.19300000000001
 41
1.7320508075688772
 42
50.0
 43
0.0
 44
0.0
 50
0.0
 51
0.0
 71
               0
 72
             100
 73
               1
 74
               1
 75
               0
 76
               0
 77
               0
 78
               0
  0
ENDTAB
  0
TABLE
  2
LTYPE
  5
4
100
AcDbSymbolTable
 70
               4
  0
LTYPE
  5
11
100
AcDbSymbolTableRecord
100
AcDbLinetypeTableRecord
  2
BYBLOCK
 70
              64
  3

 72
              65
 73
               0
 40
0.0
  0
LTYPE
  5
12
100
AcDbSymbolTableRecord
100
AcDbLinetypeTableRecord
  2
BYLAYER
 70
              64
  3

 72
              65
 73
               0
 40
0.0
  0
LTYPE
  5
13
100
AcDbSymbolTableRecord
100
AcDbLinetypeTableRecord
  2
CONTINUOUS
 70
              64
  3
Solid line
 72
              65
 73
               0
 40
0.0
  0
LTYPE
  5
3B
100
AcDbSymbolTableRecord
100
AcDbLinetypeTableRecord
  2
CENTER
 70
              64
  3
Center ____ _ ____ _ ____ _ ____ _ ____ _ ____
 72
              65
 73
               4
 40
50.800000000000004
 49
31.75
 74
               0
 49
-6.3499999999999996
 74
               0
 49
6.3499999999999996
 74
               0
 49
-6.3499999999999996
 74
               0
  0
ENDTAB
  0
TABLE
  2
LAYER
  5
2
100
AcDbSymbolTable
 70
               2
  0
LAYER
  5
14
100
AcDbSymbolTableRecord
100
AcDbLayerTableRecord
  2
0
 70
               0
 62
               7
  6
CONTINUOUS
  0
LAYER
  5
1D
100
AcDbSymbolTableRecord
100
AcDbLayerTableRecord
  2
DEFPOINTS
 70
               0
 62
               7
  6
CONTINUOUS
  0
ENDTAB
  0
TABLE
  2
STYLE
  5
3
100
AcDbSymbolTable
 70
               1
  0
STYLE
  5
17
100
AcDbSymbolTableRecord
100
AcDbTextStyleTableRecord
  2
MX_NOTE_STANDARD
 70
               0
 40
3.2000000476837158
 41
1.0
 50
0.0
 71
               0
 42
3.2000000476837158
  3
txt.shx
  4
extfont.shx
  0
ENDTAB
  0
TABLE
  2
VIEW
  5
5
100
AcDbSymbolTable
 70
               0
  0
ENDTAB
  0
TABLE
  2
UCS
  5
6
100
AcDbSymbolTable
 70
               0
  0
ENDTAB
  0
TABLE
  2
APPID
  5
8
100
AcDbSymbolTable
 70
               1
  0
APPID
  5
16
100
AcDbSymbolTableRecord
100
AcDbRegAppTableRecord
  2
ACAD
 70
               0
  0
ENDTAB
  0
TABLE
  2
DIMSTYLE
  5
9
100
AcDbSymbolTable
 70
               1
  0
DIMSTYLE
105
18
100
AcDbSymbolTableRecord
100
AcDbDimStyleTableRecord
  2
MXDIMSTYLE
 70
               0
  3

  4

  5

  6

  7

 40
1.0
 41
2.5
 42
1.5
 43
3.75
 44
1.5
 45
0.0
 46
0.0
 47
0.0
 48
0.0
 71
               0
 72
               0
 73
               0
 74
               0
 75
               0
 76
               0
 77
               1
 78
               8
140
3.2000000476837158
141
2.5
142
0.0
143
0.0394
144
1.0
145
0.0
146
1.0
147
1.0
170
               0
171
               4
172
               1
173
               0
174
               0
175
               0
176
               0
177
               0
178
               0
270
               2
271
               4
272
               4
273
               8
274
               4
275
               0
280
               0
281
               0
282
               0
283
               1
284
               0
285
               0
286
               0
287
               3
288
               1
340
17
  0
ENDTAB
  0
TABLE
  2
BLOCK_RECORD
  5
1
100
AcDbSymbolTable
 70
               3
  0
BLOCK_RECORD
  5
A
100
AcDbSymbolTableRecord
100
AcDbBlockTableRecord
  2
*MODEL_SPACE
  0
BLOCK_RECORD
  5
B
100
AcDbSymbolTableRecord
100
AcDbBlockTableRecord
  2
*PAPER_SPACE
  0
BLOCK_RECORD
  5
1E
100
AcDbSymbolTableRecord
100
AcDbBlockTableRecord
  2
MS_1
  0
BLOCK_RECORD
  5
1F
100
AcDbSymbolTableRecord
100
AcDbBlockTableRecord
  2
MS_2
  0
BLOCK_RECORD
  5
20
100
AcDbSymbolTableRecord
100
AcDbBlockTableRecord
  2
MS_3
  0
ENDTAB
  0
ENDSEC
  0
SECTION
  2
BLOCKS
  0
BLOCK
  5
D
100
AcDbEntity
  8
0
100
AcDbBlockBegin
  2
*MODEL_SPACE
 70
               0
 10
0.0
 20
0.0
 30
0.0
  3
*MODEL_SPACE
  1

  0
ENDBLK
  5
E
100
AcDbEntity
  8
0
100
AcDbBlockEnd
  0
BLOCK
  5
F
100
AcDbEntity
 67
               1
  8
0
100
AcDbBlockBegin
  2
*PAPER_SPACE
 70
               0
 10
0.0
 20
0.0
 30
0.0
  3
*PAPER_SPACE
  1

  0
ENDBLK
  5
10
100
AcDbEntity
 67
               1
  8
0
100
AcDbBlockEnd
  0
BLOCK
  5
21
100
AcDbEntity
  8
0
100
AcDbBlockBegin
  2
MS_1
 70
               0
 10
0.0
 20
0.0
 30
0.0
  3
MS_1
  1

  0
CIRCLE
  5
22
100
AcDbEntity
  8
0
  6
CONTINUOUS
 62
               2
100
AcDbCircle
 10
22.5
 20
-9.5
 30
0.0
 40
1.5
  0
CIRCLE
  5
23
100
AcDbEntity
  8
0
  6
CONTINUOUS
 62
               2
100
AcDbCircle
 10
22.5
 20
9.5
 30
0.0
 40
1.5
  0
ARC
  5
24
100
AcDbEntity
  8
0
  6
CONTINUOUS
 62
               7
100
AcDbCircle
 10
30.0
 20
-12.0
 30
0.0
 40
3.7999999999999989
100
AcDbArc
 50
179.9999999999996
 51
0.0
  0
ARC
  5
25
100
AcDbEntity
  8
0
  6
CONTINUOUS
 62
               7
100
AcDbCircle
 10
-15.155332998809049
 20
-3.4550000000000001
 30
0.0
 40
2.0425787389723093
100
AcDbArc
 50
145.56564284353666
 51
214.43435715646254
  0
ARC
  5
26
100
AcDbEntity
  8
0
  6
CONTINUOUS
 62
               7
100
AcDbCircle
 10
-16.044663913526861
 20
-3.4550000000000001
 30
0.0
 40
2.0508317287896092
100
AcDbArc
 50
325.72357196351874
 51
34.276428036480453
  0
ARC
  5
27
100
AcDbEntity
  8
0
  6
CONTINUOUS
 62
               7
100
AcDbCircle
 10
-9.5572967529296875
 20
0.0
 30
0.0
 40
7.6372617203346165
100
AcDbArc
 50
162.47300818037246
 51
197.52699181962674
  0
ARC
  5
28
100
AcDbEntity
  8
0
  6
CONTINUOUS
 62
               7
100
AcDbCircle
 10
-21.6427001953125
 20
0.0
 30
0.0
 40
7.6467951547501896
100
AcDbArc
 50
342.49556619081244
 51
17.504433809186736
  0
ARC
  5
29
100
AcDbEntity
  8
0
  6
CONTINUOUS
 62
               7
100
AcDbCircle
 10
-15.154227960707114
 20
3.449468532300946
 30
0.0
 40
2.0403689066469788
100
AcDbArc
 50
154.12201559136437
 51
214.2886984120519
  0
ARC
  5
2A
100
AcDbEntity
  8
0
  6
CONTINUOUS
 62
               7
100
AcDbCircle
 10
-16.045710676577105
 20
3.4501993144541991
 30
0.0
 40
2.0489980872681408
100
AcDbArc
 50
325.85098394233245
 51
25.738302054249548
  0
ARC
  5
2B
100
AcDbEntity
  8
0
  6
CONTINUOUS
 62
               7
100
AcDbCircle
 10
-12.844666965273678
 20
-3.4550000000000001
 30
0.0
 40
2.050834250540472
100
AcDbArc
 50
325.72361998024286
 51
34.276380019756353
  0
ARC
  5
2C
100
AcDbEntity
  8
0
  6
CONTINUOUS
 62
               7
100
AcDbCircle
 10
-18.442703247070312
 20
0.0
 30
0.0
 40
7.6467980651923764
100
AcDbArc
 50
342.49557306848436
 51
17.504426931514836
  0
ARC
  5
2D
100
AcDbEntity
  8
0
  6
CONTINUOUS
 62
               7
100
AcDbCircle
 10
-12.845713710572808
 20
3.4501995375421184
 30
0.0
 40
2.0490007233738856
100
AcDbArc
 50
325.85102640388033
 51
25.738259592701741
  0
ARC
  5
2E
100
AcDbEntity
  8
0
  6
CONTINUOUS
 62
               7
100
AcDbCircle
 10
-11.955336050555935
 20
-3.4550000000000001
 30
0.0
 40
2.0425762219698136
100
AcDbArc
 50
145.56559443788765
 51
214.43440556211155
  0
ARC
  5
2F
100
AcDbEntity
  8
0
  6
CONTINUOUS
 62
               7
100
AcDbCircle
 10
-11.954230994625892
 20
3.4494683092186831
 30
0.0
 40
2.040366274318921
100
AcDbArc
 50
154.1219727708735
 51
214.28874123254278
  0
ARC
  5
30
100
AcDbEntity
  8
0
  6
CONTINUOUS
 62
               7
100
AcDbCircle
 10
-6.3572998046875
 20
0.0
 30
0.0
 40
7.6372588102541563
100
AcDbArc
 50
162.47300128551407
 51
197.52699871448513
  0
ARC
  5
31
100
AcDbEntity
  8
0
  6
CONTINUOUS
 62
               7
100
AcDbCircle
 10
30.0
 20
-12.0
 30
0.0
 40
3.7999999999999989
100
AcDbArc
 50
0.0
 51
179.9999999999996
  0
CIRCLE
  5
32
100
AcDbEntity
  8
0
  6
CONTINUOUS
 62
               7
100
AcDbCircle
 10
30.0
 20
12.0
 30
0.0
 40
3.7999992370605469
  0
CIRCLE
  5
33
100
AcDbEntity
  8
0
  6
CONTINUOUS
 62
               7
100
AcDbCircle
 10
30.0
 20
-12.0
 30
0.0
 40
2.25
  0
CIRCLE
  5
34
100
AcDbEntity
  8
0
  6
CONTINUOUS
 62
               7
100
AcDbCircle
 10
30.0
 20
12.0
 30
0.0
 40
2.25
  0
CIRCLE
  5
35
100
AcDbEntity
  8
0
  6
CONTINUOUS
 62
               7
100
AcDbCircle
 10
22.5
 20
-9.5
 30
0.0
 40
1.25
  0
CIRCLE
  5
36
100
AcDbEntity
  8
0
  6
CONTINUOUS
 62
               7
100
AcDbCircle
 10
22.5
 20
9.5
 30
0.0
 40
1.25
  0
LINE
  5
37
100
AcDbEntity
  8
0
  6
CONTINUOUS
 62
               7
100
AcDbLine
 10
41.0
 20
16.5
 30
0.0
 11
41.0
 21
-16.5
 31
0.0
  0
LINE
  5
38
100
AcDbEntity
  8
0
  6
CONTINUOUS
 62
               7
100
AcDbLine
 10
-1.5
 20
-3.0
 30
0.0
 11
0.0
 21
-3.0
 31
0.0
  0
LINE
  5
39
100
AcDbEntity
  8
0
  6
CONTINUOUS
 62
               7
100
AcDbLine
 10
-1.5
 20
3.0
 30
0.0
 11
0.0
 21
3.0
 31
0.0
  0
LINE
  5
3A
100
AcDbEntity
  8
0
  6
CONTINUOUS
 62
               7
100
AcDbLine
 10
0.0
 20
-9.5
 30
0.0
 11
5.0
 21
-9.5
 31
0.0
  0
LINE
  5
3C
100
AcDbEntity
  8
0
  6
CENTER
 62
               2
100
AcDbLine
 10
24.82
 20
-9.5
 30
0.0
 11
20.100000000000001
 21
-9.5
 31
0.0
  0
LINE
  5
3D
100
AcDbEntity
  8
0
  6
CENTER
 62
               2
100
AcDbLine
 10
22.5
 20
-11.84
 30
0.0
 11
22.5
 21
-7.3399999999999999
 31
0.0
  0
LINE
  5
3E
100
AcDbEntity
  8
0
  6
CONTINUOUS
 62
               7
100
AcDbLine
 10
0.0
 20
16.5
 30
0.0
 11
48.0
 21
16.5
 31
0.0
  0
LINE
  5
3F
100
AcDbEntity
  8
0
  6
CONTINUOUS
 62
               7
100
AcDbLine
 10
5.0
 20
-9.5
 30
0.0
 11
5.0
 21
-16.5
 31
0.0
  0
LINE
  5
40
100
AcDbEntity
  8
0
  6
CONTINUOUS
 62
               7
100
AcDbLine
 10
0.0
 20
-16.5
 30
0.0
 11
48.0
 21
-16.5
 31
0.0
  0
LINE
  5
41
100
AcDbEntity
  8
0
  6
CONTINUOUS
 62
               7
100
AcDbLine
 10
12.0
 20
16.5
 30
0.0
 11
12.0
 21
-16.5
 31
0.0
  0
LINE
  5
42
100
AcDbEntity
  8
0
  6
CONTINUOUS
 62
               7
100
AcDbLine
 10
48.0
 20
16.5
 30
0.0
 11
48.0
 21
-16.5
 31
0.0
  0
LINE
  5
43
100
AcDbEntity
  8
0
  6
CONTINUOUS
 62
               7
100
AcDbLine
 10
-1.5
 20
-14.5
 30
0.0
 11
0.0
 21
-14.5
 31
0.0
  0
LINE
  5
44
100
AcDbEntity
  8
0
  6
CONTINUOUS
 62
               7
100
AcDbLine
 10
-1.5
 20
-10.5
 30
0.0
 11
0.0
 21
-10.5
 31
0.0
  0
LINE
  5
45
100
AcDbEntity
  8
0
  6
CONTINUOUS
 62
               7
100
AcDbLine
 10
-1.5
 20
9.0
 30
0.0
 11
-1.5
 21
-16.0
 31
0.0
  0
LINE
  5
46
100
AcDbEntity
  8
0
  6
CONTINUOUS
 62
               7
100
AcDbLine
 10
-7.5
 20
9.0
 30
0.0
 11
-7.5
 21
-16.0
 31
0.0
  0
LINE
  5
47
100
AcDbEntity
  8
0
  6
CONTINUOUS
 62
               7
100
AcDbLine
 10
-7.5
 20
-16.0
 30
0.0
 11
-1.5
 21
-16.0
 31
0.0
  0
LINE
  5
48
100
AcDbEntity
  8
0
  6
CONTINUOUS
 62
               7
100
AcDbLine
 10
-7.5
 20
9.0
 30
0.0
 11
-1.5
 21
9.0
 31
0.0
  0
LINE
  5
49
100
AcDbEntity
  8
0
  6
CENTER
 62
               2
100
AcDbLine
 10
24.920000000000002
 20
-12.0
 30
0.0
 11
35.109999999999999
 21
-12.0
 31
0.0
  0
LINE
  5
4A
100
AcDbEntity
  8
0
  6
CENTER
 62
               2
100
AcDbLine
 10
24.920000000000002
 20
12.0
 30
0.0
 11
35.109999999999999
 21
12.0
 31
0.0
  0
LINE
  5
4B
100
AcDbEntity
  8
0
  6
CENTER
 62
               2
100
AcDbLine
 10
24.780000000000001
 20
9.5
 30
0.0
 11
20.16
 21
9.5
 31
0.0
  0
LINE
  5
4C
100
AcDbEntity
  8
0
  6
CENTER
 62
               2
100
AcDbLine
 10
22.5
 20
11.85
 30
0.0
 11
22.5
 21
7.2400000000000002
 31
0.0
  0
LINE
  5
4D
100
AcDbEntity
  8
0
  6
CENTER
 62
               2
100
AcDbLine
 10
30.0
 20
-7.2300000000000004
 30
0.0
 11
30.0
 21
-17.100000000000001
 31
0.0
  0
LINE
  5
4E
100
AcDbEntity
  8
0
  6
CENTER
 62
               2
100
AcDbLine
 10
30.0
 20
16.350000000000001
 30
0.0
 11
30.0
 21
7.3399999999999999
 31
0.0
  0
LINE
  5
4F
100
AcDbEntity
  8
0
  6
CONTINUOUS
 62
               7
100
AcDbLine
 10
-16.84
 20
-4.6100000000000003
 30
0.0
 11
-14.35
 21
-4.6100000000000003
 31
0.0
  0
LINE
  5
50
100
AcDbEntity
  8
0
  6
CONTINUOUS
 62
               7
100
AcDbLine
 10
-14.0
 20
-4.0
 30
0.0
 11
-14.35
 21
-4.6100000000000003
 31
0.0
  0
LINE
  5
51
100
AcDbEntity
  8
0
  6
CONTINUOUS
 62
               7
100
AcDbLine
 10
-17.199999999999999
 20
-4.0
 30
0.0
 11
-16.84
 21
-4.6100000000000003
 31
0.0
  0
LINE
  5
52
100
AcDbEntity
  8
0
  6
CONTINUOUS
 62
               7
100
AcDbLine
 10
-16.84
 20
-2.2999999999999998
 30
0.0
 11
-14.35
 21
-2.2999999999999998
 31
0.0
  0
LINE
  5
53
100
AcDbEntity
  8
0
  6
CONTINUOUS
 62
               7
100
AcDbLine
 10
-16.84
 20
2.2999999999999998
 30
0.0
 11
-14.35
 21
2.2999999999999998
 31
0.0
  0
LINE
  5
54
100
AcDbEntity
  8
0
  6
CONTINUOUS
 62
               7
100
AcDbLine
 10
-17.199999999999999
 20
4.0
 30
0.0
 11
-17.199999999999999
 21
-4.0
 31
0.0
  0
LINE
  5
55
100
AcDbEntity
  8
0
  6
CONTINUOUS
 62
               7
100
AcDbLine
 10
-14.0
 20
4.0
 30
0.0
 11
-14.35
 21
4.6100000000000003
 31
0.0
  0
LINE
  5
56
100
AcDbEntity
  8
0
  6
CONTINUOUS
 62
               7
100
AcDbLine
 10
-17.199999999999999
 20
4.0
 30
0.0
 11
-16.84
 21
4.6100000000000003
 31
0.0
  0
LINE
  5
57
100
AcDbEntity
  8
0
  6
CONTINUOUS
 62
               7
100
AcDbLine
 10
-16.84
 20
4.6100000000000003
 30
0.0
 11
-14.35
 21
4.6100000000000003
 31
0.0
  0
LINE
  5
58
100
AcDbEntity
  8
0
  6
CONTINUOUS
 62
               7
100
AcDbLine
 10
-10.800000000000001
 20
-4.0
 30
0.0
 11
-11.15
 21
-4.6100000000000003
 31
0.0
  0
LINE
  5
59
100
AcDbEntity
  8
0
  6
CONTINUOUS
 62
               7
100
AcDbLine
 10
-10.800000000000001
 20
4.0
 30
0.0
 11
-10.800000000000001
 21
-4.0
 31
0.0
  0
LINE
  5
5A
100
AcDbEntity
  8
0
  6
CONTINUOUS
 62
               7
100
AcDbLine
 10
-10.800000000000001
 20
4.0
 30
0.0
 11
-11.15
 21
4.6100000000000003
 31
0.0
  0
LINE
  5
5B
100
AcDbEntity
  8
0
  6
CONTINUOUS
 62
               7
100
AcDbLine
 10
-14.0
 20
-4.0
 30
0.0
 11
-13.640000000000001
 21
-4.6100000000000003
 31
0.0
  0
LINE
  5
5C
100
AcDbEntity
  8
0
  6
CONTINUOUS
 62
               7
100
AcDbLine
 10
-14.0
 20
4.0
 30
0.0
 11
-13.640000000000001
 21
4.6100000000000003
 31
0.0
  0
LINE
  5
5D
100
AcDbEntity
  8
0
  6
CONTINUOUS
 62
               7
100
AcDbLine
 10
-13.640000000000001
 20
-4.6100000000000003
 30
0.0
 11
-11.15
 21
-4.6100000000000003
 31
0.0
  0
LINE
  5
5E
100
AcDbEntity
  8
0
  6
CONTINUOUS
 62
               7
100
AcDbLine
 10
-13.640000000000001
 20
-2.2999999999999998
 30
0.0
 11
-11.15
 21
-2.2999999999999998
 31
0.0
  0
LINE
  5
5F
100
AcDbEntity
  8
0
  6
CONTINUOUS
 62
               7
100
AcDbLine
 10
-13.640000000000001
 20
2.2999999999999998
 30
0.0
 11
-11.15
 21
2.2999999999999998
 31
0.0
  0
LINE
  5
60
100
AcDbEntity
  8
0
  6
CONTINUOUS
 62
               7
100
AcDbLine
 10
-13.640000000000001
 20
4.6100000000000003
 30
0.0
 11
-11.15
 21
4.6100000000000003
 31
0.0
  0
LINE
  5
61
100
AcDbEntity
  8
0
  6
CONTINUOUS
 62
               2
100
AcDbLine
 10
-10.800000000000001
 20
2.1000000000000001
 30
0.0
 11
-8.0
 21
2.1000000000000001
 31
0.0
  0
LINE
  5
62
100
AcDbEntity
  8
0
  6
CONTINUOUS
 62
               2
100
AcDbLine
 10
-8.0
 20
2.1000000000000001
 30
0.0
 11
-7.5
 21
2.3799999999999999
 31
0.0
  0
LINE
  5
63
100
AcDbEntity
  8
0
  6
CONTINUOUS
 62
               7
100
AcDbLine
 10
-10.800000000000001
 20
2.5
 30
0.0
 11
-7.5
 21
2.5
 31
0.0
  0
LINE
  5
64
100
AcDbEntity
  8
0
  6
CONTINUOUS
 62
               2
100
AcDbLine
 10
-8.0
 20
-2.1000000000000001
 30
0.0
 11
-7.5
 21
-2.3799999999999999
 31
0.0
  0
LINE
  5
65
100
AcDbEntity
  8
0
  6
CONTINUOUS
 62
               7
100
AcDbLine
 10
-8.0
 20
2.5
 30
0.0
 11
-8.0
 21
-2.5
 31
0.0
  0
LINE
  5
66
100
AcDbEntity
  8
0
  6
CONTINUOUS
 62
               7
100
AcDbLine
 10
-10.800000000000001
 20
-2.5
 30
0.0
 11
-7.5
 21
-2.5
 31
0.0
  0
LINE
  5
67
100
AcDbEntity
  8
0
  6
CONTINUOUS
 62
               2
100
AcDbLine
 10
-10.800000000000001
 20
-2.1000000000000001
 30
0.0
 11
-8.0
 21
-2.1000000000000001
 31
0.0
  0
LINE
  5
68
100
AcDbEntity
  8
0
  6
CONTINUOUS
 62
               7
100
AcDbLine
 10
-19.5
 20
-2.5
 30
0.0
 11
-17.199999999999999
 21
-2.5
 31
0.0
  0
LINE
  5
69
100
AcDbEntity
  8
0
  6
CONTINUOUS
 62
               7
100
AcDbLine
 10
-20.0
 20
-2.0
 30
0.0
 11
-19.5
 21
-2.5
 31
0.0
  0
LINE
  5
6A
100
AcDbEntity
  8
0
  6
CONTINUOUS
 62
               2
100
AcDbLine
 10
-19.899999999999999
 20
-2.1000000000000001
 30
0.0
 11
-17.199999999999999
 21
-2.1000000000000001
 31
0.0
  0
LINE
  5
6B
100
AcDbEntity
  8
0
  6
CONTINUOUS
 62
               7
100
AcDbLine
 10
-20.0
 20
2.0
 30
0.0
 11
-20.0
 21
-2.0
 31
0.0
  0
LINE
  5
6C
100
AcDbEntity
  8
0
  6
CONTINUOUS
 62
               7
100
AcDbLine
 10
-19.5
 20
2.5
 30
0.0
 11
-19.5
 21
-2.5
 31
0.0
  0
LINE
  5
6D
100
AcDbEntity
  8
0
  6
CONTINUOUS
 62
               7
100
AcDbLine
 10
-19.5
 20
2.5
 30
0.0
 11
-17.199999999999999
 21
2.5
 31
0.0
  0
LINE
  5
6E
100
AcDbEntity
  8
0
  6
CONTINUOUS
 62
               2
100
AcDbLine
 10
-19.899999999999999
 20
2.1000000000000001
 30
0.0
 11
-17.199999999999999
 21
2.1000000000000001
 31
0.0
  0
LINE
  5
6F
100
AcDbEntity
  8
0
  6
CONTINUOUS
 62
               7
100
AcDbLine
 10
-20.0
 20
2.0
 30
0.0
 11
-19.5
 21
2.5
 31
0.0
  0
LINE
  5
70
100
AcDbEntity
  8
0
  6
CONTINUOUS
 62
               7
100
AcDbLine
 10
-14.0
 20
4.0
 30
0.0
 11
-14.0
 21
-4.0
 31
0.0
  0
LINE
  5
71
100
AcDbEntity
  8
0
  6
CONTINUOUS
 62
               7
100
AcDbLine
 10
47.799999999999997
 20
9.0
 30
0.0
 11
43.799999999999997
 21
9.0
 31
0.0
  0
LINE
  5
72
100
AcDbEntity
  8
0
  6
CONTINUOUS
 62
               7
100
AcDbLine
 10
47.799999999999997
 20
16.0
 30
0.0
 11
43.799999999999997
 21
16.0
 31
0.0
  0
LINE
  5
73
100
AcDbEntity
  8
0
  6
CONTINUOUS
 62
               7
100
AcDbLine
 10
47.799999999999997
 20
9.0
 30
0.0
 11
47.799999999999997
 21
16.0
 31
0.0
  0
LINE
  5
74
100
AcDbEntity
  8
0
  6
CONTINUOUS
 62
               7
100
AcDbLine
 10
1.0
 20
-16.0
 30
0.0
 11
5.0
 21
-16.0
 31
0.0
  0
LINE
  5
75
100
AcDbEntity
  8
0
  6
CONTINUOUS
 62
               7
100
AcDbLine
 10
1.0
 20
-9.5
 30
0.0
 11
1.0
 21
-16.0
 31
0.0
  0
LINE
  5
76
100
AcDbEntity
  8
0
  6
CONTINUOUS
 62
               7
100
AcDbLine
 10
43.799999999999997
 20
8.0
 30
0.0
 11
48.0
 21
8.0
 31
0.0
  0
LINE
  5
77
100
AcDbEntity
  8
0
  6
CONTINUOUS
 62
               7
100
AcDbLine
 10
0.0
 20
16.5
 30
0.0
 11
0.0
 21
-16.5
 31
0.0
  0
LINE
  5
78
100
AcDbEntity
  8
0
  6
CONTINUOUS
 62
               7
100
AcDbLine
 10
43.799999999999997
 20
16.5
 30
0.0
 11
43.799999999999997
 21
8.0
 31
0.0
  0
LINE
  5
79
100
AcDbEntity
  8
0
  6
CENTER
 62
               2
100
AcDbLine
 10
-21.789999999999999
 20
0.0
 30
0.0
 11
51.0
 21
0.0
 31
0.0
  0
ENDBLK
  5
7A
100
AcDbEntity
  8
0
100
AcDbBlockEnd
  0
BLOCK
  5
7B
100
AcDbEntity
  8
0
100
AcDbBlockBegin
  2
MS_2
 70
               0
 10
0.0
 20
0.0
 30
0.0
  3
MS_2
  1

  0
CIRCLE
  5
7C
100
AcDbEntity
  8
0
  6
CONTINUOUS
 62
               7
100
AcDbCircle
 10
-6.0
 20
-12.5
 30
0.0
 40
2.0
  0
CIRCLE
  5
7D
100
AcDbEntity
  8
0
  6
CONTINUOUS
 62
               2
100
AcDbCircle
 10
0.0
 20
0.0
 30
0.0
 40
2.0999994277954102
  0
CIRCLE
  5
7E
100
AcDbEntity
  8
0
  6
CONTINUOUS
 62
               7
100
AcDbCircle
 10
0.0
 20
0.0
 30
0.0
 40
2.5
  0
CIRCLE
  5
7F
100
AcDbEntity
  8
0
  6
CONTINUOUS
 62
               7
100
AcDbCircle
 10
0.0
 20
0.0
 30
0.0
 40
4.0
  0
CIRCLE
  5
80
100
AcDbEntity
  8
0
  6
CONTINUOUS
 62
               7
100
AcDbCircle
 10
-6.0
 20
12.5
 30
0.0
 40
3.5
  0
ARC
  5
81
100
AcDbEntity
  8
0
  6
CONTINUOUS
 62
               7
100
AcDbCircle
 10
-5.9715498187117539
 20
12.467284639041592
 30
0.0
 40
5.0033177984426986
100
AcDbArc
 50
216.37469869569117
 51
225.15251170619018
  0
ARC
  5
82
100
AcDbEntity
  8
0
  6
CONTINUOUS
 62
               7
100
AcDbCircle
 10
-5.9996609860988812
 20
12.495599550408354
 30
0.0
 40
5.0033177984426986
100
AcDbArc
 50
315.6807012766082
 51
53.163443345565113
  0
LINE
  5
83
100
AcDbEntity
  8
0
  6
CONTINUOUS
 62
               7
100
AcDbLine
 10
-4.29
 20
11.51
 30
0.0
 11
-6.0
 21
10.529999999999999
 31
0.0
  0
LINE
  5
84
100
AcDbEntity
  8
0
  6
CONTINUOUS
 62
               7
100
AcDbLine
 10
-6.0
 20
10.529999999999999
 30
0.0
 11
-7.7000000000000002
 21
11.51
 31
0.0
  0
LINE
  5
85
100
AcDbEntity
  8
0
  6
CONTINUOUS
 62
               7
100
AcDbLine
 10
-7.7000000000000002
 20
11.51
 30
0.0
 11
-7.7000000000000002
 21
13.48
 31
0.0
  0
LINE
  5
86
100
AcDbEntity
  8
0
  6
CONTINUOUS
 62
               7
100
AcDbLine
 10
-4.29
 20
11.51
 30
0.0
 11
-4.29
 21
13.48
 31
0.0
  0
LINE
  5
87
100
AcDbEntity
  8
0
  6
CONTINUOUS
 62
               7
100
AcDbLine
 10
-4.29
 20
13.48
 30
0.0
 11
-6.0
 21
14.470000000000001
 31
0.0
  0
LINE
  5
88
100
AcDbEntity
  8
0
  6
CONTINUOUS
 62
               7
100
AcDbLine
 10
-6.0
 20
14.470000000000001
 30
0.0
 11
-7.7000000000000002
 21
13.48
 31
0.0
  0
LINE
  5
89
100
AcDbEntity
  8
0
  6
CONTINUOUS
 62
               7
100
AcDbLine
 10
9.5
 20
9.0
 30
0.0
 11
9.5
 21
-16.0
 31
0.0
  0
LINE
  5
8A
100
AcDbEntity
  8
0
  6
CONTINUOUS
 62
               7
100
AcDbLine
 10
-9.5
 20
9.0
 30
0.0
 11
-9.5
 21
-16.0
 31
0.0
  0
LINE
  5
8B
100
AcDbEntity
  8
0
  6
CONTINUOUS
 62
               7
100
AcDbLine
 10
-9.5
 20
9.0
 30
0.0
 11
9.5
 21
9.0
 31
0.0
  0
LINE
  5
8C
100
AcDbEntity
  8
0
  6
CONTINUOUS
 62
               7
100
AcDbLine
 10
-9.5
 20
-16.0
 30
0.0
 11
9.5
 21
-16.0
 31
0.0
  0
LINE
  5
8D
100
AcDbEntity
  8
0
  6
CENTER
 62
               2
100
AcDbLine
 10
-13.0
 20
0.0
 30
0.0
 11
13.0
 21
0.0
 31
0.0
  0
LINE
  5
8E
100
AcDbEntity
  8
0
  6
CENTER
 62
               2
100
AcDbLine
 10
0.0
 20
19.5
 30
0.0
 11
0.0
 21
-19.5
 31
0.0
  0
LINE
  5
8F
100
AcDbEntity
  8
0
  6
CONTINUOUS
 62
               7
100
AcDbLine
 10
0.0
 20
-4.6100000000000003
 30
0.0
 11
4.0
 21
-2.2999999999999998
 31
0.0
  0
LINE
  5
90
100
AcDbEntity
  8
0
  6
CONTINUOUS
 62
               7
100
AcDbLine
 10
-4.0
 20
2.2999999999999998
 30
0.0
 11
0.0
 21
4.6100000000000003
 31
0.0
  0
LINE
  5
91
100
AcDbEntity
  8
0
  6
CONTINUOUS
 62
               7
100
AcDbLine
 10
0.0
 20
4.6100000000000003
 30
0.0
 11
4.0
 21
2.2999999999999998
 31
0.0
  0
LINE
  5
92
100
AcDbEntity
  8
0
  6
CONTINUOUS
 62
               7
100
AcDbLine
 10
-4.0
 20
-2.2999999999999998
 30
0.0
 11
0.0
 21
-4.6100000000000003
 31
0.0
  0
LINE
  5
93
100
AcDbEntity
  8
0
  6
CONTINUOUS
 62
               7
100
AcDbLine
 10
4.0
 20
2.2999999999999998
 30
0.0
 11
4.0
 21
-2.2999999999999998
 31
0.0
  0
LINE
  5
94
100
AcDbEntity
  8
0
  6
CONTINUOUS
 62
               7
100
AcDbLine
 10
-4.0
 20
2.2999999999999998
 30
0.0
 11
-4.0
 21
-2.2999999999999998
 31
0.0
  0
LINE
  5
95
100
AcDbEntity
  8
0
  6
CONTINUOUS
 62
               7
100
AcDbLine
 10
-10.0
 20
16.5
 30
0.0
 11
-10.0
 21
-16.5
 31
0.0
  0
LINE
  5
96
100
AcDbEntity
  8
0
  6
CONTINUOUS
 62
               7
100
AcDbLine
 10
10.0
 20
16.5
 30
0.0
 11
10.0
 21
-16.5
 31
0.0
  0
LINE
  5
97
100
AcDbEntity
  8
0
  6
CONTINUOUS
 62
               7
100
AcDbLine
 10
-10.0
 20
16.5
 30
0.0
 11
10.0
 21
16.5
 31
0.0
  0
LINE
  5
98
100
AcDbEntity
  8
0
  6
CONTINUOUS
 62
               7
100
AcDbLine
 10
-10.0
 20
-16.5
 30
0.0
 11
10.0
 21
-16.5
 31
0.0
  0
ENDBLK
  5
99
100
AcDbEntity
  8
0
100
AcDbBlockEnd
  0
BLOCK
  5
9A
100
AcDbEntity
  8
0
100
AcDbBlockBegin
  2
MS_3
 70
               0
 10
0.0
 20
0.0
 30
0.0
  3
MS_3
  1

  0
CIRCLE
  5
9B
100
AcDbEntity
  8
0
  6
CONTINUOUS
 62
               2
100
AcDbCircle
 10
5.0
 20
-3.0
 30
0.0
 40
1.5
  0
CIRCLE
  5
9C
100
AcDbEntity
  8
0
  6
CONTINUOUS
 62
               7
100
AcDbCircle
 10
5.0
 20
-3.0
 30
0.0
 40
1.25
  0
CIRCLE
  5
9D
100
AcDbEntity
  8
0
  6
CONTINUOUS
 62
               7
100
AcDbCircle
 10
35.5
 20
0.8000030517578125
 30
0.0
 40
2.0999994277954102
  0
CIRCLE
  5
9E
100
AcDbEntity
  8
0
  6
CONTINUOUS
 62
               2
100
AcDbCircle
 10
35.5
 20
0.8000030517578125
 30
0.0
 40
2.5
  0
ARC
  5
9F
100
AcDbEntity
  8
0
  6
CONTINUOUS
 62
               7
100
AcDbCircle
 10
-19.77667236328125
 20
2.0
 30
0.0
 40
5.7834914142238087
100
AcDbArc
 50
339.76863659858356
 51
20.23136340141566
  0
ARC
  5
A0
100
AcDbEntity
  8
0
  6
CONTINUOUS
 62
               7
100
AcDbCircle
 10
-19.77667236328125
 20
-2.0
 30
0.0
 40
5.7834914142238087
100
AcDbArc
 50
339.76863659858356
 51
20.23136340141566
  0
ARC
  5
A1
100
AcDbEntity
  8
0
  6
CONTINUOUS
 62
               7
100
AcDbCircle
 10
-11.423316955566406
 20
-2.0
 30
0.0
 40
5.7741194310348645
100
AcDbArc
 50
159.73435881979046
 51
200.26564118020875
  0
ARC
  5
A2
100
AcDbEntity
  8
0
  6
CONTINUOUS
 62
               7
100
AcDbCircle
 10
-11.423316955566406
 20
2.0
 30
0.0
 40
5.7741194310348645
100
AcDbArc
 50
159.73435881979046
 51
200.26564118020875
  0
ARC
  5
A3
100
AcDbEntity
  8
0
  6
CONTINUOUS
 62
               7
100
AcDbCircle
 10
-16.576675415039063
 20
-2.0
 30
0.0
 40
5.7834942777000631
100
AcDbArc
 50
339.76864705354143
 51
20.231352946457779
  0
ARC
  5
A4
100
AcDbEntity
  8
0
  6
CONTINUOUS
 62
               7
100
AcDbCircle
 10
-16.576675415039063
 20
2.0
 30
0.0
 40
5.7834942777000631
100
AcDbArc
 50
339.76864705354143
 51
20.231352946457779
  0
ARC
  5
A5
100
AcDbEntity
  8
0
  6
CONTINUOUS
 62
               7
100
AcDbCircle
 10
-8.2233200073242187
 20
-2.0
 30
0.0
 40
5.7741165681906796
100
AcDbArc
 50
159.73434833085574
 51
200.26565166914347
  0
ARC
  5
A6
100
AcDbEntity
  8
0
  6
CONTINUOUS
 62
               7
100
AcDbCircle
 10
-8.2233200073242187
 20
2.0
 30
0.0
 40
5.7741165681906796
100
AcDbArc
 50
159.73434833085574
 51
200.26565166914347
  0
CIRCLE
  5
A7
100
AcDbEntity
  8
0
  6
CONTINUOUS
 62
               7
100
AcDbCircle
 10
17.5
 20
-0.8000030517578125
 30
0.0
 40
2.0999994277954102
  0
CIRCLE
  5
A8
100
AcDbEntity
  8
0
  6
CONTINUOUS
 62
               2
100
AcDbCircle
 10
17.5
 20
-0.8000030517578125
 30
0.0
 40
2.5
  0
LINE
  5
A9
100
AcDbEntity
  8
0
  6
CENTER
 62
               2
100
AcDbLine
 10
5.0
 20
-0.69
 30
0.0
 11
5.0
 21
-5.4800000000000004
 31
0.0
  0
LINE
  5
AA
100
AcDbEntity
  8
0
  6
CENTER
 62
               2
100
AcDbLine
 10
2.4399999999999999
 20
-3.0
 30
0.0
 11
7.4800000000000004
 21
-3.0
 31
0.0
  0
LINE
  5
AB
100
AcDbEntity
  8
0
  6
CONTINUOUS
 62
               7
100
AcDbLine
 10
5.0
 20
10.0
 30
0.0
 11
5.0
 21
3.0
 31
0.0
  0
LINE
  5
AC
100
AcDbEntity
  8
0
  6
CONTINUOUS
 62
               7
100
AcDbLine
 10
0.0
 20
3.0
 30
0.0
 11
5.0
 21
3.0
 31
0.0
  0
LINE
  5
AD
100
AcDbEntity
  8
0
  6
CENTER
 62
               2
100
AcDbLine
 10
14.0
 20
-0.8
 30
0.0
 11
21.0
 21
-0.8
 31
0.0
  0
LINE
  5
AE
100
AcDbEntity
  8
0
  6
CENTER
 62
               2
100
AcDbLine
 10
31.5
 20
0.8
 30
0.0
 11
39.5
 21
0.8
 31
0.0
  0
LINE
  5
AF
100
AcDbEntity
  8
0
  6
CENTER
 62
               2
100
AcDbLine
 10
35.5
 20
4.7999999999999998
 30
0.0
 11
35.5
 21
-3.2000000000000002
 31
0.0
  0
LINE
  5
B0
100
AcDbEntity
  8
0
  6
CONTINUOUS
 62
               7
100
AcDbLine
 10
-1.5
 20
8.0
 30
0.0
 11
0.0
 21
8.0
 31
0.0
  0
LINE
  5
B1
100
AcDbEntity
  8
0
  6
CONTINUOUS
 62
               7
100
AcDbLine
 10
-1.5
 20
4.0
 30
0.0
 11
0.0
 21
4.0
 31
0.0
  0
LINE
  5
B2
100
AcDbEntity
  8
0
  6
CONTINUOUS
 62
               7
100
AcDbLine
 10
-1.5
 20
-3.0
 30
0.0
 11
0.0
 21
-3.0
 31
0.0
  0
LINE
  5
B3
100
AcDbEntity
  8
0
  6
CONTINUOUS
 62
               7
100
AcDbLine
 10
-1.5
 20
3.0
 30
0.0
 11
0.0
 21
3.0
 31
0.0
  0
LINE
  5
B4
100
AcDbEntity
  8
0
  6
CONTINUOUS
 62
               7
100
AcDbLine
 10
-7.5
 20
9.5
 30
0.0
 11
-1.5
 21
9.5
 31
0.0
  0
LINE
  5
B5
100
AcDbEntity
  8
0
  6
CONTINUOUS
 62
               7
100
AcDbLine
 10
-7.5
 20
-9.5
 30
0.0
 11
-1.5
 21
-9.5
 31
0.0
  0
LINE
  5
B6
100
AcDbEntity
  8
0
  6
CONTINUOUS
 62
               7
100
AcDbLine
 10
-1.5
 20
9.5
 30
0.0
 11
-1.5
 21
-9.5
 31
0.0
  0
LINE
  5
B7
100
AcDbEntity
  8
0
  6
CONTINUOUS
 62
               7
100
AcDbLine
 10
-7.5
 20
9.5
 30
0.0
 11
-7.5
 21
-9.5
 31
0.0
  0
LINE
  5
B8
100
AcDbEntity
  8
0
  6
CONTINUOUS
 62
               7
100
AcDbLine
 10
-13.640000000000001
 20
0.0
 30
0.0
 11
-11.15
 21
0.0
 31
0.0
  0
LINE
  5
B9
100
AcDbEntity
  8
0
  6
CONTINUOUS
 62
               7
100
AcDbLine
 10
-16.84
 20
0.0
 30
0.0
 11
-14.35
 21
0.0
 31
0.0
  0
LINE
  5
BA
100
AcDbEntity
  8
0
  6
CENTER
 62
               2
100
AcDbLine
 10
17.5
 20
-4.7999999999999998
 30
0.0
 11
17.5
 21
3.2000000000000002
 31
0.0
  0
LINE
  5
BB
100
AcDbEntity
  8
0
  6
CONTINUOUS
 62
               7
100
AcDbLine
 10
-17.199999999999999
 20
-4.0
 30
0.0
 11
-14.0
 21
-4.0
 31
0.0
  0
LINE
  5
BC
100
AcDbEntity
  8
0
  6
CONTINUOUS
 62
               7
100
AcDbLine
 10
-17.199999999999999
 20
4.0
 30
0.0
 11
-17.199999999999999
 21
-4.0
 31
0.0
  0
LINE
  5
BD
100
AcDbEntity
  8
0
  6
CONTINUOUS
 62
               7
100
AcDbLine
 10
-17.199999999999999
 20
4.0
 30
0.0
 11
-14.0
 21
4.0
 31
0.0
  0
LINE
  5
BE
100
AcDbEntity
  8
0
  6
CONTINUOUS
 62
               7
100
AcDbLine
 10
-10.800000000000001
 20
4.0
 30
0.0
 11
-10.800000000000001
 21
-4.0
 31
0.0
  0
LINE
  5
BF
100
AcDbEntity
  8
0
  6
CONTINUOUS
 62
               7
100
AcDbLine
 10
-14.0
 20
4.0
 30
0.0
 11
-10.800000000000001
 21
4.0
 31
0.0
  0
LINE
  5
C0
100
AcDbEntity
  8
0
  6
CONTINUOUS
 62
               7
100
AcDbLine
 10
-14.0
 20
-4.0
 30
0.0
 11
-10.800000000000001
 21
-4.0
 31
0.0
  0
LINE
  5
C1
100
AcDbEntity
  8
0
  6
CONTINUOUS
 62
               7
100
AcDbLine
 10
-14.0
 20
4.0
 30
0.0
 11
-14.0
 21
-4.0
 31
0.0
  0
LINE
  5
C2
100
AcDbEntity
  8
0
  6
CONTINUOUS
 62
               7
100
AcDbLine
 10
-10.800000000000001
 20
-2.5
 30
0.0
 11
-7.5
 21
-2.5
 31
0.0
  0
LINE
  5
C3
100
AcDbEntity
  8
0
  6
CONTINUOUS
 62
               2
100
AcDbLine
 10
-10.800000000000001
 20
-2.1000000000000001
 30
0.0
 11
-8.0
 21
-2.1000000000000001
 31
0.0
  0
LINE
  5
C4
100
AcDbEntity
  8
0
  6
CONTINUOUS
 62
               2
100
AcDbLine
 10
-10.800000000000001
 20
2.1000000000000001
 30
0.0
 11
-8.0
 21
2.1000000000000001
 31
0.0
  0
LINE
  5
C5
100
AcDbEntity
  8
0
  6
CONTINUOUS
 62
               7
100
AcDbLine
 10
-10.800000000000001
 20
2.5
 30
0.0
 11
-7.5
 21
2.5
 31
0.0
  0
LINE
  5
C6
100
AcDbEntity
  8
0
  6
CONTINUOUS
 62
               7
100
AcDbLine
 10
-19.5
 20
2.5
 30
0.0
 11
-19.5
 21
-2.5
 31
0.0
  0
LINE
  5
C7
100
AcDbEntity
  8
0
  6
CONTINUOUS
 62
               2
100
AcDbLine
 10
-8.0
 20
-2.1000000000000001
 30
0.0
 11
-7.5
 21
-2.3799999999999999
 31
0.0
  0
LINE
  5
C8
100
AcDbEntity
  8
0
  6
CONTINUOUS
 62
               2
100
AcDbLine
 10
-8.0
 20
2.1000000000000001
 30
0.0
 11
-7.5
 21
2.3799999999999999
 31
0.0
  0
LINE
  5
C9
100
AcDbEntity
  8
0
  6
CONTINUOUS
 62
               2
100
AcDbLine
 10
-19.899999999999999
 20
2.1000000000000001
 30
0.0
 11
-17.199999999999999
 21
2.1000000000000001
 31
0.0
  0
LINE
  5
CA
100
AcDbEntity
  8
0
  6
CONTINUOUS
 62
               2
100
AcDbLine
 10
-19.899999999999999
 20
-2.1000000000000001
 30
0.0
 11
-17.199999999999999
 21
-2.1000000000000001
 31
0.0
  0
LINE
  5
CB
100
AcDbEntity
  8
0
  6
CONTINUOUS
 62
               7
100
AcDbLine
 10
-8.0
 20
2.5
 30
0.0
 11
-8.0
 21
-2.5
 31
0.0
  0
LINE
  5
CC
100
AcDbEntity
  8
0
  6
CONTINUOUS
 62
               7
100
AcDbLine
 10
-20.0
 20
-2.0
 30
0.0
 11
-19.5
 21
-2.5
 31
0.0
  0
LINE
  5
CD
100
AcDbEntity
  8
0
  6
CONTINUOUS
 62
               7
100
AcDbLine
 10
-20.0
 20
2.0
 30
0.0
 11
-19.5
 21
2.5
 31
0.0
  0
LINE
  5
CE
100
AcDbEntity
  8
0
  6
CONTINUOUS
 62
               7
100
AcDbLine
 10
-19.5
 20
-2.5
 30
0.0
 11
-17.199999999999999
 21
-2.5
 31
0.0
  0
LINE
  5
CF
100
AcDbEntity
  8
0
  6
CONTINUOUS
 62
               7
100
AcDbLine
 10
-19.5
 20
2.5
 30
0.0
 11
-17.199999999999999
 21
2.5
 31
0.0
  0
LINE
  5
D0
100
AcDbEntity
  8
0
  6
CONTINUOUS
 62
               7
100
AcDbLine
 10
-20.0
 20
2.0
 30
0.0
 11
-20.0
 21
-2.0
 31
0.0
  0
LINE
  5
D1
100
AcDbEntity
  8
0
  6
CONTINUOUS
 62
               7
100
AcDbLine
 10
47.799999999999997
 20
-9.5
 30
0.0
 11
43.799999999999997
 21
-9.5
 31
0.0
  0
LINE
  5
D2
100
AcDbEntity
  8
0
  6
CONTINUOUS
 62
               7
100
AcDbLine
 10
47.799999999999997
 20
-2.5
 30
0.0
 11
43.799999999999997
 21
-2.5
 31
0.0
  0
LINE
  5
D3
100
AcDbEntity
  8
0
  6
CONTINUOUS
 62
               7
100
AcDbLine
 10
47.799999999999997
 20
-9.5
 30
0.0
 11
47.799999999999997
 21
-2.5
 31
0.0
  0
LINE
  5
D4
100
AcDbEntity
  8
0
  6
CONTINUOUS
 62
               7
100
AcDbLine
 10
1.0
 20
9.5
 30
0.0
 11
5.0
 21
9.5
 31
0.0
  0
LINE
  5
D5
100
AcDbEntity
  8
0
  6
CONTINUOUS
 62
               7
100
AcDbLine
 10
1.0
 20
9.5
 30
0.0
 11
1.0
 21
3.0
 31
0.0
  0
LINE
  5
D6
100
AcDbEntity
  8
0
  6
CONTINUOUS
 62
               7
100
AcDbLine
 10
43.799999999999997
 20
-1.8
 30
0.0
 11
48.0
 21
-1.8
 31
0.0
  0
LINE
  5
D7
100
AcDbEntity
  8
0
  6
CONTINUOUS
 62
               7
100
AcDbLine
 10
0.0
 20
10.0
 30
0.0
 11
0.0
 21
-10.0
 31
0.0
  0
LINE
  5
D8
100
AcDbEntity
  8
0
  6
CONTINUOUS
 62
               7
100
AcDbLine
 10
43.799999999999997
 20
-1.8
 30
0.0
 11
43.799999999999997
 21
-10.0
 31
0.0
  0
LINE
  5
D9
100
AcDbEntity
  8
0
  6
CONTINUOUS
 62
               7
100
AcDbLine
 10
48.0
 20
10.0
 30
0.0
 11
48.0
 21
-10.0
 31
0.0
  0
LINE
  5
DA
100
AcDbEntity
  8
0
  6
CONTINUOUS
 62
               7
100
AcDbLine
 10
0.0
 20
10.0
 30
0.0
 11
48.0
 21
10.0
 31
0.0
  0
LINE
  5
DB
100
AcDbEntity
  8
0
  6
CONTINUOUS
 62
               7
100
AcDbLine
 10
0.0
 20
-10.0
 30
0.0
 11
48.0
 21
-10.0
 31
0.0
  0
LINE
  5
DC
100
AcDbEntity
  8
0
  6
CENTER
 62
               2
100
AcDbLine
 10
-22.350000000000001
 20
0.0
 30
0.0
 11
50.270000000000003
 21
0.0
 31
0.0
  0
LINE
  5
DD
100
AcDbEntity
  8
0
  6
CONTINUOUS
 62
               7
100
AcDbLine
 10
41.0
 20
10.0
 30
0.0
 11
41.0
 21
-10.0
 31
0.0
  0
LINE
  5
DE
100
AcDbEntity
  8
0
  6
CONTINUOUS
 62
               7
100
AcDbLine
 10
12.0
 20
10.0
 30
0.0
 11
12.0
 21
-10.0
 31
0.0
  0
ENDBLK
  5
DF
100
AcDbEntity
  8
0
100
AcDbBlockEnd
  0
ENDSEC
  0
SECTION
  2
ENTITIES
  0
INSERT
  5
E0
100
AcDbEntity
  8
0
100
AcDbBlockReference
  2
MS_3
 10
9.0
 20
35.0
 30
0.0
  0
INSERT
  5
E1
100
AcDbEntity
  8
0
100
AcDbBlockReference
  2
MS_2
 10
-55.999984741210937
 20
-29.999984741210937
 30
0.0
  0
INSERT
  5
E2
100
AcDbEntity
  8
0
100
AcDbBlockReference
  2
MS_1
 10
9.0000019073486328
 20
-30.0
 30
0.0
  0
MTEXT
  5
E3
100
AcDbEntity
  8
0
  6
CONTINUOUS
 62
               7
100
AcDbMText
 10
-129.40839719979761
 20
74.5
 30
0.0
 40
3.1999998092651367
 41
0.0
 71
               4
 72
               1
  1
\W1.109;\A1;MODEL:CS-BDAL16*ST(10)
  7
MX_NOTE_STANDARD
  0
MTEXT
  5
E4
100
AcDbEntity
  8
0
  6
CONTINUOUS
 62
               7
100
AcDbMText
 10
-110.23110800015485
 20
68.5
 30
0.0
 40
3.1999998092651367
 41
0.0
 71
               4
 72
               1
  1
\W1.067;\A1;CS-BDALS16*ST(5)
  7
MX_NOTE_STANDARD
  0
MTEXT
  5
E5
100
AcDbEntity
  8
0
  6
CONTINUOUS
 62
               7
100
AcDbMText
 10
-134.13081384054894
 20
91.099999904632568
 30
0.0
 40
3.1999998092651367
 41
0.0
 71
               1
 72
               1
  1
\W1.067;\A1;CS-MULTI MOUNT CYL
  7
MX_NOTE_STANDARD
  0
MTEXT
  5
E6
100
AcDbEntity
  8
0
  6
CONTINUOUS
 62
               7
100
AcDbMText
 10
93.74946397608629
 20
89.5
 30
0.0
 40
3.1999998092651367
 41
0.0
 71
               4
 72
               1
  1
\W1.311;\A1;Ver. 1.0
  7
MX_NOTE_STANDARD
  0
MTEXT
  5
E7
100
AcDbEntity
  8
0
  6
CONTINUOUS
 62
               7
100
AcDbMText
 10
77.440523342735503
 20
-89.800003051757812
 30
0.0
 40
4.5
 41
0.0
 71
               4
 72
               1
  1
\W1.121;\A1;KOGANEI CORP.
  7
MX_NOTE_STANDARD
  0
LINE
  5
E8
100
AcDbEntity
  8
0
  6
CONTINUOUS
 62
               7
100
AcDbLine
 10
-73.400000000000006
 20
94.5
 30
0.0
 11
-73.400000000000006
 21
84.5
 31
0.0
  0
LINE
  5
E9
100
AcDbEntity
  8
0
  6
CONTINUOUS
 62
               7
100
AcDbLine
 10
73.349999999999994
 20
94.5
 30
0.0
 11
73.349999999999994
 21
84.5
 31
0.0
  0
LINE
  5
EA
100
AcDbEntity
  8
0
  6
CONTINUOUS
 62
               7
100
AcDbLine
 10
73.349999999999994
 20
-84.799999999999997
 30
0.0
 11
73.349999999999994
 21
-94.799999999999997
 31
0.0
  0
LINE
  5
EB
100
AcDbEntity
  8
0
  6
CONTINUOUS
 62
               7
100
AcDbLine
 10
73.349999999999994
 20
84.5
 30
0.0
 11
138.34999999999999
 21
84.5
 31
0.0
  0
LINE
  5
EC
100
AcDbEntity
  8
0
  6
CONTINUOUS
 62
               7
100
AcDbLine
 10
-138.40000000000001
 20
84.5
 30
0.0
 11
-73.400000000000006
 21
84.5
 31
0.0
  0
LINE
  5
ED
100
AcDbEntity
  8
0
  6
CONTINUOUS
 62
               7
100
AcDbLine
 10
73.349999999999994
 20
-84.799999999999997
 30
0.0
 11
138.34999999999999
 21
-84.799999999999997
 31
0.0
  0
LINE
  5
EE
100
AcDbEntity
  8
0
  6
CONTINUOUS
 62
               7
100
AcDbLine
 10
-138.40000000000001
 20
94.5
 30
0.0
 11
-138.40000000000001
 21
-94.799999999999997
 31
0.0
  0
LINE
  5
EF
100
AcDbEntity
  8
0
  6
CONTINUOUS
 62
               7
100
AcDbLine
 10
-138.40000000000001
 20
-94.799999999999997
 30
0.0
 11
138.34999999999999
 21
-94.799999999999997
 31
0.0
  0
LINE
  5
F0
100
AcDbEntity
  8
0
  6
CONTINUOUS
 62
               7
100
AcDbLine
 10
138.34999999999999
 20
94.5
 30
0.0
 11
138.34999999999999
 21
-94.799999999999997
 31
0.0
  0
LINE
  5
F1
100
AcDbEntity
  8
0
  6
CONTINUOUS
 62
               7
100
AcDbLine
 10
-138.40000000000001
 20
94.5
 30
0.0
 11
138.34999999999999
 21
94.5
 31
0.0
  0
ENDSEC
  0
SECTION
  2
OBJECTS
  0
DICTIONARY
  5
19
100
AcDbDictionary
  3
ACAD_GROUP
350
1A
  3
ACAD_MLINESTYLE
350
1B
  0
DICTIONARY
  5
1A
102
{ACAD_REACTORS
330
19
102
}
100
AcDbDictionary
  0
DICTIONARY
  5
1B
102
{ACAD_REACTORS
330
19
102
}
100
AcDbDictionary
  3
STANDARD
350
1C
  0
MLINESTYLE
  5
1C
102
{ACAD_REACTORS
330
1B
102
}
100
AcDbMlineStyle
  2
Standard
 70
               0
  3

 62
               0
 51
90.0
 52
90.0
 71
               2
 49
0.5
 62
             256
  6
ByLayer
 49
-0.5
 62
             256
  6
ByLayer
  0
ENDSEC
  0
EOF
