  0
SECTION
  2
HEADER
  9
$ACADVER
  1
AC1012
  9
$DWGCODEPAGE
  3
dos932
  9
$INSBASE
 10
0.0
 20
0.0
 30
0.0
  9
$EXTMIN
 10
-194.25
 20
-133.5
 30
0.0
  9
$EXTMAX
 10
196.25000429153442
 20
132.59999999999999
 30
0.0
  9
$LIMMIN
 10
-194.25
 20
-133.5
  9
$LIMMAX
 10
196.25000429153442
 20
132.59999999999999
  9
$ORTHOMODE
 70
               0
  9
$REGENMODE
 70
               1
  9
$FILLMODE
 70
               1
  9
$QTEXTMODE
 70
               0
  9
$MIRRTEXT
 70
               1
  9
$DRAGMODE
 70
               2
  9
$LTSCALE
 40
1.0
  9
$OSMODE
 70
               0
  9
$ATTMODE
 70
               1
  9
$TEXTSIZE
 40
3.2000000476837158
  9
$TRACEWID
 40
0.05
  9
$TEXTSTYLE
  7
MX_NOTE_STANDARD
  9
$CLAYER
  8
0
  9
$CELTYPE
  6
CONTINUOUS
  9
$CECOLOR
 62
             256
  9
$CELTSCALE
 40
1.0
  9
$DELOBJ
 70
               1
  9
$DISPSILH
 70
               0
  9
$DIMSCALE
 40
1.0
  9
$DIMASZ
 40
2.5
  9
$DIMEXO
 40
1.5
  9
$DIMDLI
 40
3.75
  9
$DIMRND
 40
0.0
  9
$DIMDLE
 40
0.0
  9
$DIMEXE
 40
1.5
  9
$DIMTP
 40
0.0
  9
$DIMTM
 40
0.0
  9
$DIMTXT
 40
3.2000000476837158
  9
$DIMCEN
 40
2.5
  9
$DIMTSZ
 40
0.0
  9
$DIMTOL
 70
               0
  9
$DIMLIM
 70
               0
  9
$DIMTIH
 70
               0
  9
$DIMTOH
 70
               0
  9
$DIMSE1
 70
               0
  9
$DIMSE2
 70
               0
  9
$DIMTAD
 70
               1
  9
$DIMZIN
 70
               8
  9
$DIMBLK
  1

  9
$DIMASO
 70
               1
  9
$DIMSHO
 70
               1
  9
$DIMPOST
  1

  9
$DIMAPOST
  1

  9
$DIMALT
 70
               0
  9
$DIMALTD
 70
               4
  9
$DIMALTF
 40
0.0394
  9
$DIMLFAC
 40
1.0
  9
$DIMTOFL
 70
               1
  9
$DIMTVP
 40
0.0
  9
$DIMTIX
 70
               0
  9
$DIMSOXD
 70
               0
  9
$DIMSAH
 70
               0
  9
$DIMBLK1
  1

  9
$DIMBLK2
  1

  9
$DIMSTYLE
  2
MXDIMSTYLE
  9
$DIMCLRD
 70
               0
  9
$DIMCLRE
 70
               0
  9
$DIMCLRT
 70
               0
  9
$DIMTFAC
 40
1.0
  9
$DIMGAP
 40
1.0
  9
$DIMJUST
 70
               0
  9
$DIMSD1
 70
               0
  9
$DIMSD2
 70
               0
  9
$DIMTOLJ
 70
               1
  9
$DIMTZIN
 70
               0
  9
$DIMALTZ
 70
               0
  9
$DIMALTTZ
 70
               0
  9
$DIMFIT
 70
               3
  9
$DIMUPT
 70
               1
  9
$DIMUNIT
 70
               2
  9
$DIMDEC
 70
               4
  9
$DIMTDEC
 70
               4
  9
$DIMALTU
 70
               8
  9
$DIMALTTD
 70
               4
  9
$DIMTXSTY
  7
MX_NOTE_STANDARD
  9
$DIMAUNIT
 70
               0
  9
$LUNITS
 70
               2
  9
$LUPREC
 70
               4
  9
$SKETCHINC
 40
0.1
  9
$FILLETRAD
 40
0.0
  9
$AUNITS
 70
               0
  9
$AUPREC
 70
               0
  9
$MENU
  1
acad
  9
$ELEVATION
 40
0.0
  9
$PELEVATION
 40
0.0
  9
$THICKNESS
 40
0.0
  9
$LIMCHECK
 70
               0
  9
$BLIPMODE
 70
               1
  9
$CHAMFERA
 40
0.0
  9
$CHAMFERB
 40
0.0
  9
$CHAMFERC
 40
0.0
  9
$CHAMFERD
 40
0.0
  9
$SKPOLY
 70
               0
  9
$TDCREATE
 40
2452220.696678241
  9
$TDUPDATE
 40
2452220.696678241
  9
$TDINDWG
 40
0.0000000000
  9
$TDUSRTIMER
 40
0.0000000000
  9
$USRTIMER
 70
               1
  9
$ANGBASE
 50
0.0
  9
$ANGDIR
 70
               0
  9
$PDMODE
 70
               0
  9
$PDSIZE
 40
0.0
  9
$PLINEWID
 40
0.0
  9
$COORDS
 70
               1
  9
$SPLFRAME
 70
               0
  9
$SPLINETYPE
 70
               6
  9
$SPLINESEGS
 70
               8
  9
$ATTDIA
 70
               0
  9
$ATTREQ
 70
               1
  9
$HANDLING
 70
               1
  9
$HANDSEED
  5
105
  9
$SURFTAB1
 70
               6
  9
$SURFTAB2
 70
               6
  9
$SURFTYPE
 70
               6
  9
$SURFU
 70
               6
  9
$SURFV
 70
               6
  9
$UCSNAME
  2

  9
$UCSORG
 10
0.0
 20
0.0
 30
0.0
  9
$UCSXDIR
 10
1.0
 20
0.0
 30
0.0
  9
$UCSYDIR
 10
0.0
 20
1.0
 30
0.0
  9
$PUCSNAME
  2

  9
$PUCSORG
 10
0.0
 20
0.0
 30
0.0
  9
$PUCSXDIR
 10
1.0
 20
0.0
 30
0.0
  9
$PUCSYDIR
 10
0.0
 20
1.0
 30
0.0
  9
$USERI1
 70
               0
  9
$USERI2
 70
               0
  9
$USERI3
 70
               0
  9
$USERI4
 70
               0
  9
$USERI5
 70
               0
  9
$USERR1
 40
0.0
  9
$USERR2
 40
0.0
  9
$USERR3
 40
0.0
  9
$USERR4
 40
0.0
  9
$USERR5
 40
0.0
  9
$WORLDVIEW
 70
               1
  9
$SHADEDGE
 70
               3
  9
$SHADEDIF
 70
              70
  9
$TILEMODE
 70
               1
  9
$MAXACTVP
 70
              16
  9
$PINSBASE
 10
0.0
 20
0.0
 30
0.0
  9
$PLIMCHECK
 70
               0
  9
$PEXTMIN
 10
1.0000000000000000E+20
 20
1.0000000000000000E+20
 30
1.0000000000000000E+20
  9
$PEXTMAX
 10
-1.0000000000000000E+20
 20
-1.0000000000000000E+20
 30
-1.0000000000000000E+20
  9
$PLIMMIN
 10
0.0
 20
0.0
  9
$PLIMMAX
 10
12.0
 20
9.0
  9
$UNITMODE
 70
               0
  9
$VISRETAIN
 70
               0
  9
$PLINEGEN
 70
               1
  9
$PSLTSCALE
 70
               0
  9
$TREEDEPTH
 70
            3020
  9
$PICKSTYLE
 70
               1
  9
$CMLSTYLE
  2
Standard
  9
$CMLJUST
 70
               0
  9
$CMLSCALE
 40
1.0
  9
$SAVEIMAGES
 70
               0
  0
ENDSEC
  0
SECTION
  2
CLASSES
  0
CLASS
  1
LWPOLYLINE
  2
AcDbPolyline
  3
"AutoCAD"
 90
        0
280
               0
281
               1
  0
CLASS
  1
IMAGE
  2
AcDbRasterImage
  3
ISM
 90
      127
280
               0
281
               1
  0
CLASS
  1
OLE2FRAME
  2
AcDbOle2Frame
  3
""
 90
        0
280
               0
281
               1
  0
CLASS
  1
HATCH
  2
AcDbHatch
  3
"ACAD_SEDONA"
 90
        0
280
               0
281
               1
  0
CLASS
  1
DICTIONARYVAR
  2
AcDbDictionaryVar
  3
"AutoCAD"
 90
        0
280
               0
281
               0
  0
CLASS
  1
RASTERVARIABLES
  2
AcDbRasterVariables
  3
ISM
 90
        0
280
               0
281
               0
  0
CLASS
  1
IMAGEDEF
  2
AcDbRasterImageDef
  3
ISM
 90
        0
280
               0
281
               0
  0
CLASS
  1
IMAGEDEF_REACTOR
  2
AcDbRasterImageDefReactor
  3
ISM
 90
        1
280
               0
281
               0
  0
CLASS
  1
IDBUFFER
  2
AcDbIdBuffer
  3
"Acad"
 90
        0
280
               0
281
               0
  0
CLASS
  1
SPATIAL_FILTER
  2
AcDbSpatialFilter
  3
"Acad"
 90
        0
280
               0
281
               0
  0
CLASS
  1
XRECORD
  2
AcDbXrecord
  3
"<Built In>"
 90
        0
280
               0
281
               0
  0
CLASS
  1
SORTENTSTABLE
  2
AcDbSortentsTable
  3
"AutoCAD"
 90
        0
280
               0
281
               0
  0
CLASS
  1
LAYER_INDEX
  2
AcDbLayerIndex
  3
"Acad"
 90
        0
280
               0
281
               0
  0
CLASS
  1
SPATIAL_INDEX
  2
AcDbSpatialIndex
  3
"Acad"
 90
        0
280
               0
281
               0
  0
CLASS
  1
OBJECT_PTR
  2
CAseDLPNTableRecord
  3
"ASE-LPNTableRecord"
 90
        1
280
               0
281
               0
  0
CLASS
  1
LAYOUT
  2
AcDbLayout
  3
"AutoCAD 2000"
 90
        1
280
               0
281
               0
  0
CLASS
  1
PLOTSETTINGS
  2
AcDbPlotSettings
  3
"AutoCAD 2000"
 90
        1
280
               0
281
               0
  0
CLASS
  1
ACDBDICTIONARYWDFLT
  2
AcDbDictionaryWithDefault
  3
"AutoCAD 2000"
 90
        1
280
               0
281
               0
  0
CLASS
  1
ACDBPLACEHOLDER
  2
AcDbPlaceHolder
  3
"AutoCAD 2000"
 90
        1
280
               0
281
               0
  0
CLASS
  1
VBA_PROJECT
  2
AcDbVbaProject
  3
"acadvba"
 90
        1
280
               0
281
               0
  0
CLASS
  1
WIPEOUT
  2
AcDbWipeout
  3
WipeOut|AutoCAD Express Tool|expresstools@autodesk.com
 90
      127
280
               0
281
               1
  0
CLASS
  1
WIPEOUTVARIABLES
  2
AcDbWipeoutVariables
  3
WipeOut|AutoCAD Express Tool|expresstools@autodesk.com
 90
        0
280
               0
281
               0
  0
CLASS
  1
RTEXT
  2
RText
  3
RText|AutoCAD Express Tool|expresstools@autodesk.com
 90
        0
280
               0
281
               1
  0
CLASS
  1
ARCALIGNEDTEXT
  2
AcDbArcAlignedText
  3
ATEXT|AutoCAD Express Tool|expresstools@autodesk.com
 90
        0
280
               0
281
               1
  0
ENDSEC
  0
SECTION
  2
TABLES
  0
TABLE
  2
VPORT
  5
7
100
AcDbSymbolTable
 70
               1
  0
VPORT
  5
15
100
AcDbSymbolTableRecord
100
AcDbViewportTableRecord
  2
*ACTIVE
 70
               0
 10
0.0
 20
0.0
 11
1.0
 21
1.0
 12
1.0000021457672119
 22
-0.4499999999999886
 13
0.0
 23
0.0
 14
1.0
 24
1.0
 15
0.0
 25
0.0
 16
0.0
 26
0.0
 36
1.0
 17
0.0
 27
0.0
 37
0.0
 40
268.76100000000002
 41
1.7320508075688772
 42
50.0
 43
0.0
 44
0.0
 50
0.0
 51
0.0
 71
               0
 72
             100
 73
               1
 74
               1
 75
               0
 76
               0
 77
               0
 78
               0
  0
ENDTAB
  0
TABLE
  2
LTYPE
  5
4
100
AcDbSymbolTable
 70
               4
  0
LTYPE
  5
11
100
AcDbSymbolTableRecord
100
AcDbLinetypeTableRecord
  2
BYBLOCK
 70
              64
  3

 72
              65
 73
               0
 40
0.0
  0
LTYPE
  5
12
100
AcDbSymbolTableRecord
100
AcDbLinetypeTableRecord
  2
BYLAYER
 70
              64
  3

 72
              65
 73
               0
 40
0.0
  0
LTYPE
  5
13
100
AcDbSymbolTableRecord
100
AcDbLinetypeTableRecord
  2
CONTINUOUS
 70
              64
  3
Solid line
 72
              65
 73
               0
 40
0.0
  0
LTYPE
  5
2D
100
AcDbSymbolTableRecord
100
AcDbLinetypeTableRecord
  2
CENTER
 70
              64
  3
Center ____ _ ____ _ ____ _ ____ _ ____ _ ____
 72
              65
 73
               4
 40
50.800000000000004
 49
31.75
 74
               0
 49
-6.3499999999999996
 74
               0
 49
6.3499999999999996
 74
               0
 49
-6.3499999999999996
 74
               0
  0
ENDTAB
  0
TABLE
  2
LAYER
  5
2
100
AcDbSymbolTable
 70
               2
  0
LAYER
  5
14
100
AcDbSymbolTableRecord
100
AcDbLayerTableRecord
  2
0
 70
               0
 62
               7
  6
CONTINUOUS
  0
LAYER
  5
1D
100
AcDbSymbolTableRecord
100
AcDbLayerTableRecord
  2
DEFPOINTS
 70
               0
 62
               7
  6
CONTINUOUS
  0
ENDTAB
  0
TABLE
  2
STYLE
  5
3
100
AcDbSymbolTable
 70
               1
  0
STYLE
  5
17
100
AcDbSymbolTableRecord
100
AcDbTextStyleTableRecord
  2
MX_NOTE_STANDARD
 70
               0
 40
3.2000000476837158
 41
1.0
 50
0.0
 71
               0
 42
3.2000000476837158
  3
txt.shx
  4
extfont.shx
  0
ENDTAB
  0
TABLE
  2
VIEW
  5
5
100
AcDbSymbolTable
 70
               0
  0
ENDTAB
  0
TABLE
  2
UCS
  5
6
100
AcDbSymbolTable
 70
               0
  0
ENDTAB
  0
TABLE
  2
APPID
  5
8
100
AcDbSymbolTable
 70
               1
  0
APPID
  5
16
100
AcDbSymbolTableRecord
100
AcDbRegAppTableRecord
  2
ACAD
 70
               0
  0
ENDTAB
  0
TABLE
  2
DIMSTYLE
  5
9
100
AcDbSymbolTable
 70
               1
  0
DIMSTYLE
105
18
100
AcDbSymbolTableRecord
100
AcDbDimStyleTableRecord
  2
MXDIMSTYLE
 70
               0
  3

  4

  5

  6

  7

 40
1.0
 41
2.5
 42
1.5
 43
3.75
 44
1.5
 45
0.0
 46
0.0
 47
0.0
 48
0.0
 71
               0
 72
               0
 73
               0
 74
               0
 75
               0
 76
               0
 77
               1
 78
               8
140
3.2000000476837158
141
2.5
142
0.0
143
0.0394
144
1.0
145
0.0
146
1.0
147
1.0
170
               0
171
               4
172
               1
173
               0
174
               0
175
               0
176
               0
177
               0
178
               0
270
               2
271
               4
272
               4
273
               8
274
               4
275
               0
280
               0
281
               0
282
               0
283
               1
284
               0
285
               0
286
               0
287
               3
288
               1
340
17
  0
ENDTAB
  0
TABLE
  2
BLOCK_RECORD
  5
1
100
AcDbSymbolTable
 70
               5
  0
BLOCK_RECORD
  5
A
100
AcDbSymbolTableRecord
100
AcDbBlockTableRecord
  2
*MODEL_SPACE
  0
BLOCK_RECORD
  5
B
100
AcDbSymbolTableRecord
100
AcDbBlockTableRecord
  2
*PAPER_SPACE
  0
BLOCK_RECORD
  5
1E
100
AcDbSymbolTableRecord
100
AcDbBlockTableRecord
  2
MS_1
  0
BLOCK_RECORD
  5
1F
100
AcDbSymbolTableRecord
100
AcDbBlockTableRecord
  2
MS_2
  0
BLOCK_RECORD
  5
20
100
AcDbSymbolTableRecord
100
AcDbBlockTableRecord
  2
MS_3
  0
BLOCK_RECORD
  5
21
100
AcDbSymbolTableRecord
100
AcDbBlockTableRecord
  2
MS_4
  0
BLOCK_RECORD
  5
22
100
AcDbSymbolTableRecord
100
AcDbBlockTableRecord
  2
MS_5
  0
ENDTAB
  0
ENDSEC
  0
SECTION
  2
BLOCKS
  0
BLOCK
  5
D
100
AcDbEntity
  8
0
100
AcDbBlockBegin
  2
*MODEL_SPACE
 70
               0
 10
0.0
 20
0.0
 30
0.0
  3
*MODEL_SPACE
  1

  0
ENDBLK
  5
E
100
AcDbEntity
  8
0
100
AcDbBlockEnd
  0
BLOCK
  5
F
100
AcDbEntity
 67
               1
  8
0
100
AcDbBlockBegin
  2
*PAPER_SPACE
 70
               0
 10
0.0
 20
0.0
 30
0.0
  3
*PAPER_SPACE
  1

  0
ENDBLK
  5
10
100
AcDbEntity
 67
               1
  8
0
100
AcDbBlockEnd
  0
BLOCK
  5
23
100
AcDbEntity
  8
0
100
AcDbBlockBegin
  2
MS_1
 70
               0
 10
0.0
 20
0.0
 30
0.0
  3
MS_1
  1

  0
LINE
  5
24
100
AcDbEntity
  8
0
  6
CONTINUOUS
 62
               7
100
AcDbLine
 10
-31.5
 20
5.5
 30
0.0
 11
-4.5
 21
5.5
 31
0.0
  0
LINE
  5
25
100
AcDbEntity
  8
0
  6
CONTINUOUS
 62
               7
100
AcDbLine
 10
-31.5
 20
-31.0
 30
0.0
 11
-4.5
 21
-31.0
 31
0.0
  0
LINE
  5
26
100
AcDbEntity
  8
0
  6
CONTINUOUS
 62
               4
100
AcDbLine
 10
-31.5
 20
50.5
 30
0.0
 11
-31.5
 21
5.5
 31
0.0
  0
LINE
  5
27
100
AcDbEntity
  8
0
  6
CONTINUOUS
 62
               4
100
AcDbLine
 10
-4.5
 20
50.5
 30
0.0
 11
-4.5
 21
5.5
 31
0.0
  0
LINE
  5
28
100
AcDbEntity
  8
0
  6
CONTINUOUS
 62
               7
100
AcDbLine
 10
-32.0
 20
-36.0
 30
0.0
 11
5.0
 21
-36.0
 31
0.0
  0
LINE
  5
29
100
AcDbEntity
  8
0
  6
CONTINUOUS
 62
               7
100
AcDbLine
 10
-32.0
 20
4.0
 30
0.0
 11
-32.0
 21
-36.0
 31
0.0
  0
LINE
  5
2A
100
AcDbEntity
  8
0
  6
CONTINUOUS
 62
               7
100
AcDbLine
 10
5.0
 20
4.0
 30
0.0
 11
5.0
 21
-36.0
 31
0.0
  0
LINE
  5
2B
100
AcDbEntity
  8
0
  6
CONTINUOUS
 62
               7
100
AcDbLine
 10
-32.0
 20
4.0
 30
0.0
 11
-31.5
 21
4.0
 31
0.0
  0
LINE
  5
2C
100
AcDbEntity
  8
0
  6
CONTINUOUS
 62
               7
100
AcDbLine
 10
-4.5
 20
4.0
 30
0.0
 11
5.0
 21
4.0
 31
0.0
  0
LINE
  5
2E
100
AcDbEntity
  8
0
  6
CENTER
 62
               2
100
AcDbLine
 10
-18.0
 20
56.399999999999999
 30
0.0
 11
-18.0
 21
-39.630000000000003
 31
0.0
  0
LINE
  5
2F
100
AcDbEntity
  8
0
  6
CENTER
 62
               2
100
AcDbLine
 10
-3.0
 20
0.0
 30
0.0
 11
3.1400000000000001
 21
0.0
 31
0.0
  0
LINE
  5
30
100
AcDbEntity
  8
0
  6
CENTER
 62
               2
100
AcDbLine
 10
-3.6800000000000002
 20
-32.0
 30
0.0
 11
3.4500000000000002
 21
-32.0
 31
0.0
  0
LINE
  5
31
100
AcDbEntity
  8
0
  6
CONTINUOUS
 62
               4
100
AcDbLine
 10
-27.0
 20
51.5
 30
0.0
 11
-28.0
 21
50.5
 31
0.0
  0
LINE
  5
32
100
AcDbEntity
  8
0
  6
CONTINUOUS
 62
               4
100
AcDbLine
 10
-31.5
 20
50.5
 30
0.0
 11
-4.5
 21
50.5
 31
0.0
  0
LINE
  5
33
100
AcDbEntity
  8
0
  6
CONTINUOUS
 62
               4
100
AcDbLine
 10
-31.5
 20
47.700000000000003
 30
0.0
 11
-25.0
 21
47.700000000000003
 31
0.0
  0
LINE
  5
34
100
AcDbEntity
  8
0
  6
CONTINUOUS
 62
               4
100
AcDbLine
 10
-25.0
 20
50.5
 30
0.0
 11
-25.0
 21
47.700000000000003
 31
0.0
  0
LINE
  5
35
100
AcDbEntity
  8
0
  6
CONTINUOUS
 62
               4
100
AcDbLine
 10
-30.75
 20
49.229999999999997
 30
0.0
 11
-30.75
 21
47.700000000000003
 31
0.0
  0
LINE
  5
36
100
AcDbEntity
  8
0
  6
CONTINUOUS
 62
               4
100
AcDbLine
 10
-25.75
 20
48.399999999999999
 30
0.0
 11
-30.75
 21
48.399999999999999
 31
0.0
  0
LINE
  5
37
100
AcDbEntity
  8
0
  6
CONTINUOUS
 62
               4
100
AcDbLine
 10
-25.75
 20
49.229999999999997
 30
0.0
 11
-25.75
 21
47.700000000000003
 31
0.0
  0
LINE
  5
38
100
AcDbEntity
  8
0
  6
CONTINUOUS
 62
               4
100
AcDbLine
 10
-27.0
 20
51.5
 30
0.0
 11
-9.0
 21
51.5
 31
0.0
  0
LINE
  5
39
100
AcDbEntity
  8
0
  6
CONTINUOUS
 62
               4
100
AcDbLine
 10
-9.0
 20
51.5
 30
0.0
 11
-8.0
 21
50.5
 31
0.0
  0
LINE
  5
3A
100
AcDbEntity
  8
0
  6
CONTINUOUS
 62
               7
100
AcDbLine
 10
-31.5
 20
5.5
 30
0.0
 11
-31.5
 21
-31.0
 31
0.0
  0
LINE
  5
3B
100
AcDbEntity
  8
0
  6
CONTINUOUS
 62
               7
100
AcDbLine
 10
-4.5
 20
5.5
 30
0.0
 11
-4.5
 21
-31.0
 31
0.0
  0
LINE
  5
3C
100
AcDbEntity
  8
0
  6
CENTER
 62
               2
100
AcDbLine
 10
0.0
 20
3.1499999999999999
 30
0.0
 11
0.0
 21
-35.579999999999998
 31
0.0
  0
LINE
  5
3D
100
AcDbEntity
  8
0
  6
CONTINUOUS
 62
               7
100
AcDbLine
 10
-28.059999999999999
 20
-7.0599999999999996
 30
0.0
 11
-25.93
 21
-4.9299999999999997
 31
0.0
  0
LINE
  5
3E
100
AcDbEntity
  8
0
  6
CONTINUOUS
 62
               7
100
AcDbLine
 10
-28.059999999999999
 20
-4.9299999999999997
 30
0.0
 11
-25.93
 21
-7.0599999999999996
 31
0.0
  0
LINE
  5
3F
100
AcDbEntity
  8
0
  6
CONTINUOUS
 62
               7
100
AcDbLine
 10
-10.06
 20
-27.059999999999999
 30
0.0
 11
-7.9299999999999997
 21
-24.93
 31
0.0
  0
LINE
  5
40
100
AcDbEntity
  8
0
  6
CONTINUOUS
 62
               7
100
AcDbLine
 10
-10.06
 20
-24.93
 30
0.0
 11
-7.9299999999999997
 21
-27.059999999999999
 31
0.0
  0
CIRCLE
  5
41
100
AcDbEntity
  8
0
  6
CONTINUOUS
 62
               7
100
AcDbCircle
 10
-27.0
 20
-6.0
 30
0.0
 40
3.25
  0
CIRCLE
  5
42
100
AcDbEntity
  8
0
  6
CONTINUOUS
 62
               7
100
AcDbCircle
 10
-9.0
 20
-26.0
 30
0.0
 40
3.25
  0
CIRCLE
  5
43
100
AcDbEntity
  8
0
  6
CONTINUOUS
 62
               7
100
AcDbCircle
 10
0.0
 20
0.0
 30
0.0
 40
2.25
  0
CIRCLE
  5
44
100
AcDbEntity
  8
0
  6
CONTINUOUS
 62
               7
100
AcDbCircle
 10
0.0
 20
-32.0
 30
0.0
 40
2.25
  0
CIRCLE
  5
45
100
AcDbEntity
  8
0
  6
CONTINUOUS
 62
               7
100
AcDbCircle
 10
-26.999984741210938
 20
-5.9999980926513672
 30
0.0
 40
2.7999992370605469
  0
CIRCLE
  5
46
100
AcDbEntity
  8
0
  6
CONTINUOUS
 62
               7
100
AcDbCircle
 10
-8.9999961853027344
 20
-25.999984741210937
 30
0.0
 40
2.7999992370605469
  0
ARC
  5
47
100
AcDbEntity
  8
0
  6
CONTINUOUS
 62
               4
100
AcDbCircle
 10
-28.25
 20
47.395294189453125
 30
0.0
 40
3.1009910369516476
100
AcDbArc
 50
36.274287133354939
 51
143.72571286664464
  0
ENDBLK
  5
48
100
AcDbEntity
  8
0
100
AcDbBlockEnd
  0
BLOCK
  5
49
100
AcDbEntity
  8
0
100
AcDbBlockBegin
  2
MS_2
 70
               0
 10
0.0
 20
0.0
 30
0.0
  3
MS_2
  1

  0
LINE
  5
4A
100
AcDbEntity
  8
0
  6
CONTINUOUS
 62
               4
100
AcDbLine
 10
28.0
 20
50.5
 30
0.0
 11
28.0
 21
5.5
 31
0.0
  0
LINE
  5
4B
100
AcDbEntity
  8
0
  6
CONTINUOUS
 62
               7
100
AcDbLine
 10
28.0
 20
5.5
 30
0.0
 11
65.0
 21
5.5
 31
0.0
  0
LINE
  5
4C
100
AcDbEntity
  8
0
  6
CONTINUOUS
 62
               7
100
AcDbLine
 10
28.0
 20
-31.0
 30
0.0
 11
65.0
 21
-31.0
 31
0.0
  0
LINE
  5
4D
100
AcDbEntity
  8
0
  6
CONTINUOUS
 62
               7
100
AcDbLine
 10
27.0
 20
4.0
 30
0.0
 11
27.0
 21
-1.0
 31
0.0
  0
LINE
  5
4E
100
AcDbEntity
  8
0
  6
CONTINUOUS
 62
               7
100
AcDbLine
 10
0.0
 20
-36.0
 30
0.0
 11
27.0
 21
-36.0
 31
0.0
  0
LINE
  5
4F
100
AcDbEntity
  8
0
  6
CONTINUOUS
 62
               7
100
AcDbLine
 10
0.0
 20
4.0
 30
0.0
 11
0.0
 21
-36.0
 31
0.0
  0
LINE
  5
50
100
AcDbEntity
  8
0
  6
CONTINUOUS
 62
               7
100
AcDbLine
 10
0.0
 20
4.0
 30
0.0
 11
27.0
 21
4.0
 31
0.0
  0
LINE
  5
51
100
AcDbEntity
  8
0
  6
CONTINUOUS
 62
               7
100
AcDbLine
 10
27.0
 20
-30.0
 30
0.0
 11
28.0
 21
-30.0
 31
0.0
  0
LINE
  5
52
100
AcDbEntity
  8
0
  6
CONTINUOUS
 62
               7
100
AcDbLine
 10
27.0
 20
-1.0
 30
0.0
 11
28.0
 21
-1.0
 31
0.0
  0
LINE
  5
53
100
AcDbEntity
  8
0
  6
CENTER
 62
               2
100
AcDbLine
 10
4.5199999999999996
 20
-26.0
 30
0.0
 11
11.42
 21
-26.0
 31
0.0
  0
LINE
  5
54
100
AcDbEntity
  8
0
  6
CENTER
 62
               2
100
AcDbLine
 10
13.970000000000001
 20
-16.0
 30
0.0
 11
27.0
 21
-16.0
 31
0.0
  0
LINE
  5
55
100
AcDbEntity
  8
0
  6
CENTER
 62
               2
100
AcDbLine
 10
2.1699999999999999
 20
-6.0
 30
0.0
 11
13.9
 21
-6.0
 31
0.0
  0
LINE
  5
56
100
AcDbEntity
  8
0
  6
CENTER
 62
               2
100
AcDbLine
 10
8.0
 20
-0.69
 30
0.0
 11
8.0
 21
-12.33
 31
0.0
  0
LINE
  5
57
100
AcDbEntity
  8
0
  6
CENTER
 62
               2
100
AcDbLine
 10
21.0
 20
-8.8200000000000003
 30
0.0
 11
21.0
 21
-23.550000000000001
 31
0.0
  0
LINE
  5
58
100
AcDbEntity
  8
0
  6
CONTINUOUS
 62
               7
100
AcDbLine
 10
27.0
 20
-1.0
 30
0.0
 11
27.0
 21
-30.0
 31
0.0
  0
LINE
  5
59
100
AcDbEntity
  8
0
  6
CONTINUOUS
 62
               7
100
AcDbLine
 10
27.0
 20
-30.0
 30
0.0
 11
27.0
 21
-36.0
 31
0.0
  0
LINE
  5
5A
100
AcDbEntity
  8
0
  6
CONTINUOUS
 62
               4
100
AcDbLine
 10
65.0
 20
50.5
 30
0.0
 11
65.0
 21
5.5
 31
0.0
  0
LINE
  5
5B
100
AcDbEntity
  8
0
  6
CONTINUOUS
 62
               4
100
AcDbLine
 10
28.0
 20
50.5
 30
0.0
 11
65.0
 21
50.5
 31
0.0
  0
LINE
  5
5C
100
AcDbEntity
  8
0
  6
CONTINUOUS
 62
               4
100
AcDbLine
 10
55.5
 20
50.5
 30
0.0
 11
55.5
 21
47.700000000000003
 31
0.0
  0
LINE
  5
5D
100
AcDbEntity
  8
0
  6
CONTINUOUS
 62
               4
100
AcDbLine
 10
55.5
 20
47.700000000000003
 30
0.0
 11
65.0
 21
47.700000000000003
 31
0.0
  0
LINE
  5
5E
100
AcDbEntity
  8
0
  6
CONTINUOUS
 62
               4
100
AcDbLine
 10
25.0
 20
35.5
 30
0.0
 11
25.0
 21
30.5
 31
0.0
  0
LINE
  5
5F
100
AcDbEntity
  8
0
  6
CONTINUOUS
 62
               4
100
AcDbLine
 10
25.0
 20
35.5
 30
0.0
 11
28.0
 21
35.5
 31
0.0
  0
LINE
  5
60
100
AcDbEntity
  8
0
  6
CONTINUOUS
 62
               4
100
AcDbLine
 10
25.0
 20
30.5
 30
0.0
 11
28.0
 21
30.5
 31
0.0
  0
LINE
  5
61
100
AcDbEntity
  8
0
  6
CONTINUOUS
 62
               4
100
AcDbLine
 10
55.5
 20
51.5
 30
0.0
 11
37.5
 21
51.5
 31
0.0
  0
LINE
  5
62
100
AcDbEntity
  8
0
  6
CONTINUOUS
 62
               4
100
AcDbLine
 10
37.5
 20
51.5
 30
0.0
 11
36.5
 21
50.5
 31
0.0
  0
LINE
  5
63
100
AcDbEntity
  8
0
  6
CONTINUOUS
 62
               4
100
AcDbLine
 10
55.5
 20
51.5
 30
0.0
 11
56.5
 21
50.5
 31
0.0
  0
LINE
  5
64
100
AcDbEntity
  8
0
  6
CONTINUOUS
 62
               4
100
AcDbLine
 10
12.25
 20
34.25
 30
0.0
 11
17.609999999999999
 21
34.25
 31
0.0
  0
LINE
  5
65
100
AcDbEntity
  8
0
  6
CONTINUOUS
 62
               4
100
AcDbLine
 10
12.25
 20
31.75
 30
0.0
 11
19.059999999999999
 21
31.75
 31
0.0
  0
LINE
  5
66
100
AcDbEntity
  8
0
  6
CONTINUOUS
 62
               4
100
AcDbLine
 10
18.609999999999999
 20
34.25
 30
0.0
 11
25.0
 21
34.25
 31
0.0
  0
LINE
  5
67
100
AcDbEntity
  8
0
  6
CONTINUOUS
 62
               4
100
AcDbLine
 10
20.059999999999999
 20
31.75
 30
0.0
 11
25.0
 21
31.75
 31
0.0
  0
LINE
  5
68
100
AcDbEntity
  8
0
  6
CONTINUOUS
 62
               4
100
AcDbLine
 10
12.25
 20
34.25
 30
0.0
 11
12.25
 21
31.75
 31
0.0
  0
LINE
  5
69
100
AcDbEntity
  8
0
  6
CONTINUOUS
 62
               4
100
AcDbLine
 10
6.29
 20
33.5
 30
0.0
 11
12.25
 21
33.5
 31
0.0
  0
LINE
  5
6A
100
AcDbEntity
  8
0
  6
CONTINUOUS
 62
               4
100
AcDbLine
 10
6.29
 20
32.5
 30
0.0
 11
12.25
 21
32.5
 31
0.0
  0
LINE
  5
6B
100
AcDbEntity
  8
0
  6
CONTINUOUS
 62
               4
100
AcDbLine
 10
6.29
 20
33.5
 30
0.0
 11
6.29
 21
32.5
 31
0.0
  0
LINE
  5
6C
100
AcDbEntity
  8
0
  6
CONTINUOUS
 62
               7
100
AcDbLine
 10
28.0
 20
5.5
 30
0.0
 11
28.0
 21
-31.0
 31
0.0
  0
LINE
  5
6D
100
AcDbEntity
  8
0
  6
CONTINUOUS
 62
               7
100
AcDbLine
 10
65.0
 20
5.5
 30
0.0
 11
65.0
 21
-31.0
 31
0.0
  0
LINE
  5
6E
100
AcDbEntity
  8
0
  6
CENTER
 62
               2
100
AcDbLine
 10
-2.9399999999999999
 20
-32.0
 30
0.0
 11
2.7400000000000002
 21
-32.0
 31
0.0
  0
LINE
  5
6F
100
AcDbEntity
  8
0
  6
CENTER
 62
               2
100
AcDbLine
 10
-2.9399999999999999
 20
0.0
 30
0.0
 11
2.7400000000000002
 21
0.0
 31
0.0
  0
LINE
  5
70
100
AcDbEntity
  8
0
  6
CONTINUOUS
 62
             200
100
AcDbLine
 10
15.31
 20
38.240000000000002
 30
0.0
 11
21.109999999999999
 21
28.199999999999999
 31
0.0
  0
LINE
  5
71
100
AcDbEntity
  8
0
  6
CONTINUOUS
 62
             200
100
AcDbLine
 10
16.309999999999999
 20
38.240000000000002
 30
0.0
 11
22.109999999999999
 21
28.199999999999999
 31
0.0
  0
LINE
  5
72
100
AcDbEntity
  8
0
  6
CENTER
 62
               2
100
AcDbLine
 10
8.0
 20
-22.329999999999998
 30
0.0
 11
8.0
 21
-29.530000000000001
 31
0.0
  0
LINE
  5
73
100
AcDbEntity
  8
0
  6
CONTINUOUS
 62
               4
100
AcDbLine
 10
57.75
 20
49.229999999999997
 30
0.0
 11
57.75
 21
47.700000000000003
 31
0.0
  0
LINE
  5
74
100
AcDbEntity
  8
0
  6
CONTINUOUS
 62
               4
100
AcDbLine
 10
62.75
 20
48.399999999999999
 30
0.0
 11
57.75
 21
48.399999999999999
 31
0.0
  0
LINE
  5
75
100
AcDbEntity
  8
0
  6
CONTINUOUS
 62
               4
100
AcDbLine
 10
62.75
 20
49.229999999999997
 30
0.0
 11
62.75
 21
47.700000000000003
 31
0.0
  0
LINE
  5
76
100
AcDbEntity
  8
0
  6
CENTER
 62
               2
100
AcDbLine
 10
46.5
 20
57.0
 30
0.0
 11
46.5
 21
-35.5
 31
0.0
  0
ARC
  5
77
100
AcDbEntity
  8
0
  6
CONTINUOUS
 62
               4
100
AcDbCircle
 10
60.25
 20
47.395294189453125
 30
0.0
 40
3.1009910369516476
100
AcDbArc
 50
36.274287133354939
 51
143.72571286664464
  0
CIRCLE
  5
78
100
AcDbEntity
  8
0
  6
CONTINUOUS
 62
               7
100
AcDbCircle
 10
8.0
 20
-26.0
 30
0.0
 40
2.0
  0
CIRCLE
  5
79
100
AcDbEntity
  8
0
  6
CONTINUOUS
 62
               7
100
AcDbCircle
 10
21.0
 20
-16.0
 30
0.0
 40
4.2779998779296875
  0
CIRCLE
  5
7A
100
AcDbEntity
  8
0
  6
CONTINUOUS
 62
               2
100
AcDbCircle
 10
21.0
 20
-16.0
 30
0.0
 40
4.8639993667602539
  0
CIRCLE
  5
7B
100
AcDbEntity
  8
0
  6
CONTINUOUS
 62
               7
100
AcDbCircle
 10
8.0
 20
-6.0
 30
0.0
 40
4.2779998779296875
  0
CIRCLE
  5
7C
100
AcDbEntity
  8
0
  6
CONTINUOUS
 62
               2
100
AcDbCircle
 10
8.0
 20
-6.0
 30
0.0
 40
4.8639993667602539
  0
CIRCLE
  5
7D
100
AcDbEntity
  8
0
  6
CONTINUOUS
 62
               2
100
AcDbCircle
 10
8.0
 20
-26.0
 30
0.0
 40
2.5
  0
ENDBLK
  5
7E
100
AcDbEntity
  8
0
100
AcDbBlockEnd
  0
BLOCK
  5
7F
100
AcDbEntity
  8
0
100
AcDbBlockBegin
  2
MS_3
 70
               0
 10
0.0
 20
0.0
 30
0.0
  3
MS_3
  1

  0
LINE
  5
80
100
AcDbEntity
  8
0
  6
CONTINUOUS
 62
               4
100
AcDbLine
 10
-65.0
 20
50.5
 30
0.0
 11
-65.0
 21
5.5
 31
0.0
  0
LINE
  5
81
100
AcDbEntity
  8
0
  6
CONTINUOUS
 62
               7
100
AcDbLine
 10
-28.0
 20
5.5
 30
0.0
 11
-65.0
 21
5.5
 31
0.0
  0
LINE
  5
82
100
AcDbEntity
  8
0
  6
CONTINUOUS
 62
               7
100
AcDbLine
 10
-28.0
 20
-31.0
 30
0.0
 11
-65.0
 21
-31.0
 31
0.0
  0
LINE
  5
83
100
AcDbEntity
  8
0
  6
CONTINUOUS
 62
               7
100
AcDbLine
 10
-27.0
 20
4.0
 30
0.0
 11
-27.0
 21
-1.0
 31
0.0
  0
LINE
  5
84
100
AcDbEntity
  8
0
  6
CONTINUOUS
 62
               7
100
AcDbLine
 10
0.0
 20
4.0
 30
0.0
 11
0.0
 21
-36.0
 31
0.0
  0
LINE
  5
85
100
AcDbEntity
  8
0
  6
CONTINUOUS
 62
               7
100
AcDbLine
 10
0.0
 20
-36.0
 30
0.0
 11
-27.0
 21
-36.0
 31
0.0
  0
LINE
  5
86
100
AcDbEntity
  8
0
  6
CONTINUOUS
 62
               7
100
AcDbLine
 10
0.0
 20
4.0
 30
0.0
 11
-27.0
 21
4.0
 31
0.0
  0
LINE
  5
87
100
AcDbEntity
  8
0
  6
CONTINUOUS
 62
               7
100
AcDbLine
 10
-27.0
 20
-30.0
 30
0.0
 11
-28.0
 21
-30.0
 31
0.0
  0
LINE
  5
88
100
AcDbEntity
  8
0
  6
CONTINUOUS
 62
               7
100
AcDbLine
 10
-27.0
 20
-1.0
 30
0.0
 11
-28.0
 21
-1.0
 31
0.0
  0
LINE
  5
89
100
AcDbEntity
  8
0
  6
CENTER
 62
               2
100
AcDbLine
 10
-13.5
 20
-3.75
 30
0.0
 11
-13.5
 21
-18.73
 31
0.0
  0
LINE
  5
8A
100
AcDbEntity
  8
0
  6
CENTER
 62
               2
100
AcDbLine
 10
-6.5899999999999999
 20
-11.0
 30
0.0
 11
-20.43
 21
-11.0
 31
0.0
  0
LINE
  5
8B
100
AcDbEntity
  8
0
  6
CONTINUOUS
 62
               7
100
AcDbLine
 10
-27.0
 20
-30.0
 30
0.0
 11
-27.0
 21
-36.0
 31
0.0
  0
LINE
  5
8C
100
AcDbEntity
  8
0
  6
CONTINUOUS
 62
               7
100
AcDbLine
 10
-27.0
 20
-1.0
 30
0.0
 11
-27.0
 21
-30.0
 31
0.0
  0
LINE
  5
8D
100
AcDbEntity
  8
0
  6
CONTINUOUS
 62
               4
100
AcDbLine
 10
-28.0
 20
50.5
 30
0.0
 11
-28.0
 21
5.5
 31
0.0
  0
LINE
  5
8E
100
AcDbEntity
  8
0
  6
CONTINUOUS
 62
               4
100
AcDbLine
 10
-28.0
 20
50.5
 30
0.0
 11
-65.0
 21
50.5
 31
0.0
  0
LINE
  5
8F
100
AcDbEntity
  8
0
  6
CONTINUOUS
 62
               4
100
AcDbLine
 10
-37.5
 20
50.5
 30
0.0
 11
-37.5
 21
47.700000000000003
 31
0.0
  0
LINE
  5
90
100
AcDbEntity
  8
0
  6
CONTINUOUS
 62
               4
100
AcDbLine
 10
-37.5
 20
47.700000000000003
 30
0.0
 11
-28.0
 21
47.700000000000003
 31
0.0
  0
LINE
  5
91
100
AcDbEntity
  8
0
  6
CONTINUOUS
 62
               4
100
AcDbLine
 10
-37.5
 20
51.5
 30
0.0
 11
-36.5
 21
50.5
 31
0.0
  0
LINE
  5
92
100
AcDbEntity
  8
0
  6
CONTINUOUS
 62
               4
100
AcDbLine
 10
-37.5
 20
51.5
 30
0.0
 11
-55.5
 21
51.5
 31
0.0
  0
LINE
  5
93
100
AcDbEntity
  8
0
  6
CONTINUOUS
 62
               4
100
AcDbLine
 10
-55.5
 20
51.5
 30
0.0
 11
-56.5
 21
50.5
 31
0.0
  0
LINE
  5
94
100
AcDbEntity
  8
0
  6
CONTINUOUS
 62
               4
100
AcDbLine
 10
-25.0
 20
35.5
 30
0.0
 11
-25.0
 21
30.5
 31
0.0
  0
LINE
  5
95
100
AcDbEntity
  8
0
  6
CONTINUOUS
 62
               4
100
AcDbLine
 10
-25.0
 20
35.5
 30
0.0
 11
-28.0
 21
35.5
 31
0.0
  0
LINE
  5
96
100
AcDbEntity
  8
0
  6
CONTINUOUS
 62
               4
100
AcDbLine
 10
-25.0
 20
30.5
 30
0.0
 11
-28.0
 21
30.5
 31
0.0
  0
LINE
  5
97
100
AcDbEntity
  8
0
  6
CONTINUOUS
 62
               4
100
AcDbLine
 10
-12.25
 20
34.25
 30
0.0
 11
-18.940000000000001
 21
34.25
 31
0.0
  0
LINE
  5
98
100
AcDbEntity
  8
0
  6
CONTINUOUS
 62
               4
100
AcDbLine
 10
-12.25
 20
31.75
 30
0.0
 11
-17.5
 21
31.75
 31
0.0
  0
LINE
  5
99
100
AcDbEntity
  8
0
  6
CONTINUOUS
 62
               4
100
AcDbLine
 10
-19.940000000000001
 20
34.25
 30
0.0
 11
-25.0
 21
34.25
 31
0.0
  0
LINE
  5
9A
100
AcDbEntity
  8
0
  6
CONTINUOUS
 62
               4
100
AcDbLine
 10
-18.5
 20
31.75
 30
0.0
 11
-25.0
 21
31.75
 31
0.0
  0
LINE
  5
9B
100
AcDbEntity
  8
0
  6
CONTINUOUS
 62
               4
100
AcDbLine
 10
-12.25
 20
34.25
 30
0.0
 11
-12.25
 21
31.75
 31
0.0
  0
LINE
  5
9C
100
AcDbEntity
  8
0
  6
CONTINUOUS
 62
               4
100
AcDbLine
 10
-6.29
 20
33.5
 30
0.0
 11
-12.25
 21
33.5
 31
0.0
  0
LINE
  5
9D
100
AcDbEntity
  8
0
  6
CONTINUOUS
 62
               4
100
AcDbLine
 10
-6.29
 20
32.5
 30
0.0
 11
-12.25
 21
32.5
 31
0.0
  0
LINE
  5
9E
100
AcDbEntity
  8
0
  6
CONTINUOUS
 62
               4
100
AcDbLine
 10
-6.29
 20
33.5
 30
0.0
 11
-6.29
 21
32.5
 31
0.0
  0
LINE
  5
9F
100
AcDbEntity
  8
0
  6
CONTINUOUS
 62
               7
100
AcDbLine
 10
-65.0
 20
5.5
 30
0.0
 11
-65.0
 21
-31.0
 31
0.0
  0
LINE
  5
A0
100
AcDbEntity
  8
0
  6
CONTINUOUS
 62
               7
100
AcDbLine
 10
-28.0
 20
5.5
 30
0.0
 11
-28.0
 21
-31.0
 31
0.0
  0
LINE
  5
A1
100
AcDbEntity
  8
0
  6
CONTINUOUS
 62
             200
100
AcDbLine
 10
-21.84
 20
37.530000000000001
 30
0.0
 11
-16.420000000000002
 21
28.149999999999999
 31
0.0
  0
LINE
  5
A2
100
AcDbEntity
  8
0
  6
CONTINUOUS
 62
             200
100
AcDbLine
 10
-20.84
 20
37.530000000000001
 30
0.0
 11
-15.42
 21
28.149999999999999
 31
0.0
  0
LINE
  5
A3
100
AcDbEntity
  8
0
  6
CENTER
 62
               2
100
AcDbLine
 10
-2.4399999999999999
 20
-32.0
 30
0.0
 11
2.73
 21
-32.0
 31
0.0
  0
LINE
  5
A4
100
AcDbEntity
  8
0
  6
CENTER
 62
               2
100
AcDbLine
 10
-2.4399999999999999
 20
0.0
 30
0.0
 11
2.73
 21
0.0
 31
0.0
  0
LINE
  5
A5
100
AcDbEntity
  8
0
  6
CONTINUOUS
 62
               4
100
AcDbLine
 10
-35.25
 20
49.229999999999997
 30
0.0
 11
-35.25
 21
47.700000000000003
 31
0.0
  0
LINE
  5
A6
100
AcDbEntity
  8
0
  6
CONTINUOUS
 62
               4
100
AcDbLine
 10
-30.25
 20
48.399999999999999
 30
0.0
 11
-35.25
 21
48.399999999999999
 31
0.0
  0
LINE
  5
A7
100
AcDbEntity
  8
0
  6
CONTINUOUS
 62
               4
100
AcDbLine
 10
-30.25
 20
49.229999999999997
 30
0.0
 11
-30.25
 21
47.700000000000003
 31
0.0
  0
LINE
  5
A8
100
AcDbEntity
  8
0
  6
CENTER
 62
               2
100
AcDbLine
 10
-46.5
 20
57.0
 30
0.0
 11
-46.5
 21
-35.5
 31
0.0
  0
ARC
  5
A9
100
AcDbEntity
  8
0
  6
CONTINUOUS
 62
               4
100
AcDbCircle
 10
-32.75
 20
47.395278930664062
 30
0.0
 40
3.1010000648605596
100
AcDbArc
 50
36.274514423404938
 51
143.72548557659465
  0
CIRCLE
  5
AA
100
AcDbEntity
  8
0
  6
CONTINUOUS
 62
               7
100
AcDbCircle
 10
-13.5
 20
-11.0
 30
0.0
 40
4.2779998779296875
  0
CIRCLE
  5
AB
100
AcDbEntity
  8
0
  6
CONTINUOUS
 62
               2
100
AcDbCircle
 10
-13.5
 20
-11.0
 30
0.0
 40
4.8639993667602539
  0
ENDBLK
  5
AC
100
AcDbEntity
  8
0
100
AcDbBlockEnd
  0
BLOCK
  5
AD
100
AcDbEntity
  8
0
100
AcDbBlockBegin
  2
MS_4
 70
               0
 10
0.0
 20
0.0
 30
0.0
  3
MS_4
  1

  0
LINE
  5
AE
100
AcDbEntity
  8
0
  6
CONTINUOUS
 62
               7
100
AcDbLine
 10
5.0
 20
0.0
 30
0.0
 11
5.0
 21
-25.0
 31
0.0
  0
LINE
  5
AF
100
AcDbEntity
  8
0
  6
CONTINUOUS
 62
               7
100
AcDbLine
 10
-32.0
 20
0.0
 30
0.0
 11
-32.0
 21
-25.0
 31
0.0
  0
LINE
  5
B0
100
AcDbEntity
  8
0
  6
CONTINUOUS
 62
               7
100
AcDbLine
 10
-32.0
 20
-25.0
 30
0.0
 11
-23.5
 21
-25.0
 31
0.0
  0
LINE
  5
B1
100
AcDbEntity
  8
0
  6
CONTINUOUS
 62
               7
100
AcDbLine
 10
-32.0
 20
0.0
 30
0.0
 11
-20.649999999999999
 21
0.0
 31
0.0
  0
LINE
  5
B2
100
AcDbEntity
  8
0
  6
CONTINUOUS
 62
               4
100
AcDbLine
 10
-31.5
 20
-26.0
 30
0.0
 11
-31.5
 21
-63.0
 31
0.0
  0
LINE
  5
B3
100
AcDbEntity
  8
0
  6
CONTINUOUS
 62
               4
100
AcDbLine
 10
-4.5
 20
-26.0
 30
0.0
 11
-4.5
 21
-63.0
 31
0.0
  0
LINE
  5
B4
100
AcDbEntity
  8
0
  6
CONTINUOUS
 62
               4
100
AcDbLine
 10
-31.5
 20
-63.0
 30
0.0
 11
-4.5
 21
-63.0
 31
0.0
  0
LINE
  5
B5
100
AcDbEntity
  8
0
  6
CONTINUOUS
 62
               4
100
AcDbLine
 10
-31.5
 20
-26.0
 30
0.0
 11
-4.5
 21
-26.0
 31
0.0
  0
LINE
  5
B6
100
AcDbEntity
  8
0
  6
CONTINUOUS
 62
               7
100
AcDbLine
 10
-12.5
 20
-25.0
 30
0.0
 11
5.0
 21
-25.0
 31
0.0
  0
LINE
  5
B7
100
AcDbEntity
  8
0
  6
CONTINUOUS
 62
               4
100
AcDbLine
 10
-25.0
 20
-57.5
 30
0.0
 11
-25.0
 21
-63.0
 31
0.0
  0
LINE
  5
B8
100
AcDbEntity
  8
0
  6
CONTINUOUS
 62
               4
100
AcDbLine
 10
-31.5
 20
-53.5
 30
0.0
 11
-29.0
 21
-53.5
 31
0.0
  0
LINE
  5
B9
100
AcDbEntity
  8
0
  6
CONTINUOUS
 62
               4
100
AcDbLine
 10
-29.129999999999999
 20
-59.130000000000003
 30
0.0
 11
-27.359999999999999
 21
-57.359999999999999
 31
0.0
  0
LINE
  5
BA
100
AcDbEntity
  8
0
  6
CONTINUOUS
 62
               4
100
AcDbLine
 10
-29.129999999999999
 20
-57.359999999999999
 30
0.0
 11
-27.359999999999999
 21
-59.130000000000003
 31
0.0
  0
LINE
  5
BB
100
AcDbEntity
  8
0
  6
CENTER
 62
               2
100
AcDbLine
 10
-18.0
 20
-24.309999999999999
 30
0.0
 11
-18.0
 21
-65.489999999999995
 31
0.0
  0
LINE
  5
BC
100
AcDbEntity
  8
0
  6
CONTINUOUS
 62
               4
100
AcDbLine
 10
-4.5
 20
-35.5
 30
0.0
 11
-7.0
 21
-35.5
 31
0.0
  0
LINE
  5
BD
100
AcDbEntity
  8
0
  6
CONTINUOUS
 62
               4
100
AcDbLine
 10
-11.0
 20
-31.5
 30
0.0
 11
-11.0
 21
-26.0
 31
0.0
  0
LINE
  5
BE
100
AcDbEntity
  8
0
  6
CONTINUOUS
 62
               4
100
AcDbLine
 10
-6.8600000000000003
 20
-31.629999999999999
 30
0.0
 11
-8.6300000000000008
 21
-29.859999999999999
 31
0.0
  0
LINE
  5
BF
100
AcDbEntity
  8
0
  6
CONTINUOUS
 62
               4
100
AcDbLine
 10
-6.8600000000000003
 20
-29.859999999999999
 30
0.0
 11
-8.6300000000000008
 21
-31.629999999999999
 31
0.0
  0
LINE
  5
C0
100
AcDbEntity
  8
0
  6
CONTINUOUS
 62
               7
100
AcDbLine
 10
-9.0
 20
-25.0
 30
0.0
 11
-9.0
 21
-26.0
 31
0.0
  0
LINE
  5
C1
100
AcDbEntity
  8
0
  6
CONTINUOUS
 62
               7
100
AcDbLine
 10
-27.0
 20
-25.0
 30
0.0
 11
-27.0
 21
-26.0
 31
0.0
  0
LINE
  5
C2
100
AcDbEntity
  8
0
  6
CENTER
 62
               2
100
AcDbLine
 10
0.0
 20
2.5099999999999998
 30
0.0
 11
0.0
 21
-2.6600000000000001
 31
0.0
  0
LINE
  5
C3
100
AcDbEntity
  8
0
  6
CONTINUOUS
 62
               4
100
AcDbLine
 10
-15.0
 20
-4.0
 30
0.0
 11
-15.0
 21
-15.27
 31
0.0
  0
LINE
  5
C4
100
AcDbEntity
  8
0
  6
CONTINUOUS
 62
               4
100
AcDbLine
 10
-17.0
 20
-4.0
 30
0.0
 11
-17.0
 21
-14.109999999999999
 31
0.0
  0
LINE
  5
C5
100
AcDbEntity
  8
0
  6
CONTINUOUS
 62
               4
100
AcDbLine
 10
-19.0
 20
-4.0
 30
0.0
 11
-19.0
 21
-12.960000000000001
 31
0.0
  0
LINE
  5
C6
100
AcDbEntity
  8
0
  6
CONTINUOUS
 62
               4
100
AcDbLine
 10
-21.0
 20
-4.0
 30
0.0
 11
-21.0
 21
-11.800000000000001
 31
0.0
  0
LINE
  5
C7
100
AcDbEntity
  8
0
  6
CONTINUOUS
 62
               4
100
AcDbLine
 10
-19.0
 20
-13.960000000000001
 30
0.0
 11
-19.0
 21
-24.0
 31
0.0
  0
LINE
  5
C8
100
AcDbEntity
  8
0
  6
CONTINUOUS
 62
               4
100
AcDbLine
 10
-21.0
 20
-12.800000000000001
 30
0.0
 11
-21.0
 21
-24.0
 31
0.0
  0
LINE
  5
C9
100
AcDbEntity
  8
0
  6
CONTINUOUS
 62
               4
100
AcDbLine
 10
-17.0
 20
-15.109999999999999
 30
0.0
 11
-17.0
 21
-24.0
 31
0.0
  0
LINE
  5
CA
100
AcDbEntity
  8
0
  6
CONTINUOUS
 62
               4
100
AcDbLine
 10
-15.0
 20
-16.27
 30
0.0
 11
-15.0
 21
-24.0
 31
0.0
  0
LINE
  5
CB
100
AcDbEntity
  8
0
  6
CONTINUOUS
 62
               4
100
AcDbLine
 10
-19.0
 20
-4.0
 30
0.0
 11
-21.0
 21
-4.0
 31
0.0
  0
LINE
  5
CC
100
AcDbEntity
  8
0
  6
CONTINUOUS
 62
               4
100
AcDbLine
 10
-15.0
 20
-4.0
 30
0.0
 11
-17.0
 21
-4.0
 31
0.0
  0
LINE
  5
CD
100
AcDbEntity
  8
0
  6
CONTINUOUS
 62
               4
100
AcDbLine
 10
-16.649999999999999
 20
1.0
 30
0.0
 11
-16.649999999999999
 21
-4.0
 31
0.0
  0
LINE
  5
CE
100
AcDbEntity
  8
0
  6
CONTINUOUS
 62
               4
100
AcDbLine
 10
-15.34
 20
1.0
 30
0.0
 11
-15.34
 21
-4.0
 31
0.0
  0
LINE
  5
CF
100
AcDbEntity
  8
0
  6
CONTINUOUS
 62
               4
100
AcDbLine
 10
-19.34
 20
1.0
 30
0.0
 11
-19.34
 21
-4.0
 31
0.0
  0
LINE
  5
D0
100
AcDbEntity
  8
0
  6
CONTINUOUS
 62
               4
100
AcDbLine
 10
-20.649999999999999
 20
1.0
 30
0.0
 11
-20.649999999999999
 21
-4.0
 31
0.0
  0
LINE
  5
D1
100
AcDbEntity
  8
0
  6
CONTINUOUS
 62
               4
100
AcDbLine
 10
-15.34
 20
1.0
 30
0.0
 11
-16.649999999999999
 21
1.0
 31
0.0
  0
LINE
  5
D2
100
AcDbEntity
  8
0
  6
CONTINUOUS
 62
               4
100
AcDbLine
 10
-19.34
 20
1.0
 30
0.0
 11
-20.649999999999999
 21
1.0
 31
0.0
  0
LINE
  5
D3
100
AcDbEntity
  8
0
  6
CONTINUOUS
 62
             200
100
AcDbLine
 10
-11.19
 20
-17.460000000000001
 30
0.0
 11
-24.52
 21
-9.7699999999999996
 31
0.0
  0
LINE
  5
D4
100
AcDbEntity
  8
0
  6
CONTINUOUS
 62
             200
100
AcDbLine
 10
-11.19
 20
-18.460000000000001
 30
0.0
 11
-24.699999999999999
 21
-10.66
 31
0.0
  0
LINE
  5
D5
100
AcDbEntity
  8
0
  6
CONTINUOUS
 62
               4
100
AcDbLine
 10
-23.5
 20
-24.0
 30
0.0
 11
-12.5
 21
-24.0
 31
0.0
  0
LINE
  5
D6
100
AcDbEntity
  8
0
  6
CONTINUOUS
 62
               4
100
AcDbLine
 10
-23.5
 20
-24.0
 30
0.0
 11
-23.5
 21
-26.0
 31
0.0
  0
LINE
  5
D7
100
AcDbEntity
  8
0
  6
CONTINUOUS
 62
               4
100
AcDbLine
 10
-12.5
 20
-24.0
 30
0.0
 11
-12.5
 21
-26.0
 31
0.0
  0
LINE
  5
D8
100
AcDbEntity
  8
0
  6
CONTINUOUS
 62
               7
100
AcDbLine
 10
-15.34
 20
0.0
 30
0.0
 11
5.0
 21
0.0
 31
0.0
  0
LINE
  5
D9
100
AcDbEntity
  8
0
  6
CONTINUOUS
 62
               7
100
AcDbLine
 10
-19.34
 20
0.0
 30
0.0
 11
-16.649999999999999
 21
0.0
 31
0.0
  0
CIRCLE
  5
DA
100
AcDbEntity
  8
0
  6
CONTINUOUS
 62
               4
100
AcDbCircle
 10
-28.25
 20
-58.25
 30
0.0
 40
2.5
  0
ARC
  5
DB
100
AcDbEntity
  8
0
  6
CONTINUOUS
 62
               4
100
AcDbCircle
 10
-29.0
 20
-57.5
 30
0.0
 40
4.0
100
AcDbArc
 50
0.0
 51
89.999999999999801
  0
ARC
  5
DC
100
AcDbEntity
  8
0
  6
CONTINUOUS
 62
               4
100
AcDbCircle
 10
-7.0
 20
-31.5
 30
0.0
 40
4.0
100
AcDbArc
 50
179.9999999999996
 51
269.99999999999937
  0
CIRCLE
  5
DD
100
AcDbEntity
  8
0
  6
CONTINUOUS
 62
               4
100
AcDbCircle
 10
-7.75
 20
-30.75
 30
0.0
 40
2.5
  0
CIRCLE
  5
DE
100
AcDbEntity
  8
0
  6
CONTINUOUS
 62
               4
100
AcDbCircle
 10
-18.0
 20
-44.5
 30
0.0
 40
9.0
  0
CIRCLE
  5
DF
100
AcDbEntity
  8
0
  6
CONTINUOUS
 62
               4
100
AcDbCircle
 10
-18.0
 20
-44.5
 30
0.0
 40
9.75
  0
CIRCLE
  5
E0
100
AcDbEntity
  8
0
  6
CONTINUOUS
 62
               4
100
AcDbCircle
 10
-18.0
 20
-44.5
 30
0.0
 40
6.5
  0
ENDBLK
  5
E1
100
AcDbEntity
  8
0
100
AcDbBlockEnd
  0
BLOCK
  5
E2
100
AcDbEntity
  8
0
100
AcDbBlockBegin
  2
MS_5
 70
               0
 10
0.0
 20
0.0
 30
0.0
  3
MS_5
  1

  0
LINE
  5
E3
100
AcDbEntity
  8
0
  6
CONTINUOUS
 62
               7
100
AcDbLine
 10
5.0
 20
0.0
 30
0.0
 11
5.0
 21
25.0
 31
0.0
  0
LINE
  5
E4
100
AcDbEntity
  8
0
  6
CONTINUOUS
 62
               7
100
AcDbLine
 10
-32.0
 20
0.0
 30
0.0
 11
-32.0
 21
25.0
 31
0.0
  0
LINE
  5
E5
100
AcDbEntity
  8
0
  6
CONTINUOUS
 62
               7
100
AcDbLine
 10
-32.0
 20
0.0
 30
0.0
 11
5.0
 21
0.0
 31
0.0
  0
LINE
  5
E6
100
AcDbEntity
  8
0
  6
CONTINUOUS
 62
               7
100
AcDbLine
 10
-31.5
 20
26.0
 30
0.0
 11
-31.5
 21
63.0
 31
0.0
  0
LINE
  5
E7
100
AcDbEntity
  8
0
  6
CONTINUOUS
 62
               7
100
AcDbLine
 10
-4.5
 20
26.0
 30
0.0
 11
-4.5
 21
63.0
 31
0.0
  0
LINE
  5
E8
100
AcDbEntity
  8
0
  6
CONTINUOUS
 62
               7
100
AcDbLine
 10
-31.5
 20
63.0
 30
0.0
 11
-4.5
 21
63.0
 31
0.0
  0
LINE
  5
E9
100
AcDbEntity
  8
0
  6
CONTINUOUS
 62
               7
100
AcDbLine
 10
-31.5
 20
26.0
 30
0.0
 11
-4.5
 21
26.0
 31
0.0
  0
LINE
  5
EA
100
AcDbEntity
  8
0
  6
CONTINUOUS
 62
               7
100
AcDbLine
 10
-32.0
 20
25.0
 30
0.0
 11
5.0
 21
25.0
 31
0.0
  0
LINE
  5
EB
100
AcDbEntity
  8
0
  6
CONTINUOUS
 62
               7
100
AcDbLine
 10
-9.0
 20
25.0
 30
0.0
 11
-9.0
 21
26.0
 31
0.0
  0
LINE
  5
EC
100
AcDbEntity
  8
0
  6
CONTINUOUS
 62
               7
100
AcDbLine
 10
-27.0
 20
25.0
 30
0.0
 11
-27.0
 21
26.0
 31
0.0
  0
LINE
  5
ED
100
AcDbEntity
  8
0
  6
CENTER
 62
               2
100
AcDbLine
 10
-18.0
 20
22.460000000000001
 30
0.0
 11
-18.0
 21
66.75
 31
0.0
  0
LINE
  5
EE
100
AcDbEntity
  8
0
  6
CENTER
 62
               2
100
AcDbLine
 10
0.0
 20
-2.8399999999999999
 30
0.0
 11
0.0
 21
2.4100000000000001
 31
0.0
  0
ENDBLK
  5
EF
100
AcDbEntity
  8
0
100
AcDbBlockEnd
  0
ENDSEC
  0
SECTION
  2
ENTITIES
  0
INSERT
  5
F0
100
AcDbEntity
  8
0
100
AcDbBlockReference
  2
MS_1
 10
8.0267105102539062
 20
-9.58160400390625
 30
0.0
  0
INSERT
  5
F1
100
AcDbEntity
  8
0
100
AcDbBlockReference
  2
MS_2
 10
-149.97329711914062
 20
-9.58160400390625
 30
0.0
  0
INSERT
  5
F2
100
AcDbEntity
  8
0
100
AcDbBlockReference
  2
MS_3
 10
148.02670288085937
 20
-9.58160400390625
 30
0.0
  0
INSERT
  5
F3
100
AcDbEntity
  8
0
100
AcDbBlockReference
  2
MS_4
 10
8.0267105102539062
 20
115.41839599609375
 30
0.0
  0
INSERT
  5
F4
100
AcDbEntity
  8
0
100
AcDbBlockReference
  2
MS_5
 10
8.0267105102539062
 20
-120.58160400390625
 30
0.0
  0
LINE
  5
F5
100
AcDbEntity
  8
0
  6
CONTINUOUS
 62
               7
100
AcDbLine
 10
-194.25
 20
132.59999999999999
 30
0.0
 11
194.80000000000001
 21
132.59999999999999
 31
0.0
  0
LINE
  5
F6
100
AcDbEntity
  8
0
  6
CONTINUOUS
 62
               7
100
AcDbLine
 10
194.80000000000001
 20
132.59999999999999
 30
0.0
 11
194.80000000000001
 21
-133.5
 31
0.0
  0
LINE
  5
F7
100
AcDbEntity
  8
0
  6
CONTINUOUS
 62
               7
100
AcDbLine
 10
-194.25
 20
132.59999999999999
 30
0.0
 11
-194.25
 21
-133.5
 31
0.0
  0
LINE
  5
F8
100
AcDbEntity
  8
0
  6
CONTINUOUS
 62
               7
100
AcDbLine
 10
-194.25
 20
-133.5
 30
0.0
 11
194.80000000000001
 21
-133.5
 31
0.0
  0
LINE
  5
F9
100
AcDbEntity
  8
0
  6
CONTINUOUS
 62
               7
100
AcDbLine
 10
109.8
 20
-118.5
 30
0.0
 11
109.8
 21
-133.5
 31
0.0
  0
LINE
  5
FA
100
AcDbEntity
  8
0
  6
CONTINUOUS
 62
               7
100
AcDbLine
 10
109.8
 20
-118.5
 30
0.0
 11
194.80000000000001
 21
-118.5
 31
0.0
  0
LINE
  5
FB
100
AcDbEntity
  8
0
  6
CONTINUOUS
 62
               7
100
AcDbLine
 10
109.8
 20
132.59999999999999
 30
0.0
 11
109.8
 21
117.59999999999999
 31
0.0
  0
LINE
  5
FC
100
AcDbEntity
  8
0
  6
CONTINUOUS
 62
               7
100
AcDbLine
 10
109.8
 20
117.59999999999999
 30
0.0
 11
194.80000000000001
 21
117.59999999999999
 31
0.0
  0
LINE
  5
FD
100
AcDbEntity
  8
0
  6
CONTINUOUS
 62
               7
100
AcDbLine
 10
-194.25
 20
117.59999999999999
 30
0.0
 11
-109.25
 21
117.59999999999999
 31
0.0
  0
LINE
  5
FE
100
AcDbEntity
  8
0
  6
CONTINUOUS
 62
               7
100
AcDbLine
 10
-109.25
 20
132.59999999999999
 30
0.0
 11
-109.25
 21
117.59999999999999
 31
0.0
  0
MTEXT
  5
FF
100
AcDbEntity
  8
0
  6
CONTINUOUS
 62
               7
100
AcDbMText
 10
135.28361320576767
 20
125.10000610351562
 30
0.0
 40
4.5
 41
0.0
 71
               4
 72
               1
  1
\W1.311;\A1;Ver. 1.0
  7
MX_NOTE_STANDARD
  0
MTEXT
  5
100
100
AcDbEntity
  8
0
  6
CONTINUOUS
 62
               7
100
AcDbMText
 10
115.5267259825148
 20
-126.0
 30
0.0
 40
6.3000001907348633
 41
0.0
 71
               4
 72
               1
  1
\W1.121;\A1;KOGANEI CORP.
  7
MX_NOTE_STANDARD
  0
MTEXT
  5
101
100
AcDbEntity
  8
0
  6
CONTINUOUS
 62
               7
100
AcDbMText
 10
-180.18296089249444
 20
125.10000610351562
 30
0.0
 40
4.5
 41
0.0
 71
               4
 72
               1
  1
\W1.089;\A1;CS-050 SERIES
  7
MX_NOTE_STANDARD
  0
MTEXT
  5
102
100
AcDbEntity
  8
0
  6
CONTINUOUS
 62
               7
100
AcDbMText
 10
-185.69339622596152
 20
107.60000610351562
 30
0.0
 40
4.5
 41
0.0
 71
               4
 72
               1
  1
\W1.075;\A1;MODEL:CS-A050LE1-25
  7
MX_NOTE_STANDARD
  0
ENDSEC
  0
SECTION
  2
OBJECTS
  0
DICTIONARY
  5
19
100
AcDbDictionary
  3
ACAD_GROUP
350
1A
  3
ACAD_MLINESTYLE
350
1B
  0
DICTIONARY
  5
1A
102
{ACAD_REACTORS
330
19
102
}
100
AcDbDictionary
  0
DICTIONARY
  5
1B
102
{ACAD_REACTORS
330
19
102
}
100
AcDbDictionary
  3
STANDARD
350
1C
  0
MLINESTYLE
  5
1C
102
{ACAD_REACTORS
330
1B
102
}
100
AcDbMlineStyle
  2
Standard
 70
               0
  3

 62
               0
 51
90.0
 52
90.0
 71
               2
 49
0.5
 62
             256
  6
ByLayer
 49
-0.5
 62
             256
  6
ByLayer
  0
ENDSEC
  0
EOF
