  0
SECTION
  2
HEADER
  9
$ACADVER
  1
AC1003
  9
$EXTMIN
 10
-3.99250000E+02
 20
-2.76750000E+02
  9
$EXTMAX
 10
3.99799805E+02
 20
2.76250000E+02
  9
$LIMMIN
 10
-3.99251000E+02
 20
-2.76751000E+02
  9
$LIMMAX
 10
3.99800805E+02
 20
2.76251000E+02
  9
$SNAPUNIT
 10
1
 20
1
  9
$SNAPBASE
 10
0
 20
0
  9
$GRIDMODE
 70
0
  9
$GRIDUNIT
 10
0
 20
0
  9
$LTSCALE
 40
1.33174967E+01
  9
$TEXTSIZE
 40
3.2
  9
$DIMTAD
 70
0
  9
$LUNITS
 70
2
  9
$LUPREC
 70
4
  9
$FILLETRAD
 40
0
  9
$AUNITS
 70
0
  9
$AUPREC
 70
0
  0
ENDSEC
  0
SECTION
  2
TABLES
  0
TABLE
  2
LTYPE
 70
2
  0
LTYPE
  2
CONTINUOUS
 70
64
  3
Solid-Line
 72
65
 73
0
 40
0
  0
LTYPE
  2
DASHED
 70
64
  3
DASHED
 72
65
 73
2
 40
.75
 49
.5
 49
-.25
  0
LTYPE
  2
HIDDEN
 70
64
  3
HIDDEN
 72
65
 73
2
 40
.375
 49
.25
 49
-.125
  0
LTYPE
  2
CENTER
 70
64
  3
CENTER
 72
65
 73
4
 40
2
 49
1.25
 49
-.25
 49
.25
 49
-.25
  0
LTYPE
  2
PHANTOM
 70
64
  3
PHANTOM
 72
65
 73
6
 40
2.5
 49
1.25
 49
-.25
 49
.25
 49
-.25
 49
.25
 49
-.25
  0
ENDTAB
  0
TABLE
  2
LAYER
 70
1
  0
LAYER
  2
0
 70
0
 62
3
  6
CONTINUOUS
 0
ENDTAB
  0
TABLE
  2
STYLE
 70
2
  0
STYLE
  2
MONOTXT
 70
0
 40
0
 41
1
 50
0
 71
0
 42
.2
  3
monotxt
  0
STYLE
  2
BIGFONT
 70
0
 40
0
 41
1
 50
0
 71
0
 42
.2
  3
txt
  4
bigfont
  0
ENDTAB
  0
ENDSEC
  0
SECTION
  2
ENTITIES
  0
LINE
  8
0
 62
7
 10
-2.29791228E+02
 20
1.76895749E+02
 11
-2.29791228E+02
 21
1.76395749E+02
  0
LINE
  8
0
 62
7
 10
-1.05801228E+02
 20
1.76895749E+02
 11
-1.05801228E+02
 21
1.76395749E+02
  0
LINE
  8
0
 62
7
 10
-1.05801228E+02
 20
1.28095749E+02
 11
-1.05801228E+02
 21
9.93957488E+01
  0
LINE
  8
0
  6
CENTER
 62
7
 10
-2.29791228E+02
 20
1.28095749E+02
 11
-2.29791228E+02
 21
9.93957488E+01
  0
LINE
  8
0
 62
7
 10
-8.88012284E+01
 20
1.38395749E+02
 11
-9.28012284E+01
 21
1.38395749E+02
  0
LINE
  8
0
 62
7
 10
-2.29791228E+02
 20
1.30395749E+02
 11
-2.29791228E+02
 21
1.28395749E+02
  0
LINE
  8
0
 62
7
 10
-1.05801228E+02
 20
1.30395749E+02
 11
-1.05801228E+02
 21
1.28395749E+02
  0
LINE
  8
0
 62
7
 10
-3.19791228E+02
 20
1.13395749E+02
 11
-2.29791228E+02
 21
1.13395749E+02
  0
LINE
  8
0
 62
7
 10
-3.19791228E+02
 20
1.76895749E+02
 11
-3.19791228E+02
 21
9.93957488E+01
  0
LINE
  8
0
 62
7
 10
-3.19791228E+02
 20
1.76895749E+02
 11
-3.18291228E+02
 21
1.78395749E+02
  0
LINE
  8
0
 62
7
 10
-3.18291228E+02
 20
1.78395749E+02
 11
-2.31291228E+02
 21
1.78395749E+02
  0
LINE
  8
0
 62
7
 10
-3.18791228E+02
 20
1.28395749E+02
 11
-2.30791228E+02
 21
1.28395749E+02
  0
LINE
  8
0
 62
7
 10
-2.46791228E+02
 20
1.68395749E+02
 11
-2.42791228E+02
 21
1.68395749E+02
  0
LINE
  8
0
 62
7
 10
-2.45911228E+02
 20
1.67775749E+02
 11
-2.45911228E+02
 21
1.39005749E+02
  0
LINE
  8
0
 62
7
 10
-2.45911228E+02
 20
1.67775749E+02
 11
-2.42791228E+02
 21
1.67775749E+02
  0
LINE
  8
0
 62
7
 10
-2.45911228E+02
 20
1.39005749E+02
 11
-2.42791228E+02
 21
1.39005749E+02
  0
LINE
  8
0
 62
7
 10
-3.18291228E+02
 20
1.78395749E+02
 11
-3.18291228E+02
 21
1.28335749E+02
  0
LINE
  8
0
 62
7
 10
-2.29791228E+02
 20
1.76895749E+02
 11
-3.19791228E+02
 21
1.76895749E+02
  0
LINE
  8
0
 62
7
 10
-2.46791228E+02
 20
1.76895749E+02
 11
-2.46791228E+02
 21
1.68395749E+02
  0
LINE
  8
0
 62
7
 10
-2.46791228E+02
 20
1.38395749E+02
 11
-2.46791228E+02
 21
1.28395749E+02
  0
LINE
  8
0
 62
7
 10
-3.03671228E+02
 20
1.67775749E+02
 11
-3.03671228E+02
 21
1.39005749E+02
  0
LINE
  8
0
 62
7
 10
-3.02791228E+02
 20
1.68395749E+02
 11
-3.12791228E+02
 21
1.68395749E+02
  0
LINE
  8
0
 62
7
 10
-3.11911228E+02
 20
1.67775749E+02
 11
-3.11911228E+02
 21
1.39005749E+02
  0
LINE
  8
0
 62
7
 10
-3.12791228E+02
 20
1.68395749E+02
 11
-3.12791228E+02
 21
1.38395749E+02
  0
LINE
  8
0
 62
7
 10
-3.02791228E+02
 20
1.38395749E+02
 11
-3.12791228E+02
 21
1.38395749E+02
  0
LINE
  8
0
 62
7
 10
-3.03671228E+02
 20
1.39005749E+02
 11
-3.11911228E+02
 21
1.39005749E+02
  0
LINE
  8
0
 62
7
 10
-3.02791228E+02
 20
1.38395749E+02
 11
-3.02791228E+02
 21
1.28395749E+02
  0
LINE
  8
0
 62
7
 10
-3.03671228E+02
 20
1.67775749E+02
 11
-3.11911228E+02
 21
1.67775749E+02
  0
LINE
  8
0
 62
7
 10
-3.02791228E+02
 20
1.76895749E+02
 11
-3.02791228E+02
 21
1.68395749E+02
  0
LINE
  8
0
 62
7
 10
-3.11911228E+02
 20
1.67775749E+02
 11
-3.12791228E+02
 21
1.68395749E+02
  0
LINE
  8
0
 62
7
 10
-3.11911228E+02
 20
1.39005749E+02
 11
-3.12791228E+02
 21
1.38395749E+02
  0
LINE
  8
0
 62
7
 10
-3.03671228E+02
 20
1.67775749E+02
 11
-3.02791228E+02
 21
1.68395749E+02
  0
LINE
  8
0
 62
7
 10
-3.03671228E+02
 20
1.39005749E+02
 11
-3.02791228E+02
 21
1.38395749E+02
  0
LINE
  8
0
 62
7
 10
-3.18791228E+02
 20
1.20895749E+02
 11
-3.05291228E+02
 21
1.20895749E+02
  0
LINE
  8
0
 62
7
 10
-2.44291228E+02
 20
1.20895749E+02
 11
-2.30791228E+02
 21
1.20895749E+02
  0
LINE
  8
0
 62
7
 10
-2.44791228E+02
 20
1.27395749E+02
 11
-2.44791228E+02
 21
1.21395749E+02
  0
LINE
  8
0
  6
CENTER
 62
2
 10
-2.37791228E+02
 20
1.31395749E+02
 11
-2.37791228E+02
 21
1.17895749E+02
  0
LINE
  8
0
  6
CENTER
 62
2
 10
-3.11791228E+02
 20
1.31395749E+02
 11
-3.11791228E+02
 21
1.17895749E+02
  0
LINE
  8
0
  6
CENTER
 62
2
 10
-2.74791228E+02
 20
1.85535749E+02
 11
-2.74791228E+02
 21
-6.93442512E+01
  0
LINE
  8
0
 62
7
 10
-3.04791228E+02
 20
1.27395749E+02
 11
-3.04791228E+02
 21
1.21395749E+02
  0
LINE
  8
0
 62
7
 10
-3.01531228E+02
 20
1.78395749E+02
 11
-3.02791228E+02
 21
1.76895749E+02
  0
LINE
  8
0
 62
7
 10
-3.00371228E+02
 20
1.78395749E+02
 11
-3.01751228E+02
 21
1.76895749E+02
  0
LINE
  8
0
 62
7
 10
-3.01221228E+02
 20
1.28395749E+02
 11
-3.01751228E+02
 21
1.76895749E+02
  0
LINE
  8
0
 62
7
 10
-2.48361228E+02
 20
1.28395749E+02
 11
-2.47831228E+02
 21
1.76895749E+02
  0
LINE
  8
0
 62
7
 10
-2.49211228E+02
 20
1.78395749E+02
 11
-2.47831228E+02
 21
1.76895749E+02
  0
LINE
  8
0
 62
7
 10
-2.48051228E+02
 20
1.78395749E+02
 11
-2.46791228E+02
 21
1.76895749E+02
  0
LINE
  8
0
 62
7
 10
-3.14791228E+02
 20
1.79395749E+02
 11
-3.03801228E+02
 21
1.79395749E+02
  0
LINE
  8
0
 62
7
 10
-3.14791228E+02
 20
1.79395749E+02
 11
-3.14791228E+02
 21
1.78395749E+02
  0
LINE
  8
0
 62
7
 10
-3.03801228E+02
 20
1.79395749E+02
 11
-3.03801228E+02
 21
1.78395749E+02
  0
LINE
  8
0
 62
7
 10
-3.12761228E+02
 20
5.33957488E+01
 11
-2.36821228E+02
 21
5.33957488E+01
  0
LINE
  8
0
 62
7
 10
-3.18791228E+02
 20
9.83957488E+01
 11
-2.30791228E+02
 21
9.83957488E+01
  0
LINE
  8
0
 62
7
 10
-3.13821228E+02
 20
5.43957488E+01
 11
-3.14941228E+02
 21
9.74157488E+01
  0
LINE
  8
0
 62
7
 10
-3.13821228E+02
 20
5.43957488E+01
 11
-3.12761228E+02
 21
5.33957488E+01
  0
LINE
  8
0
 62
7
 10
-2.35761228E+02
 20
5.43957488E+01
 11
-2.36821228E+02
 21
5.33957488E+01
  0
LINE
  8
0
 62
7
 10
-3.13821228E+02
 20
5.43957488E+01
 11
-2.35761228E+02
 21
5.43957488E+01
  0
LINE
  8
0
 62
7
 10
-3.16791228E+02
 20
1.27795749E+02
 11
-3.16791228E+02
 21
1.22395749E+02
  0
LINE
  8
0
 62
7
 10
-3.06791228E+02
 20
1.27795749E+02
 11
-3.06791228E+02
 21
1.22395749E+02
  0
LINE
  8
0
 62
7
 10
-3.05691228E+02
 20
1.22395749E+02
 11
-3.17891228E+02
 21
1.22395749E+02
  0
LINE
  8
0
 62
7
 10
-3.05691228E+02
 20
1.22395749E+02
 11
-3.05691228E+02
 21
1.20895749E+02
  0
LINE
  8
0
 62
7
 10
-3.17891228E+02
 20
1.22395749E+02
 11
-3.17891228E+02
 21
1.20895749E+02
  0
LINE
  8
0
 62
7
 10
-3.16791228E+02
 20
1.27795749E+02
 11
-3.06791228E+02
 21
1.27795749E+02
  0
LINE
  8
0
 62
7
 10
-3.16791228E+02
 20
1.27795749E+02
 11
-3.16191228E+02
 21
1.28395749E+02
  0
LINE
  8
0
 62
7
 10
-3.06791228E+02
 20
1.27795749E+02
 11
-3.07391228E+02
 21
1.28395749E+02
  0
LINE
  8
0
 62
7
 10
-2.42791228E+02
 20
1.27795749E+02
 11
-2.42791228E+02
 21
1.22395749E+02
  0
LINE
  8
0
 62
7
 10
-2.31691228E+02
 20
1.22395749E+02
 11
-2.43891228E+02
 21
1.22395749E+02
  0
LINE
  8
0
 62
7
 10
-2.43891228E+02
 20
1.22395749E+02
 11
-2.43891228E+02
 21
1.20895749E+02
  0
LINE
  8
0
 62
7
 10
-2.42791228E+02
 20
1.27795749E+02
 11
-2.32791228E+02
 21
1.27795749E+02
  0
LINE
  8
0
 62
7
 10
-2.42791228E+02
 20
1.27795749E+02
 11
-2.42191228E+02
 21
1.28395749E+02
  0
LINE
  8
0
 62
7
 10
-2.45911228E+02
 20
1.67775749E+02
 11
-2.46791228E+02
 21
1.68395749E+02
  0
LINE
  8
0
 62
7
 10
-2.45911228E+02
 20
1.39005749E+02
 11
-2.46791228E+02
 21
1.38395749E+02
  0
LINE
  8
0
 62
7
 10
-2.31291228E+02
 20
1.78395749E+02
 11
-2.29791228E+02
 21
1.76895749E+02
  0
LINE
  8
0
 62
7
 10
-2.31291228E+02
 20
1.78395749E+02
 11
-2.31291228E+02
 21
1.76395749E+02
  0
LINE
  8
0
 62
7
 10
-2.35761228E+02
 20
5.43957488E+01
 11
-2.34641228E+02
 21
9.74157488E+01
  0
LINE
  8
0
 62
7
 10
-2.32791228E+02
 20
1.27795749E+02
 11
-2.32791228E+02
 21
1.22395749E+02
  0
LINE
  8
0
 62
7
 10
-2.31691228E+02
 20
1.22395749E+02
 11
-2.31691228E+02
 21
1.20895749E+02
  0
LINE
  8
0
 62
7
 10
-2.32791228E+02
 20
1.27795749E+02
 11
-2.33391228E+02
 21
1.28395749E+02
  0
LINE
  8
0
 62
7
 10
-2.31291228E+02
 20
1.30395749E+02
 11
-2.31291228E+02
 21
1.28335749E+02
  0
LINE
  8
0
 62
7
 10
-1.05801228E+02
 20
1.13395749E+02
 11
-1.58012284E+01
 21
1.13395749E+02
  0
LINE
  8
0
 62
7
 10
-1.58012284E+01
 20
1.76895749E+02
 11
-1.58012284E+01
 21
9.93957488E+01
  0
LINE
  8
0
 62
7
 10
-1.05801228E+02
 20
1.76895749E+02
 11
-1.04301228E+02
 21
1.78395749E+02
  0
LINE
  8
0
 62
7
 10
-1.73012284E+01
 20
1.78395749E+02
 11
-1.58012284E+01
 21
1.76895749E+02
  0
LINE
  8
0
 62
7
 10
-1.04301228E+02
 20
1.78395749E+02
 11
-1.73012284E+01
 21
1.78395749E+02
  0
LINE
  8
0
 62
7
 10
-1.04801228E+02
 20
1.28395749E+02
 11
-1.68012284E+01
 21
1.28395749E+02
  0
LINE
  8
0
 62
7
 10
-3.28012284E+01
 20
1.68395749E+02
 11
-2.28012284E+01
 21
1.68395749E+02
  0
LINE
  8
0
 62
7
 10
-3.28012284E+01
 20
1.38395749E+02
 11
-2.28012284E+01
 21
1.38395749E+02
  0
LINE
  8
0
 62
7
 10
-2.28012284E+01
 20
1.68395749E+02
 11
-2.28012284E+01
 21
1.38395749E+02
  0
LINE
  8
0
 62
7
 10
-2.36812284E+01
 20
1.67775749E+02
 11
-2.36812284E+01
 21
1.39005749E+02
  0
LINE
  8
0
 62
7
 10
-3.19212284E+01
 20
1.67775749E+02
 11
-3.19212284E+01
 21
1.39005749E+02
  0
LINE
  8
0
 62
7
 10
-3.19212284E+01
 20
1.67775749E+02
 11
-2.36812284E+01
 21
1.67775749E+02
  0
LINE
  8
0
 62
7
 10
-3.19212284E+01
 20
1.39005749E+02
 11
-2.36812284E+01
 21
1.39005749E+02
  0
LINE
  8
0
  6
CENTER
 62
2
 10
-7.18012284E+01
 20
2.09545749E+02
 11
-7.18012284E+01
 21
1.75395749E+02
  0
LINE
  8
0
 62
7
 10
-8.53012284E+01
 20
1.84495749E+02
 11
-8.53012284E+01
 21
1.79395749E+02
  0
LINE
  8
0
 62
7
 10
-8.58012284E+01
 20
1.91495749E+02
 11
-8.58012284E+01
 21
1.84495749E+02
  0
LINE
  8
0
 62
7
 10
-5.78012284E+01
 20
1.91495749E+02
 11
-5.78012284E+01
 21
1.89395749E+02
  0
LINE
  8
0
 62
7
 10
-8.48012284E+01
 20
1.92495749E+02
 11
-8.58012284E+01
 21
1.91495749E+02
  0
LINE
  8
0
 62
7
 10
-5.78012284E+01
 20
1.91495749E+02
 11
-5.88012284E+01
 21
1.92495749E+02
  0
LINE
  8
0
 62
7
 10
-5.88012284E+01
 20
1.92495749E+02
 11
-8.48012284E+01
 21
1.92495749E+02
  0
LINE
  8
0
 62
7
 10
-7.90012284E+01
 20
1.93395749E+02
 11
-7.90012284E+01
 21
1.92495749E+02
  0
LINE
  8
0
 62
7
 10
-6.46012284E+01
 20
1.93395749E+02
 11
-6.46012284E+01
 21
1.92495749E+02
  0
LINE
  8
0
 62
7
 10
-7.88012284E+01
 20
1.93395749E+02
 11
-7.87512284E+01
 21
1.99645749E+02
  0
LINE
  8
0
 62
7
 10
-6.48012284E+01
 20
1.93395749E+02
 11
-6.48512284E+01
 21
1.99645749E+02
  0
LINE
  8
0
 62
7
 10
-6.46012284E+01
 20
1.93395749E+02
 11
-7.90012284E+01
 21
1.93395749E+02
  0
LINE
  8
0
 62
7
 10
-7.33012284E+01
 20
1.86495749E+02
 11
-7.74612284E+01
 21
1.86495749E+02
  0
LINE
  8
0
 62
7
 10
-7.34412284E+01
 20
1.86785749E+02
 11
-7.70812284E+01
 21
1.86785749E+02
  0
LINE
  8
0
 62
7
 10
-8.57212284E+01
 20
1.91495749E+02
 11
-8.57212284E+01
 21
1.86495749E+02
  0
LINE
  8
0
 62
7
 10
-8.52012284E+01
 20
1.91995749E+02
 11
-8.52012284E+01
 21
1.86785749E+02
  0
LINE
  8
0
 62
7
 10
-8.46012284E+01
 20
1.91495749E+02
 11
-8.46012284E+01
 21
1.86495749E+02
  0
LINE
  8
0
 62
7
 10
-8.31012284E+01
 20
1.91495749E+02
 11
-8.31012284E+01
 21
1.86495749E+02
  0
LINE
  8
0
 62
7
 10
-8.25812284E+01
 20
1.91995749E+02
 11
-8.25812284E+01
 21
1.86785749E+02
  0
LINE
  8
0
 62
7
 10
-8.00612284E+01
 20
1.91495749E+02
 11
-8.00612284E+01
 21
1.86495749E+02
  0
LINE
  8
0
 62
7
 10
-7.74612284E+01
 20
1.91495749E+02
 11
-7.74612284E+01
 21
1.86495749E+02
  0
LINE
  8
0
 62
7
 10
-7.70812284E+01
 20
1.91995749E+02
 11
-7.70812284E+01
 21
1.86785749E+02
  0
LINE
  8
0
 62
7
 10
-7.34412284E+01
 20
1.91995749E+02
 11
-7.34412284E+01
 21
1.86785749E+02
  0
LINE
  8
0
 62
7
 10
-7.33012284E+01
 20
1.91495749E+02
 11
-7.33012284E+01
 21
1.86495749E+02
  0
LINE
  8
0
 62
7
 10
-7.03012284E+01
 20
1.91495749E+02
 11
-7.33012284E+01
 21
1.91495749E+02
  0
LINE
  8
0
 62
7
 10
-7.34412284E+01
 20
1.91995749E+02
 11
-7.70812284E+01
 21
1.91995749E+02
  0
LINE
  8
0
 62
7
 10
-7.74612284E+01
 20
1.91495749E+02
 11
-8.00612284E+01
 21
1.91495749E+02
  0
LINE
  8
0
 62
7
 10
-8.31012284E+01
 20
1.91495749E+02
 11
-8.46012284E+01
 21
1.91495749E+02
  0
LINE
  8
0
 62
7
 10
-8.00612284E+01
 20
1.86785749E+02
 11
-8.25812284E+01
 21
1.86785749E+02
  0
LINE
  8
0
 62
7
 10
-8.46012284E+01
 20
1.86785749E+02
 11
-8.52012284E+01
 21
1.86785749E+02
  0
LINE
  8
0
 62
7
 10
-7.99212284E+01
 20
1.91995749E+02
 11
-8.25812284E+01
 21
1.91995749E+02
  0
LINE
  8
0
 62
7
 10
-7.33012284E+01
 20
1.91495749E+02
 11
-7.34412284E+01
 21
1.91995749E+02
  0
LINE
  8
0
 62
7
 10
-7.34412284E+01
 20
1.86785749E+02
 11
-7.33012284E+01
 21
1.86495749E+02
  0
LINE
  8
0
 62
7
 10
-7.74612284E+01
 20
1.91495749E+02
 11
-7.70812284E+01
 21
1.91995749E+02
  0
LINE
  8
0
 62
7
 10
-7.70812284E+01
 20
1.86785749E+02
 11
-7.74612284E+01
 21
1.86495749E+02
  0
LINE
  8
0
 62
7
 10
-8.00612284E+01
 20
1.91495749E+02
 11
-7.99212284E+01
 21
1.91995749E+02
  0
LINE
  8
0
 62
7
 10
-8.25812284E+01
 20
1.86785749E+02
 11
-8.31012284E+01
 21
1.86495749E+02
  0
LINE
  8
0
 62
7
 10
-8.46012284E+01
 20
1.91495749E+02
 11
-8.42212284E+01
 21
1.91995749E+02
  0
LINE
  8
0
 62
7
 10
-8.31012284E+01
 20
1.91495749E+02
 11
-8.25812284E+01
 21
1.91995749E+02
  0
LINE
  8
0
 62
7
 10
-8.42212284E+01
 20
1.91995749E+02
 11
-8.52012284E+01
 21
1.91995749E+02
  0
LINE
  8
0
 62
7
 10
-8.00612284E+01
 20
1.86495749E+02
 11
-8.31012284E+01
 21
1.86495749E+02
  0
LINE
  8
0
 62
7
 10
-8.46012284E+01
 20
1.86495749E+02
 11
-8.57212284E+01
 21
1.86495749E+02
  0
LINE
  8
0
 62
7
 10
-8.52012284E+01
 20
1.86785749E+02
 11
-8.57212284E+01
 21
1.86495749E+02
  0
LINE
  8
0
 62
7
 10
-8.57212284E+01
 20
1.91495749E+02
 11
-8.58012284E+01
 21
1.91495749E+02
  0
LINE
  8
0
 62
7
 10
-8.57212284E+01
 20
1.91495749E+02
 11
-8.52012284E+01
 21
1.91995749E+02
  0
LINE
  8
0
 62
7
 10
-7.03012284E+01
 20
1.86495749E+02
 11
-6.61412284E+01
 21
1.86495749E+02
  0
LINE
  8
0
 62
7
 10
-7.01612284E+01
 20
1.86785749E+02
 11
-6.65212284E+01
 21
1.86785749E+02
  0
LINE
  8
0
 62
7
 10
-5.78812284E+01
 20
1.91495749E+02
 11
-5.78812284E+01
 21
1.86495749E+02
  0
LINE
  8
0
 62
7
 10
-5.84012284E+01
 20
1.91995749E+02
 11
-5.84012284E+01
 21
1.86785749E+02
  0
LINE
  8
0
 62
7
 10
-5.89912284E+01
 20
1.91495749E+02
 11
-5.89912284E+01
 21
1.86495749E+02
  0
LINE
  8
0
 62
7
 10
-6.04912284E+01
 20
1.91495749E+02
 11
-6.04912284E+01
 21
1.86495749E+02
  0
LINE
  8
0
 62
7
 10
-6.10112284E+01
 20
1.91995749E+02
 11
-6.10112284E+01
 21
1.86785749E+02
  0
LINE
  8
0
 62
7
 10
-6.35412284E+01
 20
1.91495749E+02
 11
-6.35412284E+01
 21
1.86495749E+02
  0
LINE
  8
0
 62
7
 10
-6.61412284E+01
 20
1.91495749E+02
 11
-6.61412284E+01
 21
1.86495749E+02
  0
LINE
  8
0
 62
7
 10
-6.65212284E+01
 20
1.91995749E+02
 11
-6.65212284E+01
 21
1.86785749E+02
  0
LINE
  8
0
 62
7
 10
-7.01612284E+01
 20
1.91995749E+02
 11
-7.01612284E+01
 21
1.86785749E+02
  0
LINE
  8
0
 62
7
 10
-7.03012284E+01
 20
1.91495749E+02
 11
-7.03012284E+01
 21
1.86495749E+02
  0
LINE
  8
0
 62
7
 10
-7.01612284E+01
 20
1.91995749E+02
 11
-6.65212284E+01
 21
1.91995749E+02
  0
LINE
  8
0
 62
7
 10
-6.61412284E+01
 20
1.91495749E+02
 11
-6.35412284E+01
 21
1.91495749E+02
  0
LINE
  8
0
 62
7
 10
-6.04912284E+01
 20
1.91495749E+02
 11
-5.89912284E+01
 21
1.91495749E+02
  0
LINE
  8
0
 62
7
 10
-6.36812284E+01
 20
1.91995749E+02
 11
-6.10112284E+01
 21
1.91995749E+02
  0
LINE
  8
0
 62
7
 10
-7.03012284E+01
 20
1.91495749E+02
 11
-7.01612284E+01
 21
1.91995749E+02
  0
LINE
  8
0
 62
7
 10
-7.01612284E+01
 20
1.86785749E+02
 11
-7.03012284E+01
 21
1.86495749E+02
  0
LINE
  8
0
 62
7
 10
-6.61412284E+01
 20
1.91495749E+02
 11
-6.65212284E+01
 21
1.91995749E+02
  0
LINE
  8
0
 62
7
 10
-6.35412284E+01
 20
1.91495749E+02
 11
-6.36812284E+01
 21
1.91995749E+02
  0
LINE
  8
0
 62
7
 10
-5.89912284E+01
 20
1.91495749E+02
 11
-5.93712284E+01
 21
1.91995749E+02
  0
LINE
  8
0
 62
7
 10
-6.04912284E+01
 20
1.91495749E+02
 11
-6.10112284E+01
 21
1.91995749E+02
  0
LINE
  8
0
 62
7
 10
-5.93712284E+01
 20
1.91995749E+02
 11
-5.84012284E+01
 21
1.91995749E+02
  0
LINE
  8
0
 62
7
 10
-5.78812284E+01
 20
1.91495749E+02
 11
-5.78012284E+01
 21
1.91495749E+02
  0
LINE
  8
0
 62
7
 10
-5.78812284E+01
 20
1.91495749E+02
 11
-5.84012284E+01
 21
1.91995749E+02
  0
LINE
  8
0
 62
7
 10
-1.04301228E+02
 20
1.78395749E+02
 11
-1.04301228E+02
 21
1.76395749E+02
  0
LINE
  8
0
 62
7
 10
-1.73012284E+01
 20
1.78395749E+02
 11
-1.73012284E+01
 21
1.28335749E+02
  0
LINE
  8
0
 62
7
 10
-1.58012284E+01
 20
1.76895749E+02
 11
-1.05801228E+02
 21
1.76895749E+02
  0
LINE
  8
0
 62
7
 10
-3.28012284E+01
 20
1.76895749E+02
 11
-3.28012284E+01
 21
1.68395749E+02
  0
LINE
  8
0
 62
7
 10
-3.28012284E+01
 20
1.38395749E+02
 11
-3.28012284E+01
 21
1.28395749E+02
  0
LINE
  8
0
 62
7
 10
-8.96812284E+01
 20
1.67775749E+02
 11
-8.96812284E+01
 21
1.39005749E+02
  0
LINE
  8
0
 62
7
 10
-8.96812284E+01
 20
1.39005749E+02
 11
-9.28012284E+01
 21
1.39005749E+02
  0
LINE
  8
0
 62
7
 10
-8.88012284E+01
 20
1.38395749E+02
 11
-8.88012284E+01
 21
1.28395749E+02
  0
LINE
  8
0
 62
7
 10
-8.96812284E+01
 20
1.67775749E+02
 11
-9.28012284E+01
 21
1.67775749E+02
  0
LINE
  8
0
 62
7
 10
-8.88012284E+01
 20
1.76895749E+02
 11
-8.88012284E+01
 21
1.68395749E+02
  0
LINE
  8
0
 62
7
 10
-8.96812284E+01
 20
1.67775749E+02
 11
-8.88012284E+01
 21
1.68395749E+02
  0
LINE
  8
0
 62
7
 10
-8.96812284E+01
 20
1.39005749E+02
 11
-8.88012284E+01
 21
1.38395749E+02
  0
LINE
  8
0
 62
7
 10
-6.58012284E+01
 20
1.84495749E+02
 11
-8.58012284E+01
 21
1.84495749E+02
  0
LINE
  8
0
 62
7
 10
-1.04801228E+02
 20
1.20895749E+02
 11
-9.13012284E+01
 21
1.20895749E+02
  0
LINE
  8
0
 62
7
 10
-3.03012284E+01
 20
1.20895749E+02
 11
-1.68012284E+01
 21
1.20895749E+02
  0
LINE
  8
0
 62
7
 10
-3.08012284E+01
 20
1.27395749E+02
 11
-3.08012284E+01
 21
1.21395749E+02
  0
LINE
  8
0
  6
CENTER
 62
2
 10
-2.38012284E+01
 20
1.31395749E+02
 11
-2.38012284E+01
 21
1.17895749E+02
  0
LINE
  8
0
  6
CENTER
 62
2
 10
-9.78012284E+01
 20
1.31395749E+02
 11
-9.78012284E+01
 21
1.17895749E+02
  0
LINE
  8
0
 62
7
 10
-4.99412284E+01
 20
1.85895749E+02
 11
-4.98012284E+01
 21
1.85895749E+02
  0
LINE
  8
0
 62
7
 10
-4.99412284E+01
 20
1.85895749E+02
 11
-5.04812284E+01
 21
1.86395749E+02
  0
LINE
  8
0
 62
7
 10
-5.11812284E+01
 20
1.80395749E+02
 11
-4.99412284E+01
 21
1.80395749E+02
  0
LINE
  8
0
 62
7
 10
-5.63012284E+01
 20
1.85895749E+02
 11
-5.93012284E+01
 21
1.85895749E+02
  0
LINE
  8
0
 62
7
 10
-4.99412284E+01
 20
1.80395749E+02
 11
-5.04812284E+01
 21
1.80745749E+02
  0
LINE
  8
0
 62
7
 10
-5.37912284E+01
 20
1.80745749E+02
 11
-5.61512284E+01
 21
1.80745749E+02
  0
LINE
  8
0
 62
7
 10
-5.03012284E+01
 20
1.86395749E+02
 11
-6.53012284E+01
 21
1.86395749E+02
  0
LINE
  8
0
 62
7
 10
-4.98012284E+01
 20
1.85895749E+02
 11
-4.98012284E+01
 21
1.78395749E+02
  0
LINE
  8
0
 62
7
 10
-6.58012284E+01
 20
1.85895749E+02
 11
-6.58012284E+01
 21
1.78395749E+02
  0
LINE
  8
0
 62
7
 10
-5.03012284E+01
 20
1.86395749E+02
 11
-4.98012284E+01
 21
1.85895749E+02
  0
LINE
  8
0
 62
7
 10
-6.58012284E+01
 20
1.85895749E+02
 11
-6.53012284E+01
 21
1.86395749E+02
  0
LINE
  8
0
 62
2
 10
-5.78012284E+01
 20
1.89395749E+02
 11
-5.78012284E+01
 21
1.75395749E+02
  0
LINE
  8
0
 62
7
 10
-5.93012284E+01
 20
1.80395749E+02
 11
-6.22912284E+01
 21
1.80395749E+02
  0
LINE
  8
0
 62
7
 10
-6.22912284E+01
 20
1.85895749E+02
 11
-6.44112284E+01
 21
1.85895749E+02
  0
LINE
  8
0
 62
7
 10
-6.56612284E+01
 20
1.85895749E+02
 11
-6.56612284E+01
 21
1.80395749E+02
  0
LINE
  8
0
 62
7
 10
-6.51112284E+01
 20
1.86395749E+02
 11
-6.51112284E+01
 21
1.80745749E+02
  0
LINE
  8
0
 62
7
 10
-6.44112284E+01
 20
1.85895749E+02
 11
-6.44112284E+01
 21
1.80395749E+02
  0
LINE
  8
0
 62
7
 10
-6.22912284E+01
 20
1.85895749E+02
 11
-6.22912284E+01
 21
1.80395749E+02
  0
LINE
  8
0
 62
7
 10
-6.18112284E+01
 20
1.86395749E+02
 11
-6.18112284E+01
 21
1.80745749E+02
  0
LINE
  8
0
 62
7
 10
-5.94412284E+01
 20
1.86395749E+02
 11
-5.94412284E+01
 21
1.80745749E+02
  0
LINE
  8
0
 62
7
 10
-5.93012284E+01
 20
1.85895749E+02
 11
-5.93012284E+01
 21
1.80395749E+02
  0
LINE
  8
0
 62
7
 10
-6.51112284E+01
 20
1.80745749E+02
 11
-6.44112284E+01
 21
1.80745749E+02
  0
LINE
  8
0
 62
7
 10
-5.93012284E+01
 20
1.85895749E+02
 11
-5.94412284E+01
 21
1.86395749E+02
  0
LINE
  8
0
 62
7
 10
-5.93012284E+01
 20
1.80395749E+02
 11
-5.94412284E+01
 21
1.80745749E+02
  0
LINE
  8
0
 62
7
 10
-6.18112284E+01
 20
1.80745749E+02
 11
-6.22912284E+01
 21
1.80395749E+02
  0
LINE
  8
0
 62
7
 10
-6.22912284E+01
 20
1.85895749E+02
 11
-6.18112284E+01
 21
1.86395749E+02
  0
LINE
  8
0
 62
7
 10
-6.44212284E+01
 20
1.85895749E+02
 11
-6.41412284E+01
 21
1.86395749E+02
  0
LINE
  8
0
 62
7
 10
-6.56612284E+01
 20
1.80395749E+02
 11
-6.51112284E+01
 21
1.80745749E+02
  0
LINE
  8
0
 62
7
 10
-6.56612284E+01
 20
1.85895749E+02
 11
-6.51112284E+01
 21
1.86395749E+02
  0
LINE
  8
0
 62
7
 10
-6.56612284E+01
 20
1.85895749E+02
 11
-6.58012284E+01
 21
1.85895749E+02
  0
LINE
  8
0
 62
7
 10
-6.18112284E+01
 20
1.80745749E+02
 11
-5.94412284E+01
 21
1.80745749E+02
  0
LINE
  8
0
 62
7
 10
-6.44112284E+01
 20
1.80395749E+02
 11
-6.56612284E+01
 21
1.80395749E+02
  0
LINE
  8
0
 62
7
 10
-5.63012284E+01
 20
1.80395749E+02
 11
-5.33012284E+01
 21
1.80395749E+02
  0
LINE
  8
0
 62
7
 10
-5.33012284E+01
 20
1.85895749E+02
 11
-5.11812284E+01
 21
1.85895749E+02
  0
LINE
  8
0
 62
7
 10
-4.99412284E+01
 20
1.85895749E+02
 11
-4.99412284E+01
 21
1.80395749E+02
  0
LINE
  8
0
 62
7
 10
-5.04812284E+01
 20
1.86395749E+02
 11
-5.04812284E+01
 21
1.80745749E+02
  0
LINE
  8
0
 62
7
 10
-5.11812284E+01
 20
1.85895749E+02
 11
-5.11812284E+01
 21
1.80395749E+02
  0
LINE
  8
0
 62
7
 10
-5.33012284E+01
 20
1.85895749E+02
 11
-5.33012284E+01
 21
1.80395749E+02
  0
LINE
  8
0
 62
7
 10
-5.37912284E+01
 20
1.86395749E+02
 11
-5.37912284E+01
 21
1.80745749E+02
  0
LINE
  8
0
 62
7
 10
-5.61512284E+01
 20
1.86395749E+02
 11
-5.61512284E+01
 21
1.80745749E+02
  0
LINE
  8
0
 62
7
 10
-5.63012284E+01
 20
1.85895749E+02
 11
-5.63012284E+01
 21
1.80395749E+02
  0
LINE
  8
0
 62
7
 10
-5.04812284E+01
 20
1.80745749E+02
 11
-5.11812284E+01
 21
1.80745749E+02
  0
LINE
  8
0
 62
7
 10
-5.63012284E+01
 20
1.85895749E+02
 11
-5.61512284E+01
 21
1.86395749E+02
  0
LINE
  8
0
 62
7
 10
-5.63012284E+01
 20
1.80395749E+02
 11
-5.61512284E+01
 21
1.80745749E+02
  0
LINE
  8
0
 62
7
 10
-5.37912284E+01
 20
1.80745749E+02
 11
-5.33012284E+01
 21
1.80395749E+02
  0
LINE
  8
0
 62
7
 10
-5.33012284E+01
 20
1.85895749E+02
 11
-5.37912284E+01
 21
1.86395749E+02
  0
LINE
  8
0
 62
7
 10
-5.11812284E+01
 20
1.85895749E+02
 11
-5.14612284E+01
 21
1.86395749E+02
  0
LINE
  8
0
  6
CENTER
 62
2
 10
-6.08012284E+01
 20
1.99635749E+02
 11
-6.08012284E+01
 21
-5.24442512E+01
  0
LINE
  8
0
 62
7
 10
-9.08012284E+01
 20
1.27395749E+02
 11
-9.08012284E+01
 21
1.21395749E+02
  0
LINE
  8
0
 62
7
 10
-6.65212284E+01
 20
1.86785749E+02
 11
-6.61412284E+01
 21
1.86495749E+02
  0
LINE
  8
0
 62
7
 10
-8.75412284E+01
 20
1.78395749E+02
 11
-8.88012284E+01
 21
1.76895749E+02
  0
LINE
  8
0
 62
7
 10
-8.63712284E+01
 20
1.78395749E+02
 11
-8.77612284E+01
 21
1.76895749E+02
  0
LINE
  8
0
 62
7
 10
-8.72212284E+01
 20
1.28395749E+02
 11
-8.77612284E+01
 21
1.76895749E+02
  0
LINE
  8
0
 62
7
 10
-3.43712284E+01
 20
1.28395749E+02
 11
-3.38412284E+01
 21
1.76895749E+02
  0
LINE
  8
0
 62
7
 10
-3.52212284E+01
 20
1.78395749E+02
 11
-3.38412284E+01
 21
1.76895749E+02
  0
LINE
  8
0
 62
7
 10
-3.40612284E+01
 20
1.78395749E+02
 11
-3.28012284E+01
 21
1.76895749E+02
  0
LINE
  8
0
 62
7
 10
-1.00801228E+02
 20
1.79395749E+02
 11
-8.98112284E+01
 21
1.79395749E+02
  0
LINE
  8
0
 62
7
 10
-1.00801228E+02
 20
1.79395749E+02
 11
-1.00801228E+02
 21
1.78395749E+02
  0
LINE
  8
0
 62
7
 10
-8.98112284E+01
 20
1.79395749E+02
 11
-8.98112284E+01
 21
1.78395749E+02
  0
LINE
  8
0
 62
7
 10
-6.35412284E+01
 20
1.86495749E+02
 11
-6.04912284E+01
 21
1.86495749E+02
  0
LINE
  8
0
 62
7
 10
-6.35412284E+01
 20
1.86785749E+02
 11
-6.10112284E+01
 21
1.86785749E+02
  0
LINE
  8
0
 62
7
 10
-6.10112284E+01
 20
1.86785749E+02
 11
-6.04912284E+01
 21
1.86495749E+02
  0
LINE
  8
0
 62
7
 10
-5.89912284E+01
 20
1.86495749E+02
 11
-5.78812284E+01
 21
1.86495749E+02
  0
LINE
  8
0
 62
7
 10
-5.89912284E+01
 20
1.86785749E+02
 11
-5.84012284E+01
 21
1.86785749E+02
  0
LINE
  8
0
 62
7
 10
-5.84012284E+01
 20
1.86785749E+02
 11
-5.78812284E+01
 21
1.86495749E+02
  0
LINE
  8
0
 62
7
 10
-9.87712284E+01
 20
5.33957488E+01
 11
-2.28212284E+01
 21
5.33957488E+01
  0
LINE
  8
0
 62
7
 10
-1.04801228E+02
 20
9.83957488E+01
 11
-1.68012284E+01
 21
9.83957488E+01
  0
LINE
  8
0
 62
7
 10
-9.98212284E+01
 20
5.43957488E+01
 11
-1.00951228E+02
 21
9.74157488E+01
  0
LINE
  8
0
 62
7
 10
-2.17712284E+01
 20
5.43957488E+01
 11
-2.06412284E+01
 21
9.74157488E+01
  0
LINE
  8
0
 62
7
 10
-9.98212284E+01
 20
5.43957488E+01
 11
-9.87712284E+01
 21
5.33957488E+01
  0
LINE
  8
0
 62
7
 10
-2.17712284E+01
 20
5.43957488E+01
 11
-2.28212284E+01
 21
5.33957488E+01
  0
LINE
  8
0
 62
7
 10
-9.98212284E+01
 20
5.43957488E+01
 11
-2.17712284E+01
 21
5.43957488E+01
  0
LINE
  8
0
 62
7
 10
-1.02801228E+02
 20
1.27795749E+02
 11
-1.02801228E+02
 21
1.22395749E+02
  0
LINE
  8
0
 62
7
 10
-9.28012284E+01
 20
1.27795749E+02
 11
-9.28012284E+01
 21
1.22395749E+02
  0
LINE
  8
0
 62
7
 10
-9.17012284E+01
 20
1.22395749E+02
 11
-1.03901228E+02
 21
1.22395749E+02
  0
LINE
  8
0
 62
7
 10
-9.17012284E+01
 20
1.22395749E+02
 11
-9.17012284E+01
 21
1.20895749E+02
  0
LINE
  8
0
 62
7
 10
-1.03901228E+02
 20
1.22395749E+02
 11
-1.03901228E+02
 21
1.20895749E+02
  0
LINE
  8
0
 62
7
 10
-1.02801228E+02
 20
1.27795749E+02
 11
-9.28012284E+01
 21
1.27795749E+02
  0
LINE
  8
0
 62
7
 10
-1.02801228E+02
 20
1.27795749E+02
 11
-1.02201228E+02
 21
1.28395749E+02
  0
LINE
  8
0
 62
7
 10
-9.28012284E+01
 20
1.27795749E+02
 11
-9.34012284E+01
 21
1.28395749E+02
  0
LINE
  8
0
 62
7
 10
-2.88012284E+01
 20
1.27795749E+02
 11
-2.88012284E+01
 21
1.22395749E+02
  0
LINE
  8
0
 62
7
 10
-1.88012284E+01
 20
1.27795749E+02
 11
-1.88012284E+01
 21
1.22395749E+02
  0
LINE
  8
0
 62
7
 10
-1.77012284E+01
 20
1.22395749E+02
 11
-2.99012284E+01
 21
1.22395749E+02
  0
LINE
  8
0
 62
7
 10
-1.77012284E+01
 20
1.22395749E+02
 11
-1.77012284E+01
 21
1.20895749E+02
  0
LINE
  8
0
 62
7
 10
-2.99012284E+01
 20
1.22395749E+02
 11
-2.99012284E+01
 21
1.20895749E+02
  0
LINE
  8
0
 62
7
 10
-2.88012284E+01
 20
1.27795749E+02
 11
-1.88012284E+01
 21
1.27795749E+02
  0
LINE
  8
0
 62
7
 10
-2.88012284E+01
 20
1.27795749E+02
 11
-2.82012284E+01
 21
1.28395749E+02
  0
LINE
  8
0
 62
7
 10
-1.88012284E+01
 20
1.27795749E+02
 11
-1.94012284E+01
 21
1.28395749E+02
  0
LINE
  8
0
 62
7
 10
-4.98012284E+01
 20
1.79395749E+02
 11
-4.58012284E+01
 21
1.79395749E+02
  0
LINE
  8
0
 62
7
 10
-3.19212284E+01
 20
1.67775749E+02
 11
-3.28012284E+01
 21
1.68395749E+02
  0
LINE
  8
0
 62
7
 10
-3.19212284E+01
 20
1.39005749E+02
 11
-3.28012284E+01
 21
1.38395749E+02
  0
LINE
  8
0
 62
7
 10
-2.36812284E+01
 20
1.67785749E+02
 11
-2.28012284E+01
 21
1.68395749E+02
  0
LINE
  8
0
 62
7
 10
-2.36812284E+01
 20
1.39005749E+02
 11
-2.28012284E+01
 21
1.38395749E+02
  0
LINE
  8
0
 62
7
 10
-4.58012284E+01
 20
1.79395749E+02
 11
-4.58012284E+01
 21
1.78395749E+02
  0
LINE
  8
0
 62
7
 10
-1.04301228E+02
 20
1.30395749E+02
 11
-1.04301228E+02
 21
1.28335749E+02
  0
LINE
  8
0
 62
7
 10
-2.35791228E+02
 20
1.78405749E+02
 11
-2.31791228E+02
 21
1.78405749E+02
  0
LINE
  8
0
 62
7
 10
-1.03801228E+02
 20
1.78405749E+02
 11
-1.00801228E+02
 21
1.78405749E+02
  0
LINE
  8
0
 62
7
 10
-2.42791228E+02
 20
1.38395749E+02
 11
-2.46791228E+02
 21
1.38395749E+02
  0
LINE
  8
0
 62
7
 10
-9.28012284E+01
 20
1.68395749E+02
 11
-8.88012284E+01
 21
1.68395749E+02
  0
LINE
  8
0
  6
CENTER
 62
2
 10
-2.15291228E+02
 20
1.41895749E+02
 11
-2.32291228E+02
 21
1.41895749E+02
  0
LINE
  8
0
 62
7
 10
-2.04791228E+02
 20
1.30395749E+02
 11
-2.42791228E+02
 21
1.30395749E+02
  0
LINE
  8
0
  6
CENTER
 62
2
 10
-2.23791228E+02
 20
2.13395749E+02
 11
-2.23791228E+02
 21
9.33957488E+01
  0
LINE
  8
0
 62
7
 10
-2.42791228E+02
 20
1.76395749E+02
 11
-2.42791228E+02
 21
1.30395749E+02
  0
LINE
  8
0
 62
7
 10
-2.04791228E+02
 20
1.76395749E+02
 11
-2.04791228E+02
 21
1.30395749E+02
  0
LINE
  8
0
 62
7
 10
-2.14311228E+02
 20
1.35895749E+02
 11
-2.33261228E+02
 21
1.35895749E+02
  0
LINE
  8
0
 62
7
 10
-2.14311228E+02
 20
1.70895749E+02
 11
-2.33261228E+02
 21
1.70895749E+02
  0
LINE
  8
0
 62
7
 10
-2.14311228E+02
 20
1.70895749E+02
 11
-2.14311228E+02
 21
1.35895749E+02
  0
LINE
  8
0
 62
7
 10
-2.33261228E+02
 20
1.70895749E+02
 11
-2.33261228E+02
 21
1.35895749E+02
  0
LINE
  8
0
 62
7
 10
-2.14311228E+02
 20
1.70895749E+02
 11
-2.04791228E+02
 21
1.76395749E+02
  0
LINE
  8
0
 62
7
 10
-2.33261228E+02
 20
1.70895749E+02
 11
-2.42791228E+02
 21
1.76395749E+02
  0
LINE
  8
0
 62
7
 10
-2.33261228E+02
 20
1.35895749E+02
 11
-2.42791228E+02
 21
1.30395749E+02
  0
LINE
  8
0
 62
7
 10
-2.14311228E+02
 20
1.35895749E+02
 11
-2.04791228E+02
 21
1.30395749E+02
  0
LINE
  8
0
  6
CENTER
 62
2
 10
-2.15291228E+02
 20
1.64895749E+02
 11
-2.32291228E+02
 21
1.64895749E+02
  0
LINE
  8
0
 62
7
 10
-2.04791228E+02
 20
1.76395749E+02
 11
-2.42791228E+02
 21
1.76395749E+02
  0
LINE
  8
0
 62
7
 10
-2.17791228E+02
 20
1.76895749E+02
 11
-2.17791228E+02
 21
1.76395749E+02
  0
LINE
  8
0
 62
7
 10
-1.17801228E+02
 20
1.76895749E+02
 11
-1.17801228E+02
 21
1.76395749E+02
  0
LINE
  8
0
 62
7
 10
-2.17791228E+02
 20
1.76895749E+02
 11
-2.16291228E+02
 21
1.78395749E+02
  0
LINE
  8
0
 62
7
 10
-1.17801228E+02
 20
1.76895749E+02
 11
-1.19301228E+02
 21
1.78395749E+02
  0
LINE
  8
0
 62
7
 10
-2.12791228E+02
 20
1.79395749E+02
 11
-2.12791228E+02
 21
1.78395749E+02
  0
LINE
  8
0
 62
7
 10
-2.01791228E+02
 20
1.79395749E+02
 11
-2.01791228E+02
 21
1.78395749E+02
  0
LINE
  8
0
 62
7
 10
-2.12791228E+02
 20
1.79395749E+02
 11
-2.01791228E+02
 21
1.79395749E+02
  0
LINE
  8
0
 62
7
 10
-2.17791228E+02
 20
1.29895749E+02
 11
-2.16291228E+02
 21
1.28395749E+02
  0
LINE
  8
0
 62
7
 10
-1.19301228E+02
 20
1.28395749E+02
 11
-1.17801228E+02
 21
1.29895749E+02
  0
LINE
  8
0
 62
7
 10
-1.19301228E+02
 20
1.28395749E+02
 11
-1.19301228E+02
 21
1.30395749E+02
  0
LINE
  8
0
 62
7
 10
-2.16291228E+02
 20
1.28395749E+02
 11
-2.16291228E+02
 21
1.30395749E+02
  0
LINE
  8
0
 62
7
 10
-2.12791228E+02
 20
1.27395749E+02
 11
-2.01791228E+02
 21
1.27395749E+02
  0
LINE
  8
0
 62
7
 10
-2.12791228E+02
 20
1.27395749E+02
 11
-2.12791228E+02
 21
1.28395749E+02
  0
LINE
  8
0
 62
7
 10
-2.01791228E+02
 20
1.27395749E+02
 11
-2.01791228E+02
 21
1.28395749E+02
  0
LINE
  8
0
 62
7
 10
-1.96791228E+02
 20
1.68395749E+02
 11
-1.96791228E+02
 21
1.38395749E+02
  0
LINE
  8
0
 62
7
 10
-2.17791228E+02
 20
1.30395749E+02
 11
-2.17791228E+02
 21
1.29895749E+02
  0
LINE
  8
0
 62
7
 10
-2.16291228E+02
 20
1.76395749E+02
 11
-2.16291228E+02
 21
1.78395749E+02
  0
LINE
  8
0
 62
7
 10
-2.04791228E+02
 20
1.68395749E+02
 11
-1.96791228E+02
 21
1.68395749E+02
  0
LINE
  8
0
 62
7
 10
-2.04791228E+02
 20
1.38395749E+02
 11
-1.96791228E+02
 21
1.38395749E+02
  0
LINE
  8
0
 62
7
 10
-1.97671228E+02
 20
1.67775749E+02
 11
-1.97671228E+02
 21
1.39005749E+02
  0
LINE
  8
0
 62
7
 10
-2.04791228E+02
 20
1.67775749E+02
 11
-1.97671228E+02
 21
1.67775749E+02
  0
LINE
  8
0
 62
7
 10
-2.04791228E+02
 20
1.39005749E+02
 11
-1.97671228E+02
 21
1.39005749E+02
  0
LINE
  8
0
 62
7
 10
-1.97671228E+02
 20
1.39005749E+02
 11
-1.96791228E+02
 21
1.38395749E+02
  0
LINE
  8
0
 62
7
 10
-1.96791228E+02
 20
1.68395749E+02
 11
-1.97671228E+02
 21
1.67785749E+02
  0
LINE
  8
0
 62
7
 10
-2.08791228E+02
 20
2.08395749E+02
 11
-2.38791228E+02
 21
2.08395749E+02
  0
LINE
  8
0
 62
7
 10
-2.04791228E+02
 20
2.04395749E+02
 11
-2.04791228E+02
 21
1.79395749E+02
  0
LINE
  8
0
 62
7
 10
-2.42791228E+02
 20
2.04395749E+02
 11
-2.42791228E+02
 21
1.78395749E+02
  0
LINE
  8
0
 62
7
 10
-2.04791228E+02
 20
2.04395749E+02
 11
-2.08791228E+02
 21
2.08395749E+02
  0
LINE
  8
0
 62
7
 10
-2.42791228E+02
 20
2.04395749E+02
 11
-2.38791228E+02
 21
2.08395749E+02
  0
LINE
  8
0
 62
7
 10
-2.06291228E+02
 20
2.03775749E+02
 11
-2.06291228E+02
 21
1.79395749E+02
  0
LINE
  8
0
 62
7
 10
-2.41291228E+02
 20
2.03775749E+02
 11
-2.41291228E+02
 21
1.78395749E+02
  0
LINE
  8
0
 62
7
 10
-2.09411228E+02
 20
2.06895749E+02
 11
-2.38171228E+02
 21
2.06895749E+02
  0
LINE
  8
0
 62
7
 10
-2.41291228E+02
 20
2.03775749E+02
 11
-2.38171228E+02
 21
2.06895749E+02
  0
LINE
  8
0
 62
7
 10
-2.06291228E+02
 20
2.03775749E+02
 11
-2.09411228E+02
 21
2.06895749E+02
  0
LINE
  8
0
  6
CENTER
 62
2
 10
-2.13291228E+02
 20
1.98395749E+02
 11
-2.34291228E+02
 21
1.98395749E+02
  0
LINE
  8
0
 62
7
 10
-2.21791228E+02
 20
2.02895749E+02
 11
-2.25791228E+02
 21
2.02895749E+02
  0
LINE
  8
0
 62
7
 10
-2.21791228E+02
 20
1.93895749E+02
 11
-2.25791228E+02
 21
1.93895749E+02
  0
LINE
  8
0
  6
CENTER
 62
2
 10
-2.21791228E+02
 20
2.04895749E+02
 11
-2.21791228E+02
 21
1.91895749E+02
  0
LINE
  8
0
  6
CENTER
 62
2
 10
-2.25791228E+02
 20
2.04895749E+02
 11
-2.25791228E+02
 21
1.91895749E+02
  0
LINE
  8
0
 62
7
 10
-2.08791228E+02
 20
9.83957488E+01
 11
-2.30791228E+02
 21
9.83957488E+01
  0
LINE
  8
0
 62
7
 10
-2.04791228E+02
 20
1.02395749E+02
 11
-2.04791228E+02
 21
1.27395749E+02
  0
LINE
  8
0
 62
7
 10
-2.04791228E+02
 20
1.02395749E+02
 11
-2.08791228E+02
 21
9.83957488E+01
  0
LINE
  8
0
 62
7
 10
-2.38961228E+02
 20
9.85657488E+01
 11
-2.38791228E+02
 21
9.83957488E+01
  0
LINE
  8
0
 62
7
 10
-2.06291228E+02
 20
1.03015749E+02
 11
-2.06291228E+02
 21
1.27395749E+02
  0
LINE
  8
0
 62
7
 10
-2.09411228E+02
 20
9.98957488E+01
 11
-2.29791228E+02
 21
9.98957488E+01
  0
LINE
  8
0
 62
7
 10
-2.06291228E+02
 20
1.03015749E+02
 11
-2.09411228E+02
 21
9.98957488E+01
  0
LINE
  8
0
  6
CENTER
 62
2
 10
-2.13291228E+02
 20
1.08395749E+02
 11
-2.34291228E+02
 21
1.08395749E+02
  0
LINE
  8
0
 62
7
 10
-2.21791228E+02
 20
1.03895749E+02
 11
-2.25791228E+02
 21
1.03895749E+02
  0
LINE
  8
0
 62
7
 10
-2.21791228E+02
 20
1.12895749E+02
 11
-2.25791228E+02
 21
1.12895749E+02
  0
LINE
  8
0
  6
CENTER
 62
2
 10
-2.21791228E+02
 20
1.01895749E+02
 11
-2.21791228E+02
 21
1.14895749E+02
  0
LINE
  8
0
  6
CENTER
 62
2
 10
-2.25791228E+02
 20
1.01895749E+02
 11
-2.25791228E+02
 21
1.14895749E+02
  0
LINE
  8
0
 62
7
 10
-2.39291228E+02
 20
1.86395749E+02
 11
-2.08291228E+02
 21
1.86395749E+02
  0
LINE
  8
0
 62
7
 10
-2.29791228E+02
 20
1.20395749E+02
 11
-2.08291228E+02
 21
1.20395749E+02
  0
LINE
  8
0
 62
7
 10
-2.41291228E+02
 20
2.03775749E+02
 11
-2.42791228E+02
 21
2.04395749E+02
  0
LINE
  8
0
 62
7
 10
-2.06291228E+02
 20
2.03775749E+02
 11
-2.04791228E+02
 21
2.04395749E+02
  0
LINE
  8
0
 62
7
 10
-2.08791228E+02
 20
2.08395749E+02
 11
-2.09411228E+02
 21
2.06895749E+02
  0
LINE
  8
0
 62
7
 10
-2.38791228E+02
 20
2.08395749E+02
 11
-2.38171228E+02
 21
2.06895749E+02
  0
LINE
  8
0
 62
7
 10
-2.08791228E+02
 20
9.83957488E+01
 11
-2.09411228E+02
 21
9.98957488E+01
  0
LINE
  8
0
 62
7
 10
-2.06291228E+02
 20
1.03015749E+02
 11
-2.04791228E+02
 21
1.02395749E+02
  0
LINE
  8
0
 62
7
 10
-1.29301228E+02
 20
2.03775749E+02
 11
-1.30801228E+02
 21
2.04395749E+02
  0
LINE
  8
0
  6
CENTER
 62
2
 10
-1.20301228E+02
 20
1.41895749E+02
 11
-1.03301228E+02
 21
1.41895749E+02
  0
LINE
  8
0
 62
7
 10
-1.30801228E+02
 20
1.30395749E+02
 11
-9.28012284E+01
 21
1.30395749E+02
  0
LINE
  8
0
  6
CENTER
 62
2
 10
-1.11801228E+02
 20
2.13395749E+02
 11
-1.11801228E+02
 21
9.33957488E+01
  0
LINE
  8
0
 62
7
 10
-9.28012284E+01
 20
1.76395749E+02
 11
-9.28012284E+01
 21
1.30395749E+02
  0
LINE
  8
0
 62
7
 10
-1.21271228E+02
 20
1.35895749E+02
 11
-1.02321228E+02
 21
1.35895749E+02
  0
LINE
  8
0
 62
7
 10
-1.21271228E+02
 20
1.70895749E+02
 11
-1.02321228E+02
 21
1.70895749E+02
  0
LINE
  8
0
 62
7
 10
-1.21271228E+02
 20
1.70895749E+02
 11
-1.21271228E+02
 21
1.35895749E+02
  0
LINE
  8
0
 62
7
 10
-1.02321228E+02
 20
1.70895749E+02
 11
-1.02321228E+02
 21
1.35895749E+02
  0
LINE
  8
0
 62
7
 10
-1.21271228E+02
 20
1.70895749E+02
 11
-1.30801228E+02
 21
1.76395749E+02
  0
LINE
  8
0
 62
7
 10
-1.02321228E+02
 20
1.70895749E+02
 11
-9.28012284E+01
 21
1.76395749E+02
  0
LINE
  8
0
 62
7
 10
-1.02321228E+02
 20
1.35895749E+02
 11
-9.28012284E+01
 21
1.30395749E+02
  0
LINE
  8
0
 62
7
 10
-1.21271228E+02
 20
1.35895749E+02
 11
-1.30801228E+02
 21
1.30395749E+02
  0
LINE
  8
0
  6
CENTER
 62
2
 10
-1.20301228E+02
 20
1.64895749E+02
 11
-1.03301228E+02
 21
1.64895749E+02
  0
LINE
  8
0
 62
7
 10
-1.30801228E+02
 20
1.76395749E+02
 11
-9.28012284E+01
 21
1.76395749E+02
  0
LINE
  8
0
 62
7
 10
-1.29301228E+02
 20
1.03015749E+02
 11
-1.30801228E+02
 21
1.02395749E+02
  0
LINE
  8
0
 62
7
 10
-9.68012284E+01
 20
2.08395749E+02
 11
-9.74212284E+01
 21
2.06895749E+02
  0
LINE
  8
0
 62
7
 10
-1.26801228E+02
 20
9.83957488E+01
 11
-1.26181228E+02
 21
9.98957488E+01
  0
LINE
  8
0
 62
7
 10
-1.26801228E+02
 20
2.08395749E+02
 11
-1.26181228E+02
 21
2.06895749E+02
  0
LINE
  8
0
 62
7
 10
-1.26801228E+02
 20
2.08395749E+02
 11
-9.68012284E+01
 21
2.08395749E+02
  0
LINE
  8
0
 62
7
 10
-1.30801228E+02
 20
2.04395749E+02
 11
-1.30801228E+02
 21
1.78395749E+02
  0
LINE
  8
0
 62
7
 10
-9.28012284E+01
 20
2.04395749E+02
 11
-9.28012284E+01
 21
1.79395749E+02
  0
LINE
  8
0
 62
7
 10
-1.30801228E+02
 20
2.04395749E+02
 11
-1.26801228E+02
 21
2.08395749E+02
  0
LINE
  8
0
 62
7
 10
-9.28012284E+01
 20
2.04395749E+02
 11
-9.68012284E+01
 21
2.08395749E+02
  0
LINE
  8
0
 62
7
 10
-1.29301228E+02
 20
2.03775749E+02
 11
-1.29301228E+02
 21
1.78395749E+02
  0
LINE
  8
0
 62
7
 10
-9.43012284E+01
 20
2.03775749E+02
 11
-9.43012284E+01
 21
1.79395749E+02
  0
LINE
  8
0
 62
7
 10
-1.26181228E+02
 20
2.06895749E+02
 11
-9.74212284E+01
 21
2.06895749E+02
  0
LINE
  8
0
 62
7
 10
-9.43012284E+01
 20
2.03775749E+02
 11
-9.74212284E+01
 21
2.06895749E+02
  0
LINE
  8
0
 62
7
 10
-1.29301228E+02
 20
2.03775749E+02
 11
-1.26181228E+02
 21
2.06895749E+02
  0
LINE
  8
0
  6
CENTER
 62
2
 10
-1.22301228E+02
 20
1.98395749E+02
 11
-1.01301228E+02
 21
1.98395749E+02
  0
LINE
  8
0
 62
7
 10
-1.13801228E+02
 20
2.02895749E+02
 11
-1.09801228E+02
 21
2.02895749E+02
  0
LINE
  8
0
 62
7
 10
-1.13801228E+02
 20
1.93895749E+02
 11
-1.09801228E+02
 21
1.93895749E+02
  0
LINE
  8
0
  6
CENTER
 62
2
 10
-1.13801228E+02
 20
2.04895749E+02
 11
-1.13801228E+02
 21
1.91895749E+02
  0
LINE
  8
0
  6
CENTER
 62
2
 10
-1.09801228E+02
 20
2.04895749E+02
 11
-1.09801228E+02
 21
1.91895749E+02
  0
LINE
  8
0
 62
7
 10
-1.26801228E+02
 20
9.83957488E+01
 11
-1.04801228E+02
 21
9.83957488E+01
  0
LINE
  8
0
 62
7
 10
-1.30801228E+02
 20
1.02395749E+02
 11
-1.30801228E+02
 21
1.28395749E+02
  0
LINE
  8
0
 62
7
 10
-1.30801228E+02
 20
1.02395749E+02
 11
-1.26801228E+02
 21
9.83957488E+01
  0
LINE
  8
0
 62
7
 10
-9.66312284E+01
 20
9.85657488E+01
 11
-9.68012284E+01
 21
9.83957488E+01
  0
LINE
  8
0
 62
7
 10
-1.29301228E+02
 20
1.03015749E+02
 11
-1.29301228E+02
 21
1.28395749E+02
  0
LINE
  8
0
 62
7
 10
-1.26181228E+02
 20
9.98957488E+01
 11
-1.05801228E+02
 21
9.98957488E+01
  0
LINE
  8
0
 62
7
 10
-1.29301228E+02
 20
1.03015749E+02
 11
-1.26181228E+02
 21
9.98957488E+01
  0
LINE
  8
0
  6
CENTER
 62
2
 10
-1.22301228E+02
 20
1.08395749E+02
 11
-1.01301228E+02
 21
1.08395749E+02
  0
LINE
  8
0
 62
7
 10
-1.13801228E+02
 20
1.03895749E+02
 11
-1.09801228E+02
 21
1.03895749E+02
  0
LINE
  8
0
 62
7
 10
-1.13801228E+02
 20
1.12895749E+02
 11
-1.09801228E+02
 21
1.12895749E+02
  0
LINE
  8
0
  6
CENTER
 62
2
 10
-1.13801228E+02
 20
1.01895749E+02
 11
-1.13801228E+02
 21
1.14895749E+02
  0
LINE
  8
0
  6
CENTER
 62
2
 10
-1.09801228E+02
 20
1.01895749E+02
 11
-1.09801228E+02
 21
1.14895749E+02
  0
LINE
  8
0
 62
7
 10
-9.63012284E+01
 20
1.86395749E+02
 11
-1.27301228E+02
 21
1.86395749E+02
  0
LINE
  8
0
 62
7
 10
-1.05801228E+02
 20
1.20395749E+02
 11
-1.27301228E+02
 21
1.20395749E+02
  0
LINE
  8
0
 62
7
 10
-9.43012284E+01
 20
2.03775749E+02
 11
-9.28012284E+01
 21
2.04395749E+02
  0
LINE
  8
0
 62
7
 10
-1.17801228E+02
 20
1.30395749E+02
 11
-1.17801228E+02
 21
1.29895749E+02
  0
LINE
  8
0
 62
7
 10
-1.19301228E+02
 20
1.76395749E+02
 11
-1.19301228E+02
 21
1.78395749E+02
  0
ARC
  8
0
 62
7
 10
-3.05294096E+02
 20
1.21398617E+02
 40
5.02876221E-01
 50
2.70326776E+02
 51
3.59673225E+02
  0
ARC
  8
0
 62
7
 10
-2.44291205E+02
 20
1.21395772E+02
 40
5.00023485E-01
 50
1.80002691E+02
 51
2.70000000E+02
  0
ARC
  8
0
 62
7
 10
-3.03794096E+02
 20
1.27398617E+02
 40
9.97136083E-01
 50
8.98352009E+01
 51
1.80164799E+02
  0
ARC
  8
0
 62
7
 10
-2.45791233E+02
 20
1.27395745E+02
 40
1.00000416E+00
 50
2.38162037E-04
 51
9.00000002E+01
  0
ARC
  8
0
 62
7
 10
-3.18794066E+02
 20
1.19898586E+02
 40
9.97166513E-01
 50
8.98369599E+01
 51
1.80163040E+02
  0
ARC
  8
0
 62
7
 10
-3.18794081E+02
 20
1.27398602E+02
 40
9.97151298E-01
 50
8.98360804E+01
 51
1.80163920E+02
  0
ARC
  8
0
 62
7
 10
-3.18791194E+02
 20
9.93957833E+01
 40
1.00003459E+00
 50
1.80001982E+02
 51
2.70000000E+02
  0
ARC
  8
0
 62
7
 10
-3.15942345E+02
 20
9.73944056E+01
 40
1.00134379E+00
 50
1.22132493E+00
 51
8.99361263E+01
  0
ARC
  8
0
 62
7
 10
-2.30791248E+02
 20
1.19895729E+02
 40
1.00001937E+00
 50
1.10989162E-03
 51
9.00000002E+01
  0
ARC
  8
0
 62
7
 10
-2.30791233E+02
 20
1.27395745E+02
 40
1.00000416E+00
 50
2.38162037E-04
 51
9.00000002E+01
  0
ARC
  8
0
 62
7
 10
-2.30794081E+02
 20
9.93986015E+01
 40
1.00285684E+00
 50
2.70162987E+02
 51
3.59837013E+02
  0
ARC
  8
0
 62
7
 10
-2.33642930E+02
 20
9.73972813E+01
 40
9.98468945E-01
 50
8.99023412E+01
 51
1.78940208E+02
  0
ARC
  8
0
 62
7
 10
-7.18012284E+01
 20
1.99598644E+02
 40
6.95015963E+00
 50
3.88323552E-01
 51
1.79611677E+02
  0
ARC
  8
0
 62
7
 10
-9.12991367E+01
 20
1.21393657E+02
 40
4.97912695E-01
 50
2.69759303E+02
 51
2.40696550E-01
  0
ARC
  8
0
 62
7
 10
-3.02962316E+01
 20
1.21400746E+02
 40
5.05021538E-01
 50
1.80566909E+02
 51
2.69433091E+02
  0
ARC
  8
0
 62
7
 10
-8.97990992E+01
 20
1.27393620E+02
 40
1.00213146E+00
 50
9.01217348E+01
 51
1.79878265E+02
  0
ARC
  8
0
 62
7
 10
-3.17962383E+01
 20
1.27400739E+02
 40
9.95022367E-01
 50
3.59712654E+02
 51
9.02873460E+01
  0
ARC
  8
0
 62
7
 10
-1.67962536E+01
 20
1.19900724E+02
 40
9.95037581E-01
 50
3.59713539E+02
 51
9.02864607E+01
  0
ARC
  8
0
 62
7
 10
-1.04799084E+02
 20
1.19893604E+02
 40
1.00214668E+00
 50
9.01226011E+01
 51
1.79877399E+02
  0
ARC
  8
0
 62
7
 10
-1.04799099E+02
 20
1.27393620E+02
 40
1.00213146E+00
 50
9.01217348E+01
 51
1.79878265E+02
  0
ARC
  8
0
 62
7
 10
-1.67962383E+01
 20
1.27400739E+02
 40
9.95022367E-01
 50
3.59712654E+02
 51
9.02873460E+01
  0
ARC
  8
0
 62
7
 10
-8.62991089E+01
 20
1.79393629E+02
 40
9.97882717E-01
 50
2.69878302E+02
 51
1.21698122E-01
  0
ARC
  8
0
 62
7
 10
-1.04796226E+02
 20
9.94007510E+01
 40
1.00501469E+00
 50
1.80285178E+02
 51
2.69714822E+02
  0
ARC
  8
0
 62
7
 10
-1.67991089E+01
 20
9.93936292E+01
 40
9.97882717E-01
 50
2.69878302E+02
 51
1.21698122E-01
  0
ARC
  8
0
 62
7
 10
-1.01947467E+02
 20
9.73993829E+01
 40
9.96372995E-01
 50
9.41152449E-01
 51
9.02162986E+01
  0
ARC
  8
0
 62
7
 10
-1.96429303E+01
 20
9.73972813E+01
 40
9.98468945E-01
 50
8.99023412E+01
 51
1.78940208E+02
  0
CIRCLE
  8
0
 62
7
 10
-2.23794112E+02
 20
1.64898571E+02
 40
5.50000000E+00
  0
CIRCLE
  8
0
 62
7
 10
-2.23794112E+02
 20
1.41898571E+02
 40
5.50000000E+00
  0
ARC
  8
0
 62
7
 10
-2.21791228E+02
 20
1.98395749E+02
 40
4.50000092E+00
 50
2.70000000E+02
 51
9.00000002E+01
  0
ARC
  8
0
 62
7
 10
-2.25791228E+02
 20
1.98395749E+02
 40
4.50000092E+00
 50
9.00000002E+01
 51
2.70000000E+02
  0
ARC
  8
0
 62
7
 10
-2.25792682E+02
 20
1.08399443E+02
 40
4.49630607E+00
 50
8.99814787E+01
 51
1.52784903E+02
  0
ARC
  8
0
 62
7
 10
-2.21791228E+02
 20
1.08395749E+02
 40
4.50000092E+00
 50
2.70000000E+02
 51
9.00000002E+01
  0
ARC
  8
0
 62
7
 10
-1.09801131E+02
 20
1.08394278E+02
 40
4.49852929E+00
 50
2.70000000E+02
 51
3.32767619E+02
  0
ARC
  8
0
 62
7
 10
-1.13801228E+02
 20
1.08395749E+02
 40
4.50000568E+00
 50
9.00000002E+01
 51
2.70000000E+02
  0
ARC
  8
0
 62
7
 10
-1.13801228E+02
 20
1.98395749E+02
 40
4.50000568E+00
 50
9.00000002E+01
 51
2.70000000E+02
  0
ARC
  8
0
 62
7
 10
-1.09801228E+02
 20
1.98395749E+02
 40
4.50000568E+00
 50
2.70000000E+02
 51
9.00000002E+01
  0
CIRCLE
  8
0
 62
7
 10
-1.11794081E+02
 20
1.41898571E+02
 40
5.50000000E+00
  0
CIRCLE
  8
0
 62
7
 10
-1.11794081E+02
 20
1.64898571E+02
 40
5.50000000E+00
  0
ARC
  8
0
 62
7
 10
-2.25790172E+02
 20
1.08396170E+02
 40
4.50042124E+00
 50
2.07247073E+02
 51
2.69986545E+02
  0
ARC
  8
0
 62
7
 10
-1.09798620E+02
 20
1.08401336E+02
 40
4.49441303E+00
 50
2.72003639E+01
 51
9.00332541E+01
  0
LINE
  8
0
 62
7
 10
-2.25234112E+02
 20
1.67398571E+02
 11
-2.22354112E+02
 21
1.67398571E+02
  0
LINE
  8
0
 62
7
 10
-2.25234112E+02
 20
1.67398571E+02
 11
-2.26674112E+02
 21
1.64898571E+02
  0
LINE
  8
0
 62
7
 10
-2.26674112E+02
 20
1.64898571E+02
 11
-2.25234112E+02
 21
1.62398571E+02
  0
LINE
  8
0
 62
7
 10
-2.25234112E+02
 20
1.62398571E+02
 11
-2.22354112E+02
 21
1.62398571E+02
  0
LINE
  8
0
 62
7
 10
-2.20914112E+02
 20
1.64898571E+02
 11
-2.22354112E+02
 21
1.62398571E+02
  0
LINE
  8
0
 62
7
 10
-2.22354112E+02
 20
1.67398571E+02
 11
-2.20914112E+02
 21
1.64898571E+02
  0
CIRCLE
  8
0
 62
7
 10
-2.23794112E+02
 20
1.64898571E+02
 40
4.99999905E+00
  0
CIRCLE
  8
0
 62
7
 10
-2.23794112E+02
 20
1.64898571E+02
 40
4.30717945E+00
  0
CIRCLE
  8
0
 62
7
 10
-2.23794112E+02
 20
1.64898571E+02
 40
2.88675117E+00
  0
LINE
  8
0
 62
7
 10
-2.25234112E+02
 20
1.44398571E+02
 11
-2.22354112E+02
 21
1.44398571E+02
  0
LINE
  8
0
 62
7
 10
-2.25234112E+02
 20
1.44398571E+02
 11
-2.26674112E+02
 21
1.41898571E+02
  0
LINE
  8
0
 62
7
 10
-2.26674112E+02
 20
1.41898571E+02
 11
-2.25234112E+02
 21
1.39398571E+02
  0
LINE
  8
0
 62
7
 10
-2.25234112E+02
 20
1.39398571E+02
 11
-2.22354112E+02
 21
1.39398571E+02
  0
LINE
  8
0
 62
7
 10
-2.20914112E+02
 20
1.41898571E+02
 11
-2.22354112E+02
 21
1.39398571E+02
  0
LINE
  8
0
 62
7
 10
-2.22354112E+02
 20
1.44398571E+02
 11
-2.20914112E+02
 21
1.41898571E+02
  0
CIRCLE
  8
0
 62
7
 10
-2.23794112E+02
 20
1.41898571E+02
 40
4.99999905E+00
  0
CIRCLE
  8
0
 62
7
 10
-2.23794112E+02
 20
1.41898571E+02
 40
4.30717945E+00
  0
CIRCLE
  8
0
 62
7
 10
-2.23794112E+02
 20
1.41898571E+02
 40
2.88675117E+00
  0
LINE
  8
0
 62
7
 10
-1.13234081E+02
 20
1.67398571E+02
 11
-1.10354081E+02
 21
1.67398571E+02
  0
LINE
  8
0
 62
7
 10
-1.13234081E+02
 20
1.67398571E+02
 11
-1.14674081E+02
 21
1.64898571E+02
  0
LINE
  8
0
 62
7
 10
-1.14674081E+02
 20
1.64898571E+02
 11
-1.13234081E+02
 21
1.62398571E+02
  0
LINE
  8
0
 62
7
 10
-1.13234081E+02
 20
1.62398571E+02
 11
-1.10354081E+02
 21
1.62398571E+02
  0
LINE
  8
0
 62
7
 10
-1.08914081E+02
 20
1.64898571E+02
 11
-1.10354081E+02
 21
1.62398571E+02
  0
LINE
  8
0
 62
7
 10
-1.10354081E+02
 20
1.67398571E+02
 11
-1.08914081E+02
 21
1.64898571E+02
  0
CIRCLE
  8
0
 62
7
 10
-1.11794081E+02
 20
1.64898571E+02
 40
4.99999905E+00
  0
CIRCLE
  8
0
 62
7
 10
-1.11794081E+02
 20
1.64898571E+02
 40
4.30717945E+00
  0
CIRCLE
  8
0
 62
7
 10
-1.11794081E+02
 20
1.64898571E+02
 40
2.88675117E+00
  0
LINE
  8
0
 62
7
 10
-1.13234081E+02
 20
1.44398571E+02
 11
-1.10354081E+02
 21
1.44398571E+02
  0
LINE
  8
0
 62
7
 10
-1.13234081E+02
 20
1.44398571E+02
 11
-1.14674081E+02
 21
1.41898571E+02
  0
LINE
  8
0
 62
7
 10
-1.14674081E+02
 20
1.41898571E+02
 11
-1.13234081E+02
 21
1.39398571E+02
  0
LINE
  8
0
 62
7
 10
-1.13234081E+02
 20
1.39398571E+02
 11
-1.10354081E+02
 21
1.39398571E+02
  0
LINE
  8
0
 62
7
 10
-1.08914081E+02
 20
1.41898571E+02
 11
-1.10354081E+02
 21
1.39398571E+02
  0
LINE
  8
0
 62
7
 10
-1.10354081E+02
 20
1.44398571E+02
 11
-1.08914081E+02
 21
1.41898571E+02
  0
CIRCLE
  8
0
 62
7
 10
-1.11794081E+02
 20
1.41898571E+02
 40
4.99999905E+00
  0
CIRCLE
  8
0
 62
7
 10
-1.11794081E+02
 20
1.41898571E+02
 40
4.30717945E+00
  0
CIRCLE
  8
0
 62
7
 10
-1.11794081E+02
 20
1.41898571E+02
 40
2.88675117E+00
  0
LINE
  8
0
 62
7
 10
-2.93201228E+02
 20
-4.57942512E+01
 11
-2.56371228E+02
 21
-4.57942512E+01
  0
LINE
  8
0
 62
7
 10
-2.94751228E+02
 20
-2.82942512E+01
 11
-3.01651228E+02
 21
-2.82942512E+01
  0
LINE
  8
0
 62
7
 10
-2.94751228E+02
 20
7.69574876E+00
 11
-3.01651228E+02
 21
7.69574876E+00
  0
LINE
  8
0
 62
7
 10
-2.94751228E+02
 20
1.36957488E+01
 11
-3.01651228E+02
 21
1.36957488E+01
  0
LINE
  8
0
 62
7
 10
-3.01651228E+02
 20
4.76957488E+01
 11
-2.94751228E+02
 21
4.76957488E+01
  0
LINE
  8
0
 62
7
 10
-2.41371228E+02
 20
-3.09242512E+01
 11
-2.40641228E+02
 21
5.33957488E+01
  0
LINE
  8
0
 62
7
 10
-3.08201228E+02
 20
-3.09242512E+01
 11
-3.08681228E+02
 21
2.34957488E+01
  0
LINE
  8
0
 62
7
 10
-2.99821228E+02
 20
4.71957488E+01
 11
-2.94751228E+02
 21
4.71957488E+01
  0
LINE
  8
0
 62
7
 10
-2.94751228E+02
 20
7.19574876E+00
 11
-2.99821228E+02
 21
7.19574876E+00
  0
LINE
  8
0
 62
7
 10
-2.94751228E+02
 20
1.41957488E+01
 11
-2.99821228E+02
 21
1.41957488E+01
  0
LINE
  8
0
 62
7
 10
-2.94751228E+02
 20
-2.77942512E+01
 11
-2.99821228E+02
 21
-2.77942512E+01
  0
LINE
  8
0
 62
7
 10
-3.02651228E+02
 20
6.69574876E+00
 11
-3.02651228E+02
 21
-2.72942512E+01
  0
LINE
  8
0
 62
7
 10
-3.00821228E+02
 20
6.19574876E+00
 11
-3.00821228E+02
 21
-2.67942512E+01
  0
LINE
  8
0
 62
7
 10
-2.93751228E+02
 20
6.69574876E+00
 11
-2.93751228E+02
 21
-2.72942512E+01
  0
LINE
  8
0
 62
7
 10
-2.94361228E+02
 20
-2.87942512E+01
 11
-3.01911228E+02
 21
-2.87942512E+01
  0
LINE
  8
0
 62
7
 10
-2.94361228E+02
 20
-2.92942512E+01
 11
-3.02511228E+02
 21
-2.92942512E+01
  0
LINE
  8
0
 62
7
 10
-3.01911228E+02
 20
4.81957488E+01
 11
-2.94361228E+02
 21
4.81957488E+01
  0
LINE
  8
0
 62
7
 10
-3.02511228E+02
 20
4.86957488E+01
 11
-2.94361228E+02
 21
4.86957488E+01
  0
LINE
  8
0
 62
7
 10
-2.93361228E+02
 20
4.76957488E+01
 11
-2.93361228E+02
 21
-2.82942512E+01
  0
LINE
  8
0
 62
7
 10
-2.93751228E+02
 20
4.66957488E+01
 11
-2.93751228E+02
 21
1.46957488E+01
  0
LINE
  8
0
 62
7
 10
-3.00821228E+02
 20
4.61957488E+01
 11
-3.00821228E+02
 21
1.51957488E+01
  0
LINE
  8
0
 62
7
 10
-3.02651228E+02
 20
4.66957488E+01
 11
-3.02651228E+02
 21
1.46957488E+01
  0
LINE
  8
0
 62
7
 10
-3.02911228E+02
 20
4.71957488E+01
 11
-3.02911228E+02
 21
-2.77942512E+01
  0
LINE
  8
0
 62
7
 10
-3.03511228E+02
 20
4.76957488E+01
 11
-3.03511228E+02
 21
-2.82942512E+01
  0
LINE
  8
0
 62
7
 10
-2.54831228E+02
 20
-2.82942512E+01
 11
-2.47931228E+02
 21
-2.82942512E+01
  0
LINE
  8
0
 62
7
 10
-2.54831228E+02
 20
7.69574876E+00
 11
-2.47931228E+02
 21
7.69574876E+00
  0
LINE
  8
0
 62
7
 10
-2.54831228E+02
 20
1.36957488E+01
 11
-2.47931228E+02
 21
1.36957488E+01
  0
LINE
  8
0
 62
7
 10
-2.47931228E+02
 20
4.76957488E+01
 11
-2.54831228E+02
 21
4.76957488E+01
  0
LINE
  8
0
 62
7
 10
-2.49761228E+02
 20
4.71957488E+01
 11
-2.54831228E+02
 21
4.71957488E+01
  0
LINE
  8
0
 62
7
 10
-2.54831228E+02
 20
7.19574876E+00
 11
-2.49761228E+02
 21
7.19574876E+00
  0
LINE
  8
0
 62
7
 10
-2.54831228E+02
 20
1.41957488E+01
 11
-2.49761228E+02
 21
1.41957488E+01
  0
LINE
  8
0
 62
7
 10
-2.54831228E+02
 20
-2.77942512E+01
 11
-2.49761228E+02
 21
-2.77942512E+01
  0
LINE
  8
0
 62
7
 10
-2.46931228E+02
 20
6.69574876E+00
 11
-2.46931228E+02
 21
-2.72942512E+01
  0
LINE
  8
0
 62
7
 10
-2.48761228E+02
 20
6.19574876E+00
 11
-2.48761228E+02
 21
-2.67942512E+01
  0
LINE
  8
0
 62
7
 10
-2.55831228E+02
 20
6.69574876E+00
 11
-2.55831228E+02
 21
-2.72942512E+01
  0
LINE
  8
0
 62
7
 10
-2.55211228E+02
 20
-2.87942512E+01
 11
-2.47671228E+02
 21
-2.87942512E+01
  0
LINE
  8
0
 62
7
 10
-2.55211228E+02
 20
-2.92942512E+01
 11
-2.47071228E+02
 21
-2.92942512E+01
  0
LINE
  8
0
 62
7
 10
-2.47671228E+02
 20
4.81957488E+01
 11
-2.55211228E+02
 21
4.81957488E+01
  0
LINE
  8
0
 62
7
 10
-2.47071228E+02
 20
4.86957488E+01
 11
-2.55211228E+02
 21
4.86957488E+01
  0
LINE
  8
0
 62
7
 10
-2.56211228E+02
 20
4.76957488E+01
 11
-2.56211228E+02
 21
-2.82942512E+01
  0
LINE
  8
0
 62
7
 10
-2.55831228E+02
 20
4.66957488E+01
 11
-2.55831228E+02
 21
1.46957488E+01
  0
LINE
  8
0
 62
7
 10
-2.48761228E+02
 20
4.61957488E+01
 11
-2.48761228E+02
 21
1.51957488E+01
  0
LINE
  8
0
 62
7
 10
-2.46931228E+02
 20
4.66957488E+01
 11
-2.46931228E+02
 21
1.46957488E+01
  0
LINE
  8
0
 62
7
 10
-2.46671228E+02
 20
4.71957488E+01
 11
-2.46671228E+02
 21
-2.77942512E+01
  0
LINE
  8
0
 62
7
 10
-2.46071228E+02
 20
4.76957488E+01
 11
-2.46071228E+02
 21
-2.82942512E+01
  0
LINE
  8
0
 62
7
 10
-3.08681228E+02
 20
2.34957488E+01
 11
-3.11461228E+02
 21
2.74757488E+01
  0
LINE
  8
0
 62
7
 10
-3.11521228E+02
 20
2.76457488E+01
 11
-3.11601228E+02
 21
3.69957488E+01
  0
LINE
  8
0
 62
7
 10
-3.08831228E+02
 20
4.13157488E+01
 11
-3.11601228E+02
 21
3.69957488E+01
  0
LINE
  8
0
 62
7
 10
-3.08831228E+02
 20
4.13157488E+01
 11
-3.08941228E+02
 21
5.33957488E+01
  0
LINE
  8
0
 62
7
 10
-3.12191228E+02
 20
5.08757488E+01
 11
-3.11651228E+02
 21
2.88757488E+01
  0
LINE
  8
0
 62
7
 10
-3.11711228E+02
 20
5.13857488E+01
 11
-3.10631228E+02
 21
5.14157488E+01
  0
LINE
  8
0
 62
7
 10
-3.11651228E+02
 20
2.88757488E+01
 11
-3.11531228E+02
 21
2.87557488E+01
  0
LINE
  8
0
 62
7
 10
-3.12191228E+02
 20
5.08757488E+01
 11
-3.11711228E+02
 21
5.13857488E+01
  0
LINE
  8
0
 62
7
 10
-3.11251228E+02
 20
5.33957488E+01
 11
-3.11211228E+02
 21
5.13957488E+01
  0
LINE
  8
0
 62
7
 10
-3.10681228E+02
 20
5.33957488E+01
 11
-3.10631228E+02
 21
5.14157488E+01
  0
LINE
  8
0
 62
7
 10
-3.11711228E+02
 20
5.13857488E+01
 11
-3.11361228E+02
 21
3.73657488E+01
  0
LINE
  8
0
 62
4
 10
-2.82361228E+02
 20
-4.72942512E+01
 11
-2.67211228E+02
 21
-4.72942512E+01
  0
LINE
  8
0
 62
4
 10
-2.82861228E+02
 20
-4.67942512E+01
 11
-2.82861228E+02
 21
-4.57942512E+01
  0
LINE
  8
0
 62
4
 10
-2.66711228E+02
 20
-4.67942512E+01
 11
-2.66711228E+02
 21
-4.57942512E+01
  0
LINE
  8
0
 62
4
 10
-2.67211228E+02
 20
-4.72942512E+01
 11
-2.66711228E+02
 21
-4.67942512E+01
  0
LINE
  8
0
 62
4
 10
-2.82361228E+02
 20
-4.72942512E+01
 11
-2.82861228E+02
 21
-4.67942512E+01
  0
LINE
  8
0
 62
4
 10
-2.68041228E+02
 20
-6.20942512E+01
 11
-2.81541228E+02
 21
-6.20942512E+01
  0
LINE
  8
0
 62
4
 10
-2.67041228E+02
 20
-4.90942512E+01
 11
-2.67041228E+02
 21
-6.10942512E+01
  0
LINE
  8
0
 62
4
 10
-2.82541228E+02
 20
-4.90942512E+01
 11
-2.82541228E+02
 21
-6.10942512E+01
  0
LINE
  8
0
 62
4
 10
-2.67041228E+02
 20
-6.10942512E+01
 11
-2.68041228E+02
 21
-6.20942512E+01
  0
LINE
  8
0
 62
4
 10
-2.81541228E+02
 20
-6.20942512E+01
 11
-2.82541228E+02
 21
-6.10942512E+01
  0
LINE
  8
0
 62
4
 10
-2.67541228E+02
 20
-4.85942512E+01
 11
-2.82041228E+02
 21
-4.85942512E+01
  0
LINE
  8
0
 62
4
 10
-2.67541228E+02
 20
-4.85942512E+01
 11
-2.67041228E+02
 21
-4.90942512E+01
  0
LINE
  8
0
 62
4
 10
-2.82041228E+02
 20
-4.85942512E+01
 11
-2.82541228E+02
 21
-4.90942512E+01
  0
LINE
  8
0
 62
4
 10
-2.68791228E+02
 20
-4.72942512E+01
 11
-2.68791228E+02
 21
-4.85942512E+01
  0
LINE
  8
0
 62
4
 10
-2.80791228E+02
 20
-4.72942512E+01
 11
-2.80791228E+02
 21
-4.85942512E+01
  0
LINE
  8
0
 62
6
 10
-2.80041228E+02
 20
-4.72942512E+01
 11
-2.80041228E+02
 21
-4.85942512E+01
  0
LINE
  8
0
 62
6
 10
-2.69541228E+02
 20
-4.72942512E+01
 11
-2.69541228E+02
 21
-4.85942512E+01
  0
LINE
  8
0
 62
4
 10
-2.76291228E+02
 20
-5.15942512E+01
 11
-2.76291228E+02
 21
-6.10942512E+01
  0
LINE
  8
0
 62
4
 10
-2.73291228E+02
 20
-5.15942512E+01
 11
-2.73291228E+02
 21
-6.10942512E+01
  0
LINE
  8
0
 62
4
 10
-2.72951228E+02
 20
-5.18742512E+01
 11
-2.72951228E+02
 21
-6.15942512E+01
  0
LINE
  8
0
 62
4
 10
-2.76631228E+02
 20
-5.18742512E+01
 11
-2.76631228E+02
 21
-6.15942512E+01
  0
LINE
  8
0
 62
4
 10
-2.78451228E+02
 20
-5.18742512E+01
 11
-2.78451228E+02
 21
-6.15942512E+01
  0
LINE
  8
0
 62
4
 10
-2.79101228E+02
 20
-5.15942512E+01
 11
-2.79101228E+02
 21
-6.10942512E+01
  0
LINE
  8
0
 62
4
 10
-2.81231228E+02
 20
-5.15942512E+01
 11
-2.81231228E+02
 21
-6.10942512E+01
  0
LINE
  8
0
 62
4
 10
-2.81801228E+02
 20
-5.18742512E+01
 11
-2.81801228E+02
 21
-6.15942512E+01
  0
LINE
  8
0
 62
4
 10
-2.82391228E+02
 20
-5.15942512E+01
 11
-2.82391228E+02
 21
-6.10942512E+01
  0
LINE
  8
0
 62
4
 10
-2.71131228E+02
 20
-5.18742512E+01
 11
-2.71131228E+02
 21
-6.15942512E+01
  0
LINE
  8
0
 62
4
 10
-2.70471228E+02
 20
-5.15942512E+01
 11
-2.70471228E+02
 21
-6.10942512E+01
  0
LINE
  8
0
 62
4
 10
-2.68351228E+02
 20
-5.15942512E+01
 11
-2.68351228E+02
 21
-6.10942512E+01
  0
LINE
  8
0
 62
4
 10
-2.67781228E+02
 20
-5.18742512E+01
 11
-2.67781228E+02
 21
-6.15942512E+01
  0
LINE
  8
0
 62
4
 10
-2.67191228E+02
 20
-5.15942512E+01
 11
-2.67191228E+02
 21
-6.10942512E+01
  0
LINE
  8
0
 62
4
 10
-2.67191228E+02
 20
-5.15942512E+01
 11
-2.68351228E+02
 21
-5.15942512E+01
  0
LINE
  8
0
 62
4
 10
-2.67781228E+02
 20
-5.18742512E+01
 11
-2.68351228E+02
 21
-5.18742512E+01
  0
LINE
  8
0
 62
4
 10
-2.67041228E+02
 20
-6.10942512E+01
 11
-2.67191228E+02
 21
-6.10942512E+01
  0
LINE
  8
0
 62
4
 10
-2.76291228E+02
 20
-5.15942512E+01
 11
-2.79101228E+02
 21
-5.15942512E+01
  0
LINE
  8
0
 62
4
 10
-2.76631228E+02
 20
-5.18742512E+01
 11
-2.78451228E+02
 21
-5.18742512E+01
  0
LINE
  8
0
 62
4
 10
-2.70471228E+02
 20
-5.15942512E+01
 11
-2.73291228E+02
 21
-5.15942512E+01
  0
LINE
  8
0
 62
4
 10
-2.71131228E+02
 20
-5.18742512E+01
 11
-2.72951228E+02
 21
-5.18742512E+01
  0
LINE
  8
0
 62
4
 10
-2.81231228E+02
 20
-5.15942512E+01
 11
-2.82391228E+02
 21
-5.15942512E+01
  0
LINE
  8
0
 62
4
 10
-2.81231228E+02
 20
-5.18742512E+01
 11
-2.81801228E+02
 21
-5.18742512E+01
  0
LINE
  8
0
 62
4
 10
-2.73291228E+02
 20
-6.10942512E+01
 11
-2.76291228E+02
 21
-6.10942512E+01
  0
LINE
  8
0
 62
4
 10
-2.79101228E+02
 20
-6.10942512E+01
 11
-2.81231228E+02
 21
-6.10942512E+01
  0
LINE
  8
0
 62
4
 10
-2.82391228E+02
 20
-6.10942512E+01
 11
-2.82541228E+02
 21
-6.10942512E+01
  0
LINE
  8
0
 62
4
 10
-2.68351228E+02
 20
-6.10942512E+01
 11
-2.70471228E+02
 21
-6.10942512E+01
  0
LINE
  8
0
 62
4
 10
-2.71131228E+02
 20
-6.15942512E+01
 11
-2.72951228E+02
 21
-6.15942512E+01
  0
LINE
  8
0
 62
4
 10
-2.67781228E+02
 20
-6.15942512E+01
 11
-2.67191228E+02
 21
-6.10942512E+01
  0
LINE
  8
0
 62
4
 10
-2.71131228E+02
 20
-6.15942512E+01
 11
-2.70471228E+02
 21
-6.10942512E+01
  0
LINE
  8
0
 62
4
 10
-2.72951228E+02
 20
-6.15942512E+01
 11
-2.73291228E+02
 21
-6.10942512E+01
  0
LINE
  8
0
 62
4
 10
-2.76291228E+02
 20
-6.10942512E+01
 11
-2.76631228E+02
 21
-6.15942512E+01
  0
LINE
  8
0
 62
4
 10
-2.78451228E+02
 20
-6.15942512E+01
 11
-2.79101228E+02
 21
-6.10942512E+01
  0
LINE
  8
0
 62
4
 10
-2.81801228E+02
 20
-6.15942512E+01
 11
-2.82391228E+02
 21
-6.10942512E+01
  0
LINE
  8
0
 62
4
 10
-2.81801228E+02
 20
-5.18742512E+01
 11
-2.82391228E+02
 21
-5.15942512E+01
  0
LINE
  8
0
 62
4
 10
-2.78451228E+02
 20
-5.18742512E+01
 11
-2.79101228E+02
 21
-5.15942512E+01
  0
LINE
  8
0
 62
4
 10
-2.76631228E+02
 20
-5.18742512E+01
 11
-2.76291228E+02
 21
-5.15942512E+01
  0
LINE
  8
0
 62
4
 10
-2.72951228E+02
 20
-5.18742512E+01
 11
-2.73291228E+02
 21
-5.15942512E+01
  0
LINE
  8
0
 62
4
 10
-2.71131228E+02
 20
-5.18742512E+01
 11
-2.70471228E+02
 21
-5.15942512E+01
  0
LINE
  8
0
 62
4
 10
-2.67781228E+02
 20
-5.18742512E+01
 11
-2.67191228E+02
 21
-5.15942512E+01
  0
LINE
  8
0
 62
4
 10
-2.68351228E+02
 20
-6.10942512E+01
 11
-2.68531228E+02
 21
-6.15942512E+01
  0
LINE
  8
0
 62
4
 10
-2.81231228E+02
 20
-6.10942512E+01
 11
-2.81051228E+02
 21
-6.15942512E+01
  0
LINE
  8
0
 62
4
 10
-2.76631228E+02
 20
-6.15942512E+01
 11
-2.78451228E+02
 21
-6.15942512E+01
  0
LINE
  8
0
 62
4
 10
-2.67781228E+02
 20
-6.15942512E+01
 11
-2.68531228E+02
 21
-6.15942512E+01
  0
LINE
  8
0
 62
4
 10
-2.81051228E+02
 20
-6.15942512E+01
 11
-2.81801228E+02
 21
-6.15942512E+01
  0
LINE
  8
0
 62
4
 10
-2.67041228E+02
 20
-4.90942512E+01
 11
-2.82541228E+02
 21
-4.90942512E+01
  0
LINE
  8
0
 62
4
 10
-2.82861228E+02
 20
-4.67942512E+01
 11
-2.66711228E+02
 21
-4.67942512E+01
  0
ARC
  8
0
 62
7
 10
-2.93209306E+02
 20
-3.08018311E+01
 40
1.49924223E+01
 50
1.80467852E+02
 51
2.70030869E+02
  0
ARC
  8
0
 62
7
 10
-2.56370914E+02
 20
-3.07939997E+01
 40
1.50002515E+01
 50
2.70000000E+02
 51
3.59502478E+02
  0
ARC
  8
0
 62
7
 10
-2.99823189E+02
 20
6.19770939E+00
 40
9.98041294E-01
 50
8.98874438E+01
 51
1.80112556E+02
  0
ARC
  8
0
 62
7
 10
-2.94749766E+02
 20
6.19721076E+00
 40
9.98539071E-01
 50
3.59916111E+02
 51
9.00838892E+01
  0
ARC
  8
0
 62
7
 10
-2.94749766E+02
 20
6.69721076E+00
 40
9.98539071E-01
 50
3.59916111E+02
 51
9.00838892E+01
  0
ARC
  8
0
 62
7
 10
-2.94747666E+02
 20
-2.67978140E+01
 40
9.96443567E-01
 50
2.69795137E+02
 51
2.04862573E-01
  0
ARC
  8
0
 62
7
 10
-2.94747666E+02
 20
-2.72978140E+01
 40
9.96443567E-01
 50
2.69795137E+02
 51
2.04862573E-01
  0
ARC
  8
0
 62
7
 10
-2.94360933E+02
 20
-2.77945469E+01
 40
9.99704423E-01
 50
2.70000000E+02
 51
1.69428007E-02
  0
ARC
  8
0
 62
7
 10
-2.94360933E+02
 20
-2.82945469E+01
 40
9.99704423E-01
 50
2.70000000E+02
 51
1.69428007E-02
  0
ARC
  8
0
 62
7
 10
-2.99825291E+02
 20
-2.67983137E+01
 40
9.95945802E-01
 50
1.79766289E+02
 51
2.70233711E+02
  0
ARC
  8
0
 62
7
 10
-3.01655318E+02
 20
6.69983861E+00
 40
9.95918547E-01
 50
8.97647076E+01
 51
1.80235292E+02
  0
ARC
  8
0
 62
7
 10
-3.01657425E+02
 20
-2.73004474E+01
 40
9.93823128E-01
 50
1.79642776E+02
 51
2.70357224E+02
  0
ARC
  8
0
 62
7
 10
-3.01915978E+02
 20
-2.77990004E+01
 40
9.95262192E-01
 50
1.79726598E+02
 51
2.70273402E+02
  0
ARC
  8
0
 62
7
 10
-3.02514634E+02
 20
-2.82976566E+01
 40
9.96600442E-01
 50
1.79804220E+02
 51
2.70195780E+02
  0
ARC
  8
0
 62
7
 10
-2.94749766E+02
 20
4.61972108E+01
 40
9.98539071E-01
 50
3.59916111E+02
 51
9.00838892E+01
  0
ARC
  8
0
 62
7
 10
-2.94749766E+02
 20
4.66972108E+01
 40
9.98539071E-01
 50
3.59916111E+02
 51
9.00838892E+01
  0
ARC
  8
0
 62
7
 10
-2.94363027E+02
 20
4.71939504E+01
 40
1.00179995E+00
 50
1.02852027E-01
 51
8.98971480E+01
  0
ARC
  8
0
 62
7
 10
-2.94363027E+02
 20
4.76939504E+01
 40
1.00179995E+00
 50
1.02852027E-01
 51
8.98971480E+01
  0
ARC
  8
0
 62
7
 10
-2.99823189E+02
 20
4.61977094E+01
 40
9.98041294E-01
 50
8.98874438E+01
 51
1.80112556E+02
  0
ARC
  8
0
 62
7
 10
-3.01655318E+02
 20
4.66998386E+01
 40
9.95918547E-01
 50
8.97647076E+01
 51
1.80235292E+02
  0
ARC
  8
0
 62
7
 10
-3.01913874E+02
 20
4.71983946E+01
 40
9.97357664E-01
 50
8.98480025E+01
 51
1.80151997E+02
  0
ARC
  8
0
 62
7
 10
-3.02512533E+02
 20
4.76970537E+01
 40
9.98695949E-01
 50
8.99251369E+01
 51
1.80074863E+02
  0
ARC
  8
0
 62
7
 10
-2.94752653E+02
 20
1.51971732E+01
 40
1.00142542E+00
 50
2.70081496E+02
 51
3.59918503E+02
  0
ARC
  8
0
 62
7
 10
-2.94752653E+02
 20
1.46971732E+01
 40
1.00142542E+00
 50
2.70081496E+02
 51
3.59918503E+02
  0
ARC
  8
0
 62
7
 10
-2.99820301E+02
 20
1.51966760E+01
 40
1.00092765E+00
 50
1.80053076E+02
 51
2.70000000E+02
  0
ARC
  8
0
 62
7
 10
-3.01652424E+02
 20
1.46945529E+01
 40
9.98804859E-01
 50
1.79931401E+02
 51
2.70068600E+02
  0
ARC
  8
0
 62
7
 10
-2.49762097E+02
 20
6.19488053E+00
 40
1.00086860E+00
 50
4.97026453E-02
 51
9.00000002E+01
  0
ARC
  8
0
 62
7
 10
-2.54835513E+02
 20
6.20003306E+00
 40
9.95724917E-01
 50
8.97534731E+01
 51
1.80246527E+02
  0
ARC
  8
0
 62
7
 10
-2.54835513E+02
 20
6.70003306E+00
 40
9.95724917E-01
 50
8.97534731E+01
 51
1.80246527E+02
  0
ARC
  8
0
 62
7
 10
-2.54837619E+02
 20
-2.68006423E+01
 40
9.93629507E-01
 50
1.79631470E+02
 51
2.70368530E+02
  0
ARC
  8
0
 62
7
 10
-2.54837619E+02
 20
-2.73006423E+01
 40
9.93629507E-01
 50
1.79631470E+02
 51
2.70368530E+02
  0
ARC
  8
0
 62
7
 10
-2.55219369E+02
 20
-2.78023916E+01
 40
9.91893078E-01
 50
1.79529776E+02
 51
2.70470224E+02
  0
ARC
  8
0
 62
7
 10
-2.55219369E+02
 20
-2.83023916E+01
 40
9.91893078E-01
 50
1.79529776E+02
 51
2.70470224E+02
  0
ARC
  8
0
 62
7
 10
-2.49760001E+02
 20
-2.67954789E+01
 40
9.98773075E-01
 50
2.69929573E+02
 51
7.04272858E-02
  0
ARC
  8
0
 62
7
 10
-2.47929961E+02
 20
6.69701576E+00
 40
9.98733802E-01
 50
3.59927314E+02
 51
9.00726856E+01
  0
ARC
  8
0
 62
7
 10
-2.47927861E+02
 20
-2.72976186E+01
 40
9.96638294E-01
 50
2.69806411E+02
 51
1.93588643E-01
  0
ARC
  8
0
 62
7
 10
-2.47669312E+02
 20
-2.77961675E+01
 40
9.98085571E-01
 50
2.69889996E+02
 51
1.10004752E-01
  0
ARC
  8
0
 62
7
 10
-2.47070660E+02
 20
-2.82948200E+01
 40
9.99431438E-01
 50
2.70000000E+02
 51
3.26040337E-02
  0
ARC
  8
0
 62
7
 10
-2.54835513E+02
 20
4.62000331E+01
 40
9.95724917E-01
 50
8.97534731E+01
 51
1.80246527E+02
  0
ARC
  8
0
 62
7
 10
-2.54835513E+02
 20
4.67000331E+01
 40
9.95724917E-01
 50
8.97534731E+01
 51
1.80246527E+02
  0
ARC
  8
0
 62
7
 10
-2.55217258E+02
 20
4.72017787E+01
 40
9.93988395E-01
 50
8.96524211E+01
 51
1.80347579E+02
  0
ARC
  8
0
 62
7
 10
-2.55217258E+02
 20
4.77017787E+01
 40
9.93988395E-01
 50
8.96524211E+01
 51
1.80347579E+02
  0
ARC
  8
0
 62
7
 10
-2.49762097E+02
 20
4.61948805E+01
 40
1.00086860E+00
 50
4.97026453E-02
 51
9.00000002E+01
  0
ARC
  8
0
 62
7
 10
-2.47929961E+02
 20
4.66970158E+01
 40
9.98733802E-01
 50
3.59927314E+02
 51
9.00726856E+01
  0
ARC
  8
0
 62
7
 10
-2.47671410E+02
 20
4.71955677E+01
 40
1.00018110E+00
 50
1.03733457E-02
 51
9.00000002E+01
  0
ARC
  8
0
 62
7
 10
-2.47072754E+02
 20
4.76942230E+01
 40
1.00152697E+00
 50
8.72888865E-02
 51
8.99127112E+01
  0
ARC
  8
0
 62
7
 10
-2.54832618E+02
 20
1.51943590E+01
 40
9.98611223E-01
 50
1.79920263E+02
 51
2.70079737E+02
  0
ARC
  8
0
 62
7
 10
-2.54832618E+02
 20
1.46943590E+01
 40
9.98611223E-01
 50
1.79920263E+02
 51
2.70079737E+02
  0
ARC
  8
0
 62
7
 10
-2.49764976E+02
 20
1.51994967E+01
 40
1.00375493E+00
 50
2.70213938E+02
 51
3.59786062E+02
  0
ARC
  8
0
 62
7
 10
-2.47932847E+02
 20
1.46973676E+01
 40
1.00162015E+00
 50
2.70092603E+02
 51
3.59907397E+02
  0
ARC
  8
0
 62
7
 10
-3.11222863E+02
 20
2.76554661E+01
 40
2.98523998E-01
 50
1.81865381E+02
 51
2.17014689E+02
  0
LINE
  8
0
 62
7
 10
-7.92112284E+01
 20
-4.57942512E+01
 11
-4.23812284E+01
 21
-4.57942512E+01
  0
LINE
  8
0
 62
7
 10
-8.07512284E+01
 20
-2.82942512E+01
 11
-8.76612284E+01
 21
-2.82942512E+01
  0
LINE
  8
0
 62
7
 10
-8.07512284E+01
 20
7.69574876E+00
 11
-8.76612284E+01
 21
7.69574876E+00
  0
LINE
  8
0
 62
7
 10
-8.07512284E+01
 20
1.36957488E+01
 11
-8.76612284E+01
 21
1.36957488E+01
  0
LINE
  8
0
 62
7
 10
-8.76612284E+01
 20
4.76957488E+01
 11
-8.07512284E+01
 21
4.76957488E+01
  0
LINE
  8
0
 62
7
 10
-2.73812284E+01
 20
-3.09242512E+01
 11
-2.66512284E+01
 21
5.33957488E+01
  0
LINE
  8
0
 62
7
 10
-9.42112284E+01
 20
-3.09242512E+01
 11
-9.46912284E+01
 21
2.34957488E+01
  0
LINE
  8
0
 62
7
 10
-8.58312284E+01
 20
4.71957488E+01
 11
-8.07512284E+01
 21
4.71957488E+01
  0
LINE
  8
0
 62
7
 10
-8.07512284E+01
 20
7.19574876E+00
 11
-8.58312284E+01
 21
7.19574876E+00
  0
LINE
  8
0
 62
7
 10
-8.07512284E+01
 20
1.41957488E+01
 11
-8.58312284E+01
 21
1.41957488E+01
  0
LINE
  8
0
 62
7
 10
-8.07512284E+01
 20
-2.77942512E+01
 11
-8.58312284E+01
 21
-2.77942512E+01
  0
LINE
  8
0
 62
7
 10
-8.86612284E+01
 20
6.69574876E+00
 11
-8.86612284E+01
 21
-2.72942512E+01
  0
LINE
  8
0
 62
7
 10
-8.68312284E+01
 20
6.19574876E+00
 11
-8.68312284E+01
 21
-2.67942512E+01
  0
LINE
  8
0
 62
7
 10
-7.97512284E+01
 20
6.69574876E+00
 11
-7.97512284E+01
 21
-2.72942512E+01
  0
LINE
  8
0
 62
7
 10
-8.03712284E+01
 20
-2.87942512E+01
 11
-8.79212284E+01
 21
-2.87942512E+01
  0
LINE
  8
0
 62
7
 10
-8.03712284E+01
 20
-2.92942512E+01
 11
-8.85112284E+01
 21
-2.92942512E+01
  0
LINE
  8
0
 62
7
 10
-8.79212284E+01
 20
4.81957488E+01
 11
-8.03712284E+01
 21
4.81957488E+01
  0
LINE
  8
0
 62
7
 10
-8.85112284E+01
 20
4.86957488E+01
 11
-8.03712284E+01
 21
4.86957488E+01
  0
LINE
  8
0
 62
7
 10
-7.93712284E+01
 20
4.76957488E+01
 11
-7.93712284E+01
 21
-2.82942512E+01
  0
LINE
  8
0
 62
7
 10
-7.97512284E+01
 20
4.66957488E+01
 11
-7.97512284E+01
 21
1.46957488E+01
  0
LINE
  8
0
 62
7
 10
-8.68312284E+01
 20
4.61957488E+01
 11
-8.68312284E+01
 21
1.51957488E+01
  0
LINE
  8
0
 62
7
 10
-8.86612284E+01
 20
4.66957488E+01
 11
-8.86612284E+01
 21
1.46957488E+01
  0
LINE
  8
0
 62
7
 10
-8.89212284E+01
 20
4.71957488E+01
 11
-8.89212284E+01
 21
-2.77942512E+01
  0
LINE
  8
0
 62
7
 10
-8.95112284E+01
 20
4.76957488E+01
 11
-8.95112284E+01
 21
-2.82942512E+01
  0
LINE
  8
0
 62
7
 10
-4.08412284E+01
 20
-2.82942512E+01
 11
-3.39312284E+01
 21
-2.82942512E+01
  0
LINE
  8
0
 62
7
 10
-4.08412284E+01
 20
7.69574876E+00
 11
-3.39312284E+01
 21
7.69574876E+00
  0
LINE
  8
0
 62
7
 10
-4.08412284E+01
 20
1.36957488E+01
 11
-3.39312284E+01
 21
1.36957488E+01
  0
LINE
  8
0
 62
7
 10
-3.39312284E+01
 20
4.76957488E+01
 11
-4.08412284E+01
 21
4.76957488E+01
  0
LINE
  8
0
 62
7
 10
-3.57712284E+01
 20
4.71957488E+01
 11
-4.08412284E+01
 21
4.71957488E+01
  0
LINE
  8
0
 62
7
 10
-4.08412284E+01
 20
7.19574876E+00
 11
-3.57712284E+01
 21
7.19574876E+00
  0
LINE
  8
0
 62
7
 10
-4.08412284E+01
 20
1.41957488E+01
 11
-3.57712284E+01
 21
1.41957488E+01
  0
LINE
  8
0
 62
7
 10
-4.08412284E+01
 20
-2.77942512E+01
 11
-3.57712284E+01
 21
-2.77942512E+01
  0
LINE
  8
0
 62
7
 10
-3.29312284E+01
 20
6.69574876E+00
 11
-3.29312284E+01
 21
-2.72942512E+01
  0
LINE
  8
0
 62
7
 10
-3.47712284E+01
 20
6.19574876E+00
 11
-3.47712284E+01
 21
-2.67942512E+01
  0
LINE
  8
0
 62
7
 10
-4.18412284E+01
 20
6.69574876E+00
 11
-4.18412284E+01
 21
-2.72942512E+01
  0
LINE
  8
0
 62
7
 10
-4.12212284E+01
 20
-2.87942512E+01
 11
-3.36812284E+01
 21
-2.87942512E+01
  0
LINE
  8
0
 62
7
 10
-4.12212284E+01
 20
-2.92942512E+01
 11
-3.30812284E+01
 21
-2.92942512E+01
  0
LINE
  8
0
 62
7
 10
-3.36812284E+01
 20
4.81957488E+01
 11
-4.12212284E+01
 21
4.81957488E+01
  0
LINE
  8
0
 62
7
 10
-3.30812284E+01
 20
4.86957488E+01
 11
-4.12212284E+01
 21
4.86957488E+01
  0
LINE
  8
0
 62
7
 10
-4.22212284E+01
 20
4.76957488E+01
 11
-4.22212284E+01
 21
-2.82942512E+01
  0
LINE
  8
0
 62
7
 10
-4.18412284E+01
 20
4.66957488E+01
 11
-4.18412284E+01
 21
1.46957488E+01
  0
LINE
  8
0
 62
7
 10
-3.47712284E+01
 20
4.61957488E+01
 11
-3.47712284E+01
 21
1.51957488E+01
  0
LINE
  8
0
 62
7
 10
-3.29312284E+01
 20
4.66957488E+01
 11
-3.29312284E+01
 21
1.46957488E+01
  0
LINE
  8
0
 62
7
 10
-3.26812284E+01
 20
4.71957488E+01
 11
-3.26812284E+01
 21
-2.77942512E+01
  0
LINE
  8
0
 62
7
 10
-3.20812284E+01
 20
4.76957488E+01
 11
-3.20812284E+01
 21
-2.82942512E+01
  0
LINE
  8
0
 62
7
 10
-9.46912284E+01
 20
2.34957488E+01
 11
-9.74712284E+01
 21
2.74757488E+01
  0
LINE
  8
0
 62
7
 10
-9.75212284E+01
 20
2.76457488E+01
 11
-9.76112284E+01
 21
3.69957488E+01
  0
LINE
  8
0
 62
7
 10
-9.48412284E+01
 20
4.13157488E+01
 11
-9.76112284E+01
 21
3.69957488E+01
  0
LINE
  8
0
 62
7
 10
-9.48412284E+01
 20
4.13157488E+01
 11
-9.49512284E+01
 21
5.33957488E+01
  0
LINE
  8
0
 62
7
 10
-9.82012284E+01
 20
5.08757488E+01
 11
-9.76612284E+01
 21
2.88757488E+01
  0
LINE
  8
0
 62
7
 10
-9.77112284E+01
 20
5.13857488E+01
 11
-9.66412284E+01
 21
5.14157488E+01
  0
LINE
  8
0
 62
7
 10
-9.76612284E+01
 20
2.88757488E+01
 11
-9.75312284E+01
 21
2.87557488E+01
  0
LINE
  8
0
 62
7
 10
-9.82012284E+01
 20
5.08757488E+01
 11
-9.77112284E+01
 21
5.13857488E+01
  0
LINE
  8
0
 62
7
 10
-9.72612284E+01
 20
5.33957488E+01
 11
-9.72112284E+01
 21
5.13957488E+01
  0
LINE
  8
0
 62
7
 10
-9.66812284E+01
 20
5.33957488E+01
 11
-9.66412284E+01
 21
5.14157488E+01
  0
LINE
  8
0
 62
7
 10
-9.77112284E+01
 20
5.13857488E+01
 11
-9.73712284E+01
 21
3.73657488E+01
  0
ARC
  8
0
 62
7
 10
-7.92143715E+01
 20
-3.07968535E+01
 40
1.49973981E+01
 50
1.80486714E+02
 51
2.70012007E+02
  0
ARC
  8
0
 62
7
 10
-4.23759791E+01
 20
-3.07989783E+01
 40
1.49952739E+01
 50
2.69979942E+02
 51
3.59521336E+02
  0
ARC
  8
0
 62
7
 10
-8.58281950E+01
 20
6.19271528E+00
 40
1.00303806E+00
 50
9.01732787E+01
 51
1.79826721E+02
  0
ARC
  8
0
 62
7
 10
-8.07497894E+01
 20
6.19718783E+00
 40
9.98561958E-01
 50
3.59917428E+02
 51
9.00825720E+01
  0
ARC
  8
0
 62
7
 10
-8.07497894E+01
 20
6.69718783E+00
 40
9.98561958E-01
 50
3.59917428E+02
 51
9.00825720E+01
  0
ARC
  8
0
 62
7
 10
-8.07476886E+01
 20
-2.67977911E+01
 40
9.96466454E-01
 50
2.69796463E+02
 51
2.03537152E-01
  0
ARC
  8
0
 62
7
 10
-8.07476886E+01
 20
-2.72977911E+01
 40
9.96466454E-01
 50
2.69796463E+02
 51
2.03537152E-01
  0
ARC
  8
0
 62
7
 10
-8.03659344E+01
 20
-2.77995453E+01
 40
9.94719998E-01
 50
2.69695059E+02
 51
3.04940567E-01
  0
ARC
  8
0
 62
7
 10
-8.03659344E+01
 20
-2.82995453E+01
 40
9.94719998E-01
 50
2.69695059E+02
 51
3.04940567E-01
  0
ARC
  8
0
 62
7
 10
-8.58302863E+01
 20
-2.67933091E+01
 40
1.00094255E+00
 50
1.80053928E+02
 51
2.70000000E+02
  0
ARC
  8
0
 62
7
 10
-8.76603348E+01
 20
6.69485510E+00
 40
1.00089405E+00
 50
9.00000002E+01
 51
1.79948843E+02
  0
ARC
  8
0
 62
7
 10
-8.76624306E+01
 20
-2.72954534E+01
 40
9.98798522E-01
 50
1.79931036E+02
 51
2.70068964E+02
  0
ARC
  8
0
 62
7
 10
-8.79209764E+01
 20
-2.77939992E+01
 40
1.00025207E+00
 50
1.80014437E+02
 51
2.70000000E+02
  0
ARC
  8
0
 62
7
 10
-8.85146568E+01
 20
-2.82976796E+01
 40
9.96577548E-01
 50
1.79802895E+02
 51
2.70197105E+02
  0
ARC
  8
0
 62
7
 10
-8.07497894E+01
 20
4.61971878E+01
 40
9.98561958E-01
 50
3.59917428E+02
 51
9.00825720E+01
  0
ARC
  8
0
 62
7
 10
-8.07497894E+01
 20
4.66971878E+01
 40
9.98561958E-01
 50
3.59917428E+02
 51
9.00825720E+01
  0
ARC
  8
0
 62
7
 10
-8.03680388E+01
 20
4.71989384E+01
 40
9.96815452E-01
 50
3.59816662E+02
 51
9.01833375E+01
  0
ARC
  8
0
 62
7
 10
-8.03680388E+01
 20
4.76989384E+01
 40
9.96815452E-01
 50
3.59816662E+02
 51
9.01833375E+01
  0
ARC
  8
0
 62
7
 10
-8.58281950E+01
 20
4.61927153E+01
 40
1.00303806E+00
 50
9.01732787E+01
 51
1.79826721E+02
  0
ARC
  8
0
 62
7
 10
-8.76603348E+01
 20
4.66948551E+01
 40
1.00089405E+00
 50
9.00000002E+01
 51
1.79948843E+02
  0
ARC
  8
0
 62
7
 10
-8.79188836E+01
 20
4.71934039E+01
 40
1.00234759E+00
 50
9.01340356E+01
 51
1.79865964E+02
  0
ARC
  8
0
 62
7
 10
-8.85125563E+01
 20
4.76970766E+01
 40
9.98673055E-01
 50
8.99238197E+01
 51
1.80076180E+02
  0
ARC
  8
0
 62
7
 10
-8.07526757E+01
 20
1.51971960E+01
 40
1.00144831E+00
 50
2.70082802E+02
 51
3.59917197E+02
  0
ARC
  8
0
 62
7
 10
-8.07526757E+01
 20
1.46971960E+01
 40
1.00144831E+00
 50
2.70082802E+02
 51
3.59917197E+02
  0
ARC
  8
0
 62
7
 10
-8.58253215E+01
 20
1.52016557E+01
 40
1.00592430E+00
 50
1.80336452E+02
 51
2.69663548E+02
  0
ARC
  8
0
 62
7
 10
-8.76574552E+01
 20
1.46995220E+01
 40
1.00378037E+00
 50
1.80215379E+02
 51
2.69784621E+02
  0
ARC
  8
0
 62
7
 10
-3.57671133E+01
 20
6.19986391E+00
 40
9.95893352E-01
 50
3.59763247E+02
 51
9.02367538E+01
  0
ARC
  8
0
 62
7
 10
-4.08405302E+01
 20
6.19505052E+00
 40
1.00069848E+00
 50
9.00000002E+01
 51
1.79960022E+02
  0
ARC
  8
0
 62
7
 10
-4.08405302E+01
 20
6.69505052E+00
 40
1.00069848E+00
 50
9.00000002E+01
 51
1.79960022E+02
  0
ARC
  8
0
 62
7
 10
-4.08426265E+01
 20
-2.67956493E+01
 40
9.98602949E-01
 50
1.79919787E+02
 51
2.70080213E+02
  0
ARC
  8
0
 62
7
 10
-4.08426265E+01
 20
-2.72956493E+01
 40
9.98602949E-01
 50
1.79919787E+02
 51
2.70080213E+02
  0
ARC
  8
0
 62
7
 10
-4.12243845E+01
 20
-2.77974073E+01
 40
9.96848979E-01
 50
1.79818602E+02
 51
2.70181398E+02
  0
ARC
  8
0
 62
7
 10
-4.12243845E+01
 20
-2.82974073E+01
 40
9.96848979E-01
 50
1.79818602E+02
 51
2.70181398E+02
  0
ARC
  8
0
 62
7
 10
-3.57650069E+01
 20
-2.68004728E+01
 40
9.93797935E-01
 50
2.69641305E+02
 51
3.58694948E-01
  0
ARC
  8
0
 62
7
 10
-3.39299844E+01
 20
6.69699283E+00
 40
9.98756699E-01
 50
3.59928631E+02
 51
9.00713690E+01
  0
ARC
  8
0
 62
7
 10
-3.39278840E+01
 20
-2.72975957E+01
 40
9.96661191E-01
 50
2.69807737E+02
 51
1.92263484E-01
  0
ARC
  8
0
 62
7
 10
-3.36743217E+01
 20
-2.78011580E+01
 40
9.93117297E-01
 50
2.69601528E+02
 51
3.98471654E-01
  0
ARC
  8
0
 62
7
 10
-3.30756626E+01
 20
-2.82998171E+01
 40
9.94449732E-01
 50
2.69679319E+02
 51
3.20680908E-01
  0
ARC
  8
0
 62
7
 10
-4.08405302E+01
 20
4.61950505E+01
 40
1.00069848E+00
 50
9.00000002E+01
 51
1.79960022E+02
  0
ARC
  8
0
 62
7
 10
-4.08405302E+01
 20
4.66950505E+01
 40
1.00069848E+00
 50
9.00000002E+01
 51
1.79960022E+02
  0
ARC
  8
0
 62
7
 10
-4.12222845E+01
 20
4.71968048E+01
 40
9.98944491E-01
 50
8.99394277E+01
 51
1.80060572E+02
  0
ARC
  8
0
 62
7
 10
-4.12222845E+01
 20
4.76968048E+01
 40
9.98944491E-01
 50
8.99394277E+01
 51
1.80060572E+02
  0
ARC
  8
0
 62
7
 10
-3.57671133E+01
 20
4.61998639E+01
 40
9.95893352E-01
 50
3.59763247E+02
 51
9.02367538E+01
  0
ARC
  8
0
 62
7
 10
-3.39299844E+01
 20
4.66969928E+01
 40
9.98756699E-01
 50
3.59928631E+02
 51
9.00713690E+01
  0
ARC
  8
0
 62
7
 10
-3.36764296E+01
 20
4.72005476E+01
 40
9.95212682E-01
 50
3.59723720E+02
 51
9.02762799E+01
  0
ARC
  8
0
 62
7
 10
-3.30777676E+01
 20
4.76992096E+01
 40
9.96545176E-01
 50
3.59801021E+02
 51
9.01989793E+01
  0
ARC
  8
0
 62
7
 10
-4.08376500E+01
 20
1.51993272E+01
 40
1.00358481E+00
 50
1.80204296E+02
 51
2.69795703E+02
  0
ARC
  8
0
 62
7
 10
-4.08376500E+01
 20
1.46993272E+01
 40
1.00358481E+00
 50
1.80204296E+02
 51
2.69795703E+02
  0
ARC
  8
0
 62
7
 10
-3.57700074E+01
 20
1.51945277E+01
 40
9.98779664E-01
 50
2.69929952E+02
 51
7.00483928E-02
  0
ARC
  8
0
 62
7
 10
-3.39328702E+01
 20
1.46973905E+01
 40
1.00164305E+00
 50
2.70093908E+02
 51
3.59906091E+02
  0
ARC
  8
0
 62
7
 10
-9.72186758E+01
 20
2.76423819E+01
 40
3.02571334E-01
 50
1.79362424E+02
 51
2.13416656E+02
  0
LINE
  8
0
  6
CENTER
 62
2
 10
-3.29791228E+02
 20
1.53395749E+02
 11
-5.80122845E+00
 21
1.53395749E+02
  0
LINE
  8
0
 62
7
 10
-2.16291228E+02
 20
1.78395749E+02
 11
-1.19301228E+02
 21
1.78395749E+02
  0
LINE
  8
0
 62
7
 10
-2.17791228E+02
 20
1.76895749E+02
 11
-1.17801228E+02
 21
1.76895749E+02
  0
LINE
  8
0
  6
CENTER
 62
2
 10
-1.67791228E+02
 20
1.94395749E+02
 11
-1.67791228E+02
 21
5.85457488E+01
  0
LINE
  8
0
 62
7
 10
-2.16291228E+02
 20
1.28395749E+02
 11
-1.19301228E+02
 21
1.28395749E+02
  0
LINE
  8
0
 62
7
 10
-1.30801228E+02
 20
1.76395749E+02
 11
-1.30801228E+02
 21
1.60576452E+02
  0
LINE
  8
0
 62
7
 10
-1.30801228E+02
 20
1.46215045E+02
 11
-1.30801228E+02
 21
1.30395749E+02
  0
LINE
  8
0
 62
7
 10
-2.17791228E+02
 20
1.29895749E+02
 11
-1.82491228E+02
 21
1.29895749E+02
  0
LINE
  8
0
 62
7
 10
-1.53091228E+02
 20
1.29895749E+02
 11
-1.17801228E+02
 21
1.29895749E+02
  0
LINE
  8
0
 62
7
 10
-1.53091228E+02
 20
1.29895749E+02
 11
-1.51591228E+02
 21
1.28395749E+02
  0
LINE
  8
0
 62
7
 10
-1.53091228E+02
 20
1.29895749E+02
 11
-1.53091228E+02
 21
1.32269500E+02
  0
LINE
  8
0
 62
7
 10
-1.48041228E+02
 20
1.79395749E+02
 11
-1.48041228E+02
 21
1.78395749E+02
  0
ARC
  8
0
 62
7
 10
-1.67796228E+02
 20
1.70899426E+02
 40
5.55030270E+01
 50
2.59110901E+02
 51
2.80889099E+02
  0
ARC
  8
0
 62
7
 10
-1.49761144E+02
 20
6.45464940E+01
 40
1.00074521E+00
 50
2.70000000E+02
 51
3.57666565E+02
  0
ARC
  8
0
 62
7
 10
-1.85824056E+02
 20
6.45436368E+01
 40
9.97892080E-01
 50
1.82175935E+02
 51
2.70162344E+02
  0
LINE
  8
0
 62
7
 10
-1.48751228E+02
 20
1.13395749E+02
 11
-1.49361228E+02
 21
9.55457488E+01
  0
LINE
  8
0
 62
7
 10
-1.56031228E+02
 20
1.13395749E+02
 11
-1.56031228E+02
 21
9.55457488E+01
  0
LINE
  8
0
 62
7
 10
-1.61871228E+02
 20
1.13395749E+02
 11
-1.61871228E+02
 21
9.55457488E+01
  0
LINE
  8
0
 62
7
 10
-1.73701228E+02
 20
1.13395749E+02
 11
-1.73701228E+02
 21
9.55457488E+01
  0
LINE
  8
0
 62
7
 10
-1.86841228E+02
 20
1.13395749E+02
 11
-1.86231228E+02
 21
9.55457488E+01
  0
LINE
  8
0
 62
7
 10
-1.79551228E+02
 20
1.13395749E+02
 11
-1.79551228E+02
 21
9.55457488E+01
  0
LINE
  8
0
 62
7
 10
-1.45301228E+02
 20
1.26395749E+02
 11
-1.45301228E+02
 21
1.25395749E+02
  0
LINE
  8
0
 62
2
 10
-1.46301228E+02
 20
1.26395749E+02
 11
-1.46301228E+02
 21
1.25395749E+02
  0
LINE
  8
0
 62
2
 10
-1.89291228E+02
 20
1.26395749E+02
 11
-1.89291228E+02
 21
1.25395749E+02
  0
LINE
  8
0
 62
7
 10
-1.90291228E+02
 20
1.26395749E+02
 11
-1.90291228E+02
 21
1.25395749E+02
  0
LINE
  8
0
 62
7
 10
-1.89291228E+02
 20
1.15395749E+02
 11
-1.89291228E+02
 21
1.14395749E+02
  0
LINE
  8
0
 62
7
 10
-1.46301228E+02
 20
1.14395749E+02
 11
-1.48031228E+02
 21
1.13395749E+02
  0
LINE
  8
0
 62
7
 10
-1.89291228E+02
 20
1.14395749E+02
 11
-1.87561228E+02
 21
1.13395749E+02
  0
LINE
  8
0
 62
7
 10
-1.89291228E+02
 20
1.14395749E+02
 11
-1.46301228E+02
 21
1.14395749E+02
  0
LINE
  8
0
 62
7
 10
-1.87561228E+02
 20
1.13395749E+02
 11
-1.48031228E+02
 21
1.13395749E+02
  0
LINE
  8
0
 62
7
 10
-1.46301228E+02
 20
1.15395749E+02
 11
-1.46301228E+02
 21
1.14395749E+02
  0
LINE
  8
0
 62
2
 10
-1.57311228E+02
 20
1.25395749E+02
 11
-1.78281228E+02
 21
1.16395749E+02
  0
LINE
  8
0
 62
2
 10
-1.78281228E+02
 20
1.25395749E+02
 11
-1.57311228E+02
 21
1.16395749E+02
  0
LINE
  8
0
 62
7
 10
-1.57311228E+02
 20
1.25395749E+02
 11
-1.57311228E+02
 21
1.16395749E+02
  0
LINE
  8
0
 62
7
 10
-1.78281228E+02
 20
1.25395749E+02
 11
-1.78281228E+02
 21
1.16395749E+02
  0
LINE
  8
0
 62
7
 10
-1.41551228E+02
 20
1.16395749E+02
 11
-1.42321228E+02
 21
1.15395749E+02
  0
LINE
  8
0
 62
7
 10
-1.45051228E+02
 20
1.16395749E+02
 11
-1.46101228E+02
 21
1.15395749E+02
  0
LINE
  8
0
 62
7
 10
-1.46101228E+02
 20
1.22395749E+02
 11
-1.45051228E+02
 21
1.23395749E+02
  0
LINE
  8
0
 62
7
 10
-1.50621228E+02
 20
1.15395749E+02
 11
-1.50901228E+02
 21
1.16395749E+02
  0
LINE
  8
0
 62
7
 10
-1.50621228E+02
 20
1.22395749E+02
 11
-1.50901228E+02
 21
1.23395749E+02
  0
LINE
  8
0
 62
7
 10
-1.84961228E+02
 20
1.15395749E+02
 11
-1.84681228E+02
 21
1.16395749E+02
  0
LINE
  8
0
 62
7
 10
-1.84961228E+02
 20
1.22395749E+02
 11
-1.84681228E+02
 21
1.23395749E+02
  0
LINE
  8
0
 62
7
 10
-1.89491228E+02
 20
1.22395749E+02
 11
-1.90531228E+02
 21
1.23395749E+02
  0
LINE
  8
0
 62
7
 10
-1.90531228E+02
 20
1.16395749E+02
 11
-1.89491228E+02
 21
1.15395749E+02
  0
LINE
  8
0
 62
7
 10
-1.40561228E+02
 20
1.22395749E+02
 11
-1.39511228E+02
 21
1.23395749E+02
  0
LINE
  8
0
 62
7
 10
-1.40561228E+02
 20
1.15395749E+02
 11
-1.39511228E+02
 21
1.16395749E+02
  0
LINE
  8
0
 62
7
 10
-1.96071228E+02
 20
1.23395749E+02
 11
-1.95031228E+02
 21
1.22395749E+02
  0
LINE
  8
0
 62
7
 10
-1.96071228E+02
 20
1.16395749E+02
 11
-1.95031228E+02
 21
1.15395749E+02
  0
LINE
  8
0
 62
7
 10
-1.96071228E+02
 20
1.23395749E+02
 11
-1.96071228E+02
 21
1.16395749E+02
  0
LINE
  8
0
 62
7
 10
-1.95031228E+02
 20
1.22395749E+02
 11
-1.95031228E+02
 21
1.15395749E+02
  0
LINE
  8
0
 62
7
 10
-1.39511228E+02
 20
1.23395749E+02
 11
-1.39511228E+02
 21
1.16395749E+02
  0
LINE
  8
0
 62
7
 10
-1.40561228E+02
 20
1.22395749E+02
 11
-1.40561228E+02
 21
1.15395749E+02
  0
LINE
  8
0
 62
7
 10
-1.94031228E+02
 20
1.16395749E+02
 11
-1.93271228E+02
 21
1.15395749E+02
  0
LINE
  8
0
 62
7
 10
-1.39511228E+02
 20
1.16395749E+02
 11
-1.39301228E+02
 21
1.16395749E+02
  0
LINE
  8
0
 62
7
 10
-1.94031228E+02
 20
1.16395749E+02
 11
-1.90531228E+02
 21
1.16395749E+02
  0
LINE
  8
0
 62
7
 10
-1.95031228E+02
 20
1.22395749E+02
 11
-1.94031228E+02
 21
1.22395749E+02
  0
LINE
  8
0
 62
7
 10
-1.96071228E+02
 20
1.23395749E+02
 11
-1.94031228E+02
 21
1.23395749E+02
  0
LINE
  8
0
 62
7
 10
-1.94031228E+02
 20
1.23395749E+02
 11
-1.94031228E+02
 21
1.16395749E+02
  0
LINE
  8
0
 62
7
 10
-1.41551228E+02
 20
1.23395749E+02
 11
-1.41551228E+02
 21
1.16395749E+02
  0
LINE
  8
0
 62
7
 10
-1.41551228E+02
 20
1.22395749E+02
 11
-1.40561228E+02
 21
1.22395749E+02
  0
LINE
  8
0
 62
7
 10
-1.41551228E+02
 20
1.23395749E+02
 11
-1.39511228E+02
 21
1.23395749E+02
  0
LINE
  8
0
 62
7
 10
-1.89491228E+02
 20
1.22395749E+02
 11
-1.84961228E+02
 21
1.22395749E+02
  0
LINE
  8
0
 62
7
 10
-1.90531228E+02
 20
1.23395749E+02
 11
-1.84681228E+02
 21
1.23395749E+02
  0
LINE
  8
0
 62
7
 10
-1.89491228E+02
 20
1.22395749E+02
 11
-1.89491228E+02
 21
1.15395749E+02
  0
LINE
  8
0
 62
7
 10
-1.90531228E+02
 20
1.23395749E+02
 11
-1.90531228E+02
 21
1.16395749E+02
  0
LINE
  8
0
 62
7
 10
-1.45051228E+02
 20
1.23395749E+02
 11
-1.45051228E+02
 21
1.16395749E+02
  0
LINE
  8
0
 62
7
 10
-1.46101228E+02
 20
1.22395749E+02
 11
-1.46101228E+02
 21
1.15395749E+02
  0
LINE
  8
0
 62
7
 10
-1.45051228E+02
 20
1.16395749E+02
 11
-1.41551228E+02
 21
1.16395749E+02
  0
LINE
  8
0
 62
7
 10
-1.84681228E+02
 20
1.16395749E+02
 11
-1.78281228E+02
 21
1.16395749E+02
  0
LINE
  8
0
 62
7
 10
-1.84681228E+02
 20
1.23395749E+02
 11
-1.84681228E+02
 21
1.16395749E+02
  0
LINE
  8
0
 62
7
 10
-1.84961228E+02
 20
1.22395749E+02
 11
-1.84961228E+02
 21
1.15395749E+02
  0
LINE
  8
0
 62
7
 10
-1.50901228E+02
 20
1.23395749E+02
 11
-1.50901228E+02
 21
1.16395749E+02
  0
LINE
  8
0
 62
7
 10
-1.50621228E+02
 20
1.22395749E+02
 11
-1.50621228E+02
 21
1.15395749E+02
  0
LINE
  8
0
 62
7
 10
-1.50621228E+02
 20
1.22395749E+02
 11
-1.46101228E+02
 21
1.22395749E+02
  0
LINE
  8
0
 62
7
 10
-1.50901228E+02
 20
1.23395749E+02
 11
-1.45051228E+02
 21
1.23395749E+02
  0
LINE
  8
0
 62
7
 10
-1.57311228E+02
 20
1.16395749E+02
 11
-1.50901228E+02
 21
1.16395749E+02
  0
LINE
  8
0
 62
7
 10
-1.96291228E+02
 20
1.16395749E+02
 11
-1.96071228E+02
 21
1.16395749E+02
  0
LINE
  8
0
 62
7
 10
-1.39301228E+02
 20
1.16395749E+02
 11
-1.40301228E+02
 21
1.15395749E+02
  0
LINE
  8
0
 62
7
 10
-1.96291228E+02
 20
1.16395749E+02
 11
-1.95291228E+02
 21
1.15395749E+02
  0
LINE
  8
0
 62
7
 10
-1.95291228E+02
 20
1.15395749E+02
 11
-1.40301228E+02
 21
1.15395749E+02
  0
LINE
  8
0
 62
7
 10
-1.39301228E+02
 20
1.25395749E+02
 11
-1.39301228E+02
 21
1.16395749E+02
  0
LINE
  8
0
 62
7
 10
-1.96291228E+02
 20
1.25395749E+02
 11
-1.96291228E+02
 21
1.16395749E+02
  0
LINE
  8
0
 62
7
 10
-1.96291228E+02
 20
1.25395749E+02
 11
-1.39301228E+02
 21
1.25395749E+02
  0
LINE
  8
0
 62
7
 10
-1.63791228E+02
 20
6.62657488E+01
 11
-1.62881228E+02
 21
9.22257488E+01
  0
LINE
  8
0
 62
7
 10
-1.50931228E+02
 20
6.62657488E+01
 11
-1.50031228E+02
 21
9.22257488E+01
  0
LINE
  8
0
 62
7
 10
-1.49231228E+02
 20
6.55857488E+01
 11
-1.48321228E+02
 21
9.15457488E+01
  0
LINE
  8
0
 62
7
 10
-1.47951228E+02
 20
6.62657488E+01
 11
-1.47041228E+02
 21
9.22257488E+01
  0
LINE
  8
0
 62
7
 10
-1.48321228E+02
 20
9.15457488E+01
 11
-1.50051228E+02
 21
9.15457488E+01
  0
LINE
  8
0
 62
7
 10
-1.50931228E+02
 20
6.62657488E+01
 11
-1.51641228E+02
 21
6.55857488E+01
  0
LINE
  8
0
 62
7
 10
-1.50931228E+02
 20
6.62657488E+01
 11
-1.56591228E+02
 21
6.62657488E+01
  0
LINE
  8
0
 62
7
 10
-1.51641228E+02
 20
6.55857488E+01
 11
-1.57811228E+02
 21
6.55857488E+01
  0
LINE
  8
0
 62
7
 10
-1.58711228E+02
 20
9.15457488E+01
 11
-1.62521228E+02
 21
9.15457488E+01
  0
LINE
  8
0
 62
7
 10
-1.57501228E+02
 20
9.22257488E+01
 11
-1.62881228E+02
 21
9.22257488E+01
  0
LINE
  8
0
 62
7
 10
-1.63421228E+02
 20
6.55857488E+01
 11
-1.62521228E+02
 21
9.15457488E+01
  0
LINE
  8
0
 62
7
 10
-1.56591228E+02
 20
6.62657488E+01
 11
-1.57501228E+02
 21
9.22257488E+01
  0
LINE
  8
0
 62
7
 10
-1.48731228E+02
 20
6.55857488E+01
 11
-1.49231228E+02
 21
6.55857488E+01
  0
LINE
  8
0
 62
7
 10
-1.47551228E+02
 20
6.62657488E+01
 11
-1.47951228E+02
 21
6.62657488E+01
  0
LINE
  8
0
 62
7
 10
-1.47041228E+02
 20
9.22257488E+01
 11
-1.50031228E+02
 21
9.22257488E+01
  0
LINE
  8
0
 62
7
 10
-1.63421228E+02
 20
6.55857488E+01
 11
-1.63791228E+02
 21
6.62657488E+01
  0
LINE
  8
0
 62
7
 10
-1.62521228E+02
 20
9.15457488E+01
 11
-1.62881228E+02
 21
9.22257488E+01
  0
LINE
  8
0
 62
7
 10
-1.56591228E+02
 20
6.62657488E+01
 11
-1.57811228E+02
 21
6.55857488E+01
  0
LINE
  8
0
 62
7
 10
-1.57811228E+02
 20
6.55857488E+01
 11
-1.58711228E+02
 21
9.15457488E+01
  0
LINE
  8
0
 62
7
 10
-1.58711228E+02
 20
9.15457488E+01
 11
-1.57501228E+02
 21
9.22257488E+01
  0
LINE
  8
0
 62
7
 10
-1.48321228E+02
 20
9.15457488E+01
 11
-1.47041228E+02
 21
9.22257488E+01
  0
LINE
  8
0
 62
7
 10
-1.47951228E+02
 20
6.62657488E+01
 11
-1.49231228E+02
 21
6.55857488E+01
  0
LINE
  8
0
 62
7
 10
-1.87641228E+02
 20
6.62657488E+01
 11
-1.86351228E+02
 21
6.55857488E+01
  0
LINE
  8
0
 62
7
 10
-1.87261228E+02
 20
9.15457488E+01
 11
-1.88551228E+02
 21
9.22257488E+01
  0
LINE
  8
0
 62
7
 10
-1.79001228E+02
 20
6.62657488E+01
 11
-1.77781228E+02
 21
6.55857488E+01
  0
LINE
  8
0
 62
7
 10
-1.76871228E+02
 20
9.15457488E+01
 11
-1.78091228E+02
 21
9.22257488E+01
  0
LINE
  8
0
 62
7
 10
-1.73061228E+02
 20
9.15457488E+01
 11
-1.72691228E+02
 21
9.22257488E+01
  0
LINE
  8
0
 62
7
 10
-1.72151228E+02
 20
6.55857488E+01
 11
-1.71791228E+02
 21
6.62657488E+01
  0
LINE
  8
0
 62
7
 10
-1.77781228E+02
 20
6.55857488E+01
 11
-1.76871228E+02
 21
9.15457488E+01
  0
LINE
  8
0
 62
7
 10
-1.79001228E+02
 20
6.62657488E+01
 11
-1.78091228E+02
 21
9.22257488E+01
  0
LINE
  8
0
 62
7
 10
-1.72151228E+02
 20
6.55857488E+01
 11
-1.73061228E+02
 21
9.15457488E+01
  0
LINE
  8
0
 62
7
 10
-1.71791228E+02
 20
6.62657488E+01
 11
-1.72691228E+02
 21
9.22257488E+01
  0
LINE
  8
0
 62
7
 10
-1.84651228E+02
 20
6.62657488E+01
 11
-1.85561228E+02
 21
9.22257488E+01
  0
LINE
  8
0
 62
7
 10
-1.86351228E+02
 20
6.55857488E+01
 11
-1.87261228E+02
 21
9.15457488E+01
  0
LINE
  8
0
 62
7
 10
-1.87641228E+02
 20
6.62657488E+01
 11
-1.88551228E+02
 21
9.22257488E+01
  0
LINE
  8
0
 62
7
 10
-1.87261228E+02
 20
9.15457488E+01
 11
-1.85541228E+02
 21
9.15457488E+01
  0
LINE
  8
0
 62
7
 10
-1.84651228E+02
 20
6.62657488E+01
 11
-1.83951228E+02
 21
6.55857488E+01
  0
LINE
  8
0
 62
7
 10
-1.84651228E+02
 20
6.62657488E+01
 11
-1.79001228E+02
 21
6.62657488E+01
  0
LINE
  8
0
 62
7
 10
-1.83951228E+02
 20
6.55857488E+01
 11
-1.77781228E+02
 21
6.55857488E+01
  0
LINE
  8
0
 62
7
 10
-1.76871228E+02
 20
9.15457488E+01
 11
-1.73061228E+02
 21
9.15457488E+01
  0
LINE
  8
0
 62
7
 10
-1.78091228E+02
 20
9.22257488E+01
 11
-1.72691228E+02
 21
9.22257488E+01
  0
LINE
  8
0
 62
7
 10
-1.72151228E+02
 20
6.55857488E+01
 11
-1.63421228E+02
 21
6.55857488E+01
  0
LINE
  8
0
 62
7
 10
-1.71791228E+02
 20
6.62657488E+01
 11
-1.63791228E+02
 21
6.62657488E+01
  0
LINE
  8
0
 62
7
 10
-1.86861228E+02
 20
6.55857488E+01
 11
-1.86351228E+02
 21
6.55857488E+01
  0
LINE
  8
0
 62
7
 10
-1.88041228E+02
 20
6.62657488E+01
 11
-1.87641228E+02
 21
6.62657488E+01
  0
LINE
  8
0
 62
7
 10
-1.88551228E+02
 20
9.22257488E+01
 11
-1.85561228E+02
 21
9.22257488E+01
  0
LINE
  8
0
 62
7
 10
-1.89041228E+02
 20
9.50557488E+01
 11
-1.46541228E+02
 21
9.50557488E+01
  0
LINE
  8
0
 62
7
 10
-1.47021228E+02
 20
9.55457488E+01
 11
-1.46541228E+02
 21
9.50557488E+01
  0
LINE
  8
0
 62
7
 10
-1.88561228E+02
 20
9.55457488E+01
 11
-1.89041228E+02
 21
9.50557488E+01
  0
LINE
  8
0
 62
7
 10
-1.88041228E+02
 20
6.62657488E+01
 11
-1.89041228E+02
 21
9.50557488E+01
  0
LINE
  8
0
 62
7
 10
-1.47551228E+02
 20
6.62657488E+01
 11
-1.46541228E+02
 21
9.50557488E+01
  0
LINE
  8
0
 62
7
 10
-1.48761228E+02
 20
6.45057488E+01
 11
-1.48731228E+02
 21
6.55857488E+01
  0
LINE
  8
0
 62
7
 10
-1.86821228E+02
 20
6.45057488E+01
 11
-1.86861228E+02
 21
6.55857488E+01
  0
LINE
  8
0
 62
7
 10
-1.48731228E+02
 20
6.55857488E+01
 11
-1.47551228E+02
 21
6.62657488E+01
  0
LINE
  8
0
 62
7
 10
-1.86861228E+02
 20
6.55857488E+01
 11
-1.88041228E+02
 21
6.62657488E+01
  0
LINE
  8
0
 62
7
 10
-1.88561228E+02
 20
9.55457488E+01
 11
-1.47021228E+02
 21
9.55457488E+01
  0
LINE
  8
0
 62
7
 10
-1.85821228E+02
 20
6.35457488E+01
 11
-1.49761228E+02
 21
6.35457488E+01
  0
LINE
  8
0
 62
7
 10
-1.87381228E+02
 20
1.88395749E+02
 11
-1.86301228E+02
 21
1.89395749E+02
  0
LINE
  8
0
 62
7
 10
-1.48201228E+02
 20
1.88395749E+02
 11
-1.49291228E+02
 21
1.89395749E+02
  0
LINE
  8
0
 62
7
 10
-1.63791228E+02
 20
1.88395749E+02
 11
-1.63501228E+02
 21
1.89395749E+02
  0
LINE
  8
0
 62
7
 10
-1.72081228E+02
 20
1.82395749E+02
 11
-1.71791228E+02
 21
1.81815749E+02
  0
LINE
  8
0
 62
7
 10
-1.72081228E+02
 20
1.89395749E+02
 11
-1.71791228E+02
 21
1.88395749E+02
  0
LINE
  8
0
 62
7
 10
-1.78821228E+02
 20
1.88395749E+02
 11
-1.77841228E+02
 21
1.89395749E+02
  0
LINE
  8
0
 62
7
 10
-1.77841228E+02
 20
1.82395749E+02
 11
-1.78821228E+02
 21
1.81815749E+02
  0
LINE
  8
0
 62
7
 10
-1.86301228E+02
 20
1.82395749E+02
 11
-1.87381228E+02
 21
1.81815749E+02
  0
LINE
  8
0
 62
7
 10
-1.87381228E+02
 20
1.88395749E+02
 11
-1.87381228E+02
 21
1.81815749E+02
  0
LINE
  8
0
 62
7
 10
-1.48201228E+02
 20
1.88395749E+02
 11
-1.48201228E+02
 21
1.81815749E+02
  0
LINE
  8
0
 62
7
 10
-1.86301228E+02
 20
1.89395749E+02
 11
-1.86301228E+02
 21
1.82395749E+02
  0
LINE
  8
0
 62
7
 10
-1.49291228E+02
 20
1.89395749E+02
 11
-1.49291228E+02
 21
1.82395749E+02
  0
LINE
  8
0
 62
7
 10
-1.51681228E+02
 20
1.89395749E+02
 11
-1.51111228E+02
 21
1.88395749E+02
  0
LINE
  8
0
 62
7
 10
-1.84471228E+02
 20
1.88395749E+02
 11
-1.83911228E+02
 21
1.89395749E+02
  0
LINE
  8
0
 62
7
 10
-1.84471228E+02
 20
1.88395749E+02
 11
-1.78821228E+02
 21
1.88395749E+02
  0
LINE
  8
0
 62
7
 10
-1.48201228E+02
 20
1.88395749E+02
 11
-1.47801228E+02
 21
1.88395749E+02
  0
LINE
  8
0
 62
7
 10
-1.84471228E+02
 20
1.88395749E+02
 11
-1.84471228E+02
 21
1.81815749E+02
  0
LINE
  8
0
 62
7
 10
-1.51111228E+02
 20
1.88395749E+02
 11
-1.51111228E+02
 21
1.81815749E+02
  0
LINE
  8
0
 62
7
 10
-1.51111228E+02
 20
1.81815749E+02
 11
-1.48201228E+02
 21
1.81815749E+02
  0
LINE
  8
0
 62
7
 10
-1.78821228E+02
 20
1.81815749E+02
 11
-1.71791228E+02
 21
1.81815749E+02
  0
LINE
  8
0
 62
7
 10
-1.56771228E+02
 20
1.88395749E+02
 11
-1.56771228E+02
 21
1.81815749E+02
  0
LINE
  8
0
 62
7
 10
-1.78821228E+02
 20
1.88395749E+02
 11
-1.78821228E+02
 21
1.81815749E+02
  0
LINE
  8
0
 62
7
 10
-1.51111228E+02
 20
1.82395749E+02
 11
-1.49291228E+02
 21
1.82395749E+02
  0
LINE
  8
0
 62
7
 10
-1.77841228E+02
 20
1.82395749E+02
 11
-1.72081228E+02
 21
1.82395749E+02
  0
LINE
  8
0
 62
7
 10
-1.57741228E+02
 20
1.89395749E+02
 11
-1.57741228E+02
 21
1.82395749E+02
  0
LINE
  8
0
 62
7
 10
-1.77841228E+02
 20
1.89395749E+02
 11
-1.77841228E+02
 21
1.82395749E+02
  0
LINE
  8
0
 62
7
 10
-1.63791228E+02
 20
1.81815749E+02
 11
-1.56771228E+02
 21
1.81815749E+02
  0
LINE
  8
0
 62
7
 10
-1.63501228E+02
 20
1.82395749E+02
 11
-1.57741228E+02
 21
1.82395749E+02
  0
LINE
  8
0
 62
7
 10
-1.56771228E+02
 20
1.88395749E+02
 11
-1.51111228E+02
 21
1.88395749E+02
  0
LINE
  8
0
 62
7
 10
-1.71791228E+02
 20
1.88395749E+02
 11
-1.63791228E+02
 21
1.88395749E+02
  0
LINE
  8
0
 62
7
 10
-1.87791228E+02
 20
1.88395749E+02
 11
-1.87381228E+02
 21
1.88395749E+02
  0
LINE
  8
0
 62
7
 10
-1.72081228E+02
 20
1.89395749E+02
 11
-1.72081228E+02
 21
1.82395749E+02
  0
LINE
  8
0
 62
7
 10
-1.63501228E+02
 20
1.89395749E+02
 11
-1.63501228E+02
 21
1.82395749E+02
  0
LINE
  8
0
 62
7
 10
-1.63791228E+02
 20
1.88395749E+02
 11
-1.63791228E+02
 21
1.81815749E+02
  0
LINE
  8
0
 62
7
 10
-1.71791228E+02
 20
1.88395749E+02
 11
-1.71791228E+02
 21
1.81815749E+02
  0
LINE
  8
0
 62
7
 10
-1.87381228E+02
 20
1.81815749E+02
 11
-1.84471228E+02
 21
1.81815749E+02
  0
LINE
  8
0
 62
7
 10
-1.86301228E+02
 20
1.82395749E+02
 11
-1.84471228E+02
 21
1.82395749E+02
  0
LINE
  8
0
 62
7
 10
-1.47801228E+02
 20
1.88395749E+02
 11
-1.48801228E+02
 21
1.89395749E+02
  0
LINE
  8
0
 62
7
 10
-1.87791228E+02
 20
1.88395749E+02
 11
-1.86791228E+02
 21
1.89395749E+02
  0
LINE
  8
0
 62
7
 10
-1.87791228E+02
 20
1.88395749E+02
 11
-1.87791228E+02
 21
1.79395749E+02
  0
LINE
  8
0
 62
7
 10
-1.47801228E+02
 20
1.88395749E+02
 11
-1.47801228E+02
 21
1.79395749E+02
  0
LINE
  8
0
 62
7
 10
-1.86791228E+02
 20
1.89395749E+02
 11
-1.48801228E+02
 21
1.89395749E+02
  0
LINE
  8
0
 62
7
 10
-1.57741228E+02
 20
1.82395749E+02
 11
-1.56771228E+02
 21
1.81815749E+02
  0
LINE
  8
0
 62
7
 10
-1.63791228E+02
 20
1.81815749E+02
 11
-1.63501228E+02
 21
1.82395749E+02
  0
LINE
  8
0
 62
7
 10
-1.49291228E+02
 20
1.82395749E+02
 11
-1.48201228E+02
 21
1.81815749E+02
  0
LINE
  8
0
 62
7
 10
-1.56771228E+02
 20
1.88395749E+02
 11
-1.57741228E+02
 21
1.89395749E+02
  0
LINE
  8
0
 62
7
 10
-1.87791228E+02
 20
1.79395749E+02
 11
-1.47801228E+02
 21
1.79395749E+02
  0
LINE
  8
0
 62
7
 10
-1.82491228E+02
 20
1.45395749E+02
 11
-1.70487836E+02
 21
1.45395749E+02
  0
LINE
  8
0
 62
7
 10
-1.81491228E+02
 20
1.46395749E+02
 11
-1.82491228E+02
 21
1.45395749E+02
  0
LINE
  8
0
 62
7
 10
-1.82491228E+02
 20
1.29895749E+02
 11
-1.83991228E+02
 21
1.28395749E+02
  0
LINE
  8
0
 62
7
 10
-1.82491228E+02
 20
1.29895749E+02
 11
-1.82491228E+02
 21
1.45395749E+02
  0
LINE
  8
0
 62
7
 10
-1.96791228E+02
 20
1.27395749E+02
 11
-1.38801228E+02
 21
1.27395749E+02
  0
LINE
  8
0
 62
7
 10
-1.39801228E+02
 20
1.26395749E+02
 11
-1.38801228E+02
 21
1.27395749E+02
  0
LINE
  8
0
 62
7
 10
-1.96791228E+02
 20
1.27395749E+02
 11
-1.95791228E+02
 21
1.26395749E+02
  0
LINE
  8
0
 62
7
 10
-1.38801228E+02
 20
1.28395749E+02
 11
-1.38801228E+02
 21
1.27395749E+02
  0
LINE
  8
0
 62
7
 10
-1.96791228E+02
 20
1.28395749E+02
 11
-1.96791228E+02
 21
1.27395749E+02
  0
LINE
  8
0
 62
7
 10
-1.81491228E+02
 20
1.46395749E+02
 11
-1.70865189E+02
 21
1.46395749E+02
  0
LINE
  8
0
 62
7
 10
-1.95791228E+02
 20
1.26395749E+02
 11
-1.39801228E+02
 21
1.26395749E+02
  0
LINE
  8
0
 62
7
 10
-1.87541228E+02
 20
1.79395749E+02
 11
-1.87541228E+02
 21
1.78395749E+02
  0
LINE
  8
0
  6
CENTER
 62
2
 10
-1.50801228E+02
 20
1.75716787E+02
 11
-1.50801228E+02
 21
1.30948371E+02
  0
CIRCLE
  8
0
 62
4
 10
-1.50801228E+02
 20
1.53395749E+02
 40
2.12500000E+01
  0
CIRCLE
  8
0
 62
4
 10
-1.50801228E+02
 20
1.53395749E+02
 40
2.07500000E+01
  0
CIRCLE
  8
0
 62
4
 10
-1.50801228E+02
 20
1.53395749E+02
 40
1.75000000E+01
  0
CIRCLE
  8
0
 62
4
 10
-1.50811228E+02
 20
1.53395723E+02
 40
1.75000000E+01
  0
LINE
  8
0
 62
4
 10
-1.49391228E+02
 20
1.52885749E+02
 11
-1.45821228E+02
 21
1.53775749E+02
  0
LINE
  8
0
 62
4
 10
-1.45101228E+02
 20
1.55245749E+02
 11
-1.45821228E+02
 21
1.53775749E+02
  0
LINE
  8
0
 62
4
 10
-1.46551228E+02
 20
1.56015749E+02
 11
-1.45101228E+02
 21
1.55245749E+02
  0
LINE
  8
0
 62
4
 10
-1.62211228E+02
 20
1.49695749E+02
 11
-1.52261228E+02
 21
1.53705749E+02
  0
LINE
  8
0
 62
4
 10
-1.62211228E+02
 20
1.49695749E+02
 11
-1.51801228E+02
 21
1.52285749E+02
  0
ARC
  8
0
 62
4
 10
-1.50798332E+02
 20
1.53396918E+02
 40
1.49513989E+00
 50
5.59523004E+01
 51
1.68079377E+02
  0
ARC
  8
0
 62
4
 10
-1.50798084E+02
 20
1.53396534E+02
 40
1.49671065E+00
 50
2.27914952E+02
 51
3.40045629E+02
  0
LINE
  8
0
 62
4
 10
-1.49961228E+02
 20
1.54635749E+02
 11
-1.46551228E+02
 21
1.56015749E+02
  0
POLYLINE
  8
0
 62
7
 66
1
  0
VERTEX
  8
0
 62
7
 10
-3.08831228E+02
 20
4.13157488E+01
  0
VERTEX
  8
0
 62
7
 10
-3.08611725E+02
 20
4.05526074E+01
  0
VERTEX
  8
0
 62
7
 10
-3.08410290E+02
 20
3.97840295E+01
  0
VERTEX
  8
0
 62
7
 10
-3.08227273E+02
 20
3.90104824E+01
  0
VERTEX
  8
0
 62
7
 10
-3.08063022E+02
 20
3.82324330E+01
  0
VERTEX
  8
0
 62
7
 10
-3.07917889E+02
 20
3.74503485E+01
  0
VERTEX
  8
0
 62
7
 10
-3.07792224E+02
 20
3.66646961E+01
  0
VERTEX
  8
0
 62
7
 10
-3.07686375E+02
 20
3.58759427E+01
  0
VERTEX
  8
0
 62
7
 10
-3.07600693E+02
 20
3.50845557E+01
  0
VERTEX
  8
0
 62
7
 10
-3.07535527E+02
 20
3.42910020E+01
  0
VERTEX
  8
0
 62
7
 10
-3.07491228E+02
 20
3.34957488E+01
  0
VERTEX
  8
0
 62
7
 10
-3.07465522E+02
 20
3.24847156E+01
  0
VERTEX
  8
0
 62
7
 10
-3.07473658E+02
 20
3.14729864E+01
  0
VERTEX
  8
0
 62
7
 10
-3.07515004E+02
 20
3.04617416E+01
  0
VERTEX
  8
0
 62
7
 10
-3.07588927E+02
 20
2.94521617E+01
  0
VERTEX
  8
0
 62
7
 10
-3.07694798E+02
 20
2.84454271E+01
  0
VERTEX
  8
0
 62
7
 10
-3.07831982E+02
 20
2.74427182E+01
  0
VERTEX
  8
0
 62
7
 10
-3.07999849E+02
 20
2.64452155E+01
  0
VERTEX
  8
0
 62
7
 10
-3.08197767E+02
 20
2.54540994E+01
  0
VERTEX
  8
0
 62
7
 10
-3.08425104E+02
 20
2.44705504E+01
  0
VERTEX
  8
0
 62
7
 10
-3.08681228E+02
 20
2.34957488E+01
  0
SEQEND
  8
0
  0
POLYLINE
  8
0
 62
7
 66
1
  0
VERTEX
  8
0
 62
7
 10
-9.48412284E+01
 20
4.13157488E+01
  0
VERTEX
  8
0
 62
7
 10
-9.46217254E+01
 20
4.05526074E+01
  0
VERTEX
  8
0
 62
7
 10
-9.44202902E+01
 20
3.97840295E+01
  0
VERTEX
  8
0
 62
7
 10
-9.42372725E+01
 20
3.90104824E+01
  0
VERTEX
  8
0
 62
7
 10
-9.40730224E+01
 20
3.82324330E+01
  0
VERTEX
  8
0
 62
7
 10
-9.39278895E+01
 20
3.74503485E+01
  0
VERTEX
  8
0
 62
7
 10
-9.38022237E+01
 20
3.66646961E+01
  0
VERTEX
  8
0
 62
7
 10
-9.36963749E+01
 20
3.58759427E+01
  0
VERTEX
  8
0
 62
7
 10
-9.36106929E+01
 20
3.50845557E+01
  0
VERTEX
  8
0
 62
7
 10
-9.35455274E+01
 20
3.42910020E+01
  0
VERTEX
  8
0
 62
7
 10
-9.35012284E+01
 20
3.34957488E+01
  0
VERTEX
  8
0
 62
7
 10
-9.34755223E+01
 20
3.24847156E+01
  0
VERTEX
  8
0
 62
7
 10
-9.34836580E+01
 20
3.14729864E+01
  0
VERTEX
  8
0
 62
7
 10
-9.35250037E+01
 20
3.04617416E+01
  0
VERTEX
  8
0
 62
7
 10
-9.35989275E+01
 20
2.94521617E+01
  0
VERTEX
  8
0
 62
7
 10
-9.37047976E+01
 20
2.84454271E+01
  0
VERTEX
  8
0
 62
7
 10
-9.38419821E+01
 20
2.74427182E+01
  0
VERTEX
  8
0
 62
7
 10
-9.40098493E+01
 20
2.64452155E+01
  0
VERTEX
  8
0
 62
7
 10
-9.42077673E+01
 20
2.54540994E+01
  0
VERTEX
  8
0
 62
7
 10
-9.44351043E+01
 20
2.44705504E+01
  0
VERTEX
  8
0
 62
7
 10
-9.46912284E+01
 20
2.34957488E+01
  0
SEQEND
  8
0
  0
LINE
  8
0
 62
7
 10
6.19387716E+01
 20
5.33957488E+01
 11
1.37888772E+02
 21
5.33957488E+01
  0
LINE
  8
0
 62
7
 10
6.08887716E+01
 20
5.43957488E+01
 11
6.19387716E+01
 21
5.33957488E+01
  0
LINE
  8
0
 62
7
 10
1.38938772E+02
 20
5.43957488E+01
 11
1.37888772E+02
 21
5.33957488E+01
  0
LINE
  8
0
 62
7
 10
6.08887716E+01
 20
5.43957488E+01
 11
1.38938772E+02
 21
5.43957488E+01
  0
LINE
  8
0
 62
7
 10
5.49187716E+01
 20
1.13395749E+02
 11
1.44918772E+02
 21
1.13395749E+02
  0
LINE
  8
0
 62
7
 10
6.04187716E+01
 20
1.78395749E+02
 11
1.39418772E+02
 21
1.78395749E+02
  0
LINE
  8
0
 62
7
 10
5.59187716E+01
 20
1.28395749E+02
 11
7.54187716E+01
 21
1.28395749E+02
  0
LINE
  8
0
 62
7
 10
7.49187716E+01
 20
1.76895749E+02
 11
7.49187716E+01
 21
1.28395749E+02
  0
LINE
  8
0
 62
7
 10
1.24918772E+02
 20
1.76895749E+02
 11
1.24918772E+02
 21
1.28395749E+02
  0
LINE
  8
0
 62
7
 10
1.44918772E+02
 20
1.27395749E+02
 11
1.44918772E+02
 21
1.13395749E+02
  0
LINE
  8
0
 62
7
 10
5.49187716E+01
 20
1.27395749E+02
 11
5.49187716E+01
 21
1.13395749E+02
  0
LINE
  8
0
 62
7
 10
7.64187716E+01
 20
1.78395749E+02
 11
7.49187716E+01
 21
1.76895749E+02
  0
LINE
  8
0
  6
CENTER
 62
2
 10
1.36918772E+02
 20
1.31395749E+02
 11
1.36918772E+02
 21
1.17895749E+02
  0
LINE
  8
0
  6
CENTER
 62
2
 10
6.29187716E+01
 20
1.31395749E+02
 11
6.29187716E+01
 21
1.17895749E+02
  0
LINE
  8
0
 62
7
 10
5.59187716E+01
 20
1.20895749E+02
 11
6.94187716E+01
 21
1.20895749E+02
  0
LINE
  8
0
 62
7
 10
1.30418772E+02
 20
1.20895749E+02
 11
1.43918772E+02
 21
1.20895749E+02
  0
LINE
  8
0
 62
7
 10
6.99187716E+01
 20
1.27395749E+02
 11
6.99187716E+01
 21
1.21395749E+02
  0
LINE
  8
0
 62
7
 10
1.29918772E+02
 20
1.27395749E+02
 11
1.29918772E+02
 21
1.21395749E+02
  0
LINE
  8
0
  6
CENTER
 62
2
 10
1.18918772E+02
 20
2.09545749E+02
 11
1.18918772E+02
 21
1.75395749E+02
  0
LINE
  8
0
 62
7
 10
1.05418772E+02
 20
1.84495749E+02
 11
1.05418772E+02
 21
1.79395749E+02
  0
LINE
  8
0
 62
7
 10
1.32918772E+02
 20
1.84495749E+02
 11
1.04918772E+02
 21
1.84495749E+02
  0
LINE
  8
0
 62
7
 10
1.04918772E+02
 20
1.91495749E+02
 11
1.04918772E+02
 21
1.84495749E+02
  0
LINE
  8
0
 62
7
 10
1.32918772E+02
 20
1.91495749E+02
 11
1.32918772E+02
 21
1.84495749E+02
  0
LINE
  8
0
 62
7
 10
1.05918772E+02
 20
1.92495749E+02
 11
1.04918772E+02
 21
1.91495749E+02
  0
LINE
  8
0
 62
7
 10
1.32918772E+02
 20
1.91495749E+02
 11
1.31918772E+02
 21
1.92495749E+02
  0
LINE
  8
0
 62
7
 10
1.31918772E+02
 20
1.92495749E+02
 11
1.05918772E+02
 21
1.92495749E+02
  0
LINE
  8
0
 62
7
 10
1.11718772E+02
 20
1.93395749E+02
 11
1.11718772E+02
 21
1.92495749E+02
  0
LINE
  8
0
 62
7
 10
1.26118772E+02
 20
1.93395749E+02
 11
1.26118772E+02
 21
1.92495749E+02
  0
LINE
  8
0
 62
7
 10
1.11918772E+02
 20
1.93395749E+02
 11
1.11968772E+02
 21
1.99645749E+02
  0
LINE
  8
0
 62
7
 10
1.25918772E+02
 20
1.93395749E+02
 11
1.25868772E+02
 21
1.99645749E+02
  0
LINE
  8
0
 62
7
 10
1.26118772E+02
 20
1.93395749E+02
 11
1.11718772E+02
 21
1.93395749E+02
  0
LINE
  8
0
 62
7
 10
1.17418772E+02
 20
1.86495749E+02
 11
1.13258772E+02
 21
1.86495749E+02
  0
LINE
  8
0
 62
7
 10
1.17278772E+02
 20
1.86785749E+02
 11
1.13638772E+02
 21
1.86785749E+02
  0
LINE
  8
0
 62
7
 10
1.04998772E+02
 20
1.91495749E+02
 11
1.04998772E+02
 21
1.86495749E+02
  0
LINE
  8
0
 62
7
 10
1.05518772E+02
 20
1.91995749E+02
 11
1.05518772E+02
 21
1.86785749E+02
  0
LINE
  8
0
 62
7
 10
1.06108772E+02
 20
1.91495749E+02
 11
1.06108772E+02
 21
1.86495749E+02
  0
LINE
  8
0
 62
7
 10
1.07608772E+02
 20
1.91495749E+02
 11
1.07608772E+02
 21
1.86495749E+02
  0
LINE
  8
0
 62
7
 10
1.08128772E+02
 20
1.91995749E+02
 11
1.08128772E+02
 21
1.86785749E+02
  0
LINE
  8
0
 62
7
 10
1.10658772E+02
 20
1.91495749E+02
 11
1.10658772E+02
 21
1.86495749E+02
  0
LINE
  8
0
 62
7
 10
1.13258772E+02
 20
1.91495749E+02
 11
1.13258772E+02
 21
1.86495749E+02
  0
LINE
  8
0
 62
7
 10
1.13638772E+02
 20
1.91995749E+02
 11
1.13638772E+02
 21
1.86785749E+02
  0
LINE
  8
0
 62
7
 10
1.17278772E+02
 20
1.91995749E+02
 11
1.17278772E+02
 21
1.86785749E+02
  0
LINE
  8
0
 62
7
 10
1.17418772E+02
 20
1.91495749E+02
 11
1.17418772E+02
 21
1.86495749E+02
  0
LINE
  8
0
 62
7
 10
1.20418772E+02
 20
1.91495749E+02
 11
1.17418772E+02
 21
1.91495749E+02
  0
LINE
  8
0
 62
7
 10
1.17278772E+02
 20
1.91995749E+02
 11
1.13638772E+02
 21
1.91995749E+02
  0
LINE
  8
0
 62
7
 10
1.13258772E+02
 20
1.91495749E+02
 11
1.10658772E+02
 21
1.91495749E+02
  0
LINE
  8
0
 62
7
 10
1.07608772E+02
 20
1.91495749E+02
 11
1.06108772E+02
 21
1.91495749E+02
  0
LINE
  8
0
 62
7
 10
1.10658772E+02
 20
1.86785749E+02
 11
1.08128772E+02
 21
1.86785749E+02
  0
LINE
  8
0
 62
7
 10
1.06108772E+02
 20
1.86785749E+02
 11
1.05518772E+02
 21
1.86785749E+02
  0
LINE
  8
0
 62
7
 10
1.10798772E+02
 20
1.91995749E+02
 11
1.08128772E+02
 21
1.91995749E+02
  0
LINE
  8
0
 62
7
 10
1.17418772E+02
 20
1.91495749E+02
 11
1.17278772E+02
 21
1.91995749E+02
  0
LINE
  8
0
 62
7
 10
1.17278772E+02
 20
1.86785749E+02
 11
1.17418772E+02
 21
1.86495749E+02
  0
LINE
  8
0
 62
7
 10
1.13258772E+02
 20
1.91495749E+02
 11
1.13638772E+02
 21
1.91995749E+02
  0
LINE
  8
0
 62
7
 10
1.13638772E+02
 20
1.86785749E+02
 11
1.13258772E+02
 21
1.86495749E+02
  0
LINE
  8
0
 62
7
 10
1.10658772E+02
 20
1.91495749E+02
 11
1.10798772E+02
 21
1.91995749E+02
  0
LINE
  8
0
 62
7
 10
1.08128772E+02
 20
1.86785749E+02
 11
1.07608772E+02
 21
1.86495749E+02
  0
LINE
  8
0
 62
7
 10
1.06108772E+02
 20
1.91495749E+02
 11
1.06488772E+02
 21
1.91995749E+02
  0
LINE
  8
0
 62
7
 10
1.07608772E+02
 20
1.91495749E+02
 11
1.08128772E+02
 21
1.91995749E+02
  0
LINE
  8
0
 62
7
 10
1.06488772E+02
 20
1.91995749E+02
 11
1.05518772E+02
 21
1.91995749E+02
  0
LINE
  8
0
 62
7
 10
1.10658772E+02
 20
1.86495749E+02
 11
1.07608772E+02
 21
1.86495749E+02
  0
LINE
  8
0
 62
7
 10
1.06078772E+02
 20
1.86495749E+02
 11
1.04998772E+02
 21
1.86495749E+02
  0
LINE
  8
0
 62
7
 10
1.05518772E+02
 20
1.86785749E+02
 11
1.04998772E+02
 21
1.86495749E+02
  0
LINE
  8
0
 62
7
 10
1.04998772E+02
 20
1.91495749E+02
 11
1.04918772E+02
 21
1.91495749E+02
  0
LINE
  8
0
 62
7
 10
1.04998772E+02
 20
1.91495749E+02
 11
1.05518772E+02
 21
1.91995749E+02
  0
LINE
  8
0
 62
7
 10
1.20418772E+02
 20
1.86495749E+02
 11
1.24578772E+02
 21
1.86495749E+02
  0
LINE
  8
0
 62
7
 10
1.20558772E+02
 20
1.86785749E+02
 11
1.24198772E+02
 21
1.86785749E+02
  0
LINE
  8
0
 62
7
 10
1.32838772E+02
 20
1.91495749E+02
 11
1.32838772E+02
 21
1.86495749E+02
  0
LINE
  8
0
 62
7
 10
1.32318772E+02
 20
1.91995749E+02
 11
1.32318772E+02
 21
1.86785749E+02
  0
LINE
  8
0
 62
7
 10
1.31718772E+02
 20
1.91495749E+02
 11
1.31718772E+02
 21
1.86495749E+02
  0
LINE
  8
0
 62
7
 10
1.30218772E+02
 20
1.91495749E+02
 11
1.30218772E+02
 21
1.86495749E+02
  0
LINE
  8
0
 62
7
 10
1.29698772E+02
 20
1.91995749E+02
 11
1.29698772E+02
 21
1.86785749E+02
  0
LINE
  8
0
 62
7
 10
1.27178772E+02
 20
1.91495749E+02
 11
1.27178772E+02
 21
1.86495749E+02
  0
LINE
  8
0
 62
7
 10
1.24578772E+02
 20
1.91495749E+02
 11
1.24578772E+02
 21
1.86495749E+02
  0
LINE
  8
0
 62
7
 10
1.24198772E+02
 20
1.91995749E+02
 11
1.24198772E+02
 21
1.86785749E+02
  0
LINE
  8
0
 62
7
 10
1.20558772E+02
 20
1.91995749E+02
 11
1.20558772E+02
 21
1.86785749E+02
  0
LINE
  8
0
 62
7
 10
1.20418772E+02
 20
1.91495749E+02
 11
1.20418772E+02
 21
1.86495749E+02
  0
LINE
  8
0
 62
7
 10
1.20558772E+02
 20
1.91995749E+02
 11
1.24198772E+02
 21
1.91995749E+02
  0
LINE
  8
0
 62
7
 10
1.24578772E+02
 20
1.91495749E+02
 11
1.27178772E+02
 21
1.91495749E+02
  0
LINE
  8
0
 62
7
 10
1.30218772E+02
 20
1.91495749E+02
 11
1.31718772E+02
 21
1.91495749E+02
  0
LINE
  8
0
 62
7
 10
1.27178772E+02
 20
1.86785749E+02
 11
1.29698772E+02
 21
1.86785749E+02
  0
LINE
  8
0
 62
7
 10
1.31718772E+02
 20
1.86785749E+02
 11
1.32318772E+02
 21
1.86785749E+02
  0
LINE
  8
0
 62
7
 10
1.27038772E+02
 20
1.91995749E+02
 11
1.29698772E+02
 21
1.91995749E+02
  0
LINE
  8
0
 62
7
 10
1.20418772E+02
 20
1.91495749E+02
 11
1.20558772E+02
 21
1.91995749E+02
  0
LINE
  8
0
 62
7
 10
1.20558772E+02
 20
1.86785749E+02
 11
1.20418772E+02
 21
1.86495749E+02
  0
LINE
  8
0
 62
7
 10
1.24578772E+02
 20
1.91495749E+02
 11
1.24198772E+02
 21
1.91995749E+02
  0
LINE
  8
0
 62
7
 10
1.24198772E+02
 20
1.86785749E+02
 11
1.24578772E+02
 21
1.86495749E+02
  0
LINE
  8
0
 62
7
 10
1.27168772E+02
 20
1.91495749E+02
 11
1.27038772E+02
 21
1.91995749E+02
  0
LINE
  8
0
 62
7
 10
1.29698772E+02
 20
1.86785749E+02
 11
1.30218772E+02
 21
1.86495749E+02
  0
LINE
  8
0
 62
7
 10
1.31718772E+02
 20
1.91495749E+02
 11
1.31338772E+02
 21
1.91995749E+02
  0
LINE
  8
0
 62
7
 10
1.30218772E+02
 20
1.91495749E+02
 11
1.29698772E+02
 21
1.91995749E+02
  0
LINE
  8
0
 62
7
 10
1.31338772E+02
 20
1.91995749E+02
 11
1.32318772E+02
 21
1.91995749E+02
  0
LINE
  8
0
 62
7
 10
1.27178772E+02
 20
1.86495749E+02
 11
1.30218772E+02
 21
1.86495749E+02
  0
LINE
  8
0
 62
7
 10
1.31748772E+02
 20
1.86495749E+02
 11
1.32838772E+02
 21
1.86495749E+02
  0
LINE
  8
0
 62
7
 10
1.32318772E+02
 20
1.86785749E+02
 11
1.32838772E+02
 21
1.86495749E+02
  0
LINE
  8
0
 62
7
 10
1.32838772E+02
 20
1.91495749E+02
 11
1.32918772E+02
 21
1.91495749E+02
  0
LINE
  8
0
 62
7
 10
1.32838772E+02
 20
1.91495749E+02
 11
1.32318772E+02
 21
1.91995749E+02
  0
LINE
  8
0
 62
7
 10
1.32418772E+02
 20
1.84495749E+02
 11
1.32418772E+02
 21
1.79395749E+02
  0
LINE
  8
0
 62
7
 10
7.77787716E+01
 20
1.85895749E+02
 11
7.79187716E+01
 21
1.85895749E+02
  0
LINE
  8
0
 62
7
 10
7.77787716E+01
 20
1.85895749E+02
 11
7.72287716E+01
 21
1.86395749E+02
  0
LINE
  8
0
 62
7
 10
7.65287716E+01
 20
1.80395749E+02
 11
7.77787716E+01
 21
1.80395749E+02
  0
LINE
  8
0
 62
7
 10
7.14187716E+01
 20
1.85895749E+02
 11
6.84187716E+01
 21
1.85895749E+02
  0
LINE
  8
0
 62
7
 10
7.77787716E+01
 20
1.80395749E+02
 11
7.72287716E+01
 21
1.80735749E+02
  0
LINE
  8
0
 62
7
 10
7.39287716E+01
 20
1.80745749E+02
 11
7.15587716E+01
 21
1.80745749E+02
  0
LINE
  8
0
 62
7
 10
7.74187716E+01
 20
1.86395749E+02
 11
6.24187716E+01
 21
1.86395749E+02
  0
LINE
  8
0
 62
7
 10
7.79187716E+01
 20
1.85895749E+02
 11
7.79187716E+01
 21
1.78395749E+02
  0
LINE
  8
0
 62
7
 10
6.19187716E+01
 20
1.85895749E+02
 11
6.19187716E+01
 21
1.78395749E+02
  0
LINE
  8
0
 62
7
 10
7.74187716E+01
 20
1.86395749E+02
 11
7.79187716E+01
 21
1.85895749E+02
  0
LINE
  8
0
 62
7
 10
6.19187716E+01
 20
1.85895749E+02
 11
6.24187716E+01
 21
1.86395749E+02
  0
LINE
  8
0
  6
CENTER
 62
2
 10
6.99187716E+01
 20
1.89395749E+02
 11
6.99187716E+01
 21
1.75395749E+02
  0
LINE
  8
0
 62
7
 10
6.84187716E+01
 20
1.80395749E+02
 11
6.54187716E+01
 21
1.80395749E+02
  0
LINE
  8
0
 62
7
 10
6.54187716E+01
 20
1.85895749E+02
 11
6.32987716E+01
 21
1.85895749E+02
  0
LINE
  8
0
 62
7
 10
6.20587716E+01
 20
1.85895749E+02
 11
6.20587716E+01
 21
1.80395749E+02
  0
LINE
  8
0
 62
7
 10
6.25987716E+01
 20
1.86395749E+02
 11
6.25987716E+01
 21
1.80745749E+02
  0
LINE
  8
0
 62
7
 10
6.32987716E+01
 20
1.85895749E+02
 11
6.32987716E+01
 21
1.80395749E+02
  0
LINE
  8
0
 62
7
 10
6.54187716E+01
 20
1.85895749E+02
 11
6.54187716E+01
 21
1.80395749E+02
  0
LINE
  8
0
 62
7
 10
6.59087716E+01
 20
1.86395749E+02
 11
6.59087716E+01
 21
1.80745749E+02
  0
LINE
  8
0
 62
7
 10
6.82687716E+01
 20
1.86395749E+02
 11
6.82687716E+01
 21
1.80745749E+02
  0
LINE
  8
0
 62
7
 10
6.84187716E+01
 20
1.85895749E+02
 11
6.84187716E+01
 21
1.80395749E+02
  0
LINE
  8
0
 62
7
 10
6.25987716E+01
 20
1.80745749E+02
 11
6.32987716E+01
 21
1.80745749E+02
  0
LINE
  8
0
 62
7
 10
6.84187716E+01
 20
1.85895749E+02
 11
6.82687716E+01
 21
1.86395749E+02
  0
LINE
  8
0
 62
7
 10
6.84187716E+01
 20
1.80395749E+02
 11
6.82687716E+01
 21
1.80745749E+02
  0
LINE
  8
0
 62
7
 10
6.59087716E+01
 20
1.80745749E+02
 11
6.54187716E+01
 21
1.80395749E+02
  0
LINE
  8
0
 62
7
 10
6.54187716E+01
 20
1.85895749E+02
 11
6.59087716E+01
 21
1.86395749E+02
  0
LINE
  8
0
 62
7
 10
6.32987716E+01
 20
1.85895749E+02
 11
6.35787716E+01
 21
1.86395749E+02
  0
LINE
  8
0
 62
7
 10
6.20587716E+01
 20
1.80395749E+02
 11
6.25987716E+01
 21
1.80745749E+02
  0
LINE
  8
0
 62
7
 10
6.20587716E+01
 20
1.85895749E+02
 11
6.25987716E+01
 21
1.86395749E+02
  0
LINE
  8
0
 62
7
 10
6.20587716E+01
 20
1.85895749E+02
 11
6.19187716E+01
 21
1.85895749E+02
  0
LINE
  8
0
 62
7
 10
6.59087716E+01
 20
1.80745749E+02
 11
6.82687716E+01
 21
1.80745749E+02
  0
LINE
  8
0
 62
7
 10
6.32987716E+01
 20
1.80395749E+02
 11
6.20587716E+01
 21
1.80395749E+02
  0
LINE
  8
0
 62
7
 10
7.14187716E+01
 20
1.80395749E+02
 11
7.44087716E+01
 21
1.80395749E+02
  0
LINE
  8
0
 62
7
 10
7.44087716E+01
 20
1.85895749E+02
 11
7.65287716E+01
 21
1.85895749E+02
  0
LINE
  8
0
 62
7
 10
7.77787716E+01
 20
1.85895749E+02
 11
7.77787716E+01
 21
1.80395749E+02
  0
LINE
  8
0
 62
7
 10
7.72287716E+01
 20
1.86395749E+02
 11
7.72287716E+01
 21
1.80745749E+02
  0
LINE
  8
0
 62
7
 10
7.65287716E+01
 20
1.85895749E+02
 11
7.65287716E+01
 21
1.80395749E+02
  0
LINE
  8
0
 62
7
 10
7.44087716E+01
 20
1.85895749E+02
 11
7.44087716E+01
 21
1.80395749E+02
  0
LINE
  8
0
 62
7
 10
7.39287716E+01
 20
1.86395749E+02
 11
7.39287716E+01
 21
1.80745749E+02
  0
LINE
  8
0
 62
7
 10
7.15587716E+01
 20
1.86395749E+02
 11
7.15587716E+01
 21
1.80745749E+02
  0
LINE
  8
0
 62
7
 10
7.14187716E+01
 20
1.85895749E+02
 11
7.14187716E+01
 21
1.80395749E+02
  0
LINE
  8
0
 62
7
 10
7.72287716E+01
 20
1.80745749E+02
 11
7.65287716E+01
 21
1.80745749E+02
  0
LINE
  8
0
 62
7
 10
7.14187716E+01
 20
1.85895749E+02
 11
7.15587716E+01
 21
1.86395749E+02
  0
LINE
  8
0
 62
7
 10
7.14187716E+01
 20
1.80395749E+02
 11
7.15587716E+01
 21
1.80745749E+02
  0
LINE
  8
0
 62
7
 10
7.39287716E+01
 20
1.80735749E+02
 11
7.44087716E+01
 21
1.80395749E+02
  0
LINE
  8
0
 62
7
 10
7.44087716E+01
 20
1.85895749E+02
 11
7.39287716E+01
 21
1.86395749E+02
  0
LINE
  8
0
 62
7
 10
7.65287716E+01
 20
1.85895749E+02
 11
7.62487716E+01
 21
1.86395749E+02
  0
LINE
  8
0
 62
7
 10
1.24918772E+02
 20
1.76895749E+02
 11
1.23418772E+02
 21
1.78395749E+02
  0
LINE
  8
0
 62
7
 10
5.89187716E+01
 20
1.76895749E+02
 11
1.40918772E+02
 21
1.76895749E+02
  0
LINE
  8
0
 62
7
 10
7.64187716E+01
 20
1.78395749E+02
 11
7.64187716E+01
 21
1.27395749E+02
  0
LINE
  8
0
 62
7
 10
1.23418772E+02
 20
1.78395749E+02
 11
1.23418772E+02
 21
1.27395749E+02
  0
LINE
  8
0
 62
7
 10
1.24418772E+02
 20
1.28395749E+02
 11
1.43918772E+02
 21
1.28395749E+02
  0
LINE
  8
0
  6
CENTER
 62
2
 10
9.99187716E+01
 20
1.94395749E+02
 11
9.99187716E+01
 21
-6.93442512E+01
  0
LINE
  8
0
 62
7
 10
5.89187716E+01
 20
1.76895749E+02
 11
5.69587716E+01
 21
1.29355749E+02
  0
LINE
  8
0
 62
7
 10
6.90287716E+01
 20
1.76895749E+02
 11
6.59987716E+01
 21
1.28395749E+02
  0
LINE
  8
0
 62
7
 10
1.30808772E+02
 20
1.76895749E+02
 11
1.33838772E+02
 21
1.28395749E+02
  0
LINE
  8
0
 62
7
 10
1.40918772E+02
 20
1.76895749E+02
 11
1.42878772E+02
 21
1.29355749E+02
  0
LINE
  8
0
 62
7
 10
1.40918772E+02
 20
1.76895749E+02
 11
1.39418772E+02
 21
1.78395749E+02
  0
LINE
  8
0
 62
7
 10
5.89187716E+01
 20
1.76895749E+02
 11
6.04187716E+01
 21
1.78395749E+02
  0
LINE
  8
0
 62
7
 10
6.98187716E+01
 20
1.78395749E+02
 11
6.90287716E+01
 21
1.76895749E+02
  0
LINE
  8
0
 62
7
 10
1.30018772E+02
 20
1.78395749E+02
 11
1.30808772E+02
 21
1.76895749E+02
  0
LINE
  8
0
 62
7
 10
9.59187716E+01
 20
1.79395749E+02
 11
1.03918772E+02
 21
1.79395749E+02
  0
LINE
  8
0
 62
7
 10
1.03918772E+02
 20
1.79395749E+02
 11
1.03918772E+02
 21
1.78395749E+02
  0
LINE
  8
0
 62
7
 10
9.59187716E+01
 20
1.79395749E+02
 11
9.59187716E+01
 21
1.78395749E+02
  0
LINE
  8
0
 62
7
 10
1.17918772E+02
 20
1.79395749E+02
 11
1.17918772E+02
 21
1.78395749E+02
  0
LINE
  8
0
 62
7
 10
1.19918772E+02
 20
1.79395749E+02
 11
1.19918772E+02
 21
1.78395749E+02
  0
LINE
  8
0
 62
7
 10
1.17918772E+02
 20
1.79395749E+02
 11
1.19918772E+02
 21
1.79395749E+02
  0
LINE
  8
0
 62
7
 10
9.99187716E+01
 20
1.79395749E+02
 11
9.99187716E+01
 21
1.78395749E+02
  0
LINE
  8
0
 62
7
 10
5.49187716E+01
 20
1.13395749E+02
 11
5.49187716E+01
 21
9.93957488E+01
  0
LINE
  8
0
 62
7
 10
1.44918772E+02
 20
1.13395749E+02
 11
1.44918772E+02
 21
9.93957488E+01
  0
LINE
  8
0
 62
7
 10
5.59187716E+01
 20
9.83957488E+01
 11
1.43918772E+02
 21
9.83957488E+01
  0
LINE
  8
0
 62
7
 10
1.38938772E+02
 20
5.43957488E+01
 11
1.40068772E+02
 21
9.74157488E+01
  0
LINE
  8
0
 62
7
 10
1.43018772E+02
 20
1.22395749E+02
 11
1.43018772E+02
 21
1.20895749E+02
  0
LINE
  8
0
 62
7
 10
1.30818772E+02
 20
1.22395749E+02
 11
1.30818772E+02
 21
1.20895749E+02
  0
LINE
  8
0
 62
7
 10
1.43018772E+02
 20
1.22395749E+02
 11
1.30818772E+02
 21
1.22395749E+02
  0
LINE
  8
0
 62
7
 10
1.41918772E+02
 20
1.27795749E+02
 11
1.41918772E+02
 21
1.22395749E+02
  0
LINE
  8
0
 62
7
 10
1.31918772E+02
 20
1.27795749E+02
 11
1.31918772E+02
 21
1.22395749E+02
  0
LINE
  8
0
 62
7
 10
1.31918772E+02
 20
1.27795749E+02
 11
1.32518772E+02
 21
1.28395749E+02
  0
LINE
  8
0
 62
7
 10
1.41918772E+02
 20
1.27795749E+02
 11
1.41318772E+02
 21
1.28395749E+02
  0
LINE
  8
0
 62
7
 10
1.31918772E+02
 20
1.27795749E+02
 11
1.41918772E+02
 21
1.27795749E+02
  0
LINE
  8
0
 62
7
 10
5.79187716E+01
 20
1.27795749E+02
 11
5.79187716E+01
 21
1.22395749E+02
  0
LINE
  8
0
 62
7
 10
6.79187716E+01
 20
1.27795749E+02
 11
6.79187716E+01
 21
1.22395749E+02
  0
LINE
  8
0
 62
7
 10
6.90187716E+01
 20
1.22395749E+02
 11
5.68187716E+01
 21
1.22395749E+02
  0
LINE
  8
0
 62
7
 10
6.90187716E+01
 20
1.22395749E+02
 11
6.90187716E+01
 21
1.20895749E+02
  0
LINE
  8
0
 62
7
 10
5.68187716E+01
 20
1.22395749E+02
 11
5.68187716E+01
 21
1.20895749E+02
  0
LINE
  8
0
 62
7
 10
5.79187716E+01
 20
1.27795749E+02
 11
6.79187716E+01
 21
1.27795749E+02
  0
LINE
  8
0
 62
7
 10
5.79187716E+01
 20
1.27795749E+02
 11
5.85187716E+01
 21
1.28395749E+02
  0
LINE
  8
0
 62
7
 10
6.79187716E+01
 20
1.27795749E+02
 11
6.73187716E+01
 21
1.28395749E+02
  0
LINE
  8
0
 62
7
 10
1.44918772E+02
 20
1.76395749E+02
 11
1.44918772E+02
 21
1.30395749E+02
  0
LINE
  8
0
 62
7
 10
1.03918772E+02
 20
1.79395749E+02
 11
1.05418772E+02
 21
1.79395749E+02
  0
LINE
  8
0
 62
7
 10
7.99187716E+01
 20
1.79395749E+02
 11
9.59187716E+01
 21
1.79395749E+02
  0
LINE
  8
0
 62
7
 10
8.01687716E+01
 20
1.79395749E+02
 11
8.01687716E+01
 21
1.78395749E+02
  0
LINE
  8
0
 62
7
 10
7.99187716E+01
 20
1.88395749E+02
 11
7.99187716E+01
 21
1.79395749E+02
  0
LINE
  8
0
 62
7
 10
8.03187716E+01
 20
1.88395749E+02
 11
8.03187716E+01
 21
1.81815749E+02
  0
LINE
  8
0
 62
7
 10
8.14087716E+01
 20
1.82395749E+02
 11
8.03187716E+01
 21
1.81815749E+02
  0
LINE
  8
0
 62
7
 10
8.14087716E+01
 20
1.89395749E+02
 11
8.14087716E+01
 21
1.82395749E+02
  0
LINE
  8
0
 62
7
 10
8.14087716E+01
 20
1.82395749E+02
 11
8.32287716E+01
 21
1.82395749E+02
  0
LINE
  8
0
 62
7
 10
8.03187716E+01
 20
1.81815749E+02
 11
8.32287716E+01
 21
1.81815749E+02
  0
LINE
  8
0
 62
7
 10
8.32287716E+01
 20
1.88395749E+02
 11
8.32287716E+01
 21
1.81815749E+02
  0
LINE
  8
0
 62
7
 10
7.99187716E+01
 20
1.88395749E+02
 11
8.09187716E+01
 21
1.89395749E+02
  0
LINE
  8
0
 62
7
 10
8.03187716E+01
 20
1.88395749E+02
 11
8.14087716E+01
 21
1.89395749E+02
  0
LINE
  8
0
 62
7
 10
7.99187716E+01
 20
1.88395749E+02
 11
8.03187716E+01
 21
1.88395749E+02
  0
LINE
  8
0
 62
7
 10
8.09187716E+01
 20
1.89395749E+02
 11
1.04918772E+02
 21
1.89395749E+02
  0
LINE
  8
0
 62
7
 10
8.32287716E+01
 20
1.88395749E+02
 11
8.37987716E+01
 21
1.89395749E+02
  0
LINE
  8
0
 62
7
 10
8.32287716E+01
 20
1.88395749E+02
 11
8.88887716E+01
 21
1.88395749E+02
  0
LINE
  8
0
 62
7
 10
8.88887716E+01
 20
1.88395749E+02
 11
8.98587716E+01
 21
1.89395749E+02
  0
LINE
  8
0
 62
7
 10
8.98587716E+01
 20
1.89395749E+02
 11
8.98587716E+01
 21
1.82395749E+02
  0
LINE
  8
0
 62
7
 10
8.88887716E+01
 20
1.88395749E+02
 11
8.88887716E+01
 21
1.81815749E+02
  0
LINE
  8
0
 62
7
 10
8.98587716E+01
 20
1.82395749E+02
 11
8.88887716E+01
 21
1.81815749E+02
  0
LINE
  8
0
 62
7
 10
8.98587716E+01
 20
1.82395749E+02
 11
9.56287716E+01
 21
1.82395749E+02
  0
LINE
  8
0
 62
7
 10
8.88887716E+01
 20
1.81815749E+02
 11
9.59187716E+01
 21
1.81815749E+02
  0
LINE
  8
0
 62
7
 10
9.56287716E+01
 20
1.82395749E+02
 11
9.59187716E+01
 21
1.81815749E+02
  0
LINE
  8
0
 62
7
 10
9.59187716E+01
 20
1.88395749E+02
 11
9.59187716E+01
 21
1.81815749E+02
  0
LINE
  8
0
 62
7
 10
9.56287716E+01
 20
1.89395749E+02
 11
9.56287716E+01
 21
1.82395749E+02
  0
LINE
  8
0
 62
7
 10
9.56287716E+01
 20
1.89395749E+02
 11
9.59187716E+01
 21
1.88395749E+02
  0
LINE
  8
0
 62
7
 10
9.59187716E+01
 20
1.88395749E+02
 11
1.03918772E+02
 21
1.88395749E+02
  0
LINE
  8
0
 62
7
 10
1.03918772E+02
 20
1.88395749E+02
 11
1.04208772E+02
 21
1.89395749E+02
  0
LINE
  8
0
 62
7
 10
1.03918772E+02
 20
1.88395749E+02
 11
1.03918772E+02
 21
1.81815749E+02
  0
LINE
  8
0
 62
7
 10
1.04208772E+02
 20
1.89395749E+02
 11
1.04208772E+02
 21
1.82395749E+02
  0
LINE
  8
0
 62
7
 10
1.04208772E+02
 20
1.82395749E+02
 11
1.05418772E+02
 21
1.82395749E+02
  0
LINE
  8
0
 62
7
 10
1.03918772E+02
 20
1.81815749E+02
 11
1.04208772E+02
 21
1.82395749E+02
  0
LINE
  8
0
 62
7
 10
1.03918772E+02
 20
1.81815749E+02
 11
1.05418772E+02
 21
1.81815749E+02
  0
LINE
  8
0
 62
7
 10
1.59918772E+02
 20
2.08395749E+02
 11
1.59918772E+02
 21
9.83957488E+01
  0
LINE
  8
0
 62
7
 10
1.54418772E+02
 20
2.08395749E+02
 11
1.59918772E+02
 21
2.08395749E+02
  0
LINE
  8
0
 62
7
 10
1.54418772E+02
 20
9.83957488E+01
 11
1.59918772E+02
 21
9.83957488E+01
  0
LINE
  8
0
 62
7
 10
1.52918772E+02
 20
2.06895749E+02
 11
1.52918772E+02
 21
1.88465749E+02
  0
LINE
  8
0
 62
7
 10
1.54418772E+02
 20
9.83957488E+01
 11
1.52918772E+02
 21
9.98957488E+01
  0
LINE
  8
0
 62
7
 10
1.54418772E+02
 20
2.08395749E+02
 11
1.52918772E+02
 21
2.06895749E+02
  0
LINE
  8
0
 62
7
 10
1.52918772E+02
 20
1.18325749E+02
 11
1.52918772E+02
 21
9.98957488E+01
  0
LINE
  8
0
 62
7
 10
1.44378772E+02
 20
1.77855749E+02
 11
1.51448772E+02
 21
1.84925749E+02
  0
LINE
  8
0
 62
7
 10
1.44378772E+02
 20
1.28925749E+02
 11
1.51448772E+02
 21
1.21855749E+02
  0
LINE
  8
0
 62
7
 10
1.54418772E+02
 20
2.08395749E+02
 11
1.54418772E+02
 21
1.87845749E+02
  0
LINE
  8
0
 62
7
 10
1.54418772E+02
 20
1.18945749E+02
 11
1.54418772E+02
 21
9.83957488E+01
  0
LINE
  8
0
 62
7
 10
1.40998772E+02
 20
1.74895749E+02
 11
1.41468772E+02
 21
1.74895749E+02
  0
LINE
  8
0
 62
7
 10
1.44998772E+02
 20
1.30425749E+02
 11
1.52948772E+02
 21
1.22475749E+02
  0
LINE
  8
0
 62
7
 10
1.44998772E+02
 20
1.76355749E+02
 11
1.52948772E+02
 21
1.84305749E+02
  0
LINE
  8
0
 62
7
 10
1.54418772E+02
 20
2.04395749E+02
 11
1.59918772E+02
 21
2.04395749E+02
  0
LINE
  8
0
 62
7
 10
1.54418772E+02
 20
1.02395749E+02
 11
1.59918772E+02
 21
1.02395749E+02
  0
LINE
  8
0
 62
7
 10
1.52918772E+02
 20
1.03015749E+02
 11
1.54418772E+02
 21
1.02395749E+02
  0
LINE
  8
0
 62
7
 10
1.52918772E+02
 20
2.03775749E+02
 11
1.54418772E+02
 21
2.04395749E+02
  0
LINE
  8
0
  6
CENTER
 62
2
 10
1.48918772E+02
 20
1.08395749E+02
 11
1.63918772E+02
 21
1.08395749E+02
  0
LINE
  8
0
  6
CENTER
 62
2
 10
1.48918772E+02
 20
1.98395749E+02
 11
1.63918772E+02
 21
1.98395749E+02
  0
LINE
  8
0
 62
7
 10
6.08887716E+01
 20
5.43957488E+01
 11
5.97587716E+01
 21
9.74157488E+01
  0
ARC
  8
0
 62
7
 10
7.54208574E+01
 20
1.27397835E+02
 40
9.97916316E-01
 50
3.59880239E+02
 51
9.01197610E+01
  0
ARC
  8
0
 62
7
 10
1.43917988E+02
 20
9.93965328E+01
 40
1.00078431E+00
 50
2.70000000E+02
 51
3.59955115E+02
  0
ARC
  8
0
 62
7
 10
1.24417977E+02
 20
1.27396544E+02
 40
9.99205373E-01
 50
9.00000002E+01
 51
1.80045583E+02
  0
ARC
  8
0
 62
7
 10
1.04417988E+02
 20
1.79396533E+02
 40
1.00078431E+00
 50
2.70000000E+02
 51
3.59955115E+02
  0
ARC
  8
0
 62
7
 10
1.41069149E+02
 20
9.73951598E+01
 40
1.00058907E+00
 50
9.00000002E+01
 51
1.78820948E+02
  0
CIRCLE
  8
0
 62
7
 10
9.99200606E+01
 20
1.53398571E+02
 40
1.20585012E+01
  0
ARC
  8
0
 62
7
 10
5.59208581E+01
 20
9.93978353E+01
 40
1.00208867E+00
 50
1.80119299E+02
 51
2.69880702E+02
  0
CIRCLE
  8
0
 62
2
 10
9.99200606E+01
 20
1.53398571E+02
 40
1.32205000E+01
  0
CIRCLE
  8
0
 62
7
 10
9.99200606E+01
 20
1.53398632E+02
 40
2.10000000E+01
  0
ARC
  8
0
 62
7
 10
1.18918772E+02
 20
1.99598644E+02
 40
6.95015963E+00
 50
3.88323356E-01
 51
1.79611677E+02
  0
ARC
  8
0
 62
7
 10
5.59179766E+01
 20
1.27396544E+02
 40
9.99205373E-01
 50
9.00000002E+01
 51
1.80045583E+02
  0
ARC
  8
0
 62
7
 10
5.59586320E+01
 20
1.29396727E+02
 40
1.00097872E+00
 50
2.70000000E+02
 51
3.57653733E+02
  0
ARC
  8
0
 62
7
 10
1.43920857E+02
 20
1.27397835E+02
 40
9.97916316E-01
 50
3.59880239E+02
 51
9.01197610E+01
  0
ARC
  8
0
 62
7
 10
1.43880146E+02
 20
1.29398014E+02
 40
1.00226593E+00
 50
1.82416847E+02
 51
2.69921431E+02
  0
ARC
  8
0
 62
7
 10
1.43920842E+02
 20
1.19897819E+02
 40
9.97931531E-01
 50
3.59881117E+02
 51
9.01188838E+01
  0
ARC
  8
0
 62
7
 10
1.28920857E+02
 20
1.27397835E+02
 40
9.97916316E-01
 50
3.59880239E+02
 51
9.01197610E+01
  0
ARC
  8
0
 62
7
 10
7.09179766E+01
 20
1.27396544E+02
 40
9.99205373E-01
 50
9.00000002E+01
 51
1.80045583E+02
  0
ARC
  8
0
 62
7
 10
5.59179918E+01
 20
1.19896528E+02
 40
9.99220588E-01
 50
9.00000002E+01
 51
1.80044709E+02
  0
ARC
  8
0
 62
7
 10
6.94179701E+01
 20
1.21396550E+02
 40
5.00802113E-01
 50
2.70000000E+02
 51
3.59908305E+02
  0
ARC
  8
0
 62
7
 10
1.30420858E+02
 20
1.21397836E+02
 40
5.02091154E-01
 50
1.80238137E+02
 51
2.69761864E+02
  0
ARC
  8
0
 62
7
 10
1.33420843E+02
 20
1.79397820E+02
 40
1.00207337E+00
 50
1.80118427E+02
 51
2.69881573E+02
  0
ARC
  8
0
 62
7
 10
1.40845872E+02
 20
1.81397238E+02
 40
5.00235192E+00
 50
2.71064110E+02
 51
3.14930431E+02
  0
ARC
  8
0
 62
7
 10
1.47918865E+02
 20
1.88466769E+02
 40
4.99990676E+00
 50
3.14909944E+02
 51
3.59988305E+02
  0
ARC
  8
0
 62
7
 10
1.49419339E+02
 20
1.87846572E+02
 40
4.99943234E+00
 50
3.14907688E+02
 51
3.59990561E+02
  0
ARC
  8
0
 62
7
 10
1.41467098E+02
 20
1.79897226E+02
 40
5.00147741E+00
 50
2.70019168E+02
 51
3.14920584E+02
  0
ARC
  8
0
 62
7
 10
1.40838026E+02
 20
1.25406092E+02
 40
4.99248067E+00
 50
4.48288701E+01
 51
6.62494975E+01
  0
ARC
  8
0
 62
7
 10
1.47924421E+02
 20
1.18317025E+02
 40
4.99435843E+00
 50
1.00082569E-01
 51
4.51165953E+01
  0
ARC
  8
0
 62
7
 10
1.41465900E+02
 20
1.26901156E+02
 40
4.99038433E+00
 50
4.49327899E+01
 51
7.47470885E+01
  0
ARC
  8
0
 62
7
 10
1.49424893E+02
 20
1.18937221E+02
 40
4.99388582E+00
 50
9.78356232E-02
 51
4.51188423E+01
  0
ARC
  8
0
 62
7
 10
5.87645582E+01
 20
9.74014494E+01
 40
9.94316150E-01
 50
8.24001952E-01
 51
9.03334490E+01
  0
LINE
  8
0
 62
4
 10
9.23387716E+01
 20
-4.72942512E+01
 11
1.07488772E+02
 21
-4.72942512E+01
  0
LINE
  8
0
 62
4
 10
9.18387716E+01
 20
-4.67942512E+01
 11
9.18387716E+01
 21
-4.57942512E+01
  0
LINE
  8
0
 62
4
 10
1.07988772E+02
 20
-4.67942512E+01
 11
1.07988772E+02
 21
-4.57942512E+01
  0
LINE
  8
0
 62
4
 10
1.07488772E+02
 20
-4.72942512E+01
 11
1.07988772E+02
 21
-4.67942512E+01
  0
LINE
  8
0
 62
4
 10
9.23387716E+01
 20
-4.72942512E+01
 11
9.18387716E+01
 21
-4.67942512E+01
  0
LINE
  8
0
 62
4
 10
1.06668772E+02
 20
-6.20942512E+01
 11
9.31687716E+01
 21
-6.20942512E+01
  0
LINE
  8
0
 62
4
 10
1.07668772E+02
 20
-4.90942512E+01
 11
1.07668772E+02
 21
-6.10942512E+01
  0
LINE
  8
0
 62
4
 10
9.21687716E+01
 20
-4.90942512E+01
 11
9.21687716E+01
 21
-6.10942512E+01
  0
LINE
  8
0
 62
4
 10
1.07668772E+02
 20
-6.10942512E+01
 11
1.06668772E+02
 21
-6.20942512E+01
  0
LINE
  8
0
 62
4
 10
9.31687716E+01
 20
-6.20942512E+01
 11
9.21687716E+01
 21
-6.10942512E+01
  0
LINE
  8
0
 62
4
 10
1.07168772E+02
 20
-4.85942512E+01
 11
9.26687716E+01
 21
-4.85942512E+01
  0
LINE
  8
0
 62
4
 10
1.07168772E+02
 20
-4.85942512E+01
 11
1.07668772E+02
 21
-4.90942512E+01
  0
LINE
  8
0
 62
4
 10
9.26687716E+01
 20
-4.85942512E+01
 11
9.21687716E+01
 21
-4.90942512E+01
  0
LINE
  8
0
 62
4
 10
1.05918772E+02
 20
-4.72942512E+01
 11
1.05918772E+02
 21
-4.85942512E+01
  0
LINE
  8
0
 62
4
 10
9.39187716E+01
 20
-4.72942512E+01
 11
9.39187716E+01
 21
-4.85942512E+01
  0
LINE
  8
0
 62
6
 10
9.46687716E+01
 20
-4.72942512E+01
 11
9.46687716E+01
 21
-4.85942512E+01
  0
LINE
  8
0
 62
6
 10
1.05168772E+02
 20
-4.72942512E+01
 11
1.05168772E+02
 21
-4.85942512E+01
  0
LINE
  8
0
 62
4
 10
9.84187716E+01
 20
-5.15942512E+01
 11
9.84187716E+01
 21
-6.10942512E+01
  0
LINE
  8
0
 62
4
 10
1.01418772E+02
 20
-5.15942512E+01
 11
1.01418772E+02
 21
-6.10942512E+01
  0
LINE
  8
0
 62
4
 10
1.01758772E+02
 20
-5.18742512E+01
 11
1.01758772E+02
 21
-6.15942512E+01
  0
LINE
  8
0
 62
4
 10
9.80787716E+01
 20
-5.18742512E+01
 11
9.80787716E+01
 21
-6.15942512E+01
  0
LINE
  8
0
 62
4
 10
9.62587716E+01
 20
-5.18742512E+01
 11
9.62587716E+01
 21
-6.15942512E+01
  0
LINE
  8
0
 62
4
 10
9.55987716E+01
 20
-5.15942512E+01
 11
9.55987716E+01
 21
-6.10942512E+01
  0
LINE
  8
0
 62
4
 10
9.34787716E+01
 20
-5.15942512E+01
 11
9.34787716E+01
 21
-6.10942512E+01
  0
LINE
  8
0
 62
4
 10
9.29087716E+01
 20
-5.18742512E+01
 11
9.29087716E+01
 21
-6.15942512E+01
  0
LINE
  8
0
 62
4
 10
9.23087716E+01
 20
-5.15942512E+01
 11
9.23087716E+01
 21
-6.10942512E+01
  0
LINE
  8
0
 62
4
 10
1.03568772E+02
 20
-5.18742512E+01
 11
1.03568772E+02
 21
-6.15942512E+01
  0
LINE
  8
0
 62
4
 10
1.04228772E+02
 20
-5.15942512E+01
 11
1.04228772E+02
 21
-6.10942512E+01
  0
LINE
  8
0
 62
4
 10
1.06348772E+02
 20
-5.15942512E+01
 11
1.06348772E+02
 21
-6.10942512E+01
  0
LINE
  8
0
 62
4
 10
1.06928772E+02
 20
-5.18742512E+01
 11
1.06928772E+02
 21
-6.15942512E+01
  0
LINE
  8
0
 62
4
 10
1.07518772E+02
 20
-5.15942512E+01
 11
1.07518772E+02
 21
-6.10942512E+01
  0
LINE
  8
0
 62
4
 10
1.07518772E+02
 20
-5.15942512E+01
 11
1.06348772E+02
 21
-5.15942512E+01
  0
LINE
  8
0
 62
4
 10
1.06928772E+02
 20
-5.18742512E+01
 11
1.06348772E+02
 21
-5.18742512E+01
  0
LINE
  8
0
 62
4
 10
1.07668772E+02
 20
-6.10942512E+01
 11
1.07518772E+02
 21
-6.10942512E+01
  0
LINE
  8
0
 62
4
 10
9.84187716E+01
 20
-5.15942512E+01
 11
9.55987716E+01
 21
-5.15942512E+01
  0
LINE
  8
0
 62
4
 10
9.80787716E+01
 20
-5.18742512E+01
 11
9.62587716E+01
 21
-5.18742512E+01
  0
LINE
  8
0
 62
4
 10
1.04228772E+02
 20
-5.15942512E+01
 11
1.01418772E+02
 21
-5.15942512E+01
  0
LINE
  8
0
 62
4
 10
1.03568772E+02
 20
-5.18742512E+01
 11
1.01758772E+02
 21
-5.18742512E+01
  0
LINE
  8
0
 62
4
 10
9.34787716E+01
 20
-5.15942512E+01
 11
9.23087716E+01
 21
-5.15942512E+01
  0
LINE
  8
0
 62
4
 10
9.34787716E+01
 20
-5.18742512E+01
 11
9.29087716E+01
 21
-5.18742512E+01
  0
LINE
  8
0
 62
4
 10
1.01418772E+02
 20
-6.10942512E+01
 11
9.84187716E+01
 21
-6.10942512E+01
  0
LINE
  8
0
 62
4
 10
9.55987716E+01
 20
-6.10942512E+01
 11
9.34787716E+01
 21
-6.10942512E+01
  0
LINE
  8
0
 62
4
 10
9.23087716E+01
 20
-6.10942512E+01
 11
9.21687716E+01
 21
-6.10942512E+01
  0
LINE
  8
0
 62
4
 10
1.06348772E+02
 20
-6.10942512E+01
 11
1.04228772E+02
 21
-6.10942512E+01
  0
LINE
  8
0
 62
4
 10
1.03568772E+02
 20
-6.15942512E+01
 11
1.01758772E+02
 21
-6.15942512E+01
  0
LINE
  8
0
 62
4
 10
1.06928772E+02
 20
-6.15942512E+01
 11
1.07518772E+02
 21
-6.10942512E+01
  0
LINE
  8
0
 62
4
 10
1.03568772E+02
 20
-6.15942512E+01
 11
1.04228772E+02
 21
-6.10942512E+01
  0
LINE
  8
0
 62
4
 10
1.01758772E+02
 20
-6.15942512E+01
 11
1.01418772E+02
 21
-6.10942512E+01
  0
LINE
  8
0
 62
4
 10
9.84187716E+01
 20
-6.10942512E+01
 11
9.80787716E+01
 21
-6.15942512E+01
  0
LINE
  8
0
 62
4
 10
9.62587716E+01
 20
-6.15942512E+01
 11
9.55987716E+01
 21
-6.10942512E+01
  0
LINE
  8
0
 62
4
 10
9.29087716E+01
 20
-6.15942512E+01
 11
9.23087716E+01
 21
-6.10942512E+01
  0
LINE
  8
0
 62
4
 10
9.28987716E+01
 20
-5.18742512E+01
 11
9.23087716E+01
 21
-5.15942512E+01
  0
LINE
  8
0
 62
4
 10
9.62587716E+01
 20
-5.18742512E+01
 11
9.55987716E+01
 21
-5.15942512E+01
  0
LINE
  8
0
 62
4
 10
9.80787716E+01
 20
-5.18742512E+01
 11
9.84187716E+01
 21
-5.15942512E+01
  0
LINE
  8
0
 62
4
 10
1.01758772E+02
 20
-5.18742512E+01
 11
1.01418772E+02
 21
-5.15942512E+01
  0
LINE
  8
0
 62
4
 10
1.03568772E+02
 20
-5.18742512E+01
 11
1.04228772E+02
 21
-5.15942512E+01
  0
LINE
  8
0
 62
4
 10
1.06928772E+02
 20
-5.18742512E+01
 11
1.07518772E+02
 21
-5.15942512E+01
  0
LINE
  8
0
 62
4
 10
1.06348772E+02
 20
-6.10942512E+01
 11
1.06178772E+02
 21
-6.15942512E+01
  0
LINE
  8
0
 62
4
 10
9.34787716E+01
 20
-6.10942512E+01
 11
9.36587716E+01
 21
-6.15942512E+01
  0
LINE
  8
0
 62
4
 10
9.80787716E+01
 20
-6.15942512E+01
 11
9.62587716E+01
 21
-6.15942512E+01
  0
LINE
  8
0
 62
4
 10
1.06928772E+02
 20
-6.15942512E+01
 11
1.06178772E+02
 21
-6.15942512E+01
  0
LINE
  8
0
 62
4
 10
9.36587716E+01
 20
-6.15942512E+01
 11
9.29087716E+01
 21
-6.15942512E+01
  0
LINE
  8
0
 62
4
 10
1.07668772E+02
 20
-4.90942512E+01
 11
9.21687716E+01
 21
-4.90942512E+01
  0
LINE
  8
0
 62
7
 10
1.18328772E+02
 20
-4.57942512E+01
 11
8.14987716E+01
 21
-4.57942512E+01
  0
LINE
  8
0
 62
7
 10
1.19868772E+02
 20
-2.82942512E+01
 11
1.26778772E+02
 21
-2.82942512E+01
  0
LINE
  8
0
 62
7
 10
1.19868772E+02
 20
7.69574876E+00
 11
1.26778772E+02
 21
7.69574876E+00
  0
LINE
  8
0
 62
7
 10
1.19868772E+02
 20
1.36957488E+01
 11
1.26778772E+02
 21
1.36957488E+01
  0
LINE
  8
0
 62
7
 10
1.26778772E+02
 20
4.76957488E+01
 11
1.19868772E+02
 21
4.76957488E+01
  0
LINE
  8
0
 62
7
 10
6.64987716E+01
 20
-3.09242512E+01
 11
6.57687716E+01
 21
5.33957488E+01
  0
LINE
  8
0
 62
7
 10
1.33328772E+02
 20
-3.09242512E+01
 11
1.34068772E+02
 21
5.33957488E+01
  0
LINE
  8
0
 62
7
 10
1.24948772E+02
 20
4.71957488E+01
 11
1.19868772E+02
 21
4.71957488E+01
  0
LINE
  8
0
 62
7
 10
1.19868772E+02
 20
7.19574876E+00
 11
1.24948772E+02
 21
7.19574876E+00
  0
LINE
  8
0
 62
7
 10
1.19868772E+02
 20
1.41957488E+01
 11
1.24948772E+02
 21
1.41957488E+01
  0
LINE
  8
0
 62
7
 10
1.19868772E+02
 20
-2.77942512E+01
 11
1.24948772E+02
 21
-2.77942512E+01
  0
LINE
  8
0
 62
7
 10
1.27778772E+02
 20
6.69574876E+00
 11
1.27778772E+02
 21
-2.72942512E+01
  0
LINE
  8
0
 62
7
 10
1.25948772E+02
 20
6.19574876E+00
 11
1.25948772E+02
 21
-2.67942512E+01
  0
LINE
  8
0
 62
7
 10
1.18868772E+02
 20
6.69574876E+00
 11
1.18868772E+02
 21
-2.72942512E+01
  0
LINE
  8
0
 62
7
 10
1.19488772E+02
 20
-2.87942512E+01
 11
1.27038772E+02
 21
-2.87942512E+01
  0
LINE
  8
0
 62
7
 10
1.19488772E+02
 20
-2.92942512E+01
 11
1.27628772E+02
 21
-2.92942512E+01
  0
LINE
  8
0
 62
7
 10
1.27038772E+02
 20
4.81957488E+01
 11
1.19488772E+02
 21
4.81957488E+01
  0
LINE
  8
0
 62
7
 10
1.27628772E+02
 20
4.86957488E+01
 11
1.19488772E+02
 21
4.86957488E+01
  0
LINE
  8
0
 62
7
 10
1.18488772E+02
 20
4.76957488E+01
 11
1.18488772E+02
 21
-2.82942512E+01
  0
LINE
  8
0
 62
7
 10
1.18868772E+02
 20
4.66957488E+01
 11
1.18868772E+02
 21
1.46957488E+01
  0
LINE
  8
0
 62
7
 10
1.25948772E+02
 20
4.61957488E+01
 11
1.25948772E+02
 21
1.51957488E+01
  0
LINE
  8
0
 62
7
 10
1.27778772E+02
 20
4.66957488E+01
 11
1.27778772E+02
 21
1.46957488E+01
  0
LINE
  8
0
 62
7
 10
1.28038772E+02
 20
4.71957488E+01
 11
1.28038772E+02
 21
-2.77942512E+01
  0
LINE
  8
0
 62
7
 10
1.28628772E+02
 20
4.76957488E+01
 11
1.28628772E+02
 21
-2.82942512E+01
  0
LINE
  8
0
 62
7
 10
7.99587716E+01
 20
-2.82942512E+01
 11
7.30487716E+01
 21
-2.82942512E+01
  0
LINE
  8
0
 62
7
 10
7.99587716E+01
 20
7.69574876E+00
 11
7.30487716E+01
 21
7.69574876E+00
  0
LINE
  8
0
 62
7
 10
7.99587716E+01
 20
1.36957488E+01
 11
7.30487716E+01
 21
1.36957488E+01
  0
LINE
  8
0
 62
7
 10
7.30487716E+01
 20
4.76957488E+01
 11
7.99587716E+01
 21
4.76957488E+01
  0
LINE
  8
0
 62
7
 10
7.48887716E+01
 20
4.71957488E+01
 11
7.99587716E+01
 21
4.71957488E+01
  0
LINE
  8
0
 62
7
 10
7.99587716E+01
 20
7.19574876E+00
 11
7.48887716E+01
 21
7.19574876E+00
  0
LINE
  8
0
 62
7
 10
7.99587716E+01
 20
1.41957488E+01
 11
7.48887716E+01
 21
1.41957488E+01
  0
LINE
  8
0
 62
7
 10
7.99587716E+01
 20
-2.77942512E+01
 11
7.48887716E+01
 21
-2.77942512E+01
  0
LINE
  8
0
 62
7
 10
7.20487716E+01
 20
6.69574876E+00
 11
7.20487716E+01
 21
-2.72942512E+01
  0
LINE
  8
0
 62
7
 10
7.38887716E+01
 20
6.19574876E+00
 11
7.38887716E+01
 21
-2.67942512E+01
  0
LINE
  8
0
 62
7
 10
8.09587716E+01
 20
6.69574876E+00
 11
8.09587716E+01
 21
-2.72942512E+01
  0
LINE
  8
0
 62
7
 10
8.03387716E+01
 20
-2.87942512E+01
 11
7.27987716E+01
 21
-2.87942512E+01
  0
LINE
  8
0
 62
7
 10
8.03387716E+01
 20
-2.92942512E+01
 11
7.21987716E+01
 21
-2.92942512E+01
  0
LINE
  8
0
 62
7
 10
7.27987716E+01
 20
4.81957488E+01
 11
8.03387716E+01
 21
4.81957488E+01
  0
LINE
  8
0
 62
7
 10
7.21987716E+01
 20
4.86957488E+01
 11
8.03387716E+01
 21
4.86957488E+01
  0
LINE
  8
0
 62
7
 10
8.13387716E+01
 20
4.76957488E+01
 11
8.13387716E+01
 21
-2.82942512E+01
  0
LINE
  8
0
 62
7
 10
8.09587716E+01
 20
4.66957488E+01
 11
8.09587716E+01
 21
1.46957488E+01
  0
LINE
  8
0
 62
7
 10
7.38887716E+01
 20
4.61957488E+01
 11
7.38887716E+01
 21
1.51957488E+01
  0
LINE
  8
0
 62
7
 10
7.20487716E+01
 20
4.66957488E+01
 11
7.20487716E+01
 21
1.46957488E+01
  0
LINE
  8
0
 62
7
 10
7.17987716E+01
 20
4.71957488E+01
 11
7.17987716E+01
 21
-2.77942512E+01
  0
LINE
  8
0
 62
7
 10
7.11987716E+01
 20
4.76957488E+01
 11
7.11987716E+01
 21
-2.82942512E+01
  0
LINE
  8
0
 62
4
 10
9.18387716E+01
 20
-4.67942512E+01
 11
1.07988772E+02
 21
-4.67942512E+01
  0
ARC
  8
0
 62
7
 10
1.18336104E+02
 20
-3.08010798E+01
 40
1.49931732E+01
 50
2.69971978E+02
 51
3.59529300E+02
  0
ARC
  8
0
 62
7
 10
8.14976746E+01
 20
-3.07947895E+01
 40
1.49994618E+01
 50
1.80494531E+02
 51
2.70004190E+02
  0
ARC
  8
0
 62
7
 10
1.24949896E+02
 20
6.19687300E+00
 40
9.98876389E-01
 50
3.59935513E+02
 51
9.00644872E+01
  0
ARC
  8
0
 62
7
 10
1.19871504E+02
 20
6.19301608E+00
 40
1.00273640E+00
 50
9.01561438E+01
 51
1.79843856E+02
  0
ARC
  8
0
 62
7
 10
1.19871504E+02
 20
6.69301608E+00
 40
1.00273640E+00
 50
9.01561438E+01
 51
1.79843856E+02
  0
ARC
  8
0
 62
7
 10
1.19869412E+02
 20
-2.67936106E+01
 40
1.00064088E+00
 50
1.80036685E+02
 51
2.70000000E+02
  0
ARC
  8
0
 62
7
 10
1.19869412E+02
 20
-2.72936106E+01
 40
1.00064088E+00
 50
1.80036685E+02
 51
2.70000000E+02
  0
ARC
  8
0
 62
7
 10
1.19487628E+02
 20
-2.77953951E+01
 40
9.98856780E-01
 50
1.79934386E+02
 51
2.70065615E+02
  0
ARC
  8
0
 62
7
 10
1.19487628E+02
 20
-2.82953951E+01
 40
9.98856780E-01
 50
1.79934386E+02
 51
2.70065615E+02
  0
ARC
  8
0
 62
7
 10
1.24951996E+02
 20
-2.67974756E+01
 40
9.96780879E-01
 50
2.69814662E+02
 51
1.85337816E-01
  0
ARC
  8
0
 62
7
 10
1.26782134E+02
 20
6.69911076E+00
 40
9.96643662E-01
 50
3.59806722E+02
 51
9.01932778E+01
  0
ARC
  8
0
 62
7
 10
1.26784238E+02
 20
-2.72997181E+01
 40
9.94548214E-01
 50
2.69685056E+02
 51
3.14943774E-01
  0
ARC
  8
0
 62
7
 10
1.27042775E+02
 20
-2.77982546E+01
 40
9.96004642E-01
 50
2.69769701E+02
 51
2.30298905E-01
  0
ARC
  8
0
 62
7
 10
1.27636364E+02
 20
-2.83018433E+01
 40
9.92436998E-01
 50
2.69561689E+02
 51
4.38311108E-01
  0
ARC
  8
0
 62
7
 10
1.19871504E+02
 20
4.61930161E+01
 40
1.00273640E+00
 50
9.01561438E+01
 51
1.79843856E+02
  0
ARC
  8
0
 62
7
 10
1.19871504E+02
 20
4.66930161E+01
 40
1.00273640E+00
 50
9.01561438E+01
 51
1.79843856E+02
  0
ARC
  8
0
 62
7
 10
1.19489723E+02
 20
4.71947969E+01
 40
1.00095231E+00
 50
9.00000002E+01
 51
1.79945514E+02
  0
ARC
  8
0
 62
7
 10
1.19489723E+02
 20
4.76947969E+01
 40
1.00095231E+00
 50
9.00000002E+01
 51
1.79945514E+02
  0
ARC
  8
0
 62
7
 10
1.24949896E+02
 20
4.61968730E+01
 40
9.98876389E-01
 50
3.59935513E+02
 51
9.00644872E+01
  0
ARC
  8
0
 62
7
 10
1.26782134E+02
 20
4.66991108E+01
 40
9.96643662E-01
 50
3.59806722E+02
 51
9.01932778E+01
  0
ARC
  8
0
 62
7
 10
1.27040673E+02
 20
4.71976504E+01
 40
9.98100135E-01
 50
3.59890835E+02
 51
9.01091653E+01
  0
ARC
  8
0
 62
7
 10
1.27634254E+02
 20
4.77012315E+01
 40
9.94532347E-01
 50
3.59684132E+02
 51
9.03158678E+01
  0
ARC
  8
0
 62
7
 10
1.19874379E+02
 20
1.52013558E+01
 40
1.00562265E+00
 50
1.80319464E+02
 51
2.69680536E+02
  0
ARC
  8
0
 62
7
 10
1.19874379E+02
 20
1.47013558E+01
 40
1.00562265E+00
 50
1.80319464E+02
 51
2.69680536E+02
  0
ARC
  8
0
 62
7
 10
1.24947010E+02
 20
1.51975099E+01
 40
1.00176274E+00
 50
2.70100732E+02
 51
3.59899268E+02
  0
ARC
  8
0
 62
7
 10
1.26779242E+02
 20
1.46952786E+01
 40
9.99529993E-01
 50
2.70000000E+02
 51
2.69483916E-02
  0
ARC
  8
0
 62
7
 10
7.48888170E+01
 20
6.19570327E+00
 40
1.00004549E+00
 50
9.00000002E+01
 51
1.79997394E+02
  0
ARC
  8
0
 62
7
 10
7.99623434E+01
 20
6.19932060E+00
 40
9.96434554E-01
 50
3.59794615E+02
 51
9.02053844E+01
  0
ARC
  8
0
 62
7
 10
7.99623434E+01
 20
6.69932060E+00
 40
9.96434554E-01
 50
3.59794615E+02
 51
9.02053844E+01
  0
ARC
  8
0
 62
7
 10
7.99644486E+01
 20
-2.67999283E+01
 40
9.94339115E-01
 50
2.69672873E+02
 51
3.27127010E-01
  0
ARC
  8
0
 62
7
 10
7.99644486E+01
 20
-2.72999283E+01
 40
9.94339115E-01
 50
2.69672873E+02
 51
3.27127010E-01
  0
ARC
  8
0
 62
7
 10
8.03461000E+01
 20
-2.78015797E+01
 40
9.92698586E-01
 50
2.69577018E+02
 51
4.22982283E-01
  0
ARC
  8
0
 62
7
 10
8.03461000E+01
 20
-2.83015797E+01
 40
9.92698586E-01
 50
2.69577018E+02
 51
4.22982283E-01
  0
ARC
  8
0
 62
7
 10
7.48867194E+01
 20
-2.67963034E+01
 40
9.97949959E-01
 50
1.79882179E+02
 51
2.70117821E+02
  0
ARC
  8
0
 62
7
 10
7.30517154E+01
 20
6.69280492E+00
 40
1.00294816E+00
 50
9.01681742E+01
 51
1.79831826E+02
  0
ARC
  8
0
 62
7
 10
7.30496238E+01
 20
-2.72933990E+01
 40
1.00085264E+00
 50
1.80048791E+02
 51
2.70000000E+02
  0
ARC
  8
0
 62
7
 10
7.27960620E+01
 20
-2.77969608E+01
 40
9.97294153E-01
 50
1.79844334E+02
 51
2.70155666E+02
  0
ARC
  8
0
 62
7
 10
7.21974852E+01
 20
-2.82955376E+01
 40
9.98714521E-01
 50
1.79926205E+02
 51
2.70073795E+02
  0
ARC
  8
0
 62
7
 10
7.99623434E+01
 20
4.61993206E+01
 40
9.96434554E-01
 50
3.59794615E+02
 51
9.02053844E+01
  0
ARC
  8
0
 62
7
 10
7.99623434E+01
 20
4.66993206E+01
 40
9.96434554E-01
 50
3.59794615E+02
 51
9.02053844E+01
  0
ARC
  8
0
 62
7
 10
8.03439913E+01
 20
4.72009685E+01
 40
9.94793950E-01
 50
3.59699364E+02
 51
9.03006357E+01
  0
ARC
  8
0
 62
7
 10
8.03439913E+01
 20
4.77009685E+01
 40
9.94793950E-01
 50
3.59699364E+02
 51
9.03006357E+01
  0
ARC
  8
0
 62
7
 10
7.48888170E+01
 20
4.61957033E+01
 40
1.00004549E+00
 50
9.00000002E+01
 51
1.79997394E+02
  0
ARC
  8
0
 62
7
 10
7.30517154E+01
 20
4.66928049E+01
 40
1.00294816E+00
 50
9.01681742E+01
 51
1.79831826E+02
  0
ARC
  8
0
 62
7
 10
7.27981610E+01
 20
4.71963593E+01
 40
9.99389672E-01
 50
9.00000002E+01
 51
1.80035001E+02
  0
ARC
  8
0
 62
7
 10
7.21995813E+01
 20
4.76949390E+01
 40
1.00081005E+00
 50
9.00000002E+01
 51
1.79953644E+02
  0
ARC
  8
0
 62
7
 10
7.99594509E+01
 20
1.51950694E+01
 40
9.99320881E-01
 50
2.70000000E+02
 51
3.89503461E-02
  0
ARC
  8
0
 62
7
 10
7.99594509E+01
 20
1.46950694E+01
 40
9.99320881E-01
 50
2.70000000E+02
 51
3.89503461E-02
  0
ARC
  8
0
 62
7
 10
7.48916991E+01
 20
1.51986763E+01
 40
1.00293182E+00
 50
1.80167246E+02
 51
2.69832754E+02
  0
ARC
  8
0
 62
7
 10
7.30545891E+01
 20
1.47015663E+01
 40
1.00583440E+00
 50
1.80331391E+02
 51
2.69668609E+02
  0
LINE
  8
0
  6
CENTER
 62
2
 10
2.74200606E+01
 20
1.53398571E+02
 11
1.64920061E+02
 21
1.53398571E+02
  0
LINE
  8
0
 62
4
 10
3.54200606E+01
 20
1.32398571E+02
 11
5.70842224E+01
 21
1.32398571E+02
  0
ARC
  8
0
 62
4
 10
5.69200621E+01
 20
1.72398573E+02
 40
1.99999847E+00
 50
2.26970490E+01
 51
9.00000002E+01
  0
LINE
  8
0
 62
4
 10
3.34200606E+01
 20
1.74648571E+02
 11
3.34200606E+01
 21
1.32148571E+02
  0
LINE
  8
0
 62
4
 10
3.24200606E+01
 20
1.33148571E+02
 11
3.34200606E+01
 21
1.32148571E+02
  0
LINE
  8
0
 62
4
 10
3.24200606E+01
 20
1.73648571E+02
 11
3.34200606E+01
 21
1.74648571E+02
  0
LINE
  8
0
 62
4
 10
3.54200606E+01
 20
1.74398571E+02
 11
5.69200606E+01
 21
1.74398571E+02
  0
LINE
  8
0
 62
4
 10
3.54200606E+01
 20
1.74648571E+02
 11
3.54200606E+01
 21
1.32148571E+02
  0
LINE
  8
0
 62
4
 10
3.34200606E+01
 20
1.32148571E+02
 11
3.54200606E+01
 21
1.32148571E+02
  0
LINE
  8
0
 62
4
 10
3.34200606E+01
 20
1.74648571E+02
 11
3.54200606E+01
 21
1.74648571E+02
  0
LINE
  8
0
 62
4
 10
3.24200606E+01
 20
1.73648571E+02
 11
3.24200606E+01
 21
1.33148571E+02
  0
LINE
  8
0
 62
4
 10
2.61281111E+02
 20
-4.72942512E+01
 11
2.76431111E+02
 21
-4.72942512E+01
  0
LINE
  8
0
 62
4
 10
2.60781111E+02
 20
-4.67942512E+01
 11
2.60781111E+02
 21
-4.57942512E+01
  0
LINE
  8
0
 62
4
 10
2.76931111E+02
 20
-4.67942512E+01
 11
2.76931111E+02
 21
-4.57942512E+01
  0
LINE
  8
0
 62
4
 10
2.76431111E+02
 20
-4.72942512E+01
 11
2.76931111E+02
 21
-4.67942512E+01
  0
LINE
  8
0
 62
4
 10
2.61281111E+02
 20
-4.72942512E+01
 11
2.60781111E+02
 21
-4.67942512E+01
  0
LINE
  8
0
 62
4
 10
2.75611111E+02
 20
-6.20842512E+01
 11
2.62111111E+02
 21
-6.20842512E+01
  0
LINE
  8
0
 62
4
 10
2.76611111E+02
 20
-4.90842512E+01
 11
2.76611111E+02
 21
-6.10842512E+01
  0
LINE
  8
0
 62
4
 10
2.61111111E+02
 20
-4.90842512E+01
 11
2.61111111E+02
 21
-6.10842512E+01
  0
LINE
  8
0
 62
4
 10
2.76611111E+02
 20
-6.10842512E+01
 11
2.75611111E+02
 21
-6.20842512E+01
  0
LINE
  8
0
 62
4
 10
2.62111111E+02
 20
-6.20842512E+01
 11
2.61111111E+02
 21
-6.10842512E+01
  0
LINE
  8
0
 62
4
 10
2.76111111E+02
 20
-4.85842512E+01
 11
2.61611111E+02
 21
-4.85842512E+01
  0
LINE
  8
0
 62
4
 10
2.76111111E+02
 20
-4.85842512E+01
 11
2.76611111E+02
 21
-4.90842512E+01
  0
LINE
  8
0
 62
4
 10
2.61611111E+02
 20
-4.85842512E+01
 11
2.61111111E+02
 21
-4.90842512E+01
  0
LINE
  8
0
 62
4
 10
2.74861111E+02
 20
-4.72942512E+01
 11
2.74861111E+02
 21
-4.85842512E+01
  0
LINE
  8
0
 62
4
 10
2.62861111E+02
 20
-4.72942512E+01
 11
2.62861111E+02
 21
-4.85842512E+01
  0
LINE
  8
0
 62
6
 10
2.63611111E+02
 20
-4.72942512E+01
 11
2.63611111E+02
 21
-4.85842512E+01
  0
LINE
  8
0
 62
6
 10
2.74111111E+02
 20
-4.72942512E+01
 11
2.74111111E+02
 21
-4.85842512E+01
  0
LINE
  8
0
 62
4
 10
2.67361111E+02
 20
-5.15842512E+01
 11
2.67361111E+02
 21
-6.10842512E+01
  0
LINE
  8
0
 62
4
 10
2.70361111E+02
 20
-5.15842512E+01
 11
2.70361111E+02
 21
-6.10842512E+01
  0
LINE
  8
0
 62
4
 10
2.70701111E+02
 20
-5.18742512E+01
 11
2.70701111E+02
 21
-6.15842512E+01
  0
LINE
  8
0
 62
4
 10
2.67021111E+02
 20
-5.18742512E+01
 11
2.67021111E+02
 21
-6.15842512E+01
  0
LINE
  8
0
 62
4
 10
2.65201111E+02
 20
-5.18742512E+01
 11
2.65201111E+02
 21
-6.15842512E+01
  0
LINE
  8
0
 62
4
 10
2.64541111E+02
 20
-5.15842512E+01
 11
2.64541111E+02
 21
-6.10842512E+01
  0
LINE
  8
0
 62
4
 10
2.62421111E+02
 20
-5.15842512E+01
 11
2.62421111E+02
 21
-6.10842512E+01
  0
LINE
  8
0
 62
4
 10
2.61851111E+02
 20
-5.18742512E+01
 11
2.61851111E+02
 21
-6.15842512E+01
  0
LINE
  8
0
 62
4
 10
2.61251111E+02
 20
-5.15842512E+01
 11
2.61251111E+02
 21
-6.10842512E+01
  0
LINE
  8
0
 62
4
 10
2.72511111E+02
 20
-5.18742512E+01
 11
2.72511111E+02
 21
-6.15842512E+01
  0
LINE
  8
0
 62
4
 10
2.73171111E+02
 20
-5.15842512E+01
 11
2.73171111E+02
 21
-6.10842512E+01
  0
LINE
  8
0
 62
4
 10
2.75301111E+02
 20
-5.15842512E+01
 11
2.75301111E+02
 21
-6.10842512E+01
  0
LINE
  8
0
 62
4
 10
2.75871111E+02
 20
-5.18742512E+01
 11
2.75871111E+02
 21
-6.15842512E+01
  0
LINE
  8
0
 62
4
 10
2.76461111E+02
 20
-5.15842512E+01
 11
2.76461111E+02
 21
-6.10842512E+01
  0
LINE
  8
0
 62
4
 10
2.76461111E+02
 20
-5.15842512E+01
 11
2.75301111E+02
 21
-5.15842512E+01
  0
LINE
  8
0
 62
4
 10
2.75871111E+02
 20
-5.18742512E+01
 11
2.75301111E+02
 21
-5.18742512E+01
  0
LINE
  8
0
 62
4
 10
2.76611111E+02
 20
-6.10842512E+01
 11
2.76461111E+02
 21
-6.10842512E+01
  0
LINE
  8
0
 62
4
 10
2.67361111E+02
 20
-5.15842512E+01
 11
2.64541111E+02
 21
-5.15842512E+01
  0
LINE
  8
0
 62
4
 10
2.67021111E+02
 20
-5.18742512E+01
 11
2.65201111E+02
 21
-5.18742512E+01
  0
LINE
  8
0
 62
4
 10
2.73171111E+02
 20
-5.15842512E+01
 11
2.70361111E+02
 21
-5.15842512E+01
  0
LINE
  8
0
 62
4
 10
2.72511111E+02
 20
-5.18742512E+01
 11
2.70701111E+02
 21
-5.18742512E+01
  0
LINE
  8
0
 62
4
 10
2.62421111E+02
 20
-5.15842512E+01
 11
2.61251111E+02
 21
-5.15842512E+01
  0
LINE
  8
0
 62
4
 10
2.62421111E+02
 20
-5.18742512E+01
 11
2.61851111E+02
 21
-5.18742512E+01
  0
LINE
  8
0
 62
4
 10
2.70361111E+02
 20
-6.10842512E+01
 11
2.67361111E+02
 21
-6.10842512E+01
  0
LINE
  8
0
 62
4
 10
2.64541111E+02
 20
-6.10842512E+01
 11
2.62421111E+02
 21
-6.10842512E+01
  0
LINE
  8
0
 62
4
 10
2.61251111E+02
 20
-6.10842512E+01
 11
2.61111111E+02
 21
-6.10842512E+01
  0
LINE
  8
0
 62
4
 10
2.75301111E+02
 20
-6.10842512E+01
 11
2.73171111E+02
 21
-6.10842512E+01
  0
LINE
  8
0
 62
4
 10
2.72511111E+02
 20
-6.15842512E+01
 11
2.70701111E+02
 21
-6.15842512E+01
  0
LINE
  8
0
 62
4
 10
2.75871111E+02
 20
-6.15842512E+01
 11
2.76461111E+02
 21
-6.10842512E+01
  0
LINE
  8
0
 62
4
 10
2.72511111E+02
 20
-6.15842512E+01
 11
2.73171111E+02
 21
-6.10842512E+01
  0
LINE
  8
0
 62
4
 10
2.70701111E+02
 20
-6.15842512E+01
 11
2.70361111E+02
 21
-6.10842512E+01
  0
LINE
  8
0
 62
4
 10
2.67361111E+02
 20
-6.10842512E+01
 11
2.67021111E+02
 21
-6.15842512E+01
  0
LINE
  8
0
 62
4
 10
2.65201111E+02
 20
-6.15842512E+01
 11
2.64541111E+02
 21
-6.10842512E+01
  0
LINE
  8
0
 62
4
 10
2.61851111E+02
 20
-6.15842512E+01
 11
2.61251111E+02
 21
-6.10842512E+01
  0
LINE
  8
0
 62
4
 10
2.61851111E+02
 20
-5.18742512E+01
 11
2.61251111E+02
 21
-5.15842512E+01
  0
LINE
  8
0
 62
4
 10
2.65201111E+02
 20
-5.18742512E+01
 11
2.64541111E+02
 21
-5.15842512E+01
  0
LINE
  8
0
 62
4
 10
2.67021111E+02
 20
-5.18742512E+01
 11
2.67361111E+02
 21
-5.15842512E+01
  0
LINE
  8
0
 62
4
 10
2.70701111E+02
 20
-5.18742512E+01
 11
2.70361111E+02
 21
-5.15842512E+01
  0
LINE
  8
0
 62
4
 10
2.72511111E+02
 20
-5.18742512E+01
 11
2.73171111E+02
 21
-5.15842512E+01
  0
LINE
  8
0
 62
4
 10
2.75871111E+02
 20
-5.18742512E+01
 11
2.76461111E+02
 21
-5.15842512E+01
  0
LINE
  8
0
 62
4
 10
2.75301111E+02
 20
-6.10842512E+01
 11
2.75121111E+02
 21
-6.15842512E+01
  0
LINE
  8
0
 62
4
 10
2.62421111E+02
 20
-6.10842512E+01
 11
2.62601111E+02
 21
-6.15842512E+01
  0
LINE
  8
0
 62
4
 10
2.67021111E+02
 20
-6.15842512E+01
 11
2.65201111E+02
 21
-6.15842512E+01
  0
LINE
  8
0
 62
4
 10
2.75871111E+02
 20
-6.15842512E+01
 11
2.75121111E+02
 21
-6.15842512E+01
  0
LINE
  8
0
 62
4
 10
2.62601111E+02
 20
-6.15842512E+01
 11
2.61851111E+02
 21
-6.15842512E+01
  0
LINE
  8
0
 62
4
 10
2.76611111E+02
 20
-4.90842512E+01
 11
2.61111111E+02
 21
-4.90842512E+01
  0
LINE
  8
0
 62
4
 10
2.74861111E+02
 20
-6.35842512E+01
 11
2.62861111E+02
 21
-6.35842512E+01
  0
LINE
  8
0
 62
4
 10
2.75361111E+02
 20
-6.30842512E+01
 11
2.75361111E+02
 21
-6.20842512E+01
  0
LINE
  8
0
 62
4
 10
2.62361111E+02
 20
-6.30842512E+01
 11
2.62361111E+02
 21
-6.20842512E+01
  0
LINE
  8
0
 62
4
 10
2.62361111E+02
 20
-6.30842512E+01
 11
2.62861111E+02
 21
-6.35842512E+01
  0
LINE
  8
0
 62
4
 10
2.74861111E+02
 20
-6.35842512E+01
 11
2.75361111E+02
 21
-6.30842512E+01
  0
LINE
  8
0
 62
4
 10
2.71691111E+02
 20
-7.05842512E+01
 11
2.66031111E+02
 21
-7.05842512E+01
  0
LINE
  8
0
 62
4
 10
2.65611111E+02
 20
-6.81842512E+01
 11
2.65611111E+02
 21
-6.79842512E+01
  0
LINE
  8
0
 62
4
 10
2.72111111E+02
 20
-6.81842512E+01
 11
2.72111111E+02
 21
-6.79842512E+01
  0
LINE
  8
0
 62
4
 10
2.72111111E+02
 20
-6.79842512E+01
 11
2.65611111E+02
 21
-6.79842512E+01
  0
LINE
  8
0
 62
4
 10
2.72111111E+02
 20
-6.53842512E+01
 11
2.65611111E+02
 21
-6.53842512E+01
  0
LINE
  8
0
 62
4
 10
2.72111111E+02
 20
-6.55842512E+01
 11
2.65611111E+02
 21
-6.55842512E+01
  0
LINE
  8
0
 62
4
 10
2.72111111E+02
 20
-6.81842512E+01
 11
2.65611111E+02
 21
-6.81842512E+01
  0
LINE
  8
0
 62
4
 10
2.65611111E+02
 20
-6.55842512E+01
 11
2.65611111E+02
 21
-6.53842512E+01
  0
LINE
  8
0
 62
4
 10
2.72111111E+02
 20
-6.55842512E+01
 11
2.72111111E+02
 21
-6.53842512E+01
  0
LINE
  8
0
 62
4
 10
2.65611111E+02
 20
-6.55842512E+01
 11
2.66031111E+02
 21
-6.79842512E+01
  0
LINE
  8
0
 62
4
 10
2.65611111E+02
 20
-6.81842512E+01
 11
2.66031111E+02
 21
-7.05842512E+01
  0
LINE
  8
0
 62
4
 10
2.72111111E+02
 20
-6.81842512E+01
 11
2.71691111E+02
 21
-7.05842512E+01
  0
LINE
  8
0
 62
4
 10
2.72111111E+02
 20
-6.55842512E+01
 11
2.71691111E+02
 21
-6.79842512E+01
  0
LINE
  8
0
 62
4
 10
2.71711111E+02
 20
-6.53842512E+01
 11
2.71711111E+02
 21
-6.35842512E+01
  0
LINE
  8
0
 62
4
 10
2.66011111E+02
 20
-6.53842512E+01
 11
2.66011111E+02
 21
-6.35842512E+01
  0
LINE
  8
0
 62
4
 10
2.62361111E+02
 20
-6.30842512E+01
 11
2.75361111E+02
 21
-6.30842512E+01
  0
LINE
  8
0
 62
4
 10
2.60781111E+02
 20
-4.67942512E+01
 11
2.76931111E+02
 21
-4.67942512E+01
  0
CIRCLE
  8
0
 62
4
 10
-2.25802584E+02
 20
-1.75100372E+02
 40
2.25000000E+01
  0
ARC
  8
0
 62
4
 10
-2.04556883E+02
 20
-1.53854671E+02
 40
5.00430118E+00
 50
4.92243793E-02
 51
8.99507757E+01
  0
LINE
  8
0
 62
4
 10
-2.04552584E+02
 20
-1.48850372E+02
 11
-2.47052584E+02
 21
-1.48850372E+02
  0
LINE
  8
0
  6
CENTER
 62
6
 10
-2.09302584E+02
 20
-1.55100371E+02
 11
-2.02302584E+02
 21
-1.55100371E+02
  0
CIRCLE
  8
0
 62
4
 10
-2.05802584E+02
 20
-1.55100371E+02
 40
1.62099977E+00
  0
CIRCLE
  8
0
 62
6
 10
-2.05802584E+02
 20
-1.55100371E+02
 40
1.99999949E+00
  0
CIRCLE
  8
0
 62
4
 10
-2.05802584E+02
 20
-1.55100371E+02
 40
2.24999977E+00
  0
LINE
  8
0
  6
CENTER
 62
6
 10
-2.05802584E+02
 20
-1.51600371E+02
 11
-2.05802584E+02
 21
-1.58600371E+02
  0
ARC
  8
0
 62
4
 10
-2.25802584E+02
 20
-1.75100372E+02
 40
3.49676556E+00
 50
4.56678979E+01
 51
1.55048472E+02
  0
LINE
  8
0
 62
4
 10
-2.23308588E+02
 20
-1.75134409E+02
 11
-2.18232637E+02
 21
-1.72881768E+02
  0
CIRCLE
  8
0
 62
4
 10
-2.25802584E+02
 20
-1.75100372E+02
 40
2.00000000E+00
  0
ARC
  8
0
 62
4
 10
-2.25802584E+02
 20
-1.75100372E+02
 40
2.49422800E+00
 50
5.31615467E+01
 51
1.82579939E+02
  0
LINE
  8
0
 62
4
 10
-2.24302636E+02
 20
-1.73101768E+02
 11
-2.19402637E+02
 21
-1.70491768E+02
  0
LINE
  8
0
 62
4
 10
-2.19402637E+02
 20
-1.70491768E+02
 11
-2.18162637E+02
 21
-1.71371768E+02
  0
LINE
  8
0
 62
4
 10
-2.18162637E+02
 20
-1.71371768E+02
 11
-2.18232637E+02
 21
-1.72881768E+02
  0
LINE
  8
0
  6
CENTER
 62
2
 10
-2.25802584E+02
 20
-1.43841777E+02
 11
-2.25802584E+02
 21
-2.06350372E+02
  0
LINE
  8
0
  6
CENTER
 62
2
 10
-1.87083758E+02
 20
-1.75100372E+02
 11
-2.97802584E+02
 21
-1.75100372E+02
  0
ARC
  8
0
 62
4
 10
-2.25802584E+02
 20
-1.75100372E+02
 40
2.49422800E+00
 50
2.28810077E+02
 51
3.59218085E+02
  0
LINE
  8
0
 62
4
 10
-2.40157326E+02
 20
-1.72852398E+02
 11
-2.28972979E+02
 21
-1.73625256E+02
  0
ARC
  8
0
 62
4
 10
-2.41579901E+02
 20
-1.82787997E+02
 40
4.45083167E-01
 50
1.17096987E+02
 51
2.94881480E+02
  0
ARC
  8
0
 62
4
 10
-2.40195868E+02
 20
-1.73344592E+02
 40
4.93700744E-01
 50
8.55225138E+01
 51
2.60461526E+02
  0
ARC
  8
0
 62
4
 10
-2.25802584E+02
 20
-1.75100372E+02
 40
3.49676556E+00
 50
2.21827547E+02
 51
6.58095233E+00
  0
LINE
  8
0
 62
4
 10
-2.41782636E+02
 20
-1.82391768E+02
 11
-2.28292636E+02
 21
-1.75211768E+02
  0
LINE
  8
0
 62
4
 10
-2.41392636E+02
 20
-1.83191768E+02
 11
-2.27445176E+02
 21
-1.76977355E+02
  0
LINE
  8
0
 62
4
 10
-2.40277679E+02
 20
-1.73831467E+02
 11
-2.29334714E+02
 21
-1.75766410E+02
  0
LINE
  8
0
  6
CENTER
 62
6
 10
-2.45802584E+02
 20
-1.51591777E+02
 11
-2.45802584E+02
 21
-1.58600372E+02
  0
CIRCLE
  8
0
 62
4
 10
-2.45802584E+02
 20
-1.55100372E+02
 40
2.25000000E+00
  0
LINE
  8
0
  6
CENTER
 62
6
 10
-2.49302584E+02
 20
-1.55100372E+02
 11
-2.42302584E+02
 21
-1.55100372E+02
  0
ARC
  8
0
 62
4
 10
-2.47048285E+02
 20
-1.53854671E+02
 40
5.00430118E+00
 50
9.00492241E+01
 51
1.79950776E+02
  0
LINE
  8
0
 62
4
 10
-2.52052584E+02
 20
-1.53850372E+02
 11
-2.52052584E+02
 21
-1.96350372E+02
  0
ARC
  8
0
 62
4
 10
-2.47056880E+02
 20
-1.96354667E+02
 40
4.99570621E+00
 50
1.79950733E+02
 51
2.70049267E+02
  0
LINE
  8
0
  6
CENTER
 62
6
 10
-2.45802584E+02
 20
-1.98600372E+02
 11
-2.45802584E+02
 21
-1.91600372E+02
  0
LINE
  8
0
  6
CENTER
 62
6
 10
-2.42302584E+02
 20
-1.95100372E+02
 11
-2.49302584E+02
 21
-1.95100372E+02
  0
CIRCLE
  8
0
 62
4
 10
-2.45802584E+02
 20
-1.95100372E+02
 40
2.24999977E+00
  0
CIRCLE
  8
0
 62
6
 10
-2.45802584E+02
 20
-1.95100372E+02
 40
1.99999949E+00
  0
CIRCLE
  8
0
 62
4
 10
-2.45802584E+02
 20
-1.95100372E+02
 40
1.62099977E+00
  0
ARC
  8
0
 62
4
 10
-2.04548288E+02
 20
-1.96354667E+02
 40
4.99570621E+00
 50
2.69950733E+02
 51
4.92667057E-02
  0
LINE
  8
0
 62
4
 10
-2.04552584E+02
 20
-2.01350372E+02
 11
-2.47052584E+02
 21
-2.01350372E+02
  0
LINE
  8
0
 62
4
 10
-1.99552584E+02
 20
-1.53850372E+02
 11
-1.99552584E+02
 21
-1.96350372E+02
  0
LINE
  8
0
 62
4
 10
-1.22802584E+02
 20
-1.50850372E+02
 11
-1.22802584E+02
 21
-1.75850372E+02
  0
LINE
  8
0
 62
4
 10
-1.25802584E+02
 20
-1.48850372E+02
 11
-1.25802584E+02
 21
-2.01350372E+02
  0
LINE
  8
0
 62
4
 10
-1.57802584E+02
 20
-1.51850372E+02
 11
-1.57802584E+02
 21
-1.98350372E+02
  0
LINE
  8
0
 62
4
 10
-1.54802584E+02
 20
-1.48850372E+02
 11
-1.24802584E+02
 21
-1.48850372E+02
  0
ARC
  8
0
 62
4
 10
-1.24806894E+02
 20
-1.50854681E+02
 40
2.00431438E+00
 50
1.23199522E-01
 51
8.98768005E+01
  0
ARC
  8
0
 62
4
 10
-1.54798276E+02
 20
-1.51854680E+02
 40
3.00431129E+00
 50
9.00821623E+01
 51
1.79917838E+02
  0
ARC
  8
0
  6
PHANTOM
 62
6
 10
-1.34807584E+02
 20
-2.29758958E+02
 40
5.00110216E+00
 50
2.40469201E+02
 51
2.99530799E+02
  0
LINE
  8
0
  6
PHANTOM
 62
6
 10
-1.42802584E+02
 20
-2.02350372E+02
 11
-1.26802584E+02
 21
-2.02350372E+02
  0
LINE
  8
0
  6
PHANTOM
 62
6
 10
-1.42802584E+02
 20
-2.09350372E+02
 11
-1.26802584E+02
 21
-2.09350372E+02
  0
LINE
  8
0
 62
4
 10
-1.54802584E+02
 20
-2.01350372E+02
 11
-1.25802584E+02
 21
-2.01350372E+02
  0
LINE
  8
0
  6
PHANTOM
 62
6
 10
-1.42202584E+02
 20
-2.09350372E+02
 11
-1.42202584E+02
 21
-2.31850372E+02
  0
LINE
  8
0
  6
PHANTOM
 62
6
 10
-1.27402584E+02
 20
-2.09350372E+02
 11
-1.27402584E+02
 21
-2.31850372E+02
  0
LINE
  8
0
  6
PHANTOM
 62
6
 10
-1.27902584E+02
 20
-2.32350372E+02
 11
-1.41702584E+02
 21
-2.32350372E+02
  0
LINE
  8
0
  6
PHANTOM
 62
6
 10
-1.37602584E+02
 20
-2.33530372E+02
 11
-1.37602584E+02
 21
-2.32850372E+02
  0
LINE
  8
0
  6
PHANTOM
 62
6
 10
-1.32002584E+02
 20
-2.33530372E+02
 11
-1.32002584E+02
 21
-2.32850372E+02
  0
LINE
  8
0
  6
PHANTOM
 62
6
 10
-1.38052584E+02
 20
-2.32850372E+02
 11
-1.31552584E+02
 21
-2.32850372E+02
  0
LINE
  8
0
  6
PHANTOM
 62
6
 10
-1.38052584E+02
 20
-2.32850372E+02
 11
-1.38052584E+02
 21
-2.32350372E+02
  0
LINE
  8
0
  6
PHANTOM
 62
6
 10
-1.31552584E+02
 20
-2.32850372E+02
 11
-1.31552584E+02
 21
-2.32350372E+02
  0
LINE
  8
0
  6
PHANTOM
 62
6
 10
-1.42202584E+02
 20
-2.09850372E+02
 11
-1.27402584E+02
 21
-2.09850372E+02
  0
LINE
  8
0
  6
PHANTOM
 62
6
 10
-1.42802584E+02
 20
-2.01350372E+02
 11
-1.42802584E+02
 21
-2.09350372E+02
  0
LINE
  8
0
  6
PHANTOM
 62
6
 10
-1.33802584E+02
 20
-2.02350372E+02
 11
-1.33802584E+02
 21
-2.14090372E+02
  0
LINE
  8
0
  6
PHANTOM
 62
6
 10
-1.35802584E+02
 20
-2.02350372E+02
 11
-1.35802584E+02
 21
-2.14620372E+02
  0
LINE
  8
0
 62
6
 10
-1.38302584E+02
 20
-2.15290372E+02
 11
-1.31302584E+02
 21
-2.13420372E+02
  0
LINE
  8
0
 62
6
 10
-1.38302584E+02
 20
-2.16330372E+02
 11
-1.31302584E+02
 21
-2.14450372E+02
  0
LINE
  8
0
  6
PHANTOM
 62
6
 10
-1.35802584E+02
 20
-2.22350372E+02
 11
-1.33802584E+02
 21
-2.22350372E+02
  0
LINE
  8
0
  6
PHANTOM
 62
6
 10
-1.33802584E+02
 20
-2.15120372E+02
 11
-1.33802584E+02
 21
-2.22350372E+02
  0
LINE
  8
0
  6
PHANTOM
 62
6
 10
-1.35802584E+02
 20
-2.15660372E+02
 11
-1.35802584E+02
 21
-2.22350372E+02
  0
LINE
  8
0
  6
PHANTOM
 62
6
 10
-1.35302584E+02
 20
-2.27350372E+02
 11
-1.34302584E+02
 21
-2.27350372E+02
  0
LINE
  8
0
  6
PHANTOM
 62
6
 10
-1.34302584E+02
 20
-2.22350372E+02
 11
-1.34302584E+02
 21
-2.27350372E+02
  0
LINE
  8
0
  6
PHANTOM
 62
6
 10
-1.35302584E+02
 20
-2.22350372E+02
 11
-1.35302584E+02
 21
-2.27350372E+02
  0
LINE
  8
0
  6
PHANTOM
 62
6
 10
-1.37302584E+02
 20
-2.02350372E+02
 11
-1.37302584E+02
 21
-2.15020372E+02
  0
LINE
  8
0
  6
PHANTOM
 62
6
 10
-1.32302584E+02
 20
-2.02350372E+02
 11
-1.32302584E+02
 21
-2.13680372E+02
  0
LINE
  8
0
  6
PHANTOM
 62
6
 10
-1.38252584E+02
 20
-2.20940372E+02
 11
-1.36832584E+02
 21
-2.22350372E+02
  0
LINE
  8
0
  6
PHANTOM
 62
6
 10
-1.41432584E+02
 20
-2.24820372E+02
 11
-1.40732584E+02
 21
-2.25530372E+02
  0
LINE
  8
0
  6
PHANTOM
 62
6
 10
-1.40732584E+02
 20
-2.25530372E+02
 11
-1.37192584E+02
 21
-2.22000372E+02
  0
LINE
  8
0
  6
PHANTOM
 62
6
 10
-1.41432584E+02
 20
-2.24820372E+02
 11
-1.37902584E+02
 21
-2.21290372E+02
  0
LINE
  8
0
  6
PHANTOM
 62
6
 10
-1.31362584E+02
 20
-2.20940372E+02
 11
-1.32782584E+02
 21
-2.22350372E+02
  0
LINE
  8
0
  6
PHANTOM
 62
6
 10
-1.28172584E+02
 20
-2.24820372E+02
 11
-1.31712584E+02
 21
-2.21290372E+02
  0
LINE
  8
0
  6
PHANTOM
 62
6
 10
-1.28882584E+02
 20
-2.25530372E+02
 11
-1.32422584E+02
 21
-2.22000372E+02
  0
LINE
  8
0
  6
PHANTOM
 62
6
 10
-1.37302584E+02
 20
-2.16060372E+02
 11
-1.37302584E+02
 21
-2.18350372E+02
  0
LINE
  8
0
  6
PHANTOM
 62
6
 10
-1.32302584E+02
 20
-2.14720372E+02
 11
-1.32302584E+02
 21
-2.18350372E+02
  0
LINE
  8
0
  6
PHANTOM
 62
6
 10
-1.28172584E+02
 20
-2.24820372E+02
 11
-1.28882584E+02
 21
-2.25530372E+02
  0
ARC
  8
0
 62
4
 10
-1.54806878E+02
 20
-1.98354666E+02
 40
2.99570867E+00
 50
1.79917865E+02
 51
2.70082135E+02
  0
ARC
  8
0
  6
PHANTOM
 62
6
 10
-1.27898308E+02
 20
-2.31854648E+02
 40
4.95742500E-01
 50
2.69505799E+02
 51
4.94200946E-01
  0
ARC
  8
0
  6
PHANTOM
 62
6
 10
-1.41706860E+02
 20
-2.31854648E+02
 40
4.95742500E-01
 50
1.79505799E+02
 51
2.70494201E+02
  0
ARC
  8
0
  6
PHANTOM
 62
6
 10
-1.36934127E+02
 20
-2.33533922E+02
 40
6.68466455E-01
 50
1.79695693E+02
 51
2.39581074E+02
  0
ARC
  8
0
  6
PHANTOM
 62
6
 10
-1.32668567E+02
 20
-2.33529623E+02
 40
6.65983090E-01
 50
2.99306140E+02
 51
3.59935608E+02
  0
ARC
  8
0
  6
PHANTOM
 62
6
 10
-1.41300471E+02
 20
-2.18353193E+02
 40
3.99788799E+00
 50
3.19673959E+02
 51
4.04345272E-02
  0
ARC
  8
0
  6
PHANTOM
 62
6
 10
-1.41294549E+02
 20
-2.18346451E+02
 40
5.99504049E+00
 50
3.18096947E+02
 51
3.36360234E+02
  0
ARC
  8
0
  6
PHANTOM
 62
6
 10
-1.28300899E+02
 20
-2.18363602E+02
 40
4.00170714E+00
 50
1.79810574E+02
 51
2.20084575E+02
  0
ARC
  8
0
  6
PHANTOM
 62
6
 10
-1.28297919E+02
 20
-2.18366273E+02
 40
5.99877189E+00
 50
2.03417686E+02
 51
2.21617335E+02
  0
LINE
  8
0
  6
PHANTOM
 62
6
 10
-1.26802584E+02
 20
-2.01350372E+02
 11
-1.26802584E+02
 21
-2.09350372E+02
  0
LINE
  8
0
  6
CENTER
 62
2
 10
-8.08025840E+01
 20
-1.75100372E+02
 11
-1.66333674E+02
 21
-1.75100372E+02
  0
LINE
  8
0
  6
CENTER
 62
2
 10
-8.08025840E+01
 20
-1.29100372E+02
 11
-8.08025840E+01
 21
-2.35470372E+02
  0
TEXT
  8
0
 62
7
 10
-2.43023460E+02
 20
-2.67900000E+02
 40
6.30000019E+00
  1
-GS1A,-GS1B,-GS1C,-GS1D
 41
1.00000000E+00
  7
MONOTXT
  0
LINE
  8
0
  6
CENTER
 62
2
 10
2.68861111E+02
 20
-1.23371078E+01
 11
2.68861111E+02
 21
-7.41805868E+01
  0
LINE
  8
0
 62
2
 10
2.35223496E+02
 20
-6.78107967E+00
 11
3.02326695E+02
 21
-2.47613276E+01
  0
TEXT
  8
0
 62
7
 10
2.30769071E+02
 20
-8.64019436E+01
 40
6.30000019E+00
  1
-E,-A,-F,-NE,-NA,-NF
 41
1.00000000E+00
  7
MONOTXT
  0
LINE
  8
0
 62
7
 10
-3.99250000E+02
 20
-9.24166667E+01
 11
3.99799805E+02
 21
-9.24166667E+01
  0
LINE
  8
0
 62
7
 10
-3.99250000E+02
 20
2.56250000E+02
 11
-2.49250000E+02
 21
2.56250000E+02
  0
LINE
  8
0
 62
7
 10
-2.49250000E+02
 20
2.76250000E+02
 11
-2.49250000E+02
 21
2.56250000E+02
  0
TEXT
  8
0
 62
7
 10
-3.58000282E+02
 20
2.58100000E+02
 40
6.30000019E+00
  1
COMBINATION
 41
1.00000000E+00
  7
MONOTXT
  0
TEXT
  8
0
 62
7
 10
-3.95800283E+02
 20
2.68100000E+02
 40
6.30000019E+00
  1
F.R.L.LARGE FLOW SERIES
 41
1.05504587E+00
  7
MONOTXT
  0
TEXT
  8
0
 62
7
 10
-3.88350281E+02
 20
-1.05566667E+02
 40
6.30000019E+00
  1
PRESSURE GAUGE
 41
1.04477612E+00
  7
MONOTXT
  0
LINE
  8
0
  6
CENTER
 62
2
 10
-2.42802584E+02
 20
-1.31100372E+02
 11
-2.42802584E+02
 21
-2.24050372E+02
  0
LINE
  8
0
 62
7
 10
-1.25802584E+02
 20
-2.15100372E+02
 11
-8.08025840E+01
 21
-2.15100372E+02
  0
LINE
  8
0
 62
7
 10
-1.20302584E+02
 20
-1.50100372E+02
 11
-8.08025840E+01
 21
-1.50100372E+02
  0
LINE
  8
0
 62
7
 10
-1.24802584E+02
 20
-2.00100372E+02
 11
-1.05302584E+02
 21
-2.00100372E+02
  0
LINE
  8
0
 62
7
 10
-1.05802584E+02
 20
-1.51600372E+02
 11
-1.05802584E+02
 21
-2.00100372E+02
  0
LINE
  8
0
 62
7
 10
-1.04302584E+02
 20
-1.50100372E+02
 11
-1.05802584E+02
 21
-1.51600372E+02
  0
LINE
  8
0
  6
CENTER
 62
2
 10
-1.17802584E+02
 20
-1.97100372E+02
 11
-1.17802584E+02
 21
-2.10600372E+02
  0
LINE
  8
0
 62
7
 10
-1.24802584E+02
 20
-2.07600372E+02
 11
-1.11302584E+02
 21
-2.07600372E+02
  0
LINE
  8
0
 62
7
 10
-1.10802584E+02
 20
-2.01100372E+02
 11
-1.10802584E+02
 21
-2.07100372E+02
  0
LINE
  8
0
 62
7
 10
-1.02952584E+02
 20
-1.42600372E+02
 11
-1.02802584E+02
 21
-1.42600372E+02
  0
LINE
  8
0
 62
7
 10
-1.02952584E+02
 20
-1.42600372E+02
 11
-1.03492584E+02
 21
-1.42100372E+02
  0
LINE
  8
0
 62
7
 10
-1.04192584E+02
 20
-1.48100372E+02
 11
-1.02952584E+02
 21
-1.48100372E+02
  0
LINE
  8
0
 62
7
 10
-1.09302584E+02
 20
-1.42600372E+02
 11
-1.12302584E+02
 21
-1.42600372E+02
  0
LINE
  8
0
 62
7
 10
-1.02952584E+02
 20
-1.48100372E+02
 11
-1.03492584E+02
 21
-1.47760372E+02
  0
LINE
  8
0
 62
7
 10
-1.06792584E+02
 20
-1.47760372E+02
 11
-1.09162584E+02
 21
-1.47760372E+02
  0
LINE
  8
0
 62
7
 10
-1.03302584E+02
 20
-1.42100372E+02
 11
-1.18302584E+02
 21
-1.42100372E+02
  0
LINE
  8
0
 62
7
 10
-1.02802584E+02
 20
-1.42600372E+02
 11
-1.02802584E+02
 21
-1.50100372E+02
  0
LINE
  8
0
 62
7
 10
-1.18802584E+02
 20
-1.42600372E+02
 11
-1.18802584E+02
 21
-1.50100372E+02
  0
LINE
  8
0
 62
7
 10
-1.03302584E+02
 20
-1.42100372E+02
 11
-1.02802584E+02
 21
-1.42600372E+02
  0
LINE
  8
0
 62
7
 10
-1.18802584E+02
 20
-1.42600372E+02
 11
-1.18302584E+02
 21
-1.42100372E+02
  0
LINE
  8
0
  6
CENTER
 62
2
 10
-1.10802584E+02
 20
-1.39100372E+02
 11
-1.10802584E+02
 21
-1.53100372E+02
  0
LINE
  8
0
 62
7
 10
-1.12302584E+02
 20
-1.48100372E+02
 11
-1.15302584E+02
 21
-1.48100372E+02
  0
LINE
  8
0
 62
7
 10
-1.15302584E+02
 20
-1.42600372E+02
 11
-1.17422584E+02
 21
-1.42600372E+02
  0
LINE
  8
0
 62
7
 10
-1.18662584E+02
 20
-1.42600372E+02
 11
-1.18662584E+02
 21
-1.48100372E+02
  0
LINE
  8
0
 62
7
 10
-1.18122584E+02
 20
-1.42100372E+02
 11
-1.18122584E+02
 21
-1.47760372E+02
  0
LINE
  8
0
 62
7
 10
-1.17422584E+02
 20
-1.42600372E+02
 11
-1.17422584E+02
 21
-1.48100372E+02
  0
LINE
  8
0
 62
7
 10
-1.15302584E+02
 20
-1.42600372E+02
 11
-1.15302584E+02
 21
-1.48100372E+02
  0
LINE
  8
0
 62
7
 10
-1.14822584E+02
 20
-1.42100372E+02
 11
-1.14822584E+02
 21
-1.47760372E+02
  0
LINE
  8
0
 62
7
 10
-1.12452584E+02
 20
-1.42100372E+02
 11
-1.12452584E+02
 21
-1.47760372E+02
  0
LINE
  8
0
 62
7
 10
-1.12302584E+02
 20
-1.42600372E+02
 11
-1.12302584E+02
 21
-1.48100372E+02
  0
LINE
  8
0
 62
7
 10
-1.18122584E+02
 20
-1.47760372E+02
 11
-1.17422584E+02
 21
-1.47760372E+02
  0
LINE
  8
0
 62
7
 10
-1.12302584E+02
 20
-1.42600372E+02
 11
-1.12452584E+02
 21
-1.42100372E+02
  0
LINE
  8
0
 62
7
 10
-1.12302584E+02
 20
-1.48100372E+02
 11
-1.12452584E+02
 21
-1.47760372E+02
  0
LINE
  8
0
 62
7
 10
-1.14822584E+02
 20
-1.47760372E+02
 11
-1.15302584E+02
 21
-1.48100372E+02
  0
LINE
  8
0
 62
7
 10
-1.15302584E+02
 20
-1.42600372E+02
 11
-1.14822584E+02
 21
-1.42100372E+02
  0
LINE
  8
0
 62
7
 10
-1.17422584E+02
 20
-1.42600372E+02
 11
-1.17142584E+02
 21
-1.42100372E+02
  0
LINE
  8
0
 62
7
 10
-1.18662584E+02
 20
-1.48100372E+02
 11
-1.18122584E+02
 21
-1.47760372E+02
  0
LINE
  8
0
 62
7
 10
-1.18662584E+02
 20
-1.42600372E+02
 11
-1.18122584E+02
 21
-1.42100372E+02
  0
LINE
  8
0
 62
7
 10
-1.18662584E+02
 20
-1.42600372E+02
 11
-1.18802584E+02
 21
-1.42600372E+02
  0
LINE
  8
0
 62
7
 10
-1.14822584E+02
 20
-1.47760372E+02
 11
-1.12452584E+02
 21
-1.47760372E+02
  0
LINE
  8
0
 62
7
 10
-1.17422584E+02
 20
-1.48100372E+02
 11
-1.18662584E+02
 21
-1.48100372E+02
  0
LINE
  8
0
 62
7
 10
-1.09302584E+02
 20
-1.48100372E+02
 11
-1.06312584E+02
 21
-1.48100372E+02
  0
LINE
  8
0
 62
7
 10
-1.06312584E+02
 20
-1.42600372E+02
 11
-1.04192584E+02
 21
-1.42600372E+02
  0
LINE
  8
0
 62
7
 10
-1.02952584E+02
 20
-1.42600372E+02
 11
-1.02952584E+02
 21
-1.48100372E+02
  0
LINE
  8
0
 62
7
 10
-1.03492584E+02
 20
-1.42100372E+02
 11
-1.03492584E+02
 21
-1.47760372E+02
  0
LINE
  8
0
 62
7
 10
-1.04192584E+02
 20
-1.42600372E+02
 11
-1.04192584E+02
 21
-1.48100372E+02
  0
LINE
  8
0
 62
7
 10
-1.06312584E+02
 20
-1.42600372E+02
 11
-1.06312584E+02
 21
-1.48100372E+02
  0
LINE
  8
0
 62
7
 10
-1.06792584E+02
 20
-1.42100372E+02
 11
-1.06792584E+02
 21
-1.47760372E+02
  0
LINE
  8
0
 62
7
 10
-1.09162584E+02
 20
-1.42100372E+02
 11
-1.09162584E+02
 21
-1.47760372E+02
  0
LINE
  8
0
 62
7
 10
-1.09302584E+02
 20
-1.42600372E+02
 11
-1.09302584E+02
 21
-1.48100372E+02
  0
LINE
  8
0
 62
7
 10
-1.03492584E+02
 20
-1.47760372E+02
 11
-1.04192584E+02
 21
-1.47760372E+02
  0
LINE
  8
0
 62
7
 10
-1.09302584E+02
 20
-1.42600372E+02
 11
-1.09162584E+02
 21
-1.42100372E+02
  0
LINE
  8
0
 62
7
 10
-1.09302584E+02
 20
-1.48100372E+02
 11
-1.09162584E+02
 21
-1.47760372E+02
  0
LINE
  8
0
 62
7
 10
-1.06792584E+02
 20
-1.47760372E+02
 11
-1.06312584E+02
 21
-1.48100372E+02
  0
LINE
  8
0
 62
7
 10
-1.06312584E+02
 20
-1.42600372E+02
 11
-1.06792584E+02
 21
-1.42100372E+02
  0
LINE
  8
0
 62
7
 10
-1.04192584E+02
 20
-1.42600372E+02
 11
-1.04472584E+02
 21
-1.42100372E+02
  0
LINE
  8
0
 62
7
 10
-1.21802584E+02
 20
-1.51600372E+02
 11
-8.08025840E+01
 21
-1.51600372E+02
  0
LINE
  8
0
 62
7
 10
-1.04302584E+02
 20
-1.50100372E+02
 11
-1.04302584E+02
 21
-2.01100372E+02
  0
LINE
  8
0
 62
7
 10
-1.21802584E+02
 20
-1.51600372E+02
 11
-1.23762584E+02
 21
-1.99150372E+02
  0
LINE
  8
0
 62
7
 10
-1.11692584E+02
 20
-1.51600372E+02
 11
-1.14722584E+02
 21
-2.00100372E+02
  0
LINE
  8
0
 62
7
 10
-1.21802584E+02
 20
-1.51600372E+02
 11
-1.20302584E+02
 21
-1.50100372E+02
  0
LINE
  8
0
 62
7
 10
-1.10902584E+02
 20
-1.50100372E+02
 11
-1.11692584E+02
 21
-1.51600372E+02
  0
LINE
  8
0
 62
7
 10
-8.48025840E+01
 20
-1.49100372E+02
 11
-8.08025840E+01
 21
-1.49100372E+02
  0
LINE
  8
0
 62
7
 10
-8.48025840E+01
 20
-1.49100372E+02
 11
-8.48025840E+01
 21
-1.50100372E+02
  0
LINE
  8
0
 62
7
 10
-8.08025840E+01
 20
-1.49100372E+02
 11
-8.08025840E+01
 21
-1.50100372E+02
  0
LINE
  8
0
 62
7
 10
-1.25802584E+02
 20
-2.01100372E+02
 11
-1.25802584E+02
 21
-2.29100372E+02
  0
LINE
  8
0
 62
7
 10
-1.22802584E+02
 20
-2.00700372E+02
 11
-1.22802584E+02
 21
-2.06100372E+02
  0
LINE
  8
0
 62
7
 10
-1.12802584E+02
 20
-2.00700372E+02
 11
-1.12802584E+02
 21
-2.06100372E+02
  0
LINE
  8
0
 62
7
 10
-1.11702584E+02
 20
-2.06100372E+02
 11
-1.23902584E+02
 21
-2.06100372E+02
  0
LINE
  8
0
 62
7
 10
-1.11702584E+02
 20
-2.06100372E+02
 11
-1.11702584E+02
 21
-2.07600372E+02
  0
LINE
  8
0
 62
7
 10
-1.23902584E+02
 20
-2.06100372E+02
 11
-1.23902584E+02
 21
-2.07600372E+02
  0
LINE
  8
0
 62
7
 10
-1.22802584E+02
 20
-2.00700372E+02
 11
-1.12802584E+02
 21
-2.00700372E+02
  0
LINE
  8
0
 62
7
 10
-1.22802584E+02
 20
-2.00700372E+02
 11
-1.22202584E+02
 21
-2.00100372E+02
  0
LINE
  8
0
 62
7
 10
-1.12802584E+02
 20
-2.00700372E+02
 11
-1.13402584E+02
 21
-2.00100372E+02
  0
LINE
  8
0
 62
7
 10
-1.24802584E+02
 20
-2.30100372E+02
 11
-8.08025840E+01
 21
-2.30100372E+02
  0
LINE
  8
0
 62
7
 10
-1.20862584E+02
 20
-2.34830372E+02
 11
-1.20962584E+02
 21
-2.31080372E+02
  0
LINE
  8
0
 62
7
 10
-2.21302584E+02
 20
-2.13100372E+02
 11
-2.21302584E+02
 21
-2.14100372E+02
  0
LINE
  8
0
 62
7
 10
-2.21302584E+02
 20
-2.14100372E+02
 11
-2.23032584E+02
 21
-2.15100372E+02
  0
LINE
  8
0
 62
7
 10
-2.54562584E+02
 20
-2.15100372E+02
 11
-2.54562584E+02
 21
-2.22140372E+02
  0
LINE
  8
0
 62
7
 10
-2.61852584E+02
 20
-2.15100372E+02
 11
-2.61582584E+02
 21
-2.22650372E+02
  0
LINE
  8
0
 62
7
 10
-2.48712584E+02
 20
-2.15100372E+02
 11
-2.48712584E+02
 21
-2.22780372E+02
  0
LINE
  8
0
 62
7
 10
-2.36882584E+02
 20
-2.15100372E+02
 11
-2.36882584E+02
 21
-2.25220372E+02
  0
LINE
  8
0
 62
7
 10
-2.31032584E+02
 20
-2.15100372E+02
 11
-2.31032584E+02
 21
-2.25640372E+02
  0
LINE
  8
0
 62
7
 10
-2.23752584E+02
 20
-2.15100372E+02
 11
-2.24102584E+02
 21
-2.25140372E+02
  0
LINE
  8
0
 62
7
 10
-1.00802584E+02
 20
-1.49100372E+02
 11
-8.48025840E+01
 21
-1.49100372E+02
  0
LINE
  8
0
 62
7
 10
-1.00552584E+02
 20
-1.49100372E+02
 11
-1.00552584E+02
 21
-1.50100372E+02
  0
LINE
  8
0
 62
7
 10
-9.98025840E+01
 20
-1.39100372E+02
 11
-8.08025840E+01
 21
-1.39100372E+02
  0
LINE
  8
0
 62
7
 10
-1.00802584E+02
 20
-1.40100372E+02
 11
-1.00802584E+02
 21
-1.49100372E+02
  0
LINE
  8
0
 62
7
 10
-1.00802584E+02
 20
-1.40100372E+02
 11
-9.98025840E+01
 21
-1.39100372E+02
  0
LINE
  8
0
 62
7
 10
-9.93125840E+01
 20
-1.46100372E+02
 11
-9.74925840E+01
 21
-1.46100372E+02
  0
LINE
  8
0
 62
7
 10
-1.00402584E+02
 20
-1.46680372E+02
 11
-9.74925840E+01
 21
-1.46680372E+02
  0
LINE
  8
0
 62
7
 10
-8.48025840E+01
 20
-1.40100372E+02
 11
-8.48025840E+01
 21
-1.46680372E+02
  0
LINE
  8
0
 62
7
 10
-8.51025840E+01
 20
-1.39100372E+02
 11
-8.51025840E+01
 21
-1.46100372E+02
  0
LINE
  8
0
 62
7
 10
-1.00802584E+02
 20
-1.40100372E+02
 11
-1.00402584E+02
 21
-1.40100372E+02
  0
LINE
  8
0
 62
7
 10
-8.48025840E+01
 20
-1.40100372E+02
 11
-8.08025840E+01
 21
-1.40100372E+02
  0
LINE
  8
0
 62
7
 10
-9.08625840E+01
 20
-1.39100372E+02
 11
-9.08625840E+01
 21
-1.46100372E+02
  0
LINE
  8
0
 62
7
 10
-9.08625840E+01
 20
-1.46100372E+02
 11
-8.51025840E+01
 21
-1.46100372E+02
  0
LINE
  8
0
 62
7
 10
-9.18325840E+01
 20
-1.40100372E+02
 11
-9.18325840E+01
 21
-1.46680372E+02
  0
LINE
  8
0
 62
7
 10
-9.18325840E+01
 20
-1.46680372E+02
 11
-8.48025840E+01
 21
-1.46680372E+02
  0
LINE
  8
0
 62
7
 10
-9.74925840E+01
 20
-1.40100372E+02
 11
-9.74925840E+01
 21
-1.46680372E+02
  0
LINE
  8
0
 62
7
 10
-9.74925840E+01
 20
-1.40100372E+02
 11
-9.18325840E+01
 21
-1.40100372E+02
  0
LINE
  8
0
 62
7
 10
-9.74925840E+01
 20
-1.40100372E+02
 11
-9.69325840E+01
 21
-1.39100372E+02
  0
LINE
  8
0
 62
7
 10
-9.93125840E+01
 20
-1.39100372E+02
 11
-9.93125840E+01
 21
-1.46100372E+02
  0
LINE
  8
0
 62
7
 10
-1.00402584E+02
 20
-1.40100372E+02
 11
-1.00402584E+02
 21
-1.46680372E+02
  0
LINE
  8
0
 62
7
 10
-9.93125840E+01
 20
-1.46100372E+02
 11
-1.00402584E+02
 21
-1.46680372E+02
  0
LINE
  8
0
 62
7
 10
-9.08625840E+01
 20
-1.46100372E+02
 11
-9.18325840E+01
 21
-1.46680372E+02
  0
LINE
  8
0
 62
7
 10
-9.18325840E+01
 20
-1.40100372E+02
 11
-9.08625840E+01
 21
-1.39100372E+02
  0
LINE
  8
0
 62
7
 10
-8.51025840E+01
 20
-1.39100372E+02
 11
-8.48025840E+01
 21
-1.40100372E+02
  0
LINE
  8
0
 62
7
 10
-8.51025840E+01
 20
-1.46100372E+02
 11
-8.48025840E+01
 21
-1.46680372E+02
  0
LINE
  8
0
 62
7
 10
-1.00402584E+02
 20
-1.40100372E+02
 11
-9.93125840E+01
 21
-1.39100372E+02
  0
LINE
  8
0
 62
7
 10
-1.92802584E+02
 20
-1.51600372E+02
 11
-1.92802584E+02
 21
-1.98600372E+02
  0
LINE
  8
0
 62
7
 10
-2.91302584E+02
 20
-1.50100372E+02
 11
-2.50352584E+02
 21
-1.50100372E+02
  0
LINE
  8
0
 62
7
 10
-2.92802584E+02
 20
-1.51600372E+02
 11
-2.91302584E+02
 21
-1.50100372E+02
  0
LINE
  8
0
 62
7
 10
-1.92802584E+02
 20
-1.51600372E+02
 11
-1.94302584E+02
 21
-1.50100372E+02
  0
LINE
  8
0
 62
7
 10
-2.92802584E+02
 20
-1.51600372E+02
 11
-2.51512584E+02
 21
-1.51600372E+02
  0
LINE
  8
0
 62
7
 10
-2.62552584E+02
 20
-1.49100372E+02
 11
-2.62552584E+02
 21
-1.50100372E+02
  0
LINE
  8
0
 62
7
 10
-2.87802584E+02
 20
-1.49100372E+02
 11
-2.87802584E+02
 21
-1.50100372E+02
  0
LINE
  8
0
 62
7
 10
-2.76802584E+02
 20
-1.49100372E+02
 11
-2.76802584E+02
 21
-1.50100372E+02
  0
LINE
  8
0
 62
7
 10
-2.87802584E+02
 20
-1.49100372E+02
 11
-2.76802584E+02
 21
-1.49100372E+02
  0
LINE
  8
0
 62
7
 10
-2.91302584E+02
 20
-2.00100372E+02
 11
-2.58992584E+02
 21
-2.00100372E+02
  0
LINE
  8
0
 62
7
 10
-2.70802584E+02
 20
-2.02100372E+02
 11
-2.14802584E+02
 21
-2.02100372E+02
  0
LINE
  8
0
 62
7
 10
-2.92802584E+02
 20
-1.98600372E+02
 11
-2.91302584E+02
 21
-2.00100372E+02
  0
LINE
  8
0
 62
7
 10
-1.94302584E+02
 20
-2.00100372E+02
 11
-1.92802584E+02
 21
-1.98600372E+02
  0
LINE
  8
0
 62
7
 10
-2.92802584E+02
 20
-1.98600372E+02
 11
-2.57492584E+02
 21
-1.98600372E+02
  0
LINE
  8
0
 62
7
 10
-2.87802584E+02
 20
-2.01100372E+02
 11
-2.76802584E+02
 21
-2.01100372E+02
  0
LINE
  8
0
 62
7
 10
-2.87802584E+02
 20
-2.01100372E+02
 11
-2.87802584E+02
 21
-2.00100372E+02
  0
LINE
  8
0
 62
7
 10
-2.76802584E+02
 20
-2.01100372E+02
 11
-2.76802584E+02
 21
-2.00100372E+02
  0
LINE
  8
0
 62
7
 10
-2.71802584E+02
 20
-2.00100372E+02
 11
-2.71802584E+02
 21
-2.01100372E+02
  0
LINE
  8
0
 62
7
 10
-2.71802584E+02
 20
-2.01100372E+02
 11
-2.70802584E+02
 21
-2.02100372E+02
  0
LINE
  8
0
 62
7
 10
-2.14802584E+02
 20
-2.02100372E+02
 11
-2.14052584E+02
 21
-2.01350372E+02
  0
LINE
  8
0
 62
7
 10
-2.71802584E+02
 20
-2.01100372E+02
 11
-2.48612584E+02
 21
-2.01100372E+02
  0
LINE
  8
0
 62
7
 10
-2.57492584E+02
 20
-1.98600372E+02
 11
-2.57492584E+02
 21
-1.83100372E+02
  0
LINE
  8
0
 62
7
 10
-2.57492584E+02
 20
-1.98600372E+02
 11
-2.58992584E+02
 21
-2.00100372E+02
  0
LINE
  8
0
 62
7
 10
-2.56492584E+02
 20
-1.82100372E+02
 11
-2.57492584E+02
 21
-1.83100372E+02
  0
LINE
  8
0
 62
7
 10
-2.71802584E+02
 20
-1.60100372E+02
 11
-2.71802584E+02
 21
-1.90100372E+02
  0
LINE
  8
0
 62
7
 10
-2.92802584E+02
 20
-1.51600372E+02
 11
-2.92802584E+02
 21
-1.98600372E+02
  0
LINE
  8
0
 62
7
 10
-2.91302584E+02
 20
-2.00100372E+02
 11
-2.91302584E+02
 21
-1.50100372E+02
  0
LINE
  8
0
 62
7
 10
-2.85802584E+02
 20
-1.60100372E+02
 11
-2.71802584E+02
 21
-1.60100372E+02
  0
LINE
  8
0
 62
7
 10
-2.85802584E+02
 20
-1.90100372E+02
 11
-2.71802584E+02
 21
-1.90100372E+02
  0
LINE
  8
0
 62
7
 10
-2.72682584E+02
 20
-1.60720372E+02
 11
-2.72682584E+02
 21
-1.89490372E+02
  0
LINE
  8
0
 62
7
 10
-2.84912584E+02
 20
-1.60720372E+02
 11
-2.72682584E+02
 21
-1.60720372E+02
  0
LINE
  8
0
 62
7
 10
-2.84912584E+02
 20
-1.89490372E+02
 11
-2.72682584E+02
 21
-1.89490372E+02
  0
LINE
  8
0
 62
7
 10
-2.72682584E+02
 20
-1.89490372E+02
 11
-2.71802584E+02
 21
-1.90100372E+02
  0
LINE
  8
0
 62
7
 10
-2.71802584E+02
 20
-1.60100372E+02
 11
-2.72682584E+02
 21
-1.60720372E+02
  0
LINE
  8
0
 62
7
 10
-2.62802584E+02
 20
-1.49100372E+02
 11
-2.48612584E+02
 21
-1.49100372E+02
  0
LINE
  8
0
 62
7
 10
-2.31772584E+02
 20
-1.40100372E+02
 11
-2.32742584E+02
 21
-1.39100372E+02
  0
LINE
  8
0
 62
7
 10
-2.24292584E+02
 20
-1.46100372E+02
 11
-2.23202584E+02
 21
-1.46680372E+02
  0
LINE
  8
0
 62
7
 10
-2.38802584E+02
 20
-1.46680372E+02
 11
-2.38502584E+02
 21
-1.46100372E+02
  0
LINE
  8
0
 62
7
 10
-2.32742584E+02
 20
-1.46100372E+02
 11
-2.31772584E+02
 21
-1.46680372E+02
  0
LINE
  8
0
 62
7
 10
-2.61802584E+02
 20
-1.39100372E+02
 11
-2.23802584E+02
 21
-1.39100372E+02
  0
LINE
  8
0
 62
7
 10
-2.22802584E+02
 20
-1.40100372E+02
 11
-2.22802584E+02
 21
-1.48850372E+02
  0
LINE
  8
0
 62
7
 10
-2.62802584E+02
 20
-1.40100372E+02
 11
-2.62802584E+02
 21
-1.49100372E+02
  0
LINE
  8
0
 62
7
 10
-2.62802584E+02
 20
-1.40100372E+02
 11
-2.61802584E+02
 21
-1.39100372E+02
  0
LINE
  8
0
 62
7
 10
-2.22802584E+02
 20
-1.40100372E+02
 11
-2.23802584E+02
 21
-1.39100372E+02
  0
LINE
  8
0
 62
7
 10
-2.61302584E+02
 20
-1.46100372E+02
 11
-2.59482584E+02
 21
-1.46100372E+02
  0
LINE
  8
0
 62
7
 10
-2.62392584E+02
 20
-1.46680372E+02
 11
-2.59482584E+02
 21
-1.46680372E+02
  0
LINE
  8
0
 62
7
 10
-2.46802584E+02
 20
-1.40100372E+02
 11
-2.46802584E+02
 21
-1.46680372E+02
  0
LINE
  8
0
 62
7
 10
-2.38802584E+02
 20
-1.40100372E+02
 11
-2.38802584E+02
 21
-1.46680372E+02
  0
LINE
  8
0
 62
7
 10
-2.38502584E+02
 20
-1.39100372E+02
 11
-2.38502584E+02
 21
-1.46100372E+02
  0
LINE
  8
0
 62
7
 10
-2.47092584E+02
 20
-1.39100372E+02
 11
-2.47092584E+02
 21
-1.46100372E+02
  0
LINE
  8
0
 62
7
 10
-2.62802584E+02
 20
-1.40100372E+02
 11
-2.62392584E+02
 21
-1.40100372E+02
  0
LINE
  8
0
 62
7
 10
-2.46802584E+02
 20
-1.40100372E+02
 11
-2.38802584E+02
 21
-1.40100372E+02
  0
LINE
  8
0
 62
7
 10
-2.31772584E+02
 20
-1.40100372E+02
 11
-2.26112584E+02
 21
-1.40100372E+02
  0
LINE
  8
0
 62
7
 10
-2.38502584E+02
 20
-1.46100372E+02
 11
-2.32742584E+02
 21
-1.46100372E+02
  0
LINE
  8
0
 62
7
 10
-2.38802584E+02
 20
-1.46680372E+02
 11
-2.31772584E+02
 21
-1.46680372E+02
  0
LINE
  8
0
 62
7
 10
-2.52852584E+02
 20
-1.39100372E+02
 11
-2.52852584E+02
 21
-1.46100372E+02
  0
LINE
  8
0
 62
7
 10
-2.32742584E+02
 20
-1.39100372E+02
 11
-2.32742584E+02
 21
-1.46100372E+02
  0
LINE
  8
0
 62
7
 10
-2.52852584E+02
 20
-1.46100372E+02
 11
-2.47092584E+02
 21
-1.46100372E+02
  0
LINE
  8
0
 62
7
 10
-2.26112584E+02
 20
-1.46100372E+02
 11
-2.24292584E+02
 21
-1.46100372E+02
  0
LINE
  8
0
 62
7
 10
-2.53822584E+02
 20
-1.40100372E+02
 11
-2.53822584E+02
 21
-1.46680372E+02
  0
LINE
  8
0
 62
7
 10
-2.31772584E+02
 20
-1.40100372E+02
 11
-2.31772584E+02
 21
-1.46680372E+02
  0
LINE
  8
0
 62
7
 10
-2.53822584E+02
 20
-1.46680372E+02
 11
-2.46802584E+02
 21
-1.46680372E+02
  0
LINE
  8
0
 62
7
 10
-2.26112584E+02
 20
-1.46680372E+02
 11
-2.23202584E+02
 21
-1.46680372E+02
  0
LINE
  8
0
 62
7
 10
-2.26112584E+02
 20
-1.40100372E+02
 11
-2.26112584E+02
 21
-1.46680372E+02
  0
LINE
  8
0
 62
7
 10
-2.59482584E+02
 20
-1.40100372E+02
 11
-2.59482584E+02
 21
-1.46680372E+02
  0
LINE
  8
0
 62
7
 10
-2.23202584E+02
 20
-1.40100372E+02
 11
-2.22802584E+02
 21
-1.40100372E+02
  0
LINE
  8
0
 62
7
 10
-2.59482584E+02
 20
-1.40100372E+02
 11
-2.53822584E+02
 21
-1.40100372E+02
  0
LINE
  8
0
 62
7
 10
-2.59482584E+02
 20
-1.40100372E+02
 11
-2.58922584E+02
 21
-1.39100372E+02
  0
LINE
  8
0
 62
7
 10
-2.26672584E+02
 20
-1.39100372E+02
 11
-2.26112584E+02
 21
-1.40100372E+02
  0
LINE
  8
0
 62
7
 10
-2.24292584E+02
 20
-1.39100372E+02
 11
-2.24292584E+02
 21
-1.46100372E+02
  0
LINE
  8
0
 62
7
 10
-2.61302584E+02
 20
-1.39100372E+02
 11
-2.61302584E+02
 21
-1.46100372E+02
  0
LINE
  8
0
 62
7
 10
-2.23202584E+02
 20
-1.40100372E+02
 11
-2.23202584E+02
 21
-1.46680372E+02
  0
LINE
  8
0
 62
7
 10
-2.62392584E+02
 20
-1.40100372E+02
 11
-2.62392584E+02
 21
-1.46680372E+02
  0
LINE
  8
0
 62
7
 10
-2.61302584E+02
 20
-1.46100372E+02
 11
-2.62392584E+02
 21
-1.46680372E+02
  0
LINE
  8
0
 62
7
 10
-2.52852584E+02
 20
-1.46100372E+02
 11
-2.53822584E+02
 21
-1.46680372E+02
  0
LINE
  8
0
 62
7
 10
-2.53822584E+02
 20
-1.40100372E+02
 11
-2.52852584E+02
 21
-1.39100372E+02
  0
LINE
  8
0
 62
7
 10
-2.47092584E+02
 20
-1.39100372E+02
 11
-2.46802584E+02
 21
-1.40100372E+02
  0
LINE
  8
0
 62
7
 10
-2.47092584E+02
 20
-1.46100372E+02
 11
-2.46802584E+02
 21
-1.46680372E+02
  0
LINE
  8
0
 62
7
 10
-2.38802584E+02
 20
-1.40100372E+02
 11
-2.38502584E+02
 21
-1.39100372E+02
  0
LINE
  8
0
 62
7
 10
-2.23202584E+02
 20
-1.40100372E+02
 11
-2.24292584E+02
 21
-1.39100372E+02
  0
LINE
  8
0
 62
7
 10
-2.62392584E+02
 20
-1.40100372E+02
 11
-2.61302584E+02
 21
-1.39100372E+02
  0
LINE
  8
0
 62
7
 10
-2.71302584E+02
 20
-2.03100372E+02
 11
-2.14302584E+02
 21
-2.03100372E+02
  0
LINE
  8
0
 62
7
 10
-2.53282584E+02
 20
-2.03100372E+02
 11
-2.53282584E+02
 21
-2.12100372E+02
  0
LINE
  8
0
 62
7
 10
-2.32312584E+02
 20
-2.03100372E+02
 11
-2.32312584E+02
 21
-2.12100372E+02
  0
LINE
  8
0
 62
2
 10
-2.53282584E+02
 20
-2.03100372E+02
 11
-2.32312584E+02
 21
-2.12100372E+02
  0
LINE
  8
0
 62
2
 10
-2.32312584E+02
 20
-2.03100372E+02
 11
-2.53282584E+02
 21
-2.12100372E+02
  0
LINE
  8
0
 62
7
 10
-2.65302584E+02
 20
-2.02100372E+02
 11
-2.65302584E+02
 21
-2.03100372E+02
  0
LINE
  8
0
 62
2
 10
-2.64302584E+02
 20
-2.02100372E+02
 11
-2.64302584E+02
 21
-2.03100372E+02
  0
LINE
  8
0
 62
2
 10
-2.21302584E+02
 20
-2.02100372E+02
 11
-2.21302584E+02
 21
-2.03100372E+02
  0
LINE
  8
0
 62
7
 10
-2.20302584E+02
 20
-2.02100372E+02
 11
-2.20302584E+02
 21
-2.03100372E+02
  0
LINE
  8
0
 62
7
 10
-1.94302584E+02
 20
-2.00100372E+02
 11
-1.94302584E+02
 21
-1.50100372E+02
  0
LINE
  8
0
 62
7
 10
-2.71302584E+02
 20
-2.12100372E+02
 11
-2.71082584E+02
 21
-2.12100372E+02
  0
LINE
  8
0
 62
7
 10
-2.59972584E+02
 20
-2.06100372E+02
 11
-2.59972584E+02
 21
-2.13100372E+02
  0
LINE
  8
0
 62
7
 10
-2.59692584E+02
 20
-2.05100372E+02
 11
-2.59692584E+02
 21
-2.12100372E+02
  0
LINE
  8
0
 62
7
 10
-2.59692584E+02
 20
-2.12100372E+02
 11
-2.53282584E+02
 21
-2.12100372E+02
  0
LINE
  8
0
 62
7
 10
-2.65542584E+02
 20
-2.05100372E+02
 11
-2.65542584E+02
 21
-2.12100372E+02
  0
LINE
  8
0
 62
7
 10
-2.64492584E+02
 20
-2.06100372E+02
 11
-2.64492584E+02
 21
-2.13100372E+02
  0
LINE
  8
0
 62
7
 10
-2.65542584E+02
 20
-2.05100372E+02
 11
-2.59692584E+02
 21
-2.05100372E+02
  0
LINE
  8
0
 62
7
 10
-2.64492584E+02
 20
-2.06100372E+02
 11
-2.59972584E+02
 21
-2.06100372E+02
  0
LINE
  8
0
 62
7
 10
-2.69042584E+02
 20
-2.05100372E+02
 11
-2.69042584E+02
 21
-2.12100372E+02
  0
LINE
  8
0
 62
7
 10
-2.71082584E+02
 20
-2.05100372E+02
 11
-2.69042584E+02
 21
-2.05100372E+02
  0
LINE
  8
0
 62
7
 10
-2.70032584E+02
 20
-2.06100372E+02
 11
-2.69042584E+02
 21
-2.06100372E+02
  0
LINE
  8
0
 62
7
 10
-2.69042584E+02
 20
-2.12100372E+02
 11
-2.65542584E+02
 21
-2.12100372E+02
  0
LINE
  8
0
 62
7
 10
-2.69042584E+02
 20
-2.12100372E+02
 11
-2.68282584E+02
 21
-2.13100372E+02
  0
LINE
  8
0
 62
7
 10
-2.70032584E+02
 20
-2.06100372E+02
 11
-2.70032584E+02
 21
-2.13100372E+02
  0
LINE
  8
0
 62
7
 10
-2.71082584E+02
 20
-2.05100372E+02
 11
-2.71082584E+02
 21
-2.12100372E+02
  0
LINE
  8
0
 62
7
 10
-2.71082584E+02
 20
-2.12100372E+02
 11
-2.70032584E+02
 21
-2.13100372E+02
  0
LINE
  8
0
 62
7
 10
-2.71082584E+02
 20
-2.05100372E+02
 11
-2.70032584E+02
 21
-2.06100372E+02
  0
LINE
  8
0
 62
7
 10
-2.65542584E+02
 20
-2.12100372E+02
 11
-2.64492584E+02
 21
-2.13100372E+02
  0
LINE
  8
0
 62
7
 10
-2.64492584E+02
 20
-2.06100372E+02
 11
-2.65542584E+02
 21
-2.05100372E+02
  0
LINE
  8
0
 62
7
 10
-2.59972584E+02
 20
-2.06100372E+02
 11
-2.59692584E+02
 21
-2.05100372E+02
  0
LINE
  8
0
 62
7
 10
-2.59972584E+02
 20
-2.13100372E+02
 11
-2.59692584E+02
 21
-2.12100372E+02
  0
LINE
  8
0
 62
7
 10
-2.56492584E+02
 20
-1.82100372E+02
 11
-2.52052584E+02
 21
-1.82100372E+02
  0
LINE
  8
0
 62
7
 10
-2.57492584E+02
 20
-1.83100372E+02
 11
-2.52052584E+02
 21
-1.83100372E+02
  0
LINE
  8
0
 62
7
 10
-2.01252584E+02
 20
-1.50100372E+02
 11
-1.94302584E+02
 21
-1.50100372E+02
  0
LINE
  8
0
 62
7
 10
-2.00092584E+02
 20
-1.51600372E+02
 11
-1.92802584E+02
 21
-1.51600372E+02
  0
LINE
  8
0
 62
7
 10
-2.01252584E+02
 20
-2.00100372E+02
 11
-1.94302584E+02
 21
-2.00100372E+02
  0
LINE
  8
0
 62
7
 10
-2.00092584E+02
 20
-1.98600372E+02
 11
-1.92802584E+02
 21
-1.98600372E+02
  0
LINE
  8
0
 62
7
 10
-2.85802584E+02
 20
-1.60100372E+02
 11
-2.84912584E+02
 21
-1.60720372E+02
  0
LINE
  8
0
 62
7
 10
-2.84912584E+02
 20
-1.60720372E+02
 11
-2.84912584E+02
 21
-1.89490372E+02
  0
LINE
  8
0
 62
7
 10
-2.85802584E+02
 20
-1.60100372E+02
 11
-2.85802584E+02
 21
-1.90100372E+02
  0
LINE
  8
0
 62
7
 10
-2.84912584E+02
 20
-1.89490372E+02
 11
-2.85802584E+02
 21
-1.90100372E+02
  0
LINE
  8
0
 62
7
 10
-2.71302584E+02
 20
-2.03100372E+02
 11
-2.71302584E+02
 21
-2.12100372E+02
  0
LINE
  8
0
 62
7
 10
-2.71302584E+02
 20
-2.12100372E+02
 11
-2.70302584E+02
 21
-2.13100372E+02
  0
LINE
  8
0
 62
7
 10
-2.70302584E+02
 20
-2.13100372E+02
 11
-2.15302584E+02
 21
-2.13100372E+02
  0
LINE
  8
0
 62
7
 10
-2.64302584E+02
 20
-2.13100372E+02
 11
-2.64302584E+02
 21
-2.14100372E+02
  0
LINE
  8
0
 62
7
 10
-2.64302584E+02
 20
-2.14100372E+02
 11
-2.62562584E+02
 21
-2.15100372E+02
  0
LINE
  8
0
 62
7
 10
-2.64302584E+02
 20
-2.14100372E+02
 11
-2.21302584E+02
 21
-2.14100372E+02
  0
LINE
  8
0
 62
7
 10
-2.62562584E+02
 20
-2.15100372E+02
 11
-2.23032584E+02
 21
-2.15100372E+02
  0
LINE
  8
0
 62
7
 10
-2.14302584E+02
 20
-2.12100372E+02
 11
-2.14522584E+02
 21
-2.12100372E+02
  0
LINE
  8
0
 62
7
 10
-2.25622584E+02
 20
-2.06100372E+02
 11
-2.25622584E+02
 21
-2.13100372E+02
  0
LINE
  8
0
 62
7
 10
-2.25902584E+02
 20
-2.05100372E+02
 11
-2.25902584E+02
 21
-2.12100372E+02
  0
LINE
  8
0
 62
7
 10
-2.25902584E+02
 20
-2.12100372E+02
 11
-2.32312584E+02
 21
-2.12100372E+02
  0
LINE
  8
0
 62
7
 10
-2.20062584E+02
 20
-2.05100372E+02
 11
-2.20062584E+02
 21
-2.12100372E+02
  0
LINE
  8
0
 62
7
 10
-2.21102584E+02
 20
-2.06100372E+02
 11
-2.21102584E+02
 21
-2.13100372E+02
  0
LINE
  8
0
 62
7
 10
-2.20062584E+02
 20
-2.05100372E+02
 11
-2.25902584E+02
 21
-2.05100372E+02
  0
LINE
  8
0
 62
7
 10
-2.21102584E+02
 20
-2.06100372E+02
 11
-2.25622584E+02
 21
-2.06100372E+02
  0
LINE
  8
0
 62
7
 10
-2.16562584E+02
 20
-2.05100372E+02
 11
-2.16562584E+02
 21
-2.12100372E+02
  0
LINE
  8
0
 62
7
 10
-2.14522584E+02
 20
-2.05100372E+02
 11
-2.16562584E+02
 21
-2.05100372E+02
  0
LINE
  8
0
 62
7
 10
-2.15572584E+02
 20
-2.06100372E+02
 11
-2.16562584E+02
 21
-2.06100372E+02
  0
LINE
  8
0
 62
7
 10
-2.16562584E+02
 20
-2.12100372E+02
 11
-2.20062584E+02
 21
-2.12100372E+02
  0
LINE
  8
0
 62
7
 10
-2.16562584E+02
 20
-2.12100372E+02
 11
-2.17322584E+02
 21
-2.13100372E+02
  0
LINE
  8
0
 62
7
 10
-2.15572584E+02
 20
-2.06100372E+02
 11
-2.15572584E+02
 21
-2.13100372E+02
  0
LINE
  8
0
 62
7
 10
-2.14522584E+02
 20
-2.05100372E+02
 11
-2.14522584E+02
 21
-2.12100372E+02
  0
LINE
  8
0
 62
7
 10
-2.14522584E+02
 20
-2.12100372E+02
 11
-2.15572584E+02
 21
-2.13100372E+02
  0
LINE
  8
0
 62
7
 10
-2.14522584E+02
 20
-2.05100372E+02
 11
-2.15572584E+02
 21
-2.06100372E+02
  0
LINE
  8
0
 62
7
 10
-2.20062584E+02
 20
-2.12100372E+02
 11
-2.21102584E+02
 21
-2.13100372E+02
  0
LINE
  8
0
 62
7
 10
-2.21102584E+02
 20
-2.06100372E+02
 11
-2.20062584E+02
 21
-2.05100372E+02
  0
LINE
  8
0
 62
7
 10
-2.25622584E+02
 20
-2.06100372E+02
 11
-2.25902584E+02
 21
-2.05100372E+02
  0
LINE
  8
0
 62
7
 10
-2.25622584E+02
 20
-2.13100372E+02
 11
-2.25902584E+02
 21
-2.12100372E+02
  0
LINE
  8
0
 62
7
 10
-2.14302584E+02
 20
-2.03100372E+02
 11
-2.14302584E+02
 21
-2.12100372E+02
  0
LINE
  8
0
 62
7
 10
-2.14302584E+02
 20
-2.12100372E+02
 11
-2.15302584E+02
 21
-2.13100372E+02
  0
ARC
  8
0
 62
7
 10
-1.05306868E+02
 20
-2.01104656E+02
 40
1.00429300E+00
 50
2.44398863E-01
 51
8.97556010E+01
  0
ARC
  8
0
 62
7
 10
-8.08025840E+01
 20
-1.75105372E+02
 40
1.20550000E+01
 50
9.00000002E+01
 51
2.70000000E+02
  0
ARC
  8
0
 62
7
 10
-1.24806842E+02
 20
-2.29104629E+02
 40
9.95751369E-01
 50
1.79755008E+02
 51
2.70244992E+02
  0
ARC
  8
0
 62
2
 10
-8.08025840E+01
 20
-1.75105372E+02
 40
1.32250000E+01
 50
9.00000002E+01
 51
2.70000000E+02
  0
ARC
  8
0
 62
7
 10
-8.08025840E+01
 20
-1.75100372E+02
 40
2.10000000E+01
 50
9.00000002E+01
 51
2.70000000E+02
  0
ARC
  8
0
 62
7
 10
-1.24798285E+02
 20
-2.01104671E+02
 40
1.00430826E+00
 50
9.02452622E+01
 51
1.79754738E+02
  0
ARC
  8
0
 62
7
 10
-1.24757461E+02
 20
-1.99104448E+02
 40
9.95936449E-01
 50
2.69705281E+02
 51
3.57357118E+02
  0
ARC
  8
0
 62
7
 10
-1.09798285E+02
 20
-2.01104671E+02
 40
1.00430826E+00
 50
9.02452622E+01
 51
1.79754738E+02
  0
ARC
  8
0
 62
7
 10
-1.24798285E+02
 20
-2.08604671E+02
 40
1.00430826E+00
 50
9.02452622E+01
 51
1.79754738E+02
  0
ARC
  8
0
 62
7
 10
-1.11298305E+02
 20
-2.07104651E+02
 40
4.95739190E-01
 50
2.69505410E+02
 51
4.94590210E-01
  0
ARC
  8
0
 62
7
 10
-1.21963148E+02
 20
-2.31101152E+02
 40
1.00078011E+00
 50
1.18976105E+00
 51
9.00000002E+01
  0
ARC
  8
0
 62
7
 10
-2.42797584E+02
 20
-1.57608112E+02
 40
5.54918156E+01
 50
2.59108674E+02
 51
2.80891326E+02
  0
POLYLINE
  8
0
 62
2
 66
1
  0
VERTEX
  8
0
 62
2
 10
-2.61582286E+02
 20
-2.22648972E+02
  0
VERTEX
  8
0
 62
2
 10
-2.60734970E+02
 20
-2.22524789E+02
  0
VERTEX
  8
0
 62
2
 10
-2.59886544E+02
 20
-2.22416243E+02
  0
VERTEX
  8
0
 62
2
 10
-2.59037369E+02
 20
-2.22324164E+02
  0
VERTEX
  8
0
 62
2
 10
-2.58187808E+02
 20
-2.22249381E+02
  0
VERTEX
  8
0
 62
2
 10
-2.57338222E+02
 20
-2.22192724E+02
  0
VERTEX
  8
0
 62
2
 10
-2.56488974E+02
 20
-2.22155023E+02
  0
VERTEX
  8
0
 62
2
 10
-2.55640423E+02
 20
-2.22137108E+02
  0
VERTEX
  8
0
 62
2
 10
-2.54792934E+02
 20
-2.22139808E+02
  0
VERTEX
  8
0
 62
2
 10
-2.53946867E+02
 20
-2.22163952E+02
  0
VERTEX
  8
0
 62
2
 10
-2.53102584E+02
 20
-2.22210372E+02
  0
VERTEX
  8
0
 62
2
 10
-2.51306637E+02
 20
-2.22383296E+02
  0
VERTEX
  8
0
 62
2
 10
-2.49518612E+02
 20
-2.22641948E+02
  0
VERTEX
  8
0
 62
2
 10
-2.47736535E+02
 20
-2.22966601E+02
  0
VERTEX
  8
0
 62
2
 10
-2.45958429E+02
 20
-2.23337532E+02
  0
VERTEX
  8
0
 62
2
 10
-2.44182321E+02
 20
-2.23735016E+02
  0
VERTEX
  8
0
 62
2
 10
-2.42406233E+02
 20
-2.24139329E+02
  0
VERTEX
  8
0
 62
2
 10
-2.40628191E+02
 20
-2.24530745E+02
  0
VERTEX
  8
0
 62
2
 10
-2.38846219E+02
 20
-2.24889541E+02
  0
VERTEX
  8
0
 62
2
 10
-2.37058342E+02
 20
-2.25195991E+02
  0
VERTEX
  8
0
 62
2
 10
-2.35262584E+02
 20
-2.25430372E+02
  0
VERTEX
  8
0
 62
2
 10
-2.34152838E+02
 20
-2.25531178E+02
  0
VERTEX
  8
0
 62
2
 10
-2.33040221E+02
 20
-2.25598621E+02
  0
VERTEX
  8
0
 62
2
 10
-2.31925280E+02
 20
-2.25634342E+02
  0
VERTEX
  8
0
 62
2
 10
-2.30808563E+02
 20
-2.25639980E+02
  0
VERTEX
  8
0
 62
2
 10
-2.29690618E+02
 20
-2.25617178E+02
  0
VERTEX
  8
0
 62
2
 10
-2.28571993E+02
 20
-2.25567576E+02
  0
VERTEX
  8
0
 62
2
 10
-2.27453235E+02
 20
-2.25492816E+02
  0
VERTEX
  8
0
 62
2
 10
-2.26334892E+02
 20
-2.25394538E+02
  0
VERTEX
  8
0
 62
2
 10
-2.25217513E+02
 20
-2.25274384E+02
  0
VERTEX
  8
0
 62
2
 10
-2.24101644E+02
 20
-2.25133995E+02
  0
SEQEND
  8
0
  0
POLYLINE
  8
0
 62
2
 66
1
  0
VERTEX
  8
0
 62
2
 10
-1.20864090E+02
 20
-2.34832015E+02
  0
VERTEX
  8
0
 62
2
 10
-1.19792051E+02
 20
-2.34543766E+02
  0
VERTEX
  8
0
 62
2
 10
-1.18714998E+02
 20
-2.34286085E+02
  0
VERTEX
  8
0
 62
2
 10
-1.17634052E+02
 20
-2.34061765E+02
  0
VERTEX
  8
0
 62
2
 10
-1.16550335E+02
 20
-2.33873600E+02
  0
VERTEX
  8
0
 62
2
 10
-1.15464966E+02
 20
-2.33724386E+02
  0
VERTEX
  8
0
 62
2
 10
-1.14379067E+02
 20
-2.33616917E+02
  0
VERTEX
  8
0
 62
2
 10
-1.13293759E+02
 20
-2.33553986E+02
  0
VERTEX
  8
0
 62
2
 10
-1.12210162E+02
 20
-2.33538389E+02
  0
VERTEX
  8
0
 62
2
 10
-1.11129396E+02
 20
-2.33572919E+02
  0
VERTEX
  8
0
 62
2
 10
-1.10052584E+02
 20
-2.33660372E+02
  0
VERTEX
  8
0
 62
2
 10
-1.08199651E+02
 20
-2.33936690E+02
  0
VERTEX
  8
0
 62
2
 10
-1.06358815E+02
 20
-2.34343827E+02
  0
VERTEX
  8
0
 62
2
 10
-1.04527285E+02
 20
-2.34845448E+02
  0
VERTEX
  8
0
 62
2
 10
-1.02702268E+02
 20
-2.35405221E+02
  0
VERTEX
  8
0
 62
2
 10
-1.00880972E+02
 20
-2.35986812E+02
  0
VERTEX
  8
0
 62
2
 10
-9.90606053E+01
 20
-2.36553887E+02
  0
VERTEX
  8
0
 62
2
 10
-9.72383752E+01
 20
-2.37070114E+02
  0
VERTEX
  8
0
 62
2
 10
-9.54114897E+01
 20
-2.37499160E+02
  0
VERTEX
  8
0
 62
2
 10
-9.35771567E+01
 20
-2.37804690E+02
  0
VERTEX
  8
0
 62
2
 10
-9.17325840E+01
 20
-2.37950372E+02
  0
VERTEX
  8
0
 62
2
 10
-9.06300857E+01
 20
-2.37948280E+02
  0
VERTEX
  8
0
 62
2
 10
-8.95248799E+01
 20
-2.37880880E+02
  0
VERTEX
  8
0
 62
2
 10
-8.84188037E+01
 20
-2.37752189E+02
  0
VERTEX
  8
0
 62
2
 10
-8.73136944E+01
 20
-2.37566225E+02
  0
VERTEX
  8
0
 62
2
 10
-8.62113890E+01
 20
-2.37327007E+02
  0
VERTEX
  8
0
 62
2
 10
-8.51137246E+01
 20
-2.37038552E+02
  0
VERTEX
  8
0
 62
2
 10
-8.40225383E+01
 20
-2.36704880E+02
  0
VERTEX
  8
0
 62
2
 10
-8.29396672E+01
 20
-2.36330008E+02
  0
VERTEX
  8
0
 62
2
 10
-8.18669485E+01
 20
-2.35917955E+02
  0
VERTEX
  8
0
 62
2
 10
-8.08062192E+01
 20
-2.35472738E+02
  0
SEQEND
  8
0
  0
TEXT
  8
0
 62
7
 10
-3.47691510E+02
 20
1.57391454E+02
 40
6.30000019E+00
  1
IN
 41
1.00000000E+00
  7
MONOTXT
  0
TEXT
  8
0
 62
7
 10
-1.85150997E+00
 20
1.57391454E+02
 40
6.30000019E+00
  1
OUT
 41
1.00000000E+00
  7
MONOTXT
  0
LINE
  8
0
 62
7
 10
2.87271111E+02
 20
-4.57942512E+01
 11
2.50441111E+02
 21
-4.57942512E+01
  0
LINE
  8
0
 62
7
 10
2.88821111E+02
 20
-2.82942512E+01
 11
2.95721111E+02
 21
-2.82942512E+01
  0
LINE
  8
0
 62
7
 10
2.35441111E+02
 20
-3.09242512E+01
 11
2.35237997E+02
 21
-6.78496507E+00
  0
LINE
  8
0
 62
7
 10
3.02271111E+02
 20
-3.09242512E+01
 11
3.02326955E+02
 21
-2.47613973E+01
  0
LINE
  8
0
 62
7
 10
2.88821111E+02
 20
-2.77942512E+01
 11
2.93891111E+02
 21
-2.77942512E+01
  0
LINE
  8
0
 62
7
 10
2.96721111E+02
 20
-2.32593157E+01
 11
2.96721111E+02
 21
-2.72942512E+01
  0
LINE
  8
0
 62
7
 10
2.94891111E+02
 20
-2.27689687E+01
 11
2.94891111E+02
 21
-2.67942512E+01
  0
LINE
  8
0
 62
7
 10
2.87821111E+02
 20
-2.08745679E+01
 11
2.87821111E+02
 21
-2.72942512E+01
  0
LINE
  8
0
 62
7
 10
2.88431111E+02
 20
-2.87942512E+01
 11
2.95981111E+02
 21
-2.87942512E+01
  0
LINE
  8
0
 62
7
 10
2.88431111E+02
 20
-2.92942512E+01
 11
2.96581111E+02
 21
-2.92942512E+01
  0
LINE
  8
0
 62
7
 10
2.87431111E+02
 20
-2.07700677E+01
 11
2.87431111E+02
 21
-2.82942512E+01
  0
LINE
  8
0
 62
7
 10
2.96981111E+02
 20
-2.33289825E+01
 11
2.96981111E+02
 21
-2.77942512E+01
  0
LINE
  8
0
 62
7
 10
2.97581111E+02
 20
-2.34897520E+01
 11
2.97581111E+02
 21
-2.82942512E+01
  0
LINE
  8
0
 62
7
 10
2.48901111E+02
 20
-2.82942512E+01
 11
2.42001111E+02
 21
-2.82942512E+01
  0
LINE
  8
0
 62
7
 10
2.48901111E+02
 20
-2.77942512E+01
 11
2.43831111E+02
 21
-2.77942512E+01
  0
LINE
  8
0
 62
7
 10
2.41001111E+02
 20
-8.32918674E+00
 11
2.41001111E+02
 21
-2.72942512E+01
  0
LINE
  8
0
 62
7
 10
2.42831111E+02
 20
-8.81953376E+00
 11
2.42831111E+02
 21
-2.67942512E+01
  0
LINE
  8
0
 62
7
 10
2.49901111E+02
 20
-1.07139345E+01
 11
2.49901111E+02
 21
-2.72942512E+01
  0
LINE
  8
0
 62
7
 10
2.49281111E+02
 20
-2.87942512E+01
 11
2.41741111E+02
 21
-2.87942512E+01
  0
LINE
  8
0
 62
7
 10
2.49281111E+02
 20
-2.92942512E+01
 11
2.41141111E+02
 21
-2.92942512E+01
  0
LINE
  8
0
 62
7
 10
2.50281111E+02
 20
-1.08157552E+01
 11
2.50281111E+02
 21
-2.82942512E+01
  0
LINE
  8
0
 62
7
 10
2.40741111E+02
 20
-8.25951995E+00
 11
2.40741111E+02
 21
-2.77942512E+01
  0
LINE
  8
0
 62
7
 10
2.40141111E+02
 20
-8.09875043E+00
 11
2.40141111E+02
 21
-2.82942512E+01
  0
ARC
  8
0
 62
7
 10
2.87272849E+02
 20
-3.07954368E+01
 40
1.49988146E+01
 50
2.69993359E+02
 51
3.59507920E+02
  0
ARC
  8
0
 62
7
 10
2.50438672E+02
 20
-3.07961424E+01
 40
1.49981091E+01
 50
1.80489408E+02
 51
2.70009314E+02
  0
ARC
  8
0
 62
7
 10
2.88815310E+02
 20
-2.68000517E+01
 40
9.94216466E-01
 50
1.79665723E+02
 51
2.70334277E+02
  0
ARC
  8
0
 62
7
 10
2.88815310E+02
 20
-2.73000517E+01
 40
9.94216466E-01
 50
1.79665723E+02
 51
2.70334277E+02
  0
ARC
  8
0
 62
7
 10
2.88428533E+02
 20
-2.77968284E+01
 40
9.97426164E-01
 50
1.79851958E+02
 51
2.70148042E+02
  0
ARC
  8
0
 62
7
 10
2.88428533E+02
 20
-2.82968284E+01
 40
9.97426164E-01
 50
1.79851958E+02
 51
2.70148042E+02
  0
ARC
  8
0
 62
7
 10
2.93888688E+02
 20
-2.67918292E+01
 40
1.00242502E+00
 50
2.70138440E+02
 51
3.59861560E+02
  0
ARC
  8
0
 62
7
 10
2.95720934E+02
 20
-2.72940748E+01
 40
1.00017647E+00
 50
2.70000000E+02
 51
3.59989892E+02
  0
ARC
  8
0
 62
7
 10
2.95979469E+02
 20
-2.77926093E+01
 40
1.00164327E+00
 50
2.70093921E+02
 51
3.59906079E+02
  0
ARC
  8
0
 62
7
 10
2.96578045E+02
 20
-2.82911859E+01
 40
1.00307001E+00
 50
2.70175093E+02
 51
3.59824907E+02
  0
ARC
  8
0
 62
7
 10
2.48901114E+02
 20
-2.67942548E+01
 40
9.99996479E-01
 50
2.70000000E+02
 51
2.01734585E-04
  0
ARC
  8
0
 62
7
 10
2.48901114E+02
 20
-2.72942548E+01
 40
9.99996479E-01
 50
2.70000000E+02
 51
2.01734585E-04
  0
ARC
  8
0
 62
7
 10
2.49282867E+02
 20
-2.77960078E+01
 40
9.98244967E-01
 50
2.69899178E+02
 51
1.00821524E-01
  0
ARC
  8
0
 62
7
 10
2.49282867E+02
 20
-2.82960078E+01
 40
9.98244967E-01
 50
2.69899178E+02
 51
1.00821524E-01
  0
ARC
  8
0
 62
7
 10
2.43827706E+02
 20
-2.67976553E+01
 40
9.96601718E-01
 50
1.79804294E+02
 51
2.70195706E+02
  0
ARC
  8
0
 62
7
 10
2.41995580E+02
 20
-2.72997815E+01
 40
9.94485161E-01
 50
1.79681383E+02
 51
2.70318617E+02
  0
ARC
  8
0
 62
7
 10
2.41737022E+02
 20
-2.77983396E+01
 40
9.95920079E-01
 50
1.79764797E+02
 51
2.70235203E+02
  0
ARC
  8
0
 62
7
 10
2.41138361E+02
 20
-2.82970006E+01
 40
9.97254469E-01
 50
1.79842042E+02
 51
2.70157958E+02
  0
LINE
  8
0
 62
7
 10
2.79799927E+02
 20
-2.56750000E+02
 11
3.99799805E+02
 21
-2.56750000E+02
  0
LINE
  8
0
 62
7
 10
2.79799927E+02
 20
-2.56750000E+02
 11
2.79799927E+02
 21
-2.76750000E+02
  0
TEXT
  8
0
 62
7
 10
2.87585240E+02
 20
-2.71250000E+02
 40
9.00000000E+00
  1
KOGANEI CORP.
 41
1.04838710E+00
  7
MONOTXT
  0
TEXT
  8
0
 62
7
 10
3.15499645E+02
 20
2.63100000E+02
 40
6.30000019E+00
  1
Ver. 1.0
 41
1.08108108E+00
  7
MONOTXT
  0
LINE
  8
0
 62
7
 10
2.79799927E+02
 20
2.56250000E+02
 11
3.99799805E+02
 21
2.56250000E+02
  0
LINE
  8
0
 62
7
 10
2.79799927E+02
 20
2.76250000E+02
 11
2.79799927E+02
 21
2.56250000E+02
  0
TEXT
  8
0
 62
7
 10
-3.85600562E+02
 20
2.38100000E+02
 40
6.30000019E+00
  1
MODEL:CN750-06-G1A
 41
1.00000000E+00
  7
MONOTXT
  0
LINE
  8
0
 62
7
 10
-3.99250000E+02
 20
-2.76750000E+02
 11
3.99799805E+02
 21
-2.76750000E+02
  0
LINE
  8
0
 62
7
 10
-3.99250000E+02
 20
2.76250000E+02
 11
3.99799805E+02
 21
2.76250000E+02
  0
LINE
  8
0
 62
7
 10
-3.99250000E+02
 20
2.76250000E+02
 11
-3.99250000E+02
 21
-2.76750000E+02
  0
LINE
  8
0
 62
7
 10
3.99799805E+02
 20
2.76250000E+02
 11
3.99799805E+02
 21
-2.76750000E+02
  0
ENDSEC
  0
EOF
