  0
SECTION
  2
HEADER
  9
$ACADVER
  1
AC1002
  9
$INSBASE
 10
0.0
 20
0.0
  9
$EXTMIN
 10
-131.1236
 20
-90.00001
  9
$EXTMAX
 10
131.1236
 20
90.00001
  9
$LIMMIN
 10
0.0
 20
0.0
  9
$LIMMAX
 10
12.0
 20
9.0
  9
$VIEWCTR
 10
10.11492432
 20
0.0
  9
$VIEWSIZE
 40
180.00002
  9
$SNAPMODE
 70
     0
  9
$SNAPUNIT
 10
1.0
 20
1.0
  9
$SNAPBASE
 10
0.0
 20
0.0
  9
$SNAPANG
 50
0.0
  9
$SNAPSTYLE
 70
     0
  9
$SNAPISOPAIR
 70
     0
  9
$GRIDMODE
 70
     0
  9
$GRIDUNIT
 10
0.0
 20
0.0
  9
$ORTHOMODE
 70
     0
  9
$REGENMODE
 70
     1
  9
$FILLMODE
 70
     1
  9
$QTEXTMODE
 70
     0
  9
$DRAGMODE
 70
     2
  9
$LTSCALE
 40
1.0
  9
$OSMODE
 70
     0
  9
$ATTMODE
 70
     1
  9
$TEXTSIZE
 40
0.2
  9
$TRACEWID
 40
0.05
  9
$TEXTSTYLE
  7
AAA
  9
$CLAYER
  8
0
  9
$CELTYPE
  6
BYLAYER
  9
$CECOLOR
 62
   256
  9
$DIMSCALE
 40
1.0
  9
$DIMASZ
 40
0.18
  9
$DIMEXO
 40
0.0625
  9
$DIMDLI
 40
0.38
  9
$DIMRND
 40
0.0
  9
$DIMDLE
 40
0.0
  9
$DIMEXE
 40
0.18
  9
$DIMTP
 40
0.0
  9
$DIMTM
 40
0.0
  9
$DIMTXT
 40
0.18
  9
$DIMCEN
 40
0.09
  9
$DIMTSZ
 40
0.0
  9
$DIMTOL
 70
     0
  9
$DIMLIM
 70
     0
  9
$DIMTIH
 70
     1
  9
$DIMTOH
 70
     1
  9
$DIMSE1
 70
     0
  9
$DIMSE2
 70
     0
  9
$DIMTAD
 70
     0
  9
$DIMZIN
 70
     0
  9
$DIMBLK
  1

  9
$LUNITS
 70
     2
  9
$LUPREC
 70
     4
  9
$AXISMODE
 70
     0
  9
$AXISUNIT
 10
0.0
 20
0.0
  9
$SKETCHINC
 40
0.1
  9
$FILLETRAD
 40
0.0
  9
$AUNITS
 70
     0
  9
$AUPREC
 70
     0
  9
$MENU
  1
ACAD
  9
$ELEVATION
 40
0.0
  9
$THICKNESS
 40
0.0
  9
$VIEWDIR
 10
0.0
 20
0.0
 30
1.0
  9
$LIMCHECK
 70
     0
  9
$BLIPMODE
 70
     1
  9
$CHAMFERA
 40
0.0
  9
$CHAMFERB
 40
0.0
  9
$FASTZOOM
 70
     1
  9
$SKPOLY
 70
     0
  9
$TDCREATE
 40
2447797.4937731974
  9
$TDUPDATE
 40
2447797.4937731974
  9
$TDINDWG
 40
0.0007870370
  9
$TDUSRTIMER
 40
0.0007870370
  9
$USRTIMER
 70
     1
  9
$ANGBASE
 50
0.0
  9
$ANGDIR
 70
     0
  9
$PDMODE
 70
     0
  9
$PDSIZE
 40
0.0
  9
$PLINEWID
 40
0.0
  9
$COORDS
 70
     0
  9
$USERI1
 70
     0
  9
$USERI2
 70
     0
  9
$USERI3
 70
     0
  9
$USERI4
 70
     0
  9
$USERI5
 70
     0
  9
$USERR1
 40
0.0
  9
$USERR2
 40
0.0
  9
$USERR3
 40
0.0
  9
$USERR4
 40
0.0
  9
$USERR5
 40
0.0
  0
ENDSEC
  0
SECTION
  2
TABLES
  0
TABLE
  2
LTYPE
 70
     4
  0
LTYPE
  2
CONTINUOUS
 70
    64
  3
SOLID
 72
    65
 73
     0
 40
0.0
  0
LTYPE
  2
DASHED
 70
    64
  3
DASHED
 72
    65
 73
     2
 40
0.75
 49
0.5
 49
-0.25
  0
LTYPE
  2
CENTER
 70
    64
  3
CENTER
 72
    65
 73
     4
 40
2.0
 49
1.25
 49
-0.25
 49
0.25
 49
-0.25
  0
ENDTAB
  0
TABLE
  2
LAYER
 70
     1
  0
LAYER
  2
0
 70
    64
 62
     7
  6
CONTINUOUS
  0
ENDTAB
  0
TABLE
  2
STYLE
 70
     2
  0
STYLE
  2
AAA
 70
     0
 40
0.0
 41
1.0
 50
0.0
 71
     0
 42
0.2
  3
TXT
  4

  0
STYLE
  2
STANDARD
 70
    64
 40
0.0
 41
1.0
 50
0.0
 71
     0
 42
0.2
  3
TXT
  4
BIGFONT
  0
ENDTAB
  0
TABLE
  2
VIEW
 70
     0
  0
ENDTAB
  0
ENDSEC
  0
SECTION
  2
BLOCKS
  0
ENDSEC
  0
SECTION
  2
ENTITIES
  0
POINT
  8
0
  6
CONTINUOUS
 62
     7
 10
0.0
 20
0.0
  0
POINT
  8
0
  6
CONTINUOUS
 62
     7
 10
0.00001
 20
0.0
  0
POINT
  8
0
  6
CONTINUOUS
 62
     7
 10
0.0
 20
-60.0
  0
POINT
  8
0
  6
CONTINUOUS
 62
     7
 10
0.0
 20
0.0
  0
POINT
  8
0
  6
CONTINUOUS
 62
     7
 10
0.0
 20
55.0
  0
POINT
  8
0
  6
CONTINUOUS
 62
     7
 10
0.0
 20
55.0
  0
POINT
  8
0
  6
CONTINUOUS
 62
     7
 10
0.0
 20
0.0
  0
POINT
  8
0
  6
CONTINUOUS
 62
     7
 10
0.0
 20
-60.0
  0
POINT
  8
0
  6
CONTINUOUS
 62
     7
 10
-32.0
 20
55.0
  0
POINT
  8
0
  6
CONTINUOUS
 62
     7
 10
33.0
 20
55.0
  0
POINT
  8
0
  6
CONTINUOUS
 62
     7
 10
33.0
 20
0.0
  0
POINT
  8
0
  6
CONTINUOUS
 62
     7
 10
-34.6
 20
0.0
  0
POINT
  8
0
  6
CONTINUOUS
 62
     7
 10
-39.5
 20
-60.0
  0
POINT
  8
0
  6
CONTINUOUS
 62
     7
 10
37.5
 20
-60.0
  0
POINT
  8
0
  6
CONTINUOUS
 62
     7
 10
12.0
 20
55.0
  0
LINE
  8
0
  6
CONTINUOUS
 62
     7
 10
-131.1236
 20
-90.00001
 11
-131.1236
 21
90.00001
  0
LINE
  8
0
  6
CONTINUOUS
 62
     7
 10
131.1236
 20
90.00001
 11
131.1236
 21
-90.00001
  0
LINE
  8
0
  6
CONTINUOUS
 62
     7
 10
-131.1236
 20
-90.00001
 11
131.1236
 21
-90.00001
  0
LINE
  8
0
  6
CONTINUOUS
 62
     7
 10
-131.1236
 20
90.00001
 11
131.1236
 21
90.00001
  0
LINE
  8
0
  6
CONTINUOUS
 62
     7
 10
-131.1236
 20
79.88764
 11
-56.1236
 21
79.88764
  0
LINE
  8
0
  6
CONTINUOUS
 62
     7
 10
-56.1236
 20
79.88764
 11
-56.1236
 21
90.00001
  0
LINE
  8
0
  6
CONTINUOUS
 62
     7
 10
77.19101
 20
-79.88766
 11
131.1236
 21
-79.88766
  0
LINE
  8
0
  6
CONTINUOUS
 62
     7
 10
91.35169
 20
-82.31916
 11
96.53259
 21
-82.31916
  0
LINE
  8
0
  6
CONTINUOUS
 62
     7
 10
91.35169
 20
-86.91354
 11
95.75057
 21
-86.91354
  0
LINE
  8
0
  6
CONTINUOUS
 62
     7
 10
91.35169
 20
-88.08657
 11
97.31462
 21
-88.08657
  0
LINE
  8
0
  6
CONTINUOUS
 62
     7
 10
91.35169
 20
-83.49219
 11
95.75057
 21
-83.49219
  0
LINE
  8
0
  6
CONTINUOUS
 62
     7
 10
91.35169
 20
-82.31916
 11
91.35169
 21
-83.49219
  0
LINE
  8
0
  6
CONTINUOUS
 62
     7
 10
97.31462
 20
-83.10119
 11
97.31462
 21
-88.08657
  0
LINE
  8
0
  6
CONTINUOUS
 62
     7
 10
95.75057
 20
-83.49219
 11
95.75057
 21
-86.91354
  0
LINE
  8
0
  6
CONTINUOUS
 62
     7
 10
98.19437
 20
-82.31916
 11
98.19437
 21
-83.49219
  0
LINE
  8
0
  6
CONTINUOUS
 62
     7
 10
103.7663
 20
-83.49219
 11
103.7663
 21
-87.30457
  0
LINE
  8
0
  6
CONTINUOUS
 62
     7
 10
102.2022
 20
-83.49219
 11
102.2022
 21
-86.91354
  0
LINE
  8
0
  6
CONTINUOUS
 62
     7
 10
91.35169
 20
-86.91354
 11
91.35169
 21
-88.08657
  0
LINE
  8
0
  6
CONTINUOUS
 62
     7
 10
98.19437
 20
-82.31916
 11
99.73977
 21
-82.31916
  0
LINE
  8
0
  6
CONTINUOUS
 62
     7
 10
98.19437
 20
-88.08657
 11
99.40881
 21
-88.08657
  0
LINE
  8
0
  6
CONTINUOUS
 62
     7
 10
98.19439
 20
-88.08656
 11
99.42548
 21
-83.4922
  0
LINE
  8
0
  6
CONTINUOUS
 62
     7
 10
98.19437
 20
-83.49219
 11
99.42545
 21
-83.49219
  0
LINE
  8
0
  6
CONTINUOUS
 62
     7
 10
99.40892
 20
-88.08667
 11
100.64
 21
-83.49229
  0
LINE
  8
0
  6
CONTINUOUS
 62
     7
 10
101.0292
 20
-86.91354
 11
102.2022
 21
-86.91354
  0
LINE
  8
0
  6
CONTINUOUS
 62
     7
 10
101.0292
 20
-86.91354
 11
101.3435
 21
-88.08656
  0
LINE
  8
0
  6
CONTINUOUS
 62
     7
 10
101.3435
 20
-88.08657
 11
102.9843
 21
-88.08657
  0
LINE
  8
0
  6
CONTINUOUS
 62
     7
 10
100.6399
 20
-83.49219
 11
102.2022
 21
-83.49219
  0
LINE
  8
0
  6
CONTINUOUS
 62
     7
 10
100.9542
 20
-82.31916
 11
102.5932
 21
-82.31916
  0
LINE
  8
0
  6
CONTINUOUS
 62
     7
 10
99.73981
 20
-82.31918
 11
99.97291
 21
-81.44919
  0
LINE
  8
0
  6
CONTINUOUS
 62
     7
 10
100.9541
 20
-82.3191
 11
101.1872
 21
-81.44909
  0
LINE
  8
0
  6
CONTINUOUS
 62
     7
 10
104.7438
 20
-82.31916
 11
106.6011
 21
-82.31916
  0
LINE
  8
0
  6
CONTINUOUS
 62
     7
 10
104.7438
 20
-83.49219
 11
109.3053
 21
-83.49219
  0
LINE
  8
0
  6
CONTINUOUS
 62
     7
 10
106.6011
 20
-88.08657
 11
108.1652
 21
-88.08657
  0
LINE
  8
0
  6
CONTINUOUS
 62
     7
 10
104.7438
 20
-82.31916
 11
104.7438
 21
-83.49219
  0
LINE
  8
0
  6
CONTINUOUS
 62
     7
 10
110.5112
 20
-85.61925
 11
110.5112
 21
-86.91354
  0
LINE
  8
0
  6
CONTINUOUS
 62
     7
 10
104.7437
 20
-86.9135
 11
106.6011
 21
-86.04739
  0
LINE
  8
0
  6
CONTINUOUS
 62
     7
 10
104.7439
 20
-85.61932
 11
109.3054
 21
-83.49225
  0
LINE
  8
0
  6
CONTINUOUS
 62
     7
 10
104.7438
 20
-85.61925
 11
104.7438
 21
-86.91354
  0
LINE
  8
0
  6
CONTINUOUS
 62
     7
 10
108.1651
 20
-85.81953
 11
110.5112
 21
-86.91352
  0
LINE
  8
0
  6
CONTINUOUS
 62
     7
 10
109.0155
 20
-84.92179
 11
110.5114
 21
-85.61934
  0
LINE
  8
0
  6
CONTINUOUS
 62
     7
 10
110.5112
 20
-83.10119
 11
110.5112
 21
-83.72596
  0
LINE
  8
0
  6
CONTINUOUS
 62
     7
 10
106.6011
 20
-81.44917
 11
106.6011
 21
-82.31916
  0
LINE
  8
0
  6
CONTINUOUS
 62
     7
 10
108.1652
 20
-81.44917
 11
108.1652
 21
-82.31916
  0
LINE
  8
0
  6
CONTINUOUS
 62
     7
 10
108.1652
 20
-82.31916
 11
109.7292
 21
-82.31916
  0
LINE
  8
0
  6
CONTINUOUS
 62
     7
 10
106.6011
 20
-86.04748
 11
106.6011
 21
-88.08657
  0
LINE
  8
0
  6
CONTINUOUS
 62
     7
 10
108.1652
 20
-85.81957
 11
108.1652
 21
-88.08657
  0
LINE
  8
0
  6
CONTINUOUS
 62
     7
 10
109.0155
 20
-84.92181
 11
110.0599
 21
-84.43482
  0
LINE
  8
0
  6
CONTINUOUS
 62
     7
 10
115.7899
 20
-81.80108
 11
116.9629
 21
-81.80108
  0
LINE
  8
0
  6
CONTINUOUS
 62
     7
 10
111.0
 20
-84.22415
 11
111.0
 21
-85.48655
  0
LINE
  8
0
  6
CONTINUOUS
 62
     7
 10
116.9629
 20
-81.80108
 11
116.9629
 21
-82.31916
  0
LINE
  8
0
  6
CONTINUOUS
 62
     7
 10
115.7899
 20
-81.80108
 11
115.7899
 21
-82.05386
  0
LINE
  8
0
  6
CONTINUOUS
 62
     7
 10
114.2258
 20
-84.20361
 11
114.2258
 21
-88.08657
  0
LINE
  8
0
  6
CONTINUOUS
 62
     7
 10
111.0
 20
-84.2242
 11
115.5434
 21
-82.41724
  0
LINE
  8
0
  6
CONTINUOUS
 62
     7
 10
111.0001
 20
-85.48664
 11
114.2259
 21
-84.20367
  0
LINE
  8
0
  6
CONTINUOUS
 62
     7
 10
114.2258
 20
-88.08657
 11
115.7899
 21
-88.08657
  0
LINE
  8
0
  6
CONTINUOUS
 62
     7
 10
115.7899
 20
-83.58157
 11
115.7899
 21
-88.08657
  0
LINE
  8
0
  6
CONTINUOUS
 62
     7
 10
115.79
 20
-83.58164
 11
116.2235
 21
-83.40923
  0
LINE
  8
0
  6
CONTINUOUS
 62
     7
 10
99.87859
 20
-81.44917
 11
101.1873
 21
-81.44917
  0
LINE
  8
0
  6
CONTINUOUS
 62
     7
 10
103.1309
 20
-81.44917
 11
103.6294
 21
-81.44917
  0
LINE
  8
0
  6
CONTINUOUS
 62
     7
 10
106.6011
 20
-81.44917
 11
108.1652
 21
-81.44917
  0
LINE
  8
0
  6
CONTINUOUS
 62
     7
 10
103.1309
 20
-82.23119
 11
103.6294
 21
-82.23119
  0
LINE
  8
0
  6
CONTINUOUS
 62
     7
 10
103.1309
 20
-81.44917
 11
103.1309
 21
-82.23119
  0
LINE
  8
0
  6
CONTINUOUS
 62
     7
 10
103.6294
 20
-81.44917
 11
103.6294
 21
-82.23119
  0
LINE
  8
0
  6
CONTINUOUS
 62
     7
 10
103.9227
 20
-81.44917
 11
103.9227
 21
-82.23119
  0
LINE
  8
0
  6
CONTINUOUS
 62
     7
 10
104.4799
 20
-81.44917
 11
104.4799
 21
-82.23119
  0
LINE
  8
0
  6
CONTINUOUS
 62
     7
 10
103.9227
 20
-81.44917
 11
104.4799
 21
-81.44917
  0
LINE
  8
0
  6
CONTINUOUS
 62
     7
 10
103.9227
 20
-82.23119
 11
104.4799
 21
-82.23119
  0
LINE
  8
0
  6
CONTINUOUS
 62
     7
 10
77.19101
 20
79.88764
 11
131.1236
 21
79.88764
  0
LINE
  8
0
  6
CONTINUOUS
 62
     7
 10
77.19101
 20
90.00001
 11
77.19101
 21
79.88764
  0
LINE
  8
0
  6
CONTINUOUS
 62
     7
 10
77.19101
 20
-79.88766
 11
77.19101
 21
-90.00001
  0
LINE
  8
0
  6
CONTINUOUS
 62
     7
 10
-131.1236
 20
30.0
 11
131.1236
 21
30.0
  0
LINE
  8
0
  6
CONTINUOUS
 62
     7
 10
-131.1236
 20
-30.0
 11
131.1236
 21
-30.0
  0
LINE
  8
0
  6
CONTINUOUS
 62
     7
 10
-11.0
 20
56.0
 11
-11.0
 21
54.0
  0
LINE
  8
0
  6
CONTINUOUS
 62
     7
 10
12.0
 20
61.0
 11
12.0
 21
49.0
  0
LINE
  8
0
  6
CONTINUOUS
 62
     7
 10
-34.75
 20
56.58771
 11
-34.75
 21
53.41228
  0
LINE
  8
0
  6
CONTINUOUS
 62
     7
 10
-29.25
 20
56.58772
 11
-29.25
 21
53.41229
  0
LINE
  8
0
  6
CONTINUOUS
 62
     7
 10
-38.0
 20
57.5
 11
-38.0
 21
52.5
  0
LINE
  8
0
  6
CONTINUOUS
 62
     7
 10
-26.0
 20
57.5
 11
-26.0
 21
52.5
  0
LINE
  8
0
  6
CONTINUOUS
 62
     7
 10
-37.16507
 20
58.94616
 11
-32.83494
 21
61.44617
  0
LINE
  8
0
  6
CONTINUOUS
 62
     7
 10
-34.75001
 20
56.58771
 11
-32.0
 21
58.17543
  0
LINE
  8
0
  6
CONTINUOUS
 62
     7
 10
-31.99999
 20
51.82457
 11
-29.24998
 21
53.41228
  0
LINE
  8
0
  6
CONTINUOUS
 62
     7
 10
-31.16507
 20
48.55385
 11
-26.83494
 21
51.05385
  0
LINE
  8
0
  6
CONTINUOUS
 62
     7
 10
-37.16508
 20
51.05385
 11
-32.83495
 21
48.55385
  0
LINE
  8
0
  6
CONTINUOUS
 62
     7
 10
-34.75
 20
53.41228
 11
-32.0
 21
51.82457
  0
LINE
  8
0
  6
CONTINUOUS
 62
     7
 10
-31.99999
 20
58.17542
 11
-29.25
 21
56.58772
  0
LINE
  8
0
  6
CONTINUOUS
 62
     7
 10
-31.16505
 20
61.44615
 11
-26.83493
 21
58.94615
  0
LINE
  8
0
  6
CENTER
 62
     2
 10
-41.0
 20
55.0
 11
-23.0
 21
55.0
  0
LINE
  8
0
  6
CENTER
 62
     2
 10
-32.0
 20
64.5
 11
-32.0
 21
45.5
  0
LINE
  8
0
  6
CONTINUOUS
 62
     7
 10
-8.52938
 20
58.17543
 11
-6.62062
 21
58.17543
  0
LINE
  8
0
  6
CONTINUOUS
 62
     7
 10
-8.52938
 20
56.58772
 11
-6.62062
 21
56.58772
  0
LINE
  8
0
  6
CONTINUOUS
 62
     7
 10
-8.52938
 20
53.41229
 11
-6.62062
 21
53.41229
  0
LINE
  8
0
  6
CONTINUOUS
 62
     7
 10
-8.52938
 20
51.82457
 11
-6.62062
 21
51.82457
  0
LINE
  8
0
  6
CONTINUOUS
 62
     7
 10
-10.5
 20
56.5
 11
-8.775
 21
56.5
  0
LINE
  8
0
  6
CONTINUOUS
 62
     7
 10
-10.5
 20
53.5
 11
-8.775
 21
53.5
  0
LINE
  8
0
  6
CONTINUOUS
 62
     7
 10
-4.0
 20
57.75
 11
-4.0
 21
52.25
  0
LINE
  8
0
  6
CONTINUOUS
 62
     7
 10
-1.6
 20
57.75
 11
-1.6
 21
52.25
  0
LINE
  8
0
  6
CONTINUOUS
 62
     7
 10
9.0
 20
61.0
 11
9.0
 21
49.0
  0
LINE
  8
0
  6
CONTINUOUS
 62
     7
 10
8.0
 20
60.5
 11
8.0
 21
49.5
  0
LINE
  8
0
  6
CONTINUOUS
 62
     7
 10
0.0
 20
60.5
 11
0.0
 21
49.5
  0
LINE
  8
0
  6
CONTINUOUS
 62
     7
 10
-8.775
 20
57.75
 11
-8.775
 21
52.25
  0
LINE
  8
0
  6
CONTINUOUS
 62
     7
 10
-6.375
 20
57.75
 11
-6.375
 21
52.25
  0
LINE
  8
0
  6
CONTINUOUS
 62
     7
 10
-8.775
 20
57.75
 11
-8.52938
 21
58.17543
  0
LINE
  8
0
  6
CONTINUOUS
 62
     7
 10
-4.0
 20
57.75
 11
-3.75438
 21
58.17543
  0
LINE
  8
0
  6
CONTINUOUS
 62
     7
 10
-6.62062
 20
58.17542
 11
-6.375
 21
57.75
  0
LINE
  8
0
  6
CONTINUOUS
 62
     7
 10
-1.84562
 20
58.17543
 11
-1.6
 21
57.75
  0
LINE
  8
0
  6
CONTINUOUS
 62
     7
 10
-8.775
 20
52.25
 11
-8.52938
 21
51.82457
  0
LINE
  8
0
  6
CONTINUOUS
 62
     7
 10
-6.62062
 20
51.82457
 11
-6.375
 21
52.25
  0
LINE
  8
0
  6
CONTINUOUS
 62
     7
 10
-4.0
 20
52.25
 11
-3.75438
 21
51.82457
  0
LINE
  8
0
  6
CONTINUOUS
 62
     7
 10
-1.84562
 20
51.82457
 11
-1.6
 21
52.25
  0
LINE
  8
0
  6
CONTINUOUS
 62
     7
 10
-3.75438
 20
58.17543
 11
-1.84562
 21
58.17543
  0
LINE
  8
0
  6
CONTINUOUS
 62
     7
 10
-3.75438
 20
51.82457
 11
-1.84562
 21
51.82457
  0
LINE
  8
0
  6
CONTINUOUS
 62
     7
 10
-3.75438
 20
53.41229
 11
-1.84562
 21
53.41229
  0
LINE
  8
0
  6
CONTINUOUS
 62
     7
 10
-6.375
 20
53.5
 11
-4.0
 21
53.5
  0
LINE
  8
0
  6
CONTINUOUS
 62
     7
 10
-6.375
 20
56.5
 11
-4.0
 21
56.5
  0
LINE
  8
0
  6
CONTINUOUS
 62
     7
 10
-3.75438
 20
56.58772
 11
-1.84562
 21
56.58772
  0
LINE
  8
0
  6
CONTINUOUS
 62
     7
 10
-1.6
 20
52.7
 11
-1.0
 21
52.7
  0
LINE
  8
0
  6
CONTINUOUS
 62
     7
 10
-1.6
 20
57.3
 11
-1.0
 21
57.3
  0
LINE
  8
0
  6
CONTINUOUS
 62
     7
 10
-0.5893
 20
53.15538
 11
0.0
 21
52.6609
  0
LINE
  8
0
  6
CONTINUOUS
 62
     7
 10
-0.5893
 20
56.84461
 11
0.0
 21
57.3391
  0
LINE
  8
0
  6
CONTINUOUS
 62
     7
 10
-1.0
 20
52.7
 11
-1.0
 21
57.3
  0
LINE
  8
0
  6
CENTER
 62
     2
 10
-14.0
 20
55.0
 11
15.0
 21
55.0
  0
LINE
  8
0
  6
CONTINUOUS
 62
     7
 10
0.5
 20
61.0
 11
7.5
 21
61.0
  0
LINE
  8
0
  6
CONTINUOUS
 62
     7
 10
0.5
 20
49.0
 11
7.5
 21
49.0
  0
LINE
  8
0
  6
CONTINUOUS
 62
     7
 10
0.0
 20
60.49999
 11
0.5
 21
60.99999
  0
LINE
  8
0
  6
CONTINUOUS
 62
     7
 10
0.0
 20
49.5
 11
0.5
 21
49.0
  0
LINE
  8
0
  6
CONTINUOUS
 62
     7
 10
7.5
 20
49.0
 11
8.0
 21
49.5
  0
LINE
  8
0
  6
CONTINUOUS
 62
     7
 10
7.5
 20
60.99999
 11
8.0
 21
60.49999
  0
LINE
  8
0
  6
CONTINUOUS
 62
     7
 10
27.0
 20
57.5
 11
27.0
 21
52.5
  0
LINE
  8
0
  6
CONTINUOUS
 62
     7
 10
39.0
 20
57.5
 11
39.0
 21
52.5
  0
LINE
  8
0
  6
CONTINUOUS
 62
     7
 10
27.83493
 20
58.94615
 11
32.16505
 21
61.44615
  0
LINE
  8
0
  6
CONTINUOUS
 62
     7
 10
33.83494
 20
48.55385
 11
38.16507
 21
51.05385
  0
LINE
  8
0
  6
CONTINUOUS
 62
     7
 10
27.83496
 20
51.05385
 11
32.16508
 21
48.55385
  0
LINE
  8
0
  6
CONTINUOUS
 62
     7
 10
33.83493
 20
61.44615
 11
38.16507
 21
58.94615
  0
LINE
  8
0
  6
CENTER
 62
     2
 10
24.0
 20
55.0
 11
42.0
 21
55.0
  0
LINE
  8
0
  6
CENTER
 62
     2
 10
33.0
 20
45.5
 11
33.0
 21
64.5
  0
LINE
  8
0
  6
CONTINUOUS
 62
     7
 10
9.28867
 20
61.5
 11
11.71133
 21
61.5
  0
LINE
  8
0
  6
CONTINUOUS
 62
     7
 10
9.28867
 20
58.94615
 11
11.71133
 21
58.94615
  0
LINE
  8
0
  6
CONTINUOUS
 62
     7
 10
9.28867
 20
57.5
 11
11.71133
 21
57.5
  0
LINE
  8
0
  6
CONTINUOUS
 62
     7
 10
9.28867
 20
52.5
 11
11.71133
 21
52.5
  0
LINE
  8
0
  6
CONTINUOUS
 62
     7
 10
9.28867
 20
51.05385
 11
11.71133
 21
51.05385
  0
LINE
  8
0
  6
CONTINUOUS
 62
     7
 10
9.28867
 20
48.5
 11
11.71133
 21
48.5
  0
LINE
  8
0
  6
CONTINUOUS
 62
     7
 10
9.0
 20
49.0
 11
9.28867
 21
48.5
  0
LINE
  8
0
  6
CONTINUOUS
 62
     7
 10
11.71133
 20
61.5
 11
12.0
 21
61.00001
  0
LINE
  8
0
  6
CONTINUOUS
 62
     7
 10
9.0
 20
61.0
 11
9.28867
 21
61.5
  0
LINE
  8
0
  6
CONTINUOUS
 62
     7
 10
11.71133
 20
48.50001
 11
12.0
 21
49.00001
  0
LINE
  8
0
  6
CONTINUOUS
 62
     7
 10
9.28867
 20
51.05385
 11
9.28867
 21
52.5
  0
LINE
  8
0
  6
CONTINUOUS
 62
     7
 10
11.71133
 20
51.05385
 11
11.71133
 21
52.5
  0
LINE
  8
0
  6
CONTINUOUS
 62
     7
 10
11.71133
 20
58.94615
 11
11.71133
 21
57.5
  0
LINE
  8
0
  6
CONTINUOUS
 62
     7
 10
9.28867
 20
58.94615
 11
9.28867
 21
57.5
  0
LINE
  8
0
  6
CONTINUOUS
 62
     7
 10
8.0
 20
60.0
 11
9.0
 21
60.0
  0
LINE
  8
0
  6
CONTINUOUS
 62
     7
 10
8.0
 20
50.0
 11
9.0
 21
50.0
  0
LINE
  8
0
  6
CONTINUOUS
 62
     7
 10
-10.99999
 20
53.99998
 11
-10.49999
 21
53.49998
  0
LINE
  8
0
  6
CONTINUOUS
 62
     7
 10
-10.5
 20
56.49999
 11
-11.0
 21
55.99999
  0
LINE
  8
0
  6
CONTINUOUS
 62
     7
 10
-11.0
 20
54.0
 11
-8.775
 21
54.0
  0
LINE
  8
0
  6
CONTINUOUS
 62
     7
 10
-6.375
 20
54.0
 11
-4.0
 21
54.0
  0
LINE
  8
0
  6
CONTINUOUS
 62
     7
 10
-11.0
 20
56.0
 11
-8.775
 21
56.0
  0
LINE
  8
0
  6
CONTINUOUS
 62
     7
 10
-6.375
 20
56.0
 11
-4.0
 21
56.0
  0
LINE
  8
0
  6
CONTINUOUS
 62
     7
 10
-10.5
 20
56.5
 11
-10.5
 21
53.5
  0
LINE
  8
0
  6
CONTINUOUS
 62
     7
 10
0.0
 20
60.5
 11
0.5
 21
61.0
  0
LINE
  8
0
  6
CONTINUOUS
 62
     7
 10
0.5
 20
61.0
 11
0.5
 21
49.0
  0
LINE
  8
0
  6
CONTINUOUS
 62
     7
 10
7.5
 20
49.0
 11
7.5
 21
61.0
  0
LINE
  8
0
  6
DASHED
 62
     7
 10
7.0
 20
56.5
 11
12.0
 21
56.5
  0
LINE
  8
0
  6
DASHED
 62
     7
 10
7.0
 20
56.0
 11
12.0
 21
56.0
  0
LINE
  8
0
  6
DASHED
 62
     7
 10
7.0
 20
54.0
 11
12.0
 21
54.0
  0
LINE
  8
0
  6
DASHED
 62
     7
 10
7.0
 20
53.5
 11
12.0
 21
53.5
  0
LINE
  8
0
  6
CONTINUOUS
 62
     7
 10
12.0
 20
6.0
 11
12.0
 21
-6.0
  0
LINE
  8
0
  6
CONTINUOUS
 62
     7
 10
-40.6
 20
2.5
 11
-40.6
 21
-2.5
  0
LINE
  8
0
  6
CONTINUOUS
 62
     7
 10
-28.6
 20
2.5
 11
-28.6
 21
-2.5
  0
LINE
  8
0
  6
CONTINUOUS
 62
     7
 10
-39.76506
 20
3.94616
 11
-35.43494
 21
6.44616
  0
LINE
  8
0
  6
CONTINUOUS
 62
     7
 10
-33.76507
 20
-6.44615
 11
-29.43493
 21
-3.94615
  0
LINE
  8
0
  6
CONTINUOUS
 62
     7
 10
-39.76508
 20
-3.94615
 11
-35.43495
 21
-6.44615
  0
LINE
  8
0
  6
CONTINUOUS
 62
     7
 10
-33.76506
 20
6.44616
 11
-29.43494
 21
3.94616
  0
LINE
  8
0
  6
CENTER
 62
     2
 10
-43.6
 20
0.0
 11
-25.6
 21
0.0
  0
LINE
  8
0
  6
CENTER
 62
     2
 10
-34.6
 20
9.5
 11
-34.6
 21
-9.5
  0
LINE
  8
0
  6
CONTINUOUS
 62
     7
 10
9.0
 20
6.0
 11
9.0
 21
-6.0
  0
LINE
  8
0
  6
CONTINUOUS
 62
     7
 10
8.0
 20
5.5
 11
8.0
 21
-5.5
  0
LINE
  8
0
  6
CONTINUOUS
 62
     7
 10
0.0
 20
5.5
 11
0.0
 21
-5.5
  0
LINE
  8
0
  6
CONTINUOUS
 62
     7
 10
-1.6
 20
-2.3
 11
-1.0
 21
-2.3
  0
LINE
  8
0
  6
CONTINUOUS
 62
     7
 10
-1.6
 20
2.3
 11
-1.0
 21
2.3
  0
LINE
  8
0
  6
CONTINUOUS
 62
     7
 10
-0.5893
 20
-1.84462
 11
0.0
 21
-2.3391
  0
LINE
  8
0
  6
CONTINUOUS
 62
     7
 10
-0.5893
 20
1.84462
 11
0.0
 21
2.3391
  0
LINE
  8
0
  6
CONTINUOUS
 62
     7
 10
-1.0
 20
-2.3
 11
-1.0
 21
2.3
  0
LINE
  8
0
  6
CENTER
 62
     2
 10
-16.6
 20
0.0
 11
14.825
 21
0.0
  0
LINE
  8
0
  6
CONTINUOUS
 62
     7
 10
0.5
 20
6.0
 11
7.5
 21
6.0
  0
LINE
  8
0
  6
CONTINUOUS
 62
     7
 10
0.5
 20
-6.0
 11
7.5
 21
-6.0
  0
LINE
  8
0
  6
CONTINUOUS
 62
     7
 10
0.0
 20
5.5
 11
0.5
 21
6.0
  0
LINE
  8
0
  6
CONTINUOUS
 62
     7
 10
0.0
 20
-5.5
 11
0.5
 21
-6.0
  0
LINE
  8
0
  6
CONTINUOUS
 62
     7
 10
7.49999
 20
-6.0
 11
7.99999
 21
-5.5
  0
LINE
  8
0
  6
CONTINUOUS
 62
     7
 10
7.49999
 20
6.0
 11
7.99999
 21
5.49999
  0
LINE
  8
0
  6
CONTINUOUS
 62
     7
 10
0.5
 20
-6.0
 11
0.5
 21
6.0
  0
LINE
  8
0
  6
CONTINUOUS
 62
     7
 10
7.5
 20
6.0
 11
7.5
 21
-6.0
  0
LINE
  8
0
  6
CONTINUOUS
 62
     7
 10
27.0
 20
2.7
 11
27.0
 21
-2.3
  0
LINE
  8
0
  6
CONTINUOUS
 62
     7
 10
39.0
 20
2.7
 11
39.0
 21
-2.3
  0
LINE
  8
0
  6
CONTINUOUS
 62
     7
 10
27.83493
 20
4.14615
 11
32.16505
 21
6.64615
  0
LINE
  8
0
  6
CONTINUOUS
 62
     7
 10
33.83494
 20
-6.24615
 11
38.16507
 21
-3.74615
  0
LINE
  8
0
  6
CONTINUOUS
 62
     7
 10
27.83494
 20
-3.74615
 11
32.16506
 21
-6.24615
  0
LINE
  8
0
  6
CONTINUOUS
 62
     7
 10
33.83493
 20
6.64615
 11
38.16507
 21
4.14615
  0
LINE
  8
0
  6
CENTER
 62
     2
 10
33.0
 20
-9.3
 11
33.0
 21
9.7
  0
LINE
  8
0
  6
CONTINUOUS
 62
     7
 10
9.28867
 20
6.5
 11
11.71133
 21
6.5
  0
LINE
  8
0
  6
CONTINUOUS
 62
     7
 10
9.28867
 20
3.94615
 11
11.71133
 21
3.94615
  0
LINE
  8
0
  6
CONTINUOUS
 62
     7
 10
9.28867
 20
2.5
 11
11.71133
 21
2.5
  0
LINE
  8
0
  6
CONTINUOUS
 62
     7
 10
9.28867
 20
-2.5
 11
11.71133
 21
-2.5
  0
LINE
  8
0
  6
CONTINUOUS
 62
     7
 10
9.28867
 20
-3.94615
 11
11.71133
 21
-3.94615
  0
LINE
  8
0
  6
CONTINUOUS
 62
     7
 10
9.28867
 20
-6.5
 11
11.71133
 21
-6.5
  0
LINE
  8
0
  6
CONTINUOUS
 62
     7
 10
9.0
 20
-6.0
 11
9.28867
 21
-6.5
  0
LINE
  8
0
  6
CONTINUOUS
 62
     7
 10
11.71133
 20
6.5
 11
12.0
 21
6.0
  0
LINE
  8
0
  6
CONTINUOUS
 62
     7
 10
9.0
 20
6.00001
 11
9.28867
 21
6.50001
  0
LINE
  8
0
  6
CONTINUOUS
 62
     7
 10
11.71133
 20
-6.5
 11
12.0
 21
-6.0
  0
LINE
  8
0
  6
CONTINUOUS
 62
     7
 10
9.28867
 20
-3.94615
 11
9.28867
 21
-2.5
  0
LINE
  8
0
  6
CONTINUOUS
 62
     7
 10
11.71133
 20
-3.94615
 11
11.71133
 21
-2.5
  0
LINE
  8
0
  6
CONTINUOUS
 62
     7
 10
11.71133
 20
3.94615
 11
11.71133
 21
2.5
  0
LINE
  8
0
  6
CONTINUOUS
 62
     7
 10
9.28867
 20
3.94615
 11
9.28867
 21
2.5
  0
LINE
  8
0
  6
CONTINUOUS
 62
     7
 10
8.0
 20
5.0
 11
9.0
 21
5.0
  0
LINE
  8
0
  6
CONTINUOUS
 62
     7
 10
8.0
 20
-5.0
 11
9.0
 21
-5.0
  0
LINE
  8
0
  6
CONTINUOUS
 62
     7
 10
-31.1
 20
2.02073
 11
-31.1
 21
-2.02073
  0
LINE
  8
0
  6
CONTINUOUS
 62
     7
 10
-38.1
 20
2.02073
 11
-38.1
 21
-2.02073
  0
LINE
  8
0
  6
CONTINUOUS
 62
     7
 10
-38.10001
 20
2.02073
 11
-34.6
 21
4.04145
  0
LINE
  8
0
  6
CONTINUOUS
 62
     7
 10
-34.59999
 20
-4.04145
 11
-31.09999
 21
-2.02073
  0
LINE
  8
0
  6
CONTINUOUS
 62
     7
 10
-38.10002
 20
-2.02072
 11
-34.60001
 21
-4.04145
  0
LINE
  8
0
  6
CONTINUOUS
 62
     7
 10
-34.60001
 20
4.04146
 11
-31.1
 21
2.02073
  0
LINE
  8
0
  6
CONTINUOUS
 62
     7
 10
-1.6
 20
3.5
 11
-1.6
 21
-3.5
  0
LINE
  8
0
  6
CONTINUOUS
 62
     7
 10
-4.8
 20
3.5
 11
-4.8
 21
-3.5
  0
LINE
  8
0
  6
CONTINUOUS
 62
     7
 10
-13.6
 20
1.5
 11
-13.6
 21
-1.49678
  0
LINE
  8
0
  6
CONTINUOUS
 62
     7
 10
-11.0
 20
3.5
 11
-11.0
 21
-3.5
  0
LINE
  8
0
  6
CONTINUOUS
 62
     7
 10
-7.8
 20
3.5
 11
-7.8
 21
-3.5
  0
LINE
  8
0
  6
CONTINUOUS
 62
     7
 10
-10.68739
 20
4.04145
 11
-8.11261
 21
4.04145
  0
LINE
  8
0
  6
CONTINUOUS
 62
     7
 10
-10.68739
 20
-4.04145
 11
-8.11261
 21
-4.04145
  0
LINE
  8
0
  6
CONTINUOUS
 62
     7
 10
-11.0
 20
3.49999
 11
-10.68739
 21
4.04144
  0
LINE
  8
0
  6
CONTINUOUS
 62
     7
 10
-8.11261
 20
-4.04145
 11
-7.8
 21
-3.5
  0
LINE
  8
0
  6
CONTINUOUS
 62
     7
 10
-1.91261
 20
-4.04145
 11
-1.6
 21
-3.5
  0
LINE
  8
0
  6
CONTINUOUS
 62
     7
 10
-4.8
 20
3.49999
 11
-4.48739
 21
4.04144
  0
LINE
  8
0
  6
CONTINUOUS
 62
     7
 10
-8.1126
 20
4.04145
 11
-7.8
 21
3.5
  0
LINE
  8
0
  6
CONTINUOUS
 62
     7
 10
-11.0
 20
-3.5
 11
-10.68739
 21
-4.04145
  0
LINE
  8
0
  6
CONTINUOUS
 62
     7
 10
-4.8
 20
-3.5
 11
-4.48739
 21
-4.04145
  0
LINE
  8
0
  6
CONTINUOUS
 62
     7
 10
-1.91261
 20
4.04145
 11
-1.6
 21
3.49999
  0
LINE
  8
0
  6
CONTINUOUS
 62
     7
 10
-4.48739
 20
-4.04145
 11
-1.91261
 21
-4.04145
  0
LINE
  8
0
  6
CONTINUOUS
 62
     7
 10
-4.48739
 20
4.04145
 11
-1.91261
 21
4.04145
  0
LINE
  8
0
  6
CONTINUOUS
 62
     7
 10
-4.48739
 20
-2.02073
 11
-1.91261
 21
-2.02073
  0
LINE
  8
0
  6
CONTINUOUS
 62
     7
 10
-4.48739
 20
2.02073
 11
-1.91261
 21
2.02073
  0
LINE
  8
0
  6
CONTINUOUS
 62
     7
 10
-10.68739
 20
2.02073
 11
-8.11261
 21
2.02073
  0
LINE
  8
0
  6
CONTINUOUS
 62
     7
 10
-13.1
 20
2.0
 11
-11.0
 21
2.0
  0
LINE
  8
0
  6
CONTINUOUS
 62
     7
 10
-7.8
 20
2.0
 11
-4.8
 21
2.0
  0
LINE
  8
0
  6
CENTER
 62
     2
 10
24.0
 20
0.0
 11
42.0
 21
0.0
  0
LINE
  8
0
  6
CONTINUOUS
 62
     7
 10
-13.6
 20
1.5
 11
-13.1
 21
2.0
  0
LINE
  8
0
  6
CONTINUOUS
 62
     7
 10
-13.6
 20
-1.49678
 11
-13.09536
 21
-2.00142
  0
LINE
  8
0
  6
CONTINUOUS
 62
     7
 10
-13.6
 20
1.5
 11
-11.0
 21
1.5
  0
LINE
  8
0
  6
CONTINUOUS
 62
     7
 10
-7.8
 20
1.5
 11
-4.8
 21
1.5
  0
LINE
  8
0
  6
CONTINUOUS
 62
     7
 10
-13.6
 20
-1.49678
 11
-11.0
 21
-1.49678
  0
LINE
  8
0
  6
CONTINUOUS
 62
     7
 10
-7.8
 20
-1.49678
 11
-4.8
 21
-1.49678
  0
LINE
  8
0
  6
CONTINUOUS
 62
     7
 10
-13.10002
 20
2.00001
 11
-13.09537
 21
-2.00142
  0
LINE
  8
0
  6
DASHED
 62
     7
 10
7.0
 20
2.0
 11
12.0
 21
2.0
  0
LINE
  8
0
  6
DASHED
 62
     7
 10
7.0
 20
1.5
 11
12.0
 21
1.5
  0
LINE
  8
0
  6
DASHED
 62
     7
 10
7.0
 20
-1.52073
 11
12.0
 21
-1.52073
  0
LINE
  8
0
  6
DASHED
 62
     7
 10
7.0
 20
-2.02073
 11
12.0
 21
-2.02073
  0
LINE
  8
0
  6
CONTINUOUS
 62
     7
 10
-13.07605
 20
-2.02073
 11
-11.0
 21
-2.02073
  0
LINE
  8
0
  6
CONTINUOUS
 62
     7
 10
-7.8
 20
-2.02073
 11
-4.8
 21
-2.02073
  0
LINE
  8
0
  6
CONTINUOUS
 62
     7
 10
-10.68739
 20
-2.02073
 11
-8.11261
 21
-2.02073
  0
LINE
  8
0
  6
CENTER
 62
     2
 10
27.5
 20
-60.0
 11
47.5
 21
-60.0
  0
LINE
  8
0
  6
CENTER
 62
     2
 10
37.5
 20
-49.5
 11
37.5
 21
-70.5
  0
LINE
  8
0
  6
CENTER
 62
     2
 10
-20.5
 20
-60.0
 11
18.5
 21
-60.0
  0
LINE
  8
0
  6
CONTINUOUS
 62
     7
 10
30.5
 20
-57.30742
 11
30.5
 21
-62.69258
  0
LINE
  8
0
  6
CONTINUOUS
 62
     7
 10
-43.5
 20
-57.6906
 11
-43.5
 21
-62.3094
  0
LINE
  8
0
  6
CONTINUOUS
 62
     7
 10
-35.5
 20
-57.6906
 11
-35.5
 21
-62.3094
  0
LINE
  8
0
  6
CONTINUOUS
 62
     7
 10
31.66815
 20
-55.28411
 11
36.33185
 21
-52.59153
  0
LINE
  8
0
  6
CONTINUOUS
 62
     7
 10
-43.49998
 20
-57.69059
 11
-39.49997
 21
-55.3812
  0
LINE
  8
0
  6
CONTINUOUS
 62
     7
 10
-39.49998
 20
-64.61879
 11
-35.49999
 21
-62.30939
  0
LINE
  8
0
  6
CONTINUOUS
 62
     7
 10
38.66817
 20
-67.40847
 11
43.33186
 21
-64.71588
  0
LINE
  8
0
  6
CONTINUOUS
 62
     7
 10
38.66817
 20
-52.59153
 11
43.33185
 21
-55.28411
  0
LINE
  8
0
  6
CONTINUOUS
 62
     7
 10
-39.49999
 20
-55.3812
 11
-35.49999
 21
-57.69059
  0
LINE
  8
0
  6
CONTINUOUS
 62
     7
 10
-43.49998
 20
-62.30939
 11
-39.49999
 21
-64.61879
  0
LINE
  8
0
  6
CONTINUOUS
 62
     7
 10
31.66816
 20
-64.71589
 11
36.33184
 21
-67.40847
  0
LINE
  8
0
  6
CONTINUOUS
 62
     7
 10
44.5
 20
-57.30742
 11
44.5
 21
-62.69258
  0
LINE
  8
0
  6
CONTINUOUS
 62
     7
 10
-45.33186
 20
-55.28412
 11
-40.66816
 21
-52.59153
  0
LINE
  8
0
  6
CONTINUOUS
 62
     7
 10
-38.33186
 20
-52.59153
 11
-33.66817
 21
-55.28411
  0
LINE
  8
0
  6
CONTINUOUS
 62
     7
 10
-46.5
 20
-57.30742
 11
-46.5
 21
-62.69258
  0
LINE
  8
0
  6
CENTER
 62
     2
 10
-49.5
 20
-60.0
 11
-29.5
 21
-60.0
  0
LINE
  8
0
  6
CONTINUOUS
 62
     7
 10
-45.33185
 20
-64.71589
 11
-40.66816
 21
-67.40847
  0
LINE
  8
0
  6
CONTINUOUS
 62
     7
 10
-38.33186
 20
-67.40849
 11
-33.66817
 21
-64.7159
  0
LINE
  8
0
  6
CENTER
 62
     2
 10
-39.5
 20
-49.7
 11
-39.5
 21
-70.7
  0
LINE
  8
0
  6
CONTINUOUS
 62
     7
 10
-32.5
 20
-57.30742
 11
-32.5
 21
-62.69258
  0
LINE
  8
0
  6
CONTINUOUS
 62
     7
 10
-17.5
 20
-58.0
 11
-17.5
 21
-62.0
  0
LINE
  8
0
  6
CONTINUOUS
 62
     7
 10
-14.25
 20
-56.0
 11
-14.25
 21
-64.0
  0
LINE
  8
0
  6
CONTINUOUS
 62
     7
 10
-10.25
 20
-56.0
 11
-10.25
 21
-64.0
  0
LINE
  8
0
  6
CONTINUOUS
 62
     7
 10
15.5
 20
-53.0
 11
15.5
 21
-67.0
  0
LINE
  8
0
  6
CONTINUOUS
 62
     7
 10
-13.89274
 20
-64.6188
 11
-10.60727
 21
-64.6188
  0
LINE
  8
0
  6
CONTINUOUS
 62
     7
 10
-13.89274
 20
-62.30939
 11
-10.60727
 21
-62.30939
  0
LINE
  8
0
  6
CONTINUOUS
 62
     7
 10
-17.0
 20
-62.5
 11
-14.25
 21
-62.5
  0
LINE
  8
0
  6
CONTINUOUS
 62
     7
 10
-17.5
 20
-62.0
 11
-14.25
 21
-62.0
  0
LINE
  8
0
  6
CONTINUOUS
 62
     7
 10
-17.5
 20
-58.0
 11
-14.25
 21
-58.0
  0
LINE
  8
0
  6
CONTINUOUS
 62
     7
 10
-17.0
 20
-57.5
 11
-14.25
 21
-57.5
  0
LINE
  8
0
  6
CONTINUOUS
 62
     7
 10
-13.89274
 20
-57.6906
 11
-10.60727
 21
-57.6906
  0
LINE
  8
0
  6
CONTINUOUS
 62
     7
 10
-13.89274
 20
-55.3812
 11
-10.60727
 21
-55.3812
  0
LINE
  8
0
  6
CONTINUOUS
 62
     7
 10
-17.5
 20
-58.0
 11
-16.99999
 21
-57.5
  0
LINE
  8
0
  6
CONTINUOUS
 62
     7
 10
-17.5
 20
-62.00001
 11
-17.0
 21
-62.50001
  0
LINE
  8
0
  6
CONTINUOUS
 62
     7
 10
-17.0
 20
-62.5
 11
-17.0
 21
-57.5
  0
LINE
  8
0
  6
CONTINUOUS
 62
     7
 10
-14.25
 20
-56.0
 11
-13.89274
 21
-55.3812
  0
LINE
  8
0
  6
CONTINUOUS
 62
     7
 10
-10.60727
 20
-64.6188
 11
-10.25
 21
-64.00002
  0
LINE
  8
0
  6
CONTINUOUS
 62
     7
 10
-14.25
 20
-64.00001
 11
-13.89274
 21
-64.6188
  0
LINE
  8
0
  6
CONTINUOUS
 62
     7
 10
-10.60727
 20
-55.38121
 11
-10.25
 21
-56.00001
  0
LINE
  8
0
  6
CONTINUOUS
 62
     7
 10
-7.0
 20
-56.0
 11
-7.0
 21
-64.0
  0
LINE
  8
0
  6
CONTINUOUS
 62
     7
 10
-6.64273
 20
-62.30939
 11
-3.35727
 21
-62.30939
  0
LINE
  8
0
  6
CONTINUOUS
 62
     7
 10
-7.0
 20
-64.00002
 11
-6.64273
 21
-64.61881
  0
LINE
  8
0
  6
CONTINUOUS
 62
     7
 10
-6.64273
 20
-64.6188
 11
-3.35727
 21
-64.6188
  0
LINE
  8
0
  6
CONTINUOUS
 62
     7
 10
-3.35726
 20
-64.61879
 11
-3.0
 21
-63.99998
  0
LINE
  8
0
  6
CONTINUOUS
 62
     7
 10
-3.0
 20
-56.0
 11
-3.0
 21
-64.0
  0
LINE
  8
0
  6
CONTINUOUS
 62
     7
 10
-6.64273
 20
-57.6906
 11
-3.35727
 21
-57.6906
  0
LINE
  8
0
  6
CONTINUOUS
 62
     7
 10
-3.35727
 20
-55.3812
 11
-3.0
 21
-56.0
  0
LINE
  8
0
  6
CONTINUOUS
 62
     7
 10
-6.64273
 20
-55.3812
 11
-3.35727
 21
-55.3812
  0
LINE
  8
0
  6
CONTINUOUS
 62
     7
 10
-7.0
 20
-55.99999
 11
-6.64273
 21
-55.38119
  0
LINE
  8
0
  6
CONTINUOUS
 62
     7
 10
-10.25
 20
-62.5
 11
-7.0
 21
-62.5
  0
LINE
  8
0
  6
CONTINUOUS
 62
     7
 10
-10.25
 20
-62.0
 11
-7.0
 21
-62.0
  0
LINE
  8
0
  6
CONTINUOUS
 62
     7
 10
-10.25
 20
-58.0
 11
-7.0
 21
-58.0
  0
LINE
  8
0
  6
CONTINUOUS
 62
     7
 10
-10.25
 20
-57.5
 11
-7.0
 21
-57.5
  0
LINE
  8
0
  6
CONTINUOUS
 62
     7
 10
12.5
 20
-53.0
 11
12.5
 21
-67.0
  0
LINE
  8
0
  6
CONTINUOUS
 62
     7
 10
11.5
 20
-53.3
 11
11.5
 21
-66.7
  0
LINE
  8
0
  6
CONTINUOUS
 62
     7
 10
0.0
 20
-53.3
 11
0.0
 21
-66.7
  0
LINE
  8
0
  6
CONTINUOUS
 62
     7
 10
0.3
 20
-53.0
 11
11.2
 21
-53.0
  0
LINE
  8
0
  6
CONTINUOUS
 62
     7
 10
0.3
 20
-67.0
 11
11.2
 21
-67.0
  0
LINE
  8
0
  6
CONTINUOUS
 62
     7
 10
0.0
 20
-53.3
 11
0.3
 21
-53.00001
  0
LINE
  8
0
  6
CONTINUOUS
 62
     7
 10
0.0
 20
-66.7
 11
0.3
 21
-67.00001
  0
LINE
  8
0
  6
CONTINUOUS
 62
     7
 10
11.2
 20
-53.0
 11
11.5
 21
-53.3
  0
LINE
  8
0
  6
CONTINUOUS
 62
     7
 10
11.5
 20
-66.7
 11
11.2
 21
-67.0
  0
LINE
  8
0
  6
CONTINUOUS
 62
     7
 10
-2.0
 20
-63.60355
 11
-2.0
 21
-63.75
  0
LINE
  8
0
  6
CONTINUOUS
 62
     7
 10
-1.57322
 20
-56.57322
 11
0.0
 21
-54.99999
  0
LINE
  8
0
  6
CONTINUOUS
 62
     7
 10
-1.57323
 20
-63.42679
 11
0.0
 21
-65.00002
  0
LINE
  8
0
  6
CONTINUOUS
 62
     7
 10
-3.0
 20
-56.25
 11
-2.0
 21
-56.25
  0
LINE
  8
0
  6
CONTINUOUS
 62
     7
 10
-3.0
 20
-63.75
 11
-2.0
 21
-63.75
  0
LINE
  8
0
  6
CONTINUOUS
 62
     7
 10
-2.0
 20
-56.25
 11
-2.0
 21
-56.39645
  0
LINE
  8
0
  6
CONTINUOUS
 62
     7
 10
-2.0
 20
-56.25
 11
-2.0
 21
-63.75
  0
LINE
  8
0
  6
CONTINUOUS
 62
     7
 10
0.3
 20
-53.0
 11
0.3
 21
-67.0
  0
LINE
  8
0
  6
CONTINUOUS
 62
     7
 10
11.2
 20
-53.0
 11
11.2
 21
-67.0
  0
LINE
  8
0
  6
CONTINUOUS
 62
     7
 10
11.5
 20
-55.0
 11
12.5
 21
-55.0
  0
LINE
  8
0
  6
CONTINUOUS
 62
     7
 10
11.5
 20
-65.0
 11
12.5
 21
-65.0
  0
LINE
  8
0
  6
CONTINUOUS
 62
     7
 10
12.78868
 20
-67.5
 11
15.21133
 21
-67.5
  0
LINE
  8
0
  6
CONTINUOUS
 62
     7
 10
12.78868
 20
-52.5
 11
15.21133
 21
-52.5
  0
LINE
  8
0
  6
CONTINUOUS
 62
     7
 10
12.78868
 20
-55.28411
 11
15.21133
 21
-55.28411
  0
LINE
  8
0
  6
CONTINUOUS
 62
     7
 10
12.78868
 20
-57.30742
 11
15.21133
 21
-57.30742
  0
LINE
  8
0
  6
CONTINUOUS
 62
     7
 10
12.78868
 20
-62.69258
 11
15.21133
 21
-62.69258
  0
LINE
  8
0
  6
CONTINUOUS
 62
     7
 10
12.78868
 20
-64.71589
 11
15.21133
 21
-64.71589
  0
LINE
  8
0
  6
CONTINUOUS
 62
     7
 10
12.5
 20
-66.99999
 11
12.78868
 21
-67.5
  0
LINE
  8
0
  6
CONTINUOUS
 62
     7
 10
15.21133
 20
-52.50001
 11
15.5
 21
-53.0
  0
LINE
  8
0
  6
CONTINUOUS
 62
     7
 10
12.5
 20
-52.99999
 11
12.78867
 21
-52.49999
  0
LINE
  8
0
  6
CONTINUOUS
 62
     7
 10
15.21132
 20
-67.5
 11
15.5
 21
-67.0
  0
LINE
  8
0
  6
CONTINUOUS
 62
     7
 10
12.78868
 20
-55.28411
 11
12.78868
 21
-57.30742
  0
LINE
  8
0
  6
CONTINUOUS
 62
     7
 10
15.21133
 20
-55.28411
 11
15.21133
 21
-57.30742
  0
LINE
  8
0
  6
CONTINUOUS
 62
     7
 10
12.78868
 20
-62.69258
 11
12.78868
 21
-64.71589
  0
LINE
  8
0
  6
CONTINUOUS
 62
     7
 10
15.21133
 20
-62.69258
 11
15.21133
 21
-64.71589
  0
LINE
  8
0
  6
DASHED
 62
     7
 10
8.5
 20
-57.5
 11
15.5
 21
-57.5
  0
LINE
  8
0
  6
DASHED
 62
     7
 10
8.5
 20
-62.5
 11
15.5
 21
-62.5
  0
LINE
  8
0
  6
DASHED
 62
     7
 10
8.5
 20
-58.0
 11
15.5
 21
-58.0
  0
LINE
  8
0
  6
DASHED
 62
     7
 10
8.5
 20
-62.0
 11
15.5
 21
-62.0
  0
ARC
  8
0
  6
CONTINUOUS
 62
     7
 10
96.53259
 20
-83.10119
 40
0.78202
 50
0.0
 51
89.99999
  0
ARC
  8
0
  6
CONTINUOUS
 62
     7
 10
102.9843
 20
-87.30457
 40
0.78202
 50
270.0
 51
0.0
  0
ARC
  8
0
  6
CONTINUOUS
 62
     7
 10
102.5932
 20
-83.49219
 40
1.17303
 50
0.0
 51
89.99999
  0
ARC
  8
0
  6
CONTINUOUS
 62
     7
 10
109.7292
 20
-83.10119
 40
0.78202
 50
0.0
 51
89.99999
  0
ARC
  8
0
  6
CONTINUOUS
 62
     7
 10
109.7292
 20
-83.72596
 40
0.78202
 50
295.0
 51
0.0
  0
ARC
  8
0
  6
CONTINUOUS
 62
     7
 10
115.7899
 20
-82.31916
 40
1.17304
 50
291.6882
 51
0.0
  0
ARC
  8
0
  6
CONTINUOUS
 62
     7
 10
115.3989
 20
-82.05386
 40
0.39101
 50
291.6885
 51
0.0
  0
CIRCLE
  8
0
  6
CONTINUOUS
 62
     7
 10
-32.0
 20
55.0
 40
1.5
  0
CIRCLE
  8
0
  6
CONTINUOUS
 62
     7
 10
-32.0
 20
55.0
 40
2.75
  0
CIRCLE
  8
0
  6
CONTINUOUS
 62
     7
 10
-32.0
 20
55.0
 40
6.0
  0
CIRCLE
  8
0
  6
CONTINUOUS
 62
     7
 10
33.0
 20
55.0
 40
1.5
  0
CIRCLE
  8
0
  6
CONTINUOUS
 62
     7
 10
33.0
 20
55.0
 40
6.0
  0
ARC
  8
0
  6
CONTINUOUS
 62
     7
 10
-32.0
 20
55.0
 40
6.5
 50
22.61986
 51
37.38017
  0
ARC
  8
0
  6
CONTINUOUS
 62
     7
 10
-32.0
 20
55.0
 40
6.5
 50
322.6199
 51
337.3801
  0
ARC
  8
0
  6
CONTINUOUS
 62
     7
 10
-32.0
 20
55.0
 40
6.5
 50
262.6198
 51
277.3801
  0
ARC
  8
0
  6
CONTINUOUS
 62
     7
 10
-32.0
 20
55.0
 40
6.5
 50
202.6199
 51
217.3801
  0
ARC
  8
0
  6
CONTINUOUS
 62
     7
 10
-32.0
 20
55.0
 40
6.5
 50
142.6199
 51
157.3801
  0
ARC
  8
0
  6
CONTINUOUS
 62
     7
 10
-32.0
 20
55.0
 40
6.5
 50
82.61985
 51
97.38012
  0
ARC
  8
0
  6
CONTINUOUS
 62
     7
 10
-0.75
 20
57.03613
 40
0.25
 50
180.0
 51
310.0003
  0
ARC
  8
0
  6
CONTINUOUS
 62
     7
 10
-0.75
 20
52.96387
 40
0.25
 50
49.99973
 51
180.0
  0
CIRCLE
  8
0
  6
CONTINUOUS
 62
     7
 10
-32.0
 20
55.0
 40
5.5
  0
ARC
  8
0
  6
CONTINUOUS
 62
     7
 10
33.0
 20
55.0
 40
6.5
 50
22.61986
 51
37.38009
  0
ARC
  8
0
  6
CONTINUOUS
 62
     7
 10
33.0
 20
55.0
 40
6.5
 50
322.6198
 51
337.3801
  0
ARC
  8
0
  6
CONTINUOUS
 62
     7
 10
33.0
 20
55.0
 40
6.5
 50
262.6199
 51
277.3801
  0
ARC
  8
0
  6
CONTINUOUS
 62
     7
 10
33.0
 20
55.0
 40
6.5
 50
202.6199
 51
217.3801
  0
ARC
  8
0
  6
CONTINUOUS
 62
     7
 10
33.0
 20
55.0
 40
6.5
 50
82.61988
 51
97.38014
  0
ARC
  8
0
  6
CONTINUOUS
 62
     7
 10
33.0
 20
55.0
 40
6.5
 50
142.6199
 51
157.3801
  0
CIRCLE
  8
0
  6
CONTINUOUS
 62
     7
 10
-32.0
 20
55.0
 40
1.0
  0
CIRCLE
  8
0
  6
CONTINUOUS
 62
     7
 10
33.0
 20
55.0
 40
1.0
  0
CIRCLE
  8
0
  6
CONTINUOUS
 62
     7
 10
-34.6
 20
0.0
 40
6.0
  0
CIRCLE
  8
0
  6
CONTINUOUS
 62
     7
 10
33.0
 20
0.2
 40
6.0
  0
ARC
  8
0
  6
CONTINUOUS
 62
     7
 10
-34.6
 20
0.0
 40
6.5
 50
22.61986
 51
37.38015
  0
ARC
  8
0
  6
CONTINUOUS
 62
     7
 10
-34.6
 20
0.0
 40
6.5
 50
322.6199
 51
337.3801
  0
ARC
  8
0
  6
CONTINUOUS
 62
     7
 10
-34.6
 20
0.0
 40
6.5
 50
262.6198
 51
277.3801
  0
ARC
  8
0
  6
CONTINUOUS
 62
     7
 10
-34.6
 20
0.0
 40
6.5
 50
202.6198
 51
217.3801
  0
ARC
  8
0
  6
CONTINUOUS
 62
     7
 10
-34.6
 20
0.0
 40
6.5
 50
142.6199
 51
157.3802
  0
ARC
  8
0
  6
CONTINUOUS
 62
     7
 10
-34.6
 20
0.0
 40
6.5
 50
82.61985
 51
97.38011
  0
ARC
  8
0
  6
CONTINUOUS
 62
     7
 10
-0.75
 20
2.03613
 40
0.25
 50
180.0
 51
310.0
  0
ARC
  8
0
  6
CONTINUOUS
 62
     7
 10
-0.75
 20
-2.03613
 40
0.25
 50
50.00001
 51
179.9999
  0
CIRCLE
  8
0
  6
CONTINUOUS
 62
     7
 10
-34.6
 20
0.0
 40
5.5
  0
ARC
  8
0
  6
CONTINUOUS
 62
     7
 10
33.0
 20
0.2
 40
6.5
 50
22.61986
 51
37.3801
  0
ARC
  8
0
  6
CONTINUOUS
 62
     7
 10
33.0
 20
0.2
 40
6.5
 50
322.6198
 51
337.3801
  0
ARC
  8
0
  6
CONTINUOUS
 62
     7
 10
33.0
 20
0.2
 40
6.5
 50
262.6199
 51
277.3801
  0
ARC
  8
0
  6
CONTINUOUS
 62
     7
 10
33.0
 20
0.2
 40
6.5
 50
202.6198
 51
217.3801
  0
ARC
  8
0
  6
CONTINUOUS
 62
     7
 10
33.0
 20
0.2
 40
6.5
 50
82.61989
 51
97.38014
  0
ARC
  8
0
  6
CONTINUOUS
 62
     7
 10
33.0
 20
0.2
 40
6.5
 50
142.6199
 51
157.3802
  0
CIRCLE
  8
0
  6
CONTINUOUS
 62
     7
 10
-34.6
 20
0.0
 40
2.0
  0
CIRCLE
  8
0
  6
CONTINUOUS
 62
     7
 10
-34.6
 20
0.0
 40
3.5
  0
CIRCLE
  8
0
  6
CONTINUOUS
 62
     7
 10
-34.6
 20
0.0
 40
1.5
  0
CIRCLE
  8
0
  6
CONTINUOUS
 62
     7
 10
33.0
 20
0.0
 40
1.5
  0
CIRCLE
  8
0
  6
CONTINUOUS
 62
     7
 10
33.0
 20
0.0
 40
2.0
  0
CIRCLE
  8
0
  6
CONTINUOUS
 62
     7
 10
-39.5
 20
-60.0
 40
4.0
  0
CIRCLE
  8
0
  6
CONTINUOUS
 62
     7
 10
37.5
 20
-60.0
 40
2.5
  0
CIRCLE
  8
0
  6
CONTINUOUS
 62
     7
 10
37.5
 20
-60.0
 40
2.0
  0
CIRCLE
  8
0
  6
CONTINUOUS
 62
     7
 10
37.5
 20
-60.0
 40
7.0
  0
ARC
  8
0
  6
CONTINUOUS
 62
     7
 10
37.5
 20
-60.0
 40
7.5
 50
21.03946
 51
38.96052
  0
ARC
  8
0
  6
CONTINUOUS
 62
     7
 10
37.5
 20
-60.0
 40
7.5
 50
321.0394
 51
338.9605
  0
ARC
  8
0
  6
CONTINUOUS
 62
     7
 10
37.5
 20
-60.0
 40
7.5
 50
261.0394
 51
278.9605
  0
ARC
  8
0
  6
CONTINUOUS
 62
     7
 10
37.5
 20
-60.0
 40
7.5
 50
201.0395
 51
218.9605
  0
ARC
  8
0
  6
CONTINUOUS
 62
     7
 10
37.5
 20
-60.0
 40
7.5
 50
141.0395
 51
158.9605
  0
ARC
  8
0
  6
CONTINUOUS
 62
     7
 10
37.5
 20
-60.0
 40
7.5
 50
81.03947
 51
98.96053
  0
CIRCLE
  8
0
  6
CONTINUOUS
 62
     7
 10
-39.5
 20
-60.0
 40
7.0
  0
ARC
  8
0
  6
CONTINUOUS
 62
     7
 10
-39.5
 20
-60.0
 40
7.5
 50
141.0395
 51
158.9605
  0
ARC
  8
0
  6
CONTINUOUS
 62
     7
 10
-39.5
 20
-60.0
 40
7.5
 50
201.0395
 51
218.9605
  0
ARC
  8
0
  6
CONTINUOUS
 62
     7
 10
-39.5
 20
-60.0
 40
7.5
 50
261.0394
 51
278.9605
  0
ARC
  8
0
  6
CONTINUOUS
 62
     7
 10
-39.5
 20
-60.0
 40
7.5
 50
321.0394
 51
338.9605
  0
ARC
  8
0
  6
CONTINUOUS
 62
     7
 10
-39.5
 20
-60.0
 40
7.5
 50
21.03946
 51
38.96052
  0
ARC
  8
0
  6
CONTINUOUS
 62
     7
 10
-39.5
 20
-60.0
 40
7.5
 50
81.03947
 51
98.96053
  0
CIRCLE
  8
0
  6
CONTINUOUS
 62
     7
 10
-39.5
 20
-60.0
 40
2.5
  0
CIRCLE
  8
0
  6
CONTINUOUS
 62
     7
 10
-39.5
 20
-60.0
 40
2.0
  0
ARC
  8
0
  6
CONTINUOUS
 62
     7
 10
-1.75
 20
-63.60355
 40
0.25
 50
45.00004
 51
180.0
  0
ARC
  8
0
  6
CONTINUOUS
 62
     7
 10
-1.75
 20
-56.39645
 40
0.25
 50
180.0
 51
315.0
  0
ARC
  8
0
  6
CONTINUOUS
 62
     7
 10
-2.5943
 20
57.38157
 40
1.4057
 50
145.6155
 51
214.3843
  0
ARC
  8
0
  6
CONTINUOUS
 62
     7
 10
1.25437
 20
55.0
 40
5.25437
 50
162.412
 51
197.588
  0
ARC
  8
0
  6
CONTINUOUS
 62
     7
 10
11.96727
 20
60.22308
 40
2.96739
 50
154.5122
 51
205.4878
  0
ARC
  8
0
  6
CONTINUOUS
 62
     7
 10
19.96972
 20
55.0
 40
10.96972
 50
166.8266
 51
193.1734
  0
ARC
  8
0
  6
CONTINUOUS
 62
     7
 10
-3.00569
 20
57.38157
 40
1.4057
 50
325.6157
 51
34.38444
  0
ARC
  8
0
  6
CONTINUOUS
 62
     7
 10
-2.5943
 20
52.61843
 40
1.4057
 50
145.6157
 51
214.3843
  0
ARC
  8
0
  6
CONTINUOUS
 62
     7
 10
-3.00569
 20
52.61843
 40
1.4057
 50
325.6155
 51
34.38425
  0
ARC
  8
0
  6
CONTINUOUS
 62
     7
 10
-6.85437
 20
55.0
 40
5.25437
 50
342.412
 51
17.58793
  0
ARC
  8
0
  6
CONTINUOUS
 62
     7
 10
9.03273
 20
60.22308
 40
2.96739
 50
334.5122
 51
25.48773
  0
ARC
  8
0
  6
CONTINUOUS
 62
     7
 10
11.96727
 20
49.77692
 40
2.96739
 50
154.5121
 51
205.4877
  0
ARC
  8
0
  6
CONTINUOUS
 62
     7
 10
9.03273
 20
49.77692
 40
2.96739
 50
334.5122
 51
25.48773
  0
ARC
  8
0
  6
CONTINUOUS
 62
     7
 10
1.03028
 20
55.0
 40
10.96972
 50
346.8265
 51
13.17341
  0
ARC
  8
0
  6
CONTINUOUS
 62
     7
 10
-7.36931
 20
57.38157
 40
1.4057
 50
145.6155
 51
214.3843
  0
ARC
  8
0
  6
CONTINUOUS
 62
     7
 10
-3.52063
 20
55.0
 40
5.25437
 50
162.412
 51
197.588
  0
ARC
  8
0
  6
CONTINUOUS
 62
     7
 10
-7.7807
 20
57.38157
 40
1.4057
 50
325.6157
 51
34.38445
  0
ARC
  8
0
  6
CONTINUOUS
 62
     7
 10
-11.62937
 20
55.0
 40
5.25437
 50
342.412
 51
17.58793
  0
ARC
  8
0
  6
CONTINUOUS
 62
     7
 10
-7.36931
 20
52.61843
 40
1.4057
 50
145.6157
 51
214.3843
  0
ARC
  8
0
  6
CONTINUOUS
 62
     7
 10
-7.7807
 20
52.61843
 40
1.4057
 50
325.6155
 51
34.38425
  0
ARC
  8
0
  6
CONTINUOUS
 62
     7
 10
-3.01092
 20
3.03109
 40
1.78908
 50
145.6158
 51
214.3842
  0
ARC
  8
0
  6
CONTINUOUS
 62
     7
 10
1.88741
 20
0.0
 40
6.68741
 50
162.4121
 51
197.5879
  0
ARC
  8
0
  6
CONTINUOUS
 62
     7
 10
11.96726
 20
5.22307
 40
2.96739
 50
154.5122
 51
205.4878
  0
ARC
  8
0
  6
CONTINUOUS
 62
     7
 10
19.9697
 20
0.0
 40
10.9697
 50
166.8265
 51
193.1734
  0
ARC
  8
0
  6
CONTINUOUS
 62
     7
 10
-3.38908
 20
3.03109
 40
1.78908
 50
325.6158
 51
34.38414
  0
ARC
  8
0
  6
CONTINUOUS
 62
     7
 10
-3.01092
 20
-3.03109
 40
1.78908
 50
145.6158
 51
214.3841
  0
ARC
  8
0
  6
CONTINUOUS
 62
     7
 10
-3.38908
 20
-3.03109
 40
1.78908
 50
325.6158
 51
34.38412
  0
ARC
  8
0
  6
CONTINUOUS
 62
     7
 10
-8.28741
 20
0.0
 40
6.68741
 50
342.4121
 51
17.58786
  0
ARC
  8
0
  6
CONTINUOUS
 62
     7
 10
9.03274
 20
5.22307
 40
2.96739
 50
334.5122
 51
25.48777
  0
ARC
  8
0
  6
CONTINUOUS
 62
     7
 10
11.96726
 20
-5.22307
 40
2.96739
 50
154.5122
 51
205.4877
  0
ARC
  8
0
  6
CONTINUOUS
 62
     7
 10
9.03274
 20
-5.22307
 40
2.96739
 50
334.5122
 51
25.48778
  0
ARC
  8
0
  6
CONTINUOUS
 62
     7
 10
1.0303
 20
0.0
 40
10.9697
 50
346.8265
 51
13.17343
  0
ARC
  8
0
  6
CONTINUOUS
 62
     7
 10
-9.21092
 20
3.03109
 40
1.78908
 50
145.6158
 51
214.3841
  0
ARC
  8
0
  6
CONTINUOUS
 62
     7
 10
-4.31259
 20
0.0
 40
6.68741
 50
162.4121
 51
197.5879
  0
ARC
  8
0
  6
CONTINUOUS
 62
     7
 10
-9.58908
 20
3.03109
 40
1.78908
 50
325.6158
 51
34.38414
  0
ARC
  8
0
  6
CONTINUOUS
 62
     7
 10
-14.48741
 20
0.0
 40
6.68741
 50
342.4121
 51
17.58786
  0
ARC
  8
0
  6
CONTINUOUS
 62
     7
 10
-9.21092
 20
-3.03109
 40
1.78908
 50
145.6158
 51
214.3841
  0
ARC
  8
0
  6
CONTINUOUS
 62
     7
 10
-9.58908
 20
-3.03109
 40
1.78908
 50
325.6158
 51
34.38413
  0
ARC
  8
0
  6
CONTINUOUS
 62
     7
 10
15.99711
 20
-53.89206
 40
3.49741
 50
156.5452
 51
203.4547
  0
ARC
  8
0
  6
CONTINUOUS
 62
     7
 10
25.20169
 20
-60.0
 40
12.70169
 50
167.7612
 51
192.2387
  0
ARC
  8
0
  6
CONTINUOUS
 62
     7
 10
12.00289
 20
-53.89206
 40
3.49741
 50
336.5452
 51
23.4547
  0
ARC
  8
0
  6
CONTINUOUS
 62
     7
 10
15.99711
 20
-66.10794
 40
3.49741
 50
156.5452
 51
203.4547
  0
ARC
  8
0
  6
CONTINUOUS
 62
     7
 10
12.00289
 20
-66.10794
 40
3.49741
 50
336.5453
 51
23.4547
  0
ARC
  8
0
  6
CONTINUOUS
 62
     7
 10
2.79831
 20
-60.0
 40
12.70169
 50
347.7612
 51
12.23872
  0
ARC
  8
0
  6
CONTINUOUS
 62
     7
 10
-4.95534
 20
-56.5359
 40
2.04466
 50
145.6158
 51
214.3842
  0
ARC
  8
0
  6
CONTINUOUS
 62
     7
 10
0.64272
 20
-60.0
 40
7.64272
 50
162.4121
 51
197.5879
  0
ARC
  8
0
  6
CONTINUOUS
 62
     7
 10
-5.04466
 20
-56.5359
 40
2.04466
 50
325.6158
 51
34.3842
  0
ARC
  8
0
  6
CONTINUOUS
 62
     7
 10
-4.95534
 20
-63.4641
 40
2.04466
 50
145.6158
 51
214.3842
  0
ARC
  8
0
  6
CONTINUOUS
 62
     7
 10
-5.04466
 20
-63.4641
 40
2.04466
 50
325.6158
 51
34.3842
  0
ARC
  8
0
  6
CONTINUOUS
 62
     7
 10
-10.64272
 20
-60.0
 40
7.64272
 50
342.412
 51
17.58791
  0
ARC
  8
0
  6
CONTINUOUS
 62
     7
 10
-12.20534
 20
-56.5359
 40
2.04466
 50
145.6158
 51
214.3842
  0
ARC
  8
0
  6
CONTINUOUS
 62
     7
 10
-6.60728
 20
-60.0
 40
7.64272
 50
162.4121
 51
197.5879
  0
ARC
  8
0
  6
CONTINUOUS
 62
     7
 10
-12.29466
 20
-56.5359
 40
2.04466
 50
325.6158
 51
34.38419
  0
ARC
  8
0
  6
CONTINUOUS
 62
     7
 10
-17.89272
 20
-60.0
 40
7.64272
 50
342.412
 51
17.58791
  0
ARC
  8
0
  6
CONTINUOUS
 62
     7
 10
-12.20534
 20
-63.4641
 40
2.04466
 50
145.6158
 51
214.3842
  0
ARC
  8
0
  6
CONTINUOUS
 62
     7
 10
-12.29466
 20
-63.4641
 40
2.04466
 50
325.6158
 51
34.3842
  0
TEXT
  8
0
  6
CONTINUOUS
 62
     7
 10
80.98868
 20
83.53383
 40
3.0
  1
DATE : MAR ,1987
 41
0.8
  7
STANDARD
  0
TEXT
  8
0
  6
CONTINUOUS
 62
     7
 10
-124.5386
 20
83.29882
 40
3.5
  1
PEN CYLINDER JOINT
 41
0.8
  7
STANDARD
  0
TEXT
  8
0
  6
CONTINUOUS
 62
     7
 10
-81.075
 20
68.355
 40
3.5
  1
MODEL : CJ-3*0.5
 41
0.8
  7
STANDARD
  0
TEXT
  8
0
  6
CONTINUOUS
 62
     7
 10
-81.075
 20
13.355
 40
3.5
  1
MODEL : CJ-4*0.7
 41
0.8
  7
STANDARD
  0
TEXT
  8
0
  6
CONTINUOUS
 62
     7
 10
-81.075
 20
-46.645
 40
3.5
  1
MODEL : CJ-5*0.8
 41
0.8
  7
STANDARD
  0
ENDSEC
  0
EOF
