  0
SECTION
  2
HEADER
  9
$ACADVER
  1
AC1012
  9
$DWGCODEPAGE
  3
dos932
  9
$INSBASE
 10
0.0
 20
0.0
 30
0.0
  9
$EXTMIN
 10
-281.25
 20
-195.0
 30
0.0
  9
$EXTMAX
 10
285.5999755859375
 20
195.5
 30
0.0
  9
$LIMMIN
 10
-281.25
 20
-195.0
  9
$LIMMAX
 10
285.5999755859375
 20
195.5
  9
$ORTHOMODE
 70
               0
  9
$REGENMODE
 70
               1
  9
$FILLMODE
 70
               1
  9
$QTEXTMODE
 70
               0
  9
$MIRRTEXT
 70
               1
  9
$DRAGMODE
 70
               2
  9
$LTSCALE
 40
1.0
  9
$OSMODE
 70
               0
  9
$ATTMODE
 70
               1
  9
$TEXTSIZE
 40
3.2000000476837158
  9
$TRACEWID
 40
0.05
  9
$TEXTSTYLE
  7
MX_NOTE_STANDARD
  9
$CLAYER
  8
0
  9
$CELTYPE
  6
CONTINUOUS
  9
$CECOLOR
 62
             256
  9
$CELTSCALE
 40
1.0
  9
$DELOBJ
 70
               1
  9
$DISPSILH
 70
               0
  9
$DIMSCALE
 40
1.0
  9
$DIMASZ
 40
2.5
  9
$DIMEXO
 40
1.5
  9
$DIMDLI
 40
3.75
  9
$DIMRND
 40
0.0
  9
$DIMDLE
 40
0.0
  9
$DIMEXE
 40
1.5
  9
$DIMTP
 40
0.0
  9
$DIMTM
 40
0.0
  9
$DIMTXT
 40
3.2000000476837158
  9
$DIMCEN
 40
2.5
  9
$DIMTSZ
 40
0.0
  9
$DIMTOL
 70
               0
  9
$DIMLIM
 70
               0
  9
$DIMTIH
 70
               0
  9
$DIMTOH
 70
               0
  9
$DIMSE1
 70
               0
  9
$DIMSE2
 70
               0
  9
$DIMTAD
 70
               1
  9
$DIMZIN
 70
               8
  9
$DIMBLK
  1

  9
$DIMASO
 70
               1
  9
$DIMSHO
 70
               1
  9
$DIMPOST
  1

  9
$DIMAPOST
  1

  9
$DIMALT
 70
               0
  9
$DIMALTD
 70
               4
  9
$DIMALTF
 40
0.03937007874016
  9
$DIMLFAC
 40
1.0
  9
$DIMTOFL
 70
               1
  9
$DIMTVP
 40
0.0
  9
$DIMTIX
 70
               0
  9
$DIMSOXD
 70
               0
  9
$DIMSAH
 70
               0
  9
$DIMBLK1
  1

  9
$DIMBLK2
  1

  9
$DIMSTYLE
  2
MXDIMSTYLE
  9
$DIMCLRD
 70
               0
  9
$DIMCLRE
 70
               0
  9
$DIMCLRT
 70
               0
  9
$DIMTFAC
 40
1.0
  9
$DIMGAP
 40
1.0
  9
$DIMJUST
 70
               0
  9
$DIMSD1
 70
               0
  9
$DIMSD2
 70
               0
  9
$DIMTOLJ
 70
               1
  9
$DIMTZIN
 70
               0
  9
$DIMALTZ
 70
               0
  9
$DIMALTTZ
 70
               0
  9
$DIMFIT
 70
               3
  9
$DIMUPT
 70
               1
  9
$DIMUNIT
 70
               2
  9
$DIMDEC
 70
               4
  9
$DIMTDEC
 70
               4
  9
$DIMALTU
 70
               2
  9
$DIMALTTD
 70
               4
  9
$DIMTXSTY
  7
MX_NOTE_STANDARD
  9
$DIMAUNIT
 70
               0
  9
$LUNITS
 70
               2
  9
$LUPREC
 70
               4
  9
$SKETCHINC
 40
0.1
  9
$FILLETRAD
 40
0.0
  9
$AUNITS
 70
               0
  9
$AUPREC
 70
               0
  9
$MENU
  1
acad
  9
$ELEVATION
 40
0.0
  9
$PELEVATION
 40
0.0
  9
$THICKNESS
 40
0.0
  9
$LIMCHECK
 70
               0
  9
$BLIPMODE
 70
               1
  9
$CHAMFERA
 40
0.0
  9
$CHAMFERB
 40
0.0
  9
$CHAMFERC
 40
0.0
  9
$CHAMFERD
 40
0.0
  9
$SKPOLY
 70
               0
  9
$TDCREATE
 40
2453446.620960648
  9
$TDUPDATE
 40
2453446.620960648
  9
$TDINDWG
 40
0.0000000000
  9
$TDUSRTIMER
 40
0.0000000000
  9
$USRTIMER
 70
               1
  9
$ANGBASE
 50
0.0
  9
$ANGDIR
 70
               0
  9
$PDMODE
 70
               0
  9
$PDSIZE
 40
0.0
  9
$PLINEWID
 40
0.0
  9
$COORDS
 70
               1
  9
$SPLFRAME
 70
               0
  9
$SPLINETYPE
 70
               6
  9
$SPLINESEGS
 70
               8
  9
$ATTDIA
 70
               0
  9
$ATTREQ
 70
               1
  9
$HANDLING
 70
               1
  9
$HANDSEED
  5
3D6
  9
$SURFTAB1
 70
               6
  9
$SURFTAB2
 70
               6
  9
$SURFTYPE
 70
               6
  9
$SURFU
 70
               6
  9
$SURFV
 70
               6
  9
$UCSNAME
  2

  9
$UCSORG
 10
0.0
 20
0.0
 30
0.0
  9
$UCSXDIR
 10
1.0
 20
0.0
 30
0.0
  9
$UCSYDIR
 10
0.0
 20
1.0
 30
0.0
  9
$PUCSNAME
  2

  9
$PUCSORG
 10
0.0
 20
0.0
 30
0.0
  9
$PUCSXDIR
 10
1.0
 20
0.0
 30
0.0
  9
$PUCSYDIR
 10
0.0
 20
1.0
 30
0.0
  9
$USERI1
 70
               0
  9
$USERI2
 70
               0
  9
$USERI3
 70
               0
  9
$USERI4
 70
               0
  9
$USERI5
 70
               0
  9
$USERR1
 40
0.0
  9
$USERR2
 40
0.0
  9
$USERR3
 40
0.0
  9
$USERR4
 40
0.0
  9
$USERR5
 40
0.0
  9
$WORLDVIEW
 70
               1
  9
$SHADEDGE
 70
               3
  9
$SHADEDIF
 70
              70
  9
$TILEMODE
 70
               1
  9
$MAXACTVP
 70
              16
  9
$PINSBASE
 10
0.0
 20
0.0
 30
0.0
  9
$PLIMCHECK
 70
               0
  9
$PEXTMIN
 10
1.0000000000000000E+20
 20
1.0000000000000000E+20
 30
1.0000000000000000E+20
  9
$PEXTMAX
 10
-1.0000000000000000E+20
 20
-1.0000000000000000E+20
 30
-1.0000000000000000E+20
  9
$PLIMMIN
 10
0.0
 20
0.0
  9
$PLIMMAX
 10
12.0
 20
9.0
  9
$UNITMODE
 70
               0
  9
$VISRETAIN
 70
               0
  9
$PLINEGEN
 70
               1
  9
$PSLTSCALE
 70
               0
  9
$TREEDEPTH
 70
            3020
  9
$PICKSTYLE
 70
               1
  9
$CMLSTYLE
  2
Standard
  9
$CMLJUST
 70
               0
  9
$CMLSCALE
 40
1.0
  9
$SAVEIMAGES
 70
               0
  0
ENDSEC
  0
SECTION
  2
CLASSES
  0
CLASS
  1
LWPOLYLINE
  2
AcDbPolyline
  3
"AutoCAD"
 90
        0
280
               0
281
               1
  0
CLASS
  1
IMAGE
  2
AcDbRasterImage
  3
ISM
 90
      127
280
               0
281
               1
  0
CLASS
  1
OLE2FRAME
  2
AcDbOle2Frame
  3
""
 90
        0
280
               0
281
               1
  0
CLASS
  1
HATCH
  2
AcDbHatch
  3
"ACAD_SEDONA"
 90
        0
280
               0
281
               1
  0
CLASS
  1
DICTIONARYVAR
  2
AcDbDictionaryVar
  3
"AutoCAD"
 90
        0
280
               0
281
               0
  0
CLASS
  1
RASTERVARIABLES
  2
AcDbRasterVariables
  3
ISM
 90
        0
280
               0
281
               0
  0
CLASS
  1
IMAGEDEF
  2
AcDbRasterImageDef
  3
ISM
 90
        0
280
               0
281
               0
  0
CLASS
  1
IMAGEDEF_REACTOR
  2
AcDbRasterImageDefReactor
  3
ISM
 90
        1
280
               0
281
               0
  0
CLASS
  1
IDBUFFER
  2
AcDbIdBuffer
  3
"Acad"
 90
        0
280
               0
281
               0
  0
CLASS
  1
SPATIAL_FILTER
  2
AcDbSpatialFilter
  3
"Acad"
 90
        0
280
               0
281
               0
  0
CLASS
  1
XRECORD
  2
AcDbXrecord
  3
"<Built In>"
 90
        0
280
               0
281
               0
  0
CLASS
  1
SORTENTSTABLE
  2
AcDbSortentsTable
  3
"AutoCAD"
 90
        0
280
               0
281
               0
  0
CLASS
  1
LAYER_INDEX
  2
AcDbLayerIndex
  3
"Acad"
 90
        0
280
               0
281
               0
  0
CLASS
  1
SPATIAL_INDEX
  2
AcDbSpatialIndex
  3
"Acad"
 90
        0
280
               0
281
               0
  0
CLASS
  1
OBJECT_PTR
  2
CAseDLPNTableRecord
  3
"ASE-LPNTableRecord"
 90
        1
280
               0
281
               0
  0
CLASS
  1
LAYOUT
  2
AcDbLayout
  3
"AutoCAD 2000"
 90
        1
280
               0
281
               0
  0
CLASS
  1
PLOTSETTINGS
  2
AcDbPlotSettings
  3
"AutoCAD 2000"
 90
        1
280
               0
281
               0
  0
CLASS
  1
ACDBDICTIONARYWDFLT
  2
AcDbDictionaryWithDefault
  3
"AutoCAD 2000"
 90
        1
280
               0
281
               0
  0
CLASS
  1
ACDBPLACEHOLDER
  2
AcDbPlaceHolder
  3
"AutoCAD 2000"
 90
        1
280
               0
281
               0
  0
ENDSEC
  0
SECTION
  2
TABLES
  0
TABLE
  2
VPORT
  5
7
100
AcDbSymbolTable
 70
               1
  0
VPORT
  5
15
100
AcDbSymbolTableRecord
100
AcDbViewportTableRecord
  2
*ACTIVE
 70
               0
 10
0.0
 20
0.0
 11
1.0
 21
1.0
 12
2.17498779296875
 22
0.25
 13
0.0
 23
0.0
 14
1.0
 24
1.0
 15
0.0
 25
0.0
 16
0.0
 26
0.0
 36
1.0
 17
0.0
 27
0.0
 37
0.0
 40
394.40500000000003
 41
1.7320508075688772
 42
50.0
 43
0.0
 44
0.0
 50
0.0
 51
0.0
 71
               0
 72
             100
 73
               1
 74
               1
 75
               0
 76
               0
 77
               0
 78
               0
  0
ENDTAB
  0
TABLE
  2
LTYPE
  5
4
100
AcDbSymbolTable
 70
               4
  0
LTYPE
  5
11
100
AcDbSymbolTableRecord
100
AcDbLinetypeTableRecord
  2
BYBLOCK
 70
              64
  3

 72
              65
 73
               0
 40
0.0
  0
LTYPE
  5
12
100
AcDbSymbolTableRecord
100
AcDbLinetypeTableRecord
  2
BYLAYER
 70
              64
  3

 72
              65
 73
               0
 40
0.0
  0
LTYPE
  5
13
100
AcDbSymbolTableRecord
100
AcDbLinetypeTableRecord
  2
CONTINUOUS
 70
              64
  3
Solid line
 72
              65
 73
               0
 40
0.0
  0
LTYPE
  5
33
100
AcDbSymbolTableRecord
100
AcDbLinetypeTableRecord
  2
CENTER
 70
              64
  3
Center ____ _ ____ _ ____ _ ____ _ ____ _ ____
 72
              65
 73
               4
 40
26.0
 49
20.0
 74
               0
 49
-2.0
 74
               0
 49
2.0
 74
               0
 49
-2.0
 74
               0
  0
ENDTAB
  0
TABLE
  2
LAYER
  5
2
100
AcDbSymbolTable
 70
               2
  0
LAYER
  5
14
100
AcDbSymbolTableRecord
100
AcDbLayerTableRecord
  2
0
 70
               0
 62
               7
  6
CONTINUOUS
  0
LAYER
  5
1D
100
AcDbSymbolTableRecord
100
AcDbLayerTableRecord
  2
DEFPOINTS
 70
               0
 62
               7
  6
CONTINUOUS
  0
ENDTAB
  0
TABLE
  2
STYLE
  5
3
100
AcDbSymbolTable
 70
               1
  0
STYLE
  5
17
100
AcDbSymbolTableRecord
100
AcDbTextStyleTableRecord
  2
MX_NOTE_STANDARD
 70
               0
 40
0.0
 41
1.0
 50
0.0
 71
               0
 42
3.2000000476837158
  3
txt.shx
  4
extfont.shx
  0
ENDTAB
  0
TABLE
  2
VIEW
  5
5
100
AcDbSymbolTable
 70
               0
  0
ENDTAB
  0
TABLE
  2
UCS
  5
6
100
AcDbSymbolTable
 70
               0
  0
ENDTAB
  0
TABLE
  2
APPID
  5
8
100
AcDbSymbolTable
 70
               1
  0
APPID
  5
16
100
AcDbSymbolTableRecord
100
AcDbRegAppTableRecord
  2
ACAD
 70
               0
  0
ENDTAB
  0
TABLE
  2
DIMSTYLE
  5
9
100
AcDbSymbolTable
 70
               1
  0
DIMSTYLE
105
18
100
AcDbSymbolTableRecord
100
AcDbDimStyleTableRecord
  2
MXDIMSTYLE
 70
               0
  3

  4

  5

  6

  7

 40
1.0
 41
2.5
 42
1.5
 43
3.75
 44
1.5
 45
0.0
 46
0.0
 47
0.0
 48
0.0
 71
               0
 72
               0
 73
               0
 74
               0
 75
               0
 76
               0
 77
               1
 78
               8
140
3.2000000476837158
141
2.5
142
0.0
143
0.03937007874016
144
1.0
145
0.0
146
1.0
147
1.0
170
               0
171
               4
172
               1
173
               0
174
               0
175
               0
176
               0
177
               0
178
               0
270
               2
271
               4
272
               4
273
               2
274
               4
275
               0
280
               0
281
               0
282
               0
283
               1
284
               0
285
               0
286
               0
287
               3
288
               1
340
17
  0
ENDTAB
  0
TABLE
  2
BLOCK_RECORD
  5
1
100
AcDbSymbolTable
 70
              18
  0
BLOCK_RECORD
  5
A
100
AcDbSymbolTableRecord
100
AcDbBlockTableRecord
  2
*MODEL_SPACE
  0
BLOCK_RECORD
  5
B
100
AcDbSymbolTableRecord
100
AcDbBlockTableRecord
  2
*PAPER_SPACE
  0
BLOCK_RECORD
  5
1E
100
AcDbSymbolTableRecord
100
AcDbBlockTableRecord
  2
JIG-C_CLEVIS1-1
  0
BLOCK_RECORD
  5
1F
100
AcDbSymbolTableRecord
100
AcDbBlockTableRecord
  2
JIG-C_CLEVIS1-2
  0
BLOCK_RECORD
  5
20
100
AcDbSymbolTableRecord
100
AcDbBlockTableRecord
  2
JIG-C_CLEVIS1-3
  0
BLOCK_RECORD
  5
21
100
AcDbSymbolTableRecord
100
AcDbBlockTableRecord
  2
JIG-C_CLEVIS1-4
  0
BLOCK_RECORD
  5
22
100
AcDbSymbolTableRecord
100
AcDbBlockTableRecord
  2
JIG-C_CLEVIS1-5
  0
BLOCK_RECORD
  5
23
100
AcDbSymbolTableRecord
100
AcDbBlockTableRecord
  2
JIG-C_CLEVIS1-6
  0
BLOCK_RECORD
  5
24
100
AcDbSymbolTableRecord
100
AcDbBlockTableRecord
  2
JIG-C_CLEVIS1-7
  0
BLOCK_RECORD
  5
25
100
AcDbSymbolTableRecord
100
AcDbBlockTableRecord
  2
JIG-C_CLEVIS1-8
  0
BLOCK_RECORD
  5
26
100
AcDbSymbolTableRecord
100
AcDbBlockTableRecord
  2
JIG-C_CLEVIS1-9
  0
BLOCK_RECORD
  5
27
100
AcDbSymbolTableRecord
100
AcDbBlockTableRecord
  2
JIG-C_CLEVIS1-10
  0
BLOCK_RECORD
  5
28
100
AcDbSymbolTableRecord
100
AcDbBlockTableRecord
  2
JIG-C_CLEVIS1-11
  0
BLOCK_RECORD
  5
29
100
AcDbSymbolTableRecord
100
AcDbBlockTableRecord
  2
JIG-C_CLEVIS1-12
  0
BLOCK_RECORD
  5
2A
100
AcDbSymbolTableRecord
100
AcDbBlockTableRecord
  2
JIG-C_CLEVIS1-13
  0
BLOCK_RECORD
  5
2B
100
AcDbSymbolTableRecord
100
AcDbBlockTableRecord
  2
JIG-C_CLEVIS1-14
  0
BLOCK_RECORD
  5
2C
100
AcDbSymbolTableRecord
100
AcDbBlockTableRecord
  2
JIG-C_CLEVIS1-15
  0
BLOCK_RECORD
  5
2D
100
AcDbSymbolTableRecord
100
AcDbBlockTableRecord
  2
JIG-C_CLEVIS1-16
  0
BLOCK_RECORD
  5
2E
100
AcDbSymbolTableRecord
100
AcDbBlockTableRecord
  2
JIG-C_CLEVIS1-17
  0
BLOCK_RECORD
  5
2F
100
AcDbSymbolTableRecord
100
AcDbBlockTableRecord
  2
JIG-C_CLEVIS1-18
  0
ENDTAB
  0
ENDSEC
  0
SECTION
  2
BLOCKS
  0
BLOCK
  5
D
100
AcDbEntity
  8
0
100
AcDbBlockBegin
  2
*MODEL_SPACE
 70
               0
 10
0.0
 20
0.0
 30
0.0
  3
*MODEL_SPACE
  1

  0
ENDBLK
  5
E
100
AcDbEntity
  8
0
100
AcDbBlockEnd
  0
BLOCK
  5
F
100
AcDbEntity
 67
               1
  8
0
100
AcDbBlockBegin
  2
*PAPER_SPACE
 70
               0
 10
0.0
 20
0.0
 30
0.0
  3
*PAPER_SPACE
  1

  0
ENDBLK
  5
10
100
AcDbEntity
 67
               1
  8
0
100
AcDbBlockEnd
  0
BLOCK
  5
30
100
AcDbEntity
  8
0
100
AcDbBlockBegin
  2
JIG-C_CLEVIS1-1
 70
               0
 10
0.0
 20
0.0
 30
0.0
  3
JIG-C_CLEVIS1-1
  1

  0
ARC
  5
31
100
AcDbEntity
  8
0
  6
CONTINUOUS
 62
               4
100
AcDbCircle
 10
11.0
 20
0.0
 30
0.0
 40
3.0
100
AcDbArc
 50
299.99999833034786
 51
239.99995203709508
  0
CIRCLE
  5
32
100
AcDbEntity
  8
0
  6
CONTINUOUS
 62
               4
100
AcDbCircle
 10
11.0
 20
0.0
 30
0.0
 40
2.0
  0
LINE
  5
34
100
AcDbEntity
  8
0
  6
CENTER
 62
             200
100
AcDbLine
 10
-2.3896026611328125
 20
-8.1499996185302734
 30
0.0
 11
5.6164522171020508
 21
-8.1499996185302734
 31
0.0
  0
LINE
  5
35
100
AcDbEntity
  8
0
  6
CENTER
 62
             200
100
AcDbLine
 10
-2.3896026611328125
 20
8.1499996185302734
 30
0.0
 11
5.6164522171020508
 21
8.1499996185302734
 31
0.0
  0
LINE
  5
36
100
AcDbEntity
  8
0
  6
CONTINUOUS
 62
               4
100
AcDbLine
 10
12.499957221990314
 20
-2.5980827970064979
 30
0.0
 11
11.99995716238567
 21
-1.7320574087656837
 31
0.0
  0
LINE
  5
37
100
AcDbEntity
  8
0
  6
CONTINUOUS
 62
               4
100
AcDbLine
 10
9.4999409349587722
 20
-2.5980074775931143
 30
0.0
 11
9.999940994563417
 21
-1.7319820893523001
 31
0.0
  0
LINE
  5
38
100
AcDbEntity
  8
0
  6
CONTINUOUS
 62
               4
100
AcDbLine
 10
4.1999440964275152
 20
5.9999462764375835
 30
0.0
 11
3.9999470030008695
 21
6.1999409928307045
 31
0.0
  0
LINE
  5
39
100
AcDbEntity
  8
0
  6
CONTINUOUS
 62
               4
100
AcDbLine
 10
4.2000486960073431
 20
-6.0000549227056581
 30
0.0
 11
4.0000527995266566
 21
-6.2000508191863446
 31
0.0
  0
LINE
  5
3A
100
AcDbEntity
  8
0
  6
CONTINUOUS
 62
               4
100
AcDbLine
 10
4.0
 20
-12.5
 30
0.0
 11
4.0
 21
12.500003814697266
 31
0.0
  0
LINE
  5
3B
100
AcDbEntity
  8
0
  6
CONTINUOUS
 62
               4
100
AcDbLine
 10
15.000046345466785
 20
-4.7000410502876093
 30
0.0
 11
14.200047047199064
 21
-5.5000412926444824
 31
0.0
  0
LINE
  5
3C
100
AcDbEntity
  8
0
  6
CONTINUOUS
 62
               4
100
AcDbLine
 10
14.200007386985874
 20
5.5000348357735334
 30
0.0
 11
15.000001762501654
 21
4.7000404602577532
 31
0.0
  0
LINE
  5
3D
100
AcDbEntity
  8
0
  6
CONTINUOUS
 62
               4
100
AcDbLine
 10
15.0
 20
-4.7000007629394531
 30
0.0
 11
15.0
 21
4.7000007629394531
 31
0.0
  0
LINE
  5
3E
100
AcDbEntity
  8
0
  6
CONTINUOUS
 62
               4
100
AcDbLine
 10
4.1999969482421875
 20
6.0000038146972656
 30
0.0
 11
5.0
 21
6.0000038146972656
 31
0.0
  0
LINE
  5
3F
100
AcDbEntity
  8
0
  6
CONTINUOUS
 62
               4
100
AcDbLine
 10
5.0
 20
6.0000038146972656
 30
0.0
 11
5.0
 21
5.5000038146972656
 31
0.0
  0
LINE
  5
40
100
AcDbEntity
  8
0
  6
CONTINUOUS
 62
               4
100
AcDbLine
 10
5.0
 20
5.5000038146972656
 30
0.0
 11
14.199996948242187
 21
5.5000038146972656
 31
0.0
  0
LINE
  5
41
100
AcDbEntity
  8
0
  6
CONTINUOUS
 62
               4
100
AcDbLine
 10
4.1999969482421875
 20
-6.0
 30
0.0
 11
5.0
 21
-6.0
 31
0.0
  0
LINE
  5
42
100
AcDbEntity
  8
0
  6
CONTINUOUS
 62
               4
100
AcDbLine
 10
5.0
 20
-6.0
 30
0.0
 11
5.0
 21
-5.5
 31
0.0
  0
LINE
  5
43
100
AcDbEntity
  8
0
  6
CONTINUOUS
 62
               4
100
AcDbLine
 10
0.0
 20
9.9874916076660156
 30
0.0
 11
4.0
 21
9.9874916076660156
 31
0.0
  0
LINE
  5
44
100
AcDbEntity
  8
0
  6
CONTINUOUS
 62
               4
100
AcDbLine
 10
0.0
 20
-9.9874916076660156
 30
0.0
 11
4.0
 21
-9.9874916076660156
 31
0.0
  0
LINE
  5
45
100
AcDbEntity
  8
0
  6
CONTINUOUS
 62
               4
100
AcDbLine
 10
5.0
 20
-3.3166236877441406
 30
0.0
 11
5.0
 21
3.3166236877441406
 31
0.0
  0
LINE
  5
46
100
AcDbEntity
  8
0
  6
CONTINUOUS
 62
               4
100
AcDbLine
 10
5.0
 20
-5.5
 30
0.0
 11
14.199996948242187
 21
-5.5
 31
0.0
  0
LINE
  5
47
100
AcDbEntity
  8
0
  6
CONTINUOUS
 62
               4
100
AcDbLine
 10
0.0
 20
-12.5
 30
0.0
 11
4.0
 21
-12.5
 31
0.0
  0
LINE
  5
48
100
AcDbEntity
  8
0
  6
CONTINUOUS
 62
               4
100
AcDbLine
 10
0.0
 20
12.500003814697266
 30
0.0
 11
4.0
 21
12.500003814697266
 31
0.0
  0
LINE
  5
49
100
AcDbEntity
  8
0
  6
CONTINUOUS
 62
               4
100
AcDbLine
 10
0.0
 20
-12.5
 30
0.0
 11
0.0
 21
12.500003814697266
 31
0.0
  0
LINE
  5
4A
100
AcDbEntity
  8
0
  6
CENTER
 62
             200
100
AcDbLine
 10
-2.3896026611328125
 20
0.0
 30
0.0
 11
17.548187255859375
 21
0.0
 31
0.0
  0
LINE
  5
4B
100
AcDbEntity
  8
0
  6
CONTINUOUS
 62
               4
100
AcDbLine
 10
14.199996948242187
 20
5.5000038146972656
 30
0.0
 11
14.199996948242187
 21
3.3166236877441406
 31
0.0
  0
LINE
  5
4C
100
AcDbEntity
  8
0
  6
CONTINUOUS
 62
               4
100
AcDbLine
 10
14.999893960251939
 20
2.0432525191245077
 30
0.0
 11
14.199892588967487
 21
3.3166167882882291
 31
0.0
  0
LINE
  5
4D
100
AcDbEntity
  8
0
  6
CONTINUOUS
 62
               4
100
AcDbLine
 10
14.199877899008698
 20
3.3168143947289082
 30
0.0
 11
12.862071083448882
 21
2.352248932889097
 31
0.0
  0
LINE
  5
4E
100
AcDbEntity
  8
0
  6
CONTINUOUS
 62
               4
100
AcDbLine
 10
5.0
 20
3.3166236877441406
 30
0.0
 11
14.199996948242187
 21
3.3166236877441406
 31
0.0
  0
LINE
  5
4F
100
AcDbEntity
  8
0
  6
CONTINUOUS
 62
               4
100
AcDbLine
 10
4.9999917761012398
 20
3.3165508698639883
 30
0.0
 11
8.1800722249788009
 21
1.0236959565609709
 31
0.0
  0
LINE
  5
50
100
AcDbEntity
  8
0
  6
CONTINUOUS
 62
               4
100
AcDbLine
 10
15.00009030189392
 20
-2.0433227003170487
 30
0.0
 11
14.200084871913873
 21
-3.3166933400823382
 31
0.0
  0
LINE
  5
51
100
AcDbEntity
  8
0
  6
CONTINUOUS
 62
               4
100
AcDbLine
 10
14.200007721502175
 20
-3.3166360917462612
 30
0.0
 11
12.862213381375682
 21
-2.3520793572720891
 31
0.0
  0
LINE
  5
52
100
AcDbEntity
  8
0
  6
CONTINUOUS
 62
               4
100
AcDbLine
 10
5.0000131525281972
 20
-3.3166593796088648
 30
0.0
 11
8.1800936014057584
 21
-1.0238046999841401
 31
0.0
  0
LINE
  5
53
100
AcDbEntity
  8
0
  6
CONTINUOUS
 62
               4
100
AcDbLine
 10
5.0
 20
-3.3166236877441406
 30
0.0
 11
14.199996948242187
 21
-3.3166236877441406
 31
0.0
  0
LINE
  5
54
100
AcDbEntity
  8
0
  6
CENTER
 62
             200
100
AcDbLine
 10
11.0
 20
-6.2292747497558594
 30
0.0
 11
11.0
 21
6.5978355407714844
 31
0.0
  0
LINE
  5
55
100
AcDbEntity
  8
0
  6
CONTINUOUS
 62
               4
100
AcDbLine
 10
14.199996948242187
 20
-5.5
 30
0.0
 11
14.199996948242187
 21
-3.3166236877441406
 31
0.0
  0
ENDBLK
  5
56
100
AcDbEntity
  8
0
100
AcDbBlockEnd
  0
BLOCK
  5
57
100
AcDbEntity
  8
0
100
AcDbBlockBegin
  2
JIG-C_CLEVIS1-2
 70
               0
 10
0.0
 20
0.0
 30
0.0
  3
JIG-C_CLEVIS1-2
  1

  0
CIRCLE
  5
58
100
AcDbEntity
  8
0
  6
CONTINUOUS
 62
               4
100
AcDbCircle
 10
8.1499996185302734
 20
-8.149998664855957
 30
0.0
 40
2.75
  0
CIRCLE
  5
59
100
AcDbEntity
  8
0
  6
CONTINUOUS
 62
               4
100
AcDbCircle
 10
8.1499996185302734
 20
8.1500043869018555
 30
0.0
 40
2.75
  0
ARC
  5
5A
100
AcDbEntity
  8
0
  6
CONTINUOUS
 62
               4
100
AcDbCircle
 10
0.0
 20
0.0
 30
0.0
 40
5.0
100
AcDbArc
 50
293.57817934062103
 51
66.421820659378966
  0
ARC
  5
5B
100
AcDbEntity
  8
0
  6
CONTINUOUS
 62
               4
100
AcDbCircle
 10
0.0
 20
0.0
 30
0.0
 40
6.0
100
AcDbArc
 50
27.952882149999223
 51
152.04714164197733
  0
CIRCLE
  5
5C
100
AcDbEntity
  8
0
  6
CONTINUOUS
 62
               4
100
AcDbCircle
 10
-8.1499996185302734
 20
8.1500043869018555
 30
0.0
 40
2.75
  0
CIRCLE
  5
5D
100
AcDbEntity
  8
0
  6
CONTINUOUS
 62
               4
100
AcDbCircle
 10
-8.1499996185302734
 20
-8.149998664855957
 30
0.0
 40
2.75
  0
ARC
  5
5E
100
AcDbEntity
  8
0
  6
CONTINUOUS
 62
               4
100
AcDbCircle
 10
0.0
 20
0.0
 30
0.0
 40
16.0
100
AcDbArc
 50
308.62482995006525
 51
321.37516754545658
  0
ARC
  5
5F
100
AcDbEntity
  8
0
  6
CONTINUOUS
 62
               4
100
AcDbCircle
 10
0.0
 20
0.0
 30
0.0
 40
16.0
100
AcDbArc
 50
128.6248520344945
 51
141.37518962988585
  0
ARC
  5
60
100
AcDbEntity
  8
0
  6
CONTINUOUS
 62
               4
100
AcDbCircle
 10
0.0
 20
0.0
 30
0.0
 40
16.0
100
AcDbArc
 50
218.62481037011415
 51
231.37513430512715
  0
ARC
  5
61
100
AcDbEntity
  8
0
  6
CONTINUOUS
 62
               4
100
AcDbCircle
 10
0.0
 20
0.0
 30
0.0
 40
16.0
100
AcDbArc
 50
38.624832454543409
 51
51.375170049934752
  0
ARC
  5
62
100
AcDbEntity
  8
0
  6
CONTINUOUS
 62
               4
100
AcDbCircle
 10
0.0
 20
0.0
 30
0.0
 40
5.0
100
AcDbArc
 50
113.57820484014488
 51
246.42185981928117
  0
ARC
  5
63
100
AcDbEntity
  8
0
  6
CONTINUOUS
 62
               4
100
AcDbCircle
 10
0.0
 20
0.0
 30
0.0
 40
6.0
100
AcDbArc
 50
207.95285835802267
 51
332.0471178500008
  0
LINE
  5
64
100
AcDbEntity
  8
0
  6
CENTER
 62
             200
100
AcDbLine
 10
8.1499996185302734
 20
-11.870553970336914
 30
0.0
 11
8.1499996185302734
 21
-4.3821816444396973
 31
0.0
  0
LINE
  5
65
100
AcDbEntity
  8
0
  6
CENTER
 62
             200
100
AcDbLine
 10
8.1499996185302734
 20
11.87055492401123
 30
0.0
 11
8.1499996185302734
 21
4.3821816444396973
 31
0.0
  0
LINE
  5
66
100
AcDbEntity
  8
0
  6
CENTER
 62
             200
100
AcDbLine
 10
11.846563339233398
 20
-8.149998664855957
 30
0.0
 11
4.4578914642333984
 21
-8.149998664855957
 31
0.0
  0
LINE
  5
67
100
AcDbEntity
  8
0
  6
CENTER
 62
             200
100
AcDbLine
 10
11.846563339233398
 20
8.1500043869018555
 30
0.0
 11
4.6034145355224609
 21
8.1500043869018555
 31
0.0
  0
LINE
  5
68
100
AcDbEntity
  8
0
  6
CONTINUOUS
 62
               4
100
AcDbLine
 10
7.5
 20
-2.0
 30
0.0
 11
5.6999969482421875
 21
-2.0
 31
0.0
  0
LINE
  5
69
100
AcDbEntity
  8
0
  6
CONTINUOUS
 62
               4
100
AcDbLine
 10
7.5
 20
-2.0
 30
0.0
 11
7.5
 21
2.0000038146972656
 31
0.0
  0
LINE
  5
6A
100
AcDbEntity
  8
0
  6
CONTINUOUS
 62
               4
100
AcDbLine
 10
7.5
 20
2.0000038146972656
 30
0.0
 11
5.6999969482421875
 21
2.0000038146972656
 31
0.0
  0
LINE
  5
6B
100
AcDbEntity
  8
0
  6
CONTINUOUS
 62
               4
100
AcDbLine
 10
5.6999969482421875
 20
3.0000038146972656
 30
0.0
 11
5.3000030517578125
 21
3.0000038146972656
 31
0.0
  0
LINE
  5
6C
100
AcDbEntity
  8
0
  6
CONTINUOUS
 62
               4
100
AcDbLine
 10
5.6999969482421875
 20
-3.0
 30
0.0
 11
5.3000030517578125
 21
-3.0
 31
0.0
  0
LINE
  5
6D
100
AcDbEntity
  8
0
  6
CONTINUOUS
 62
               4
100
AcDbLine
 10
5.6999969482421875
 20
-3.0
 30
0.0
 11
5.6999969482421875
 21
3.0000038146972656
 31
0.0
  0
LINE
  5
6E
100
AcDbEntity
  8
0
  6
CONTINUOUS
 62
               4
100
AcDbLine
 10
5.3000030517578125
 20
-3.0
 30
0.0
 11
5.3000030517578125
 21
3.0000038146972656
 31
0.0
  0
LINE
  5
6F
100
AcDbEntity
  8
0
  6
CONTINUOUS
 62
               4
100
AcDbLine
 10
5.3000030517578125
 20
-2.0
 30
0.0
 11
5.0
 21
-2.0
 31
0.0
  0
LINE
  5
70
100
AcDbEntity
  8
0
  6
CONTINUOUS
 62
               4
100
AcDbLine
 10
5.3000030517578125
 20
2.0000038146972656
 30
0.0
 11
5.0
 21
2.0000038146972656
 31
0.0
  0
LINE
  5
71
100
AcDbEntity
  8
0
  6
CONTINUOUS
 62
               4
100
AcDbLine
 10
-5.3000030517578125
 20
-2.0
 30
0.0
 11
-5.0
 21
-2.0
 31
0.0
  0
LINE
  5
72
100
AcDbEntity
  8
0
  6
CONTINUOUS
 62
               4
100
AcDbLine
 10
-5.6999969482421875
 20
-3.0
 30
0.0
 11
-5.3000030517578125
 21
-3.0
 31
0.0
  0
LINE
  5
73
100
AcDbEntity
  8
0
  6
CONTINUOUS
 62
               4
100
AcDbLine
 10
-5.3000030517578125
 20
2.0000038146972656
 30
0.0
 11
-5.0
 21
2.0000038146972656
 31
0.0
  0
LINE
  5
74
100
AcDbEntity
  8
0
  6
CONTINUOUS
 62
               4
100
AcDbLine
 10
-5.6999969482421875
 20
3.0000038146972656
 30
0.0
 11
-5.3000030517578125
 21
3.0000038146972656
 31
0.0
  0
LINE
  5
75
100
AcDbEntity
  8
0
  6
CONTINUOUS
 62
               4
100
AcDbLine
 10
-2.0
 20
-2.0
 30
0.0
 11
2.0
 21
-2.0
 31
0.0
  0
LINE
  5
76
100
AcDbEntity
  8
0
  6
CONTINUOUS
 62
               4
100
AcDbLine
 10
-7.5
 20
-2.0
 30
0.0
 11
-5.6999969482421875
 21
-2.0
 31
0.0
  0
LINE
  5
77
100
AcDbEntity
  8
0
  6
CONTINUOUS
 62
               4
100
AcDbLine
 10
-2.0
 20
2.0000038146972656
 30
0.0
 11
2.0
 21
2.0000038146972656
 31
0.0
  0
LINE
  5
78
100
AcDbEntity
  8
0
  6
CONTINUOUS
 62
               4
100
AcDbLine
 10
-5.6999969482421875
 20
-3.0
 30
0.0
 11
-5.6999969482421875
 21
3.0000038146972656
 31
0.0
  0
LINE
  5
79
100
AcDbEntity
  8
0
  6
CONTINUOUS
 62
               4
100
AcDbLine
 10
-5.3000030517578125
 20
-3.0
 30
0.0
 11
-5.3000030517578125
 21
3.0000038146972656
 31
0.0
  0
LINE
  5
7A
100
AcDbEntity
  8
0
  6
CONTINUOUS
 62
               4
100
AcDbLine
 10
-7.5
 20
2.0000038146972656
 30
0.0
 11
-5.6999969482421875
 21
2.0000038146972656
 31
0.0
  0
LINE
  5
7B
100
AcDbEntity
  8
0
  6
CONTINUOUS
 62
               4
100
AcDbLine
 10
-7.5
 20
-2.0
 30
0.0
 11
-7.5
 21
2.0000038146972656
 31
0.0
  0
LINE
  5
7C
100
AcDbEntity
  8
0
  6
CONTINUOUS
 62
               4
100
AcDbLine
 10
-2.0
 20
-5.6568527221679687
 30
0.0
 11
-2.0
 21
5.6568565368652344
 31
0.0
  0
LINE
  5
7D
100
AcDbEntity
  8
0
  6
CONTINUOUS
 62
               4
100
AcDbLine
 10
2.0
 20
-5.6568527221679687
 30
0.0
 11
2.0
 21
5.6568565368652344
 31
0.0
  0
LINE
  5
7E
100
AcDbEntity
  8
0
  6
CENTER
 62
             200
100
AcDbLine
 10
-17.007034301757813
 20
0.0
 30
0.0
 11
16.035415649414062
 21
0.0
 31
0.0
  0
LINE
  5
7F
100
AcDbEntity
  8
0
  6
CONTINUOUS
 62
               4
100
AcDbLine
 10
-5.0
 20
-3.3166236877441406
 30
0.0
 11
-5.0
 21
3.3166236877441406
 31
0.0
  0
LINE
  5
80
100
AcDbEntity
  8
0
  6
CONTINUOUS
 62
               4
100
AcDbLine
 10
5.0
 20
-3.3166236877441406
 30
0.0
 11
5.0
 21
3.3166236877441406
 31
0.0
  0
LINE
  5
81
100
AcDbEntity
  8
0
  6
CENTER
 62
             200
100
AcDbLine
 10
-4.4534358978271484
 20
8.1500043869018555
 30
0.0
 11
-11.696584701538086
 21
8.1500043869018555
 31
0.0
  0
LINE
  5
82
100
AcDbEntity
  8
0
  6
CENTER
 62
             200
100
AcDbLine
 10
-8.1499996185302734
 20
11.87055492401123
 30
0.0
 11
-8.1499996185302734
 21
4.3821816444396973
 31
0.0
  0
LINE
  5
83
100
AcDbEntity
  8
0
  6
CENTER
 62
             200
100
AcDbLine
 10
-8.1499996185302734
 20
-11.870553970336914
 30
0.0
 11
-8.1499996185302734
 21
-4.3821816444396973
 31
0.0
  0
LINE
  5
84
100
AcDbEntity
  8
0
  6
CENTER
 62
             200
100
AcDbLine
 10
-4.4534358978271484
 20
-8.149998664855957
 30
0.0
 11
-11.842107772827148
 21
-8.149998664855957
 31
0.0
  0
LINE
  5
85
100
AcDbEntity
  8
0
  6
CENTER
 62
             200
100
AcDbLine
 10
0.0
 20
-15.215320587158203
 30
0.0
 11
0.0
 21
15.01898193359375
 31
0.0
  0
LINE
  5
86
100
AcDbEntity
  8
0
  6
CONTINUOUS
 62
               4
100
AcDbLine
 10
-9.98748779296875
 20
12.500003814697266
 30
0.0
 11
9.98748779296875
 21
12.500003814697266
 31
0.0
  0
LINE
  5
87
100
AcDbEntity
  8
0
  6
CONTINUOUS
 62
               4
100
AcDbLine
 10
12.5
 20
-9.9874916076660156
 30
0.0
 11
12.5
 21
9.9874916076660156
 31
0.0
  0
LINE
  5
88
100
AcDbEntity
  8
0
  6
CONTINUOUS
 62
               4
100
AcDbLine
 10
-9.98748779296875
 20
-12.5
 30
0.0
 11
9.98748779296875
 21
-12.5
 31
0.0
  0
LINE
  5
89
100
AcDbEntity
  8
0
  6
CONTINUOUS
 62
               4
100
AcDbLine
 10
-12.5
 20
-9.9874916076660156
 30
0.0
 11
-12.5
 21
9.9874916076660156
 31
0.0
  0
ENDBLK
  5
8A
100
AcDbEntity
  8
0
100
AcDbBlockEnd
  0
BLOCK
  5
8B
100
AcDbEntity
  8
0
100
AcDbBlockBegin
  2
JIG-C_CLEVIS1-3
 70
               0
 10
0.0
 20
0.0
 30
0.0
  3
JIG-C_CLEVIS1-3
  1

  0
LINE
  5
8C
100
AcDbEntity
  8
0
  6
CENTER
 62
             200
100
AcDbLine
 10
-2.3896026611328125
 20
-8.1499996185302734
 30
0.0
 11
6.1334476470947266
 21
-8.1499996185302734
 31
0.0
  0
LINE
  5
8D
100
AcDbEntity
  8
0
  6
CENTER
 62
             200
100
AcDbLine
 10
-2.3896026611328125
 20
8.1499996185302734
 30
0.0
 11
6.1334476470947266
 21
8.1499996185302734
 31
0.0
  0
LINE
  5
8E
100
AcDbEntity
  8
0
  6
CONTINUOUS
 62
               4
100
AcDbLine
 10
9.0
 20
-5.6999969482421875
 30
0.0
 11
9.0
 21
-7.5
 31
0.0
  0
LINE
  5
8F
100
AcDbEntity
  8
0
  6
CONTINUOUS
 62
               4
100
AcDbLine
 10
13.0
 20
-5.6999969482421875
 30
0.0
 11
13.0
 21
-7.5
 31
0.0
  0
LINE
  5
90
100
AcDbEntity
  8
0
  6
CONTINUOUS
 62
               4
100
AcDbLine
 10
13.0
 20
-5.0
 30
0.0
 11
13.0
 21
-5.3000030517578125
 31
0.0
  0
LINE
  5
91
100
AcDbEntity
  8
0
  6
CONTINUOUS
 62
               4
100
AcDbLine
 10
14.0
 20
-5.3000030517578125
 30
0.0
 11
14.0
 21
-5.6999969482421875
 31
0.0
  0
LINE
  5
92
100
AcDbEntity
  8
0
  6
CONTINUOUS
 62
               4
100
AcDbLine
 10
14.0
 20
-5.6999969482421875
 30
0.0
 11
8.0
 21
-5.6999969482421875
 31
0.0
  0
LINE
  5
93
100
AcDbEntity
  8
0
  6
CONTINUOUS
 62
               4
100
AcDbLine
 10
8.0
 20
-5.3000030517578125
 30
0.0
 11
8.0
 21
-5.6999969482421875
 31
0.0
  0
LINE
  5
94
100
AcDbEntity
  8
0
  6
CONTINUOUS
 62
               4
100
AcDbLine
 10
14.0
 20
-5.3000030517578125
 30
0.0
 11
8.0
 21
-5.3000030517578125
 31
0.0
  0
LINE
  5
95
100
AcDbEntity
  8
0
  6
CONTINUOUS
 62
               4
100
AcDbLine
 10
9.0
 20
-5.0
 30
0.0
 11
9.0
 21
-5.3000030517578125
 31
0.0
  0
LINE
  5
96
100
AcDbEntity
  8
0
  6
CONTINUOUS
 62
               4
100
AcDbLine
 10
8.0
 20
5.29998779296875
 30
0.0
 11
8.0
 21
5.6999969482421875
 31
0.0
  0
LINE
  5
97
100
AcDbEntity
  8
0
  6
CONTINUOUS
 62
               4
100
AcDbLine
 10
9.0
 20
5.6999969482421875
 30
0.0
 11
9.0
 21
7.5
 31
0.0
  0
LINE
  5
98
100
AcDbEntity
  8
0
  6
CONTINUOUS
 62
               4
100
AcDbLine
 10
13.0
 20
5.6999969482421875
 30
0.0
 11
13.0
 21
7.5
 31
0.0
  0
LINE
  5
99
100
AcDbEntity
  8
0
  6
CONTINUOUS
 62
               4
100
AcDbLine
 10
14.0
 20
5.29998779296875
 30
0.0
 11
8.0
 21
5.29998779296875
 31
0.0
  0
LINE
  5
9A
100
AcDbEntity
  8
0
  6
CONTINUOUS
 62
               4
100
AcDbLine
 10
14.0
 20
5.29998779296875
 30
0.0
 11
14.0
 21
5.6999969482421875
 31
0.0
  0
LINE
  5
9B
100
AcDbEntity
  8
0
  6
CONTINUOUS
 62
               4
100
AcDbLine
 10
13.0
 20
5.0
 30
0.0
 11
13.0
 21
5.29998779296875
 31
0.0
  0
LINE
  5
9C
100
AcDbEntity
  8
0
  6
CONTINUOUS
 62
               4
100
AcDbLine
 10
9.0
 20
5.0
 30
0.0
 11
9.0
 21
5.29998779296875
 31
0.0
  0
LINE
  5
9D
100
AcDbEntity
  8
0
  6
CONTINUOUS
 62
               4
100
AcDbLine
 10
13.0
 20
-2.0
 30
0.0
 11
13.0
 21
2.0
 31
0.0
  0
LINE
  5
9E
100
AcDbEntity
  8
0
  6
CONTINUOUS
 62
               4
100
AcDbLine
 10
9.0
 20
-2.0
 30
0.0
 11
9.0
 21
2.0
 31
0.0
  0
LINE
  5
9F
100
AcDbEntity
  8
0
  6
CONTINUOUS
 62
               4
100
AcDbLine
 10
13.0
 20
7.4999847412109375
 30
0.0
 11
9.0
 21
7.4999847412109375
 31
0.0
  0
LINE
  5
A0
100
AcDbEntity
  8
0
  6
CONTINUOUS
 62
               4
100
AcDbLine
 10
14.0
 20
5.6999969482421875
 30
0.0
 11
8.0
 21
5.6999969482421875
 31
0.0
  0
LINE
  5
A1
100
AcDbEntity
  8
0
  6
CONTINUOUS
 62
               4
100
AcDbLine
 10
13.0
 20
-7.5
 30
0.0
 11
9.0
 21
-7.5
 31
0.0
  0
LINE
  5
A2
100
AcDbEntity
  8
0
  6
CONTINUOUS
 62
               4
100
AcDbLine
 10
4.1999856443230499
 20
6.0000566085795697
 30
0.0
 11
3.9999897478423634
 21
6.2000525050602562
 31
0.0
  0
LINE
  5
A3
100
AcDbEntity
  8
0
  6
CONTINUOUS
 62
               4
100
AcDbLine
 10
4.2000746584655815
 20
-6.0000593059778282
 30
0.0
 11
4.0000733671883779
 21
-6.2000605972550318
 31
0.0
  0
LINE
  5
A4
100
AcDbEntity
  8
0
  6
CONTINUOUS
 62
               4
100
AcDbLine
 10
4.0
 20
-12.5
 30
0.0
 11
4.0
 21
12.5
 31
0.0
  0
LINE
  5
A5
100
AcDbEntity
  8
0
  6
CENTER
 62
             200
100
AcDbLine
 10
-2.3896026611328125
 20
0.0
 30
0.0
 11
17.548187255859375
 21
0.0
 31
0.0
  0
LINE
  5
A6
100
AcDbEntity
  8
0
  6
CENTER
 62
             200
100
AcDbLine
 10
11.0
 20
-8.0853424072265625
 30
0.0
 11
11.0
 21
8.2929534912109375
 31
0.0
  0
LINE
  5
A7
100
AcDbEntity
  8
0
  6
CONTINUOUS
 62
               4
100
AcDbLine
 10
14.199996948242187
 20
-2.0
 30
0.0
 11
14.199996948242187
 21
-5.0
 31
0.0
  0
LINE
  5
A8
100
AcDbEntity
  8
0
  6
CONTINUOUS
 62
               4
100
AcDbLine
 10
14.199996948242187
 20
5.0
 30
0.0
 11
14.199996948242187
 21
2.0
 31
0.0
  0
LINE
  5
A9
100
AcDbEntity
  8
0
  6
CONTINUOUS
 62
               4
100
AcDbLine
 10
15.0
 20
-2.0
 30
0.0
 11
15.0
 21
-4.1999969482421875
 31
0.0
  0
LINE
  5
AA
100
AcDbEntity
  8
0
  6
CONTINUOUS
 62
               4
100
AcDbLine
 10
5.0
 20
-2.0
 30
0.0
 11
15.0
 21
-2.0
 31
0.0
  0
LINE
  5
AB
100
AcDbEntity
  8
0
  6
CONTINUOUS
 62
               4
100
AcDbLine
 10
5.0
 20
2.0
 30
0.0
 11
15.0
 21
2.0
 31
0.0
  0
LINE
  5
AC
100
AcDbEntity
  8
0
  6
CONTINUOUS
 62
               4
100
AcDbLine
 10
0.0
 20
9.98748779296875
 30
0.0
 11
4.0
 21
9.98748779296875
 31
0.0
  0
LINE
  5
AD
100
AcDbEntity
  8
0
  6
CONTINUOUS
 62
               4
100
AcDbLine
 10
0.0
 20
-9.98748779296875
 30
0.0
 11
4.0
 21
-9.98748779296875
 31
0.0
  0
LINE
  5
AE
100
AcDbEntity
  8
0
  6
CONTINUOUS
 62
               4
100
AcDbLine
 10
4.1999969482421875
 20
6.0
 30
0.0
 11
5.0
 21
6.0
 31
0.0
  0
LINE
  5
AF
100
AcDbEntity
  8
0
  6
CONTINUOUS
 62
               4
100
AcDbLine
 10
5.0
 20
6.0
 30
0.0
 11
5.0
 21
5.5
 31
0.0
  0
LINE
  5
B0
100
AcDbEntity
  8
0
  6
CONTINUOUS
 62
               4
100
AcDbLine
 10
5.0
 20
5.0
 30
0.0
 11
14.199996948242187
 21
5.0
 31
0.0
  0
LINE
  5
B1
100
AcDbEntity
  8
0
  6
CONTINUOUS
 62
               4
100
AcDbLine
 10
4.1999969482421875
 20
-6.0
 30
0.0
 11
5.0
 21
-6.0
 31
0.0
  0
LINE
  5
B2
100
AcDbEntity
  8
0
  6
CONTINUOUS
 62
               4
100
AcDbLine
 10
5.0
 20
-6.0
 30
0.0
 11
5.0
 21
-5.5
 31
0.0
  0
LINE
  5
B3
100
AcDbEntity
  8
0
  6
CONTINUOUS
 62
               4
100
AcDbLine
 10
15.000052119600923
 20
-4.2000681678214278
 30
0.0
 11
14.200052821333202
 21
-5.0000684101783008
 31
0.0
  0
LINE
  5
B4
100
AcDbEntity
  8
0
  6
CONTINUOUS
 62
               4
100
AcDbLine
 10
14.200001992189357
 20
5.0000396997753001
 30
0.0
 11
15.000007157298171
 21
4.2000345346664858
 31
0.0
  0
LINE
  5
B5
100
AcDbEntity
  8
0
  6
CONTINUOUS
 62
               4
100
AcDbLine
 10
5.0
 20
-5.5
 30
0.0
 11
5.0
 21
5.5
 31
0.0
  0
LINE
  5
B6
100
AcDbEntity
  8
0
  6
CONTINUOUS
 62
               4
100
AcDbLine
 10
5.0
 20
-5.0
 30
0.0
 11
14.199996948242187
 21
-5.0
 31
0.0
  0
LINE
  5
B7
100
AcDbEntity
  8
0
  6
CONTINUOUS
 62
               4
100
AcDbLine
 10
15.0
 20
2.0
 30
0.0
 11
15.0
 21
4.1999969482421875
 31
0.0
  0
LINE
  5
B8
100
AcDbEntity
  8
0
  6
CONTINUOUS
 62
               4
100
AcDbLine
 10
0.0
 20
-12.5
 30
0.0
 11
4.0
 21
-12.5
 31
0.0
  0
LINE
  5
B9
100
AcDbEntity
  8
0
  6
CONTINUOUS
 62
               4
100
AcDbLine
 10
0.0
 20
12.5
 30
0.0
 11
4.0
 21
12.5
 31
0.0
  0
LINE
  5
BA
100
AcDbEntity
  8
0
  6
CONTINUOUS
 62
               4
100
AcDbLine
 10
0.0
 20
-12.5
 30
0.0
 11
0.0
 21
12.5
 31
0.0
  0
ENDBLK
  5
BB
100
AcDbEntity
  8
0
100
AcDbBlockEnd
  0
BLOCK
  5
BC
100
AcDbEntity
  8
0
100
AcDbBlockBegin
  2
JIG-C_CLEVIS1-4
 70
               0
 10
0.0
 20
0.0
 30
0.0
  3
JIG-C_CLEVIS1-4
  1

  0
ARC
  5
BD
100
AcDbEntity
  8
0
  6
CONTINUOUS
 62
               4
100
AcDbCircle
 10
0.2000045776367188
 20
-14.299999237060547
 30
0.0
 40
0.2000000029802322
100
AcDbArc
 50
179.99998133066532
 51
270.00001798608935
  0
ARC
  5
BE
100
AcDbEntity
  8
0
  6
CONTINUOUS
 62
               4
100
AcDbCircle
 10
3.8000030517578125
 20
14.299999237060547
 30
0.0
 40
0.2000000029802322
100
AcDbArc
 50
0.0
 51
89.999982013910653
  0
ARC
  5
BF
100
AcDbEntity
  8
0
  6
CONTINUOUS
 62
               4
100
AcDbCircle
 10
0.2000045776367188
 20
14.299999237060547
 30
0.0
 40
0.2000000029802322
100
AcDbArc
 50
89.999982013910653
 51
179.99996402782131
  0
CIRCLE
  5
C0
100
AcDbEntity
  8
0
  6
CONTINUOUS
 62
               4
100
AcDbCircle
 10
12.000003814697266
 20
0.0
 30
0.0
 40
2.5
  0
ARC
  5
C1
100
AcDbEntity
  8
0
  6
CONTINUOUS
 62
               4
100
AcDbCircle
 10
3.8000030517578125
 20
-14.299999237060547
 30
0.0
 40
0.2000000029802322
100
AcDbArc
 50
270.00001798608935
 51
0.0
  0
ARC
  5
C2
100
AcDbEntity
  8
0
  6
CONTINUOUS
 62
               4
100
AcDbCircle
 10
12.000003814697266
 20
0.0
 30
0.0
 40
3.5
100
AcDbArc
 50
300.00000516053706
 51
239.99995203709508
  0
LINE
  5
C3
100
AcDbEntity
  8
0
  6
CONTINUOUS
 62
               4
100
AcDbLine
 10
13.749992805895772
 20
-3.0310957217832311
 30
0.0
 11
13.249992686686483
 21
-2.1650703931470616
 31
0.0
  0
LINE
  5
C4
100
AcDbEntity
  8
0
  6
CONTINUOUS
 62
               4
100
AcDbLine
 10
10.249992441847894
 20
-3.0310808102291276
 30
0.0
 11
10.749993455126969
 21
-2.1650537701759731
 31
0.0
  0
LINE
  5
C5
100
AcDbEntity
  8
0
  6
CONTINUOUS
 62
               4
100
AcDbLine
 10
5.0
 20
7.5000038146972656
 30
0.0
 11
5.0
 21
8.0000038146972656
 31
0.0
  0
LINE
  5
C6
100
AcDbEntity
  8
0
  6
CONTINUOUS
 62
               4
100
AcDbLine
 10
4.2000087493297542
 20
8.0000023141290058
 30
0.0
 11
4.0000084021480689
 21
8.2000045663605761
 31
0.0
  0
LINE
  5
C7
100
AcDbEntity
  8
0
  6
CONTINUOUS
 62
               4
100
AcDbLine
 10
4.1999918904518267
 20
-7.9999733171767957
 30
0.0
 11
3.9999915432701414
 21
-8.199975569408366
 31
0.0
  0
LINE
  5
C8
100
AcDbEntity
  8
0
  6
CONTINUOUS
 62
               4
100
AcDbLine
 10
4.0
 20
-14.299999237060547
 30
0.0
 11
4.0
 21
14.299999237060547
 31
0.0
  0
LINE
  5
C9
100
AcDbEntity
  8
0
  6
CENTER
 62
             200
100
AcDbLine
 10
-1.0804595947265625
 20
-9.8999977111816406
 30
0.0
 11
5.1879730224609375
 21
-9.8999977111816406
 31
0.0
  0
LINE
  5
CA
100
AcDbEntity
  8
0
  6
CENTER
 62
             200
100
AcDbLine
 10
-2.73834228515625
 20
0.0
 30
0.0
 11
21.284458160400391
 21
0.0
 31
0.0
  0
LINE
  5
CB
100
AcDbEntity
  8
0
  6
CONTINUOUS
 62
               4
100
AcDbLine
 10
0.0
 20
12.278026580810547
 30
0.0
 11
4.0
 21
12.278026580810547
 31
0.0
  0
LINE
  5
CC
100
AcDbEntity
  8
0
  6
CONTINUOUS
 62
               4
100
AcDbLine
 10
17.000003814697266
 20
-6.7000007629394531
 30
0.0
 11
17.000003814697266
 21
6.7000007629394531
 31
0.0
  0
LINE
  5
CD
100
AcDbEntity
  8
0
  6
CONTINUOUS
 62
               4
100
AcDbLine
 10
0.0
 20
-12.278030395507813
 30
0.0
 11
4.0
 21
-12.278030395507813
 31
0.0
  0
LINE
  5
CE
100
AcDbEntity
  8
0
  6
CENTER
 62
             200
100
AcDbLine
 10
12.000003814697266
 20
-9.31427001953125
 30
0.0
 11
12.000003814697266
 21
8.8584251403808594
 31
0.0
  0
LINE
  5
CF
100
AcDbEntity
  8
0
  6
CONTINUOUS
 62
               4
100
AcDbLine
 10
4.2000045776367187
 20
-8.0
 30
0.0
 11
5.0
 21
-8.0
 31
0.0
  0
LINE
  5
D0
100
AcDbEntity
  8
0
  6
CONTINUOUS
 62
               4
100
AcDbLine
 10
4.20001220703125
 20
8.0000038146972656
 30
0.0
 11
5.0
 21
8.0000038146972656
 31
0.0
  0
LINE
  5
D1
100
AcDbEntity
  8
0
  6
CONTINUOUS
 62
               4
100
AcDbLine
 10
5.0
 20
-5.0
 30
0.0
 11
5.0
 21
5.0000038146972656
 31
0.0
  0
LINE
  5
D2
100
AcDbEntity
  8
0
  6
CONTINUOUS
 62
               4
100
AcDbLine
 10
5.0
 20
-7.5
 30
0.0
 11
16.200000762939453
 21
-7.5
 31
0.0
  0
LINE
  5
D3
100
AcDbEntity
  8
0
  6
CONTINUOUS
 62
               4
100
AcDbLine
 10
5.0
 20
7.5000038146972656
 30
0.0
 11
16.200004577636719
 21
7.5000038146972656
 31
0.0
  0
LINE
  5
D4
100
AcDbEntity
  8
0
  6
CENTER
 62
             200
100
AcDbLine
 10
-1.0804595947265625
 20
9.8999977111816406
 30
0.0
 11
5.1879730224609375
 21
9.8999977111816406
 31
0.0
  0
LINE
  5
D5
100
AcDbEntity
  8
0
  6
CONTINUOUS
 62
               4
100
AcDbLine
 10
5.0
 20
-8.0
 30
0.0
 11
5.0
 21
-7.5
 31
0.0
  0
LINE
  5
D6
100
AcDbEntity
  8
0
  6
CONTINUOUS
 62
               4
100
AcDbLine
 10
0.0
 20
-14.299999237060547
 30
0.0
 11
0.0
 21
14.299999237060547
 31
0.0
  0
LINE
  5
D7
100
AcDbEntity
  8
0
  6
CONTINUOUS
 62
               4
100
AcDbLine
 10
0.2000045776367188
 20
14.500003814697266
 30
0.0
 11
3.8000030517578125
 21
14.500003814697266
 31
0.0
  0
LINE
  5
D8
100
AcDbEntity
  8
0
  6
CONTINUOUS
 62
               4
100
AcDbLine
 10
0.2000045776367188
 20
-14.5
 30
0.0
 11
3.8000030517578125
 21
-14.5
 31
0.0
  0
LINE
  5
D9
100
AcDbEntity
  8
0
  6
CONTINUOUS
 62
               4
100
AcDbLine
 10
14.233607871721347
 20
2.6946131606127892
 30
0.0
 11
16.446184480628631
 21
4.5384276880453172
 31
0.0
  0
LINE
  5
DA
100
AcDbEntity
  8
0
  6
CONTINUOUS
 62
               4
100
AcDbLine
 10
16.999998255724904
 20
3.5000095192197023
 30
0.0
 11
16.199997003681574
 21
5.0000054198251291
 31
0.0
  0
LINE
  5
DB
100
AcDbEntity
  8
0
  6
CONTINUOUS
 62
               4
100
AcDbLine
 10
5.0
 20
5.0000038146972656
 30
0.0
 11
16.200000762939453
 21
5.0000038146972656
 31
0.0
  0
LINE
  5
DC
100
AcDbEntity
  8
0
  6
CONTINUOUS
 62
               4
100
AcDbLine
 10
5.0000147422060763
 20
5.00002051168957
 30
0.0
 11
8.9467725607473767
 21
1.7110555608316531
 31
0.0
  0
LINE
  5
DD
100
AcDbEntity
  8
0
  6
CONTINUOUS
 62
               4
100
AcDbLine
 10
14.233572581318185
 20
-2.6946509846919184
 30
0.0
 11
16.446147335665046
 21
-4.5384633372039502
 31
0.0
  0
LINE
  5
DE
100
AcDbEntity
  8
0
  6
CONTINUOUS
 62
               4
100
AcDbLine
 10
5.0000254874883012
 20
-5.0000065916644303
 30
0.0
 11
8.9467737818021078
 21
-1.7110495776630046
 31
0.0
  0
LINE
  5
DF
100
AcDbEntity
  8
0
  6
CONTINUOUS
 62
               4
100
AcDbLine
 10
17.00003334092392
 20
-3.500016917262883
 30
0.0
 11
16.200030648370699
 21
-5.000016285102447
 31
0.0
  0
LINE
  5
E0
100
AcDbEntity
  8
0
  6
CONTINUOUS
 62
               4
100
AcDbLine
 10
5.0
 20
-5.0
 30
0.0
 11
16.200000762939453
 21
-5.0
 31
0.0
  0
LINE
  5
E1
100
AcDbEntity
  8
0
  6
CONTINUOUS
 62
               4
100
AcDbLine
 10
17.000014279126162
 20
-6.7000113105229957
 30
0.0
 11
16.200010395277104
 21
-7.500012362095049
 31
0.0
  0
LINE
  5
E2
100
AcDbEntity
  8
0
  6
CONTINUOUS
 62
               4
100
AcDbLine
 10
16.200002092319664
 20
7.4999971723282215
 30
0.0
 11
17.000007257428479
 21
6.6999920072194072
 31
0.0
  0
ENDBLK
  5
E3
100
AcDbEntity
  8
0
100
AcDbBlockEnd
  0
BLOCK
  5
E4
100
AcDbEntity
  8
0
100
AcDbBlockBegin
  2
JIG-C_CLEVIS1-5
 70
               0
 10
0.0
 20
0.0
 30
0.0
  3
JIG-C_CLEVIS1-5
  1

  0
ARC
  5
E5
100
AcDbEntity
  8
0
  6
CONTINUOUS
 62
               4
100
AcDbCircle
 10
0.0
 20
0.0
 30
0.0
 40
19.0
100
AcDbArc
 50
220.25654256283019
 51
229.74332015014107
  0
ARC
  5
E6
100
AcDbEntity
  8
0
  6
CONTINUOUS
 62
               4
100
AcDbCircle
 10
0.0
 20
0.0
 30
0.0
 40
19.0
100
AcDbArc
 50
130.25662520834558
 51
139.74340279565644
  0
ARC
  5
E7
100
AcDbEntity
  8
0
  6
CONTINUOUS
 62
               4
100
AcDbCircle
 10
0.0
 20
0.0
 30
0.0
 40
19.0
100
AcDbArc
 50
40.256615873678236
 51
49.74338321570535
  0
ARC
  5
E8
100
AcDbEntity
  8
0
  6
CONTINUOUS
 62
               4
100
AcDbCircle
 10
0.0
 20
0.0
 30
0.0
 40
7.1999998092651367
100
AcDbArc
 50
213.55739740223331
 51
249.68258211113258
  0
ARC
  5
E9
100
AcDbEntity
  8
0
  6
CONTINUOUS
 62
               4
100
AcDbCircle
 10
0.0
 20
0.0
 30
0.0
 40
7.1999998092651367
100
AcDbArc
 50
110.31752717189414
 51
146.44271188079341
  0
ARC
  5
EA
100
AcDbEntity
  8
0
  6
CONTINUOUS
 62
               4
100
AcDbCircle
 10
0.0
 20
0.0
 30
0.0
 40
7.1999998092651367
100
AcDbArc
 50
290.31745386104609
 51
326.44263515485079
  0
ARC
  5
EB
100
AcDbEntity
  8
0
  6
CONTINUOUS
 62
               4
100
AcDbCircle
 10
0.0
 20
0.0
 30
0.0
 40
7.1999998092651367
100
AcDbArc
 50
33.557310203635851
 51
69.682491497440523
  0
ARC
  5
EC
100
AcDbEntity
  8
0
  6
CONTINUOUS
 62
               4
100
AcDbCircle
 10
0.0
 20
0.0
 30
0.0
 40
8.0
100
AcDbArc
 50
18.209957100887241
 51
161.79006498354201
  0
CIRCLE
  5
ED
100
AcDbEntity
  8
0
  6
CONTINUOUS
 62
               4
100
AcDbCircle
 10
9.8999977111816406
 20
9.8999977111816406
 30
0.0
 40
2.75
  0
CIRCLE
  5
EE
100
AcDbEntity
  8
0
  6
CONTINUOUS
 62
               4
100
AcDbCircle
 10
-9.8999996185302734
 20
9.8999977111816406
 30
0.0
 40
2.75
  0
CIRCLE
  5
EF
100
AcDbEntity
  8
0
  6
CONTINUOUS
 62
               4
100
AcDbCircle
 10
9.8999977111816406
 20
-9.8999977111816406
 30
0.0
 40
2.75
  0
CIRCLE
  5
F0
100
AcDbEntity
  8
0
  6
CONTINUOUS
 62
               4
100
AcDbCircle
 10
-9.8999996185302734
 20
-9.8999977111816406
 30
0.0
 40
2.75
  0
ARC
  5
F1
100
AcDbEntity
  8
0
  6
CONTINUOUS
 62
               4
100
AcDbCircle
 10
14.299999237060547
 20
14.299999237060547
 30
0.0
 40
0.2000000029802322
100
AcDbArc
 50
0.0
 51
89.999982013910653
  0
ARC
  5
F2
100
AcDbEntity
  8
0
  6
CONTINUOUS
 62
               4
100
AcDbCircle
 10
0.0
 20
0.0
 30
0.0
 40
19.0
100
AcDbArc
 50
310.25656214278126
 51
319.74332948480838
  0
ARC
  5
F3
100
AcDbEntity
  8
0
  6
CONTINUOUS
 62
               4
100
AcDbCircle
 10
0.0
 20
0.0
 30
0.0
 40
8.0
100
AcDbArc
 50
198.20993501645799
 51
341.79004289911273
  0
LINE
  5
F4
100
AcDbEntity
  8
0
  6
CONTINUOUS
 62
               4
100
AcDbLine
 10
-8.5
 20
-2.5
 30
0.0
 11
-8.5
 21
2.5000038146972656
 31
0.0
  0
LINE
  5
F5
100
AcDbEntity
  8
0
  6
CONTINUOUS
 62
               4
100
AcDbLine
 10
-6.2999992370605469
 20
-3.5
 30
0.0
 11
-6.8999977111816406
 21
-3.5
 31
0.0
  0
LINE
  5
F6
100
AcDbEntity
  8
0
  6
CONTINUOUS
 62
               4
100
AcDbLine
 10
-6.8999977111816406
 20
-3.5
 30
0.0
 11
-6.8999977111816406
 21
3.5000038146972656
 31
0.0
  0
LINE
  5
F7
100
AcDbEntity
  8
0
  6
CONTINUOUS
 62
               4
100
AcDbLine
 10
-6.2999992370605469
 20
-3.5
 30
0.0
 11
-6.2999992370605469
 21
3.5000038146972656
 31
0.0
  0
LINE
  5
F8
100
AcDbEntity
  8
0
  6
CONTINUOUS
 62
               4
100
AcDbLine
 10
-6.2999992370605469
 20
3.5000038146972656
 30
0.0
 11
-6.8999977111816406
 21
3.5000038146972656
 31
0.0
  0
LINE
  5
F9
100
AcDbEntity
  8
0
  6
CONTINUOUS
 62
               4
100
AcDbLine
 10
6.8999977111816406
 20
-2.5
 30
0.0
 11
8.5
 21
-2.5
 31
0.0
  0
LINE
  5
FA
100
AcDbEntity
  8
0
  6
CONTINUOUS
 62
               4
100
AcDbLine
 10
6.8999977111816406
 20
2.5000038146972656
 30
0.0
 11
8.5
 21
2.5000038146972656
 31
0.0
  0
LINE
  5
FB
100
AcDbEntity
  8
0
  6
CONTINUOUS
 62
               4
100
AcDbLine
 10
6.8999977111816406
 20
-3.5
 30
0.0
 11
6.8999977111816406
 21
3.5000038146972656
 31
0.0
  0
LINE
  5
FC
100
AcDbEntity
  8
0
  6
CONTINUOUS
 62
               4
100
AcDbLine
 10
6.2999992370605469
 20
-3.5
 30
0.0
 11
6.8999977111816406
 21
-3.5
 31
0.0
  0
LINE
  5
FD
100
AcDbEntity
  8
0
  6
CONTINUOUS
 62
               4
100
AcDbLine
 10
6.2999992370605469
 20
3.5000038146972656
 30
0.0
 11
6.8999977111816406
 21
3.5000038146972656
 31
0.0
  0
LINE
  5
FE
100
AcDbEntity
  8
0
  6
CONTINUOUS
 62
               4
100
AcDbLine
 10
-8.5
 20
2.5000038146972656
 30
0.0
 11
-6.8999977111816406
 21
2.5000038146972656
 31
0.0
  0
LINE
  5
FF
100
AcDbEntity
  8
0
  6
CONTINUOUS
 62
               4
100
AcDbLine
 10
6.2999992370605469
 20
-3.5
 30
0.0
 11
6.2999992370605469
 21
3.5000038146972656
 31
0.0
  0
LINE
  5
100
100
AcDbEntity
  8
0
  6
CONTINUOUS
 62
               4
100
AcDbLine
 10
8.5
 20
-2.5
 30
0.0
 11
8.5
 21
2.5000038146972656
 31
0.0
  0
LINE
  5
101
100
AcDbEntity
  8
0
  6
CONTINUOUS
 62
               4
100
AcDbLine
 10
-8.5
 20
-2.5
 30
0.0
 11
-6.8999977111816406
 21
-2.5
 31
0.0
  0
LINE
  5
102
100
AcDbEntity
  8
0
  6
CONTINUOUS
 62
               4
100
AcDbLine
 10
-6.2999992370605469
 20
-2.5
 30
0.0
 11
-6.0
 21
-2.5
 31
0.0
  0
LINE
  5
103
100
AcDbEntity
  8
0
  6
CONTINUOUS
 62
               4
100
AcDbLine
 10
-6.2999992370605469
 20
2.5000038146972656
 30
0.0
 11
-6.0
 21
2.5000038146972656
 31
0.0
  0
LINE
  5
104
100
AcDbEntity
  8
0
  6
CONTINUOUS
 62
               4
100
AcDbLine
 10
-2.5
 20
2.5000038146972656
 30
0.0
 11
2.5
 21
2.5000038146972656
 31
0.0
  0
LINE
  5
105
100
AcDbEntity
  8
0
  6
CONTINUOUS
 62
               4
100
AcDbLine
 10
-2.5
 20
-2.5
 30
0.0
 11
2.5
 21
-2.5
 31
0.0
  0
LINE
  5
106
100
AcDbEntity
  8
0
  6
CONTINUOUS
 62
               4
100
AcDbLine
 10
6.0
 20
-2.5
 30
0.0
 11
6.2999992370605469
 21
-2.5
 31
0.0
  0
LINE
  5
107
100
AcDbEntity
  8
0
  6
CONTINUOUS
 62
               4
100
AcDbLine
 10
6.0
 20
2.5000038146972656
 30
0.0
 11
6.2999992370605469
 21
2.5000038146972656
 31
0.0
  0
LINE
  5
108
100
AcDbEntity
  8
0
  6
CONTINUOUS
 62
               4
100
AcDbLine
 10
-2.5
 20
-7.5993423461914062
 30
0.0
 11
-2.5
 21
7.5993385314941406
 31
0.0
  0
LINE
  5
109
100
AcDbEntity
  8
0
  6
CONTINUOUS
 62
               4
100
AcDbLine
 10
2.5
 20
-7.5993423461914062
 30
0.0
 11
2.5
 21
7.5993385314941406
 31
0.0
  0
LINE
  5
10A
100
AcDbEntity
  8
0
  6
CONTINUOUS
 62
               4
100
AcDbLine
 10
6.0
 20
-5.29150390625
 30
0.0
 11
6.0
 21
5.2915000915527344
 31
0.0
  0
LINE
  5
10B
100
AcDbEntity
  8
0
  6
CONTINUOUS
 62
               4
100
AcDbLine
 10
-6.0
 20
-5.29150390625
 30
0.0
 11
-6.0
 21
5.2915000915527344
 31
0.0
  0
LINE
  5
10C
100
AcDbEntity
  8
0
  6
CENTER
 62
             200
100
AcDbLine
 10
13.298633575439453
 20
9.8999977111816406
 30
0.0
 11
6.2165184020996094
 21
9.8999977111816406
 31
0.0
  0
LINE
  5
10D
100
AcDbEntity
  8
0
  6
CENTER
 62
             200
100
AcDbLine
 10
9.8999977111816406
 20
13.635868072509766
 30
0.0
 11
9.8999977111816406
 21
6.1432075500488281
 31
0.0
  0
LINE
  5
10E
100
AcDbEntity
  8
0
  6
CENTER
 62
             200
100
AcDbLine
 10
-9.8999996185302734
 20
13.635868072509766
 30
0.0
 11
-9.8999996185302734
 21
6.1432075500488281
 31
0.0
  0
LINE
  5
10F
100
AcDbEntity
  8
0
  6
CENTER
 62
             200
100
AcDbLine
 10
-13.298633575439453
 20
9.8999977111816406
 30
0.0
 11
-6.2165184020996094
 21
9.8999977111816406
 31
0.0
  0
LINE
  5
110
100
AcDbEntity
  8
0
  6
CENTER
 62
             200
100
AcDbLine
 10
13.298633575439453
 20
-9.8999977111816406
 30
0.0
 11
6.2165184020996094
 21
-9.8999977111816406
 31
0.0
  0
LINE
  5
111
100
AcDbEntity
  8
0
  6
CENTER
 62
             200
100
AcDbLine
 10
9.8999977111816406
 20
-13.635871887207031
 30
0.0
 11
9.8999977111816406
 21
-6.1432037353515625
 31
0.0
  0
LINE
  5
112
100
AcDbEntity
  8
0
  6
CENTER
 62
             200
100
AcDbLine
 10
-9.8999996185302734
 20
-13.635871887207031
 30
0.0
 11
-9.8999996185302734
 21
-6.1432037353515625
 31
0.0
  0
LINE
  5
113
100
AcDbEntity
  8
0
  6
CENTER
 62
             200
100
AcDbLine
 10
-13.298633575439453
 20
-9.8999977111816406
 30
0.0
 11
-6.2165184020996094
 21
-9.8999977111816406
 31
0.0
  0
LINE
  5
114
100
AcDbEntity
  8
0
  6
CENTER
 62
             200
100
AcDbLine
 10
-16.17253303527832
 20
0.0
 30
0.0
 11
16.569404602050781
 21
0.0
 31
0.0
  0
LINE
  5
115
100
AcDbEntity
  8
0
  6
CENTER
 62
             200
100
AcDbLine
 10
0.0
 20
-17.536167144775391
 30
0.0
 11
0.0
 21
16.642719268798828
 31
0.0
  0
LINE
  5
116
100
AcDbEntity
  8
0
  6
CONTINUOUS
 62
               4
100
AcDbLine
 10
-12.278030395507813
 20
14.500003814697266
 30
0.0
 11
12.278030395507813
 21
14.500003814697266
 31
0.0
  0
LINE
  5
117
100
AcDbEntity
  8
0
  6
CONTINUOUS
 62
               4
100
AcDbLine
 10
14.5
 20
-12.278030395507813
 30
0.0
 11
14.5
 21
12.278034210205078
 31
0.0
  0
LINE
  5
118
100
AcDbEntity
  8
0
  6
CONTINUOUS
 62
               4
100
AcDbLine
 10
-14.5
 20
-12.278030395507813
 30
0.0
 11
-14.5
 21
12.278034210205078
 31
0.0
  0
LINE
  5
119
100
AcDbEntity
  8
0
  6
CONTINUOUS
 62
               4
100
AcDbLine
 10
-12.278030395507813
 20
-14.5
 30
0.0
 11
12.278030395507813
 21
-14.5
 31
0.0
  0
ENDBLK
  5
11A
100
AcDbEntity
  8
0
100
AcDbBlockEnd
  0
BLOCK
  5
11B
100
AcDbEntity
  8
0
100
AcDbBlockBegin
  2
JIG-C_CLEVIS1-6
 70
               0
 10
0.0
 20
0.0
 30
0.0
  3
JIG-C_CLEVIS1-6
  1

  0
ARC
  5
11C
100
AcDbEntity
  8
0
  6
CONTINUOUS
 62
               4
100
AcDbCircle
 10
3.8000030517578125
 20
14.300003051757813
 30
0.0
 40
0.2000000029802322
100
AcDbArc
 50
0.0
 51
89.999982013910653
  0
ARC
  5
11D
100
AcDbEntity
  8
0
  6
CONTINUOUS
 62
               4
100
AcDbCircle
 10
0.2000045776367188
 20
14.300003051757813
 30
0.0
 40
0.2000000029802322
100
AcDbArc
 50
89.999982013910653
 51
179.99996402782131
  0
ARC
  5
11E
100
AcDbEntity
  8
0
  6
CONTINUOUS
 62
               4
100
AcDbCircle
 10
0.2000045776367188
 20
-14.300003051757813
 30
0.0
 40
0.2000000029802322
100
AcDbArc
 50
179.99998133066532
 51
270.00001798608935
  0
ARC
  5
11F
100
AcDbEntity
  8
0
  6
CONTINUOUS
 62
               4
100
AcDbCircle
 10
3.8000030517578125
 20
-14.300003051757813
 30
0.0
 40
0.2000000029802322
100
AcDbArc
 50
270.00001798608935
 51
0.0
  0
LINE
  5
120
100
AcDbEntity
  8
0
  6
CONTINUOUS
 62
               4
100
AcDbLine
 10
14.500007629394531
 20
-2.5
 30
0.0
 11
14.500007629394531
 21
2.5
 31
0.0
  0
LINE
  5
121
100
AcDbEntity
  8
0
  6
CONTINUOUS
 62
               4
100
AcDbLine
 10
14.500007629394531
 20
6.0
 30
0.0
 11
14.500007629394531
 21
6.3000030517578125
 31
0.0
  0
LINE
  5
122
100
AcDbEntity
  8
0
  6
CONTINUOUS
 62
               4
100
AcDbLine
 10
9.5000076293945313
 20
6.0
 30
0.0
 11
9.5000076293945313
 21
6.3000030517578125
 31
0.0
  0
LINE
  5
123
100
AcDbEntity
  8
0
  6
CONTINUOUS
 62
               4
100
AcDbLine
 10
9.5000076293945313
 20
-2.5
 30
0.0
 11
9.5000076293945313
 21
2.5
 31
0.0
  0
LINE
  5
124
100
AcDbEntity
  8
0
  6
CONTINUOUS
 62
               4
100
AcDbLine
 10
14.500007629394531
 20
-6.3000030517578125
 30
0.0
 11
14.500007629394531
 21
-6.0
 31
0.0
  0
LINE
  5
125
100
AcDbEntity
  8
0
  6
CONTINUOUS
 62
               4
100
AcDbLine
 10
9.5000076293945313
 20
-6.3000030517578125
 30
0.0
 11
9.5000076293945313
 21
-6.0
 31
0.0
  0
LINE
  5
126
100
AcDbEntity
  8
0
  6
CONTINUOUS
 62
               4
100
AcDbLine
 10
14.500003814697266
 20
-8.5000076293945313
 30
0.0
 11
9.5000038146972656
 21
-8.5000076293945313
 31
0.0
  0
LINE
  5
127
100
AcDbEntity
  8
0
  6
CONTINUOUS
 62
               4
100
AcDbLine
 10
15.500007629394531
 20
-6.3000030517578125
 30
0.0
 11
15.500007629394531
 21
-6.9000091552734375
 31
0.0
  0
LINE
  5
128
100
AcDbEntity
  8
0
  6
CONTINUOUS
 62
               4
100
AcDbLine
 10
15.500003814697266
 20
-6.9000091552734375
 30
0.0
 11
8.5000038146972656
 21
-6.9000091552734375
 31
0.0
  0
LINE
  5
129
100
AcDbEntity
  8
0
  6
CONTINUOUS
 62
               4
100
AcDbLine
 10
15.500003814697266
 20
-6.3000030517578125
 30
0.0
 11
8.5000038146972656
 21
-6.3000030517578125
 31
0.0
  0
LINE
  5
12A
100
AcDbEntity
  8
0
  6
CONTINUOUS
 62
               4
100
AcDbLine
 10
8.5000076293945313
 20
-6.3000030517578125
 30
0.0
 11
8.5000076293945313
 21
-6.9000091552734375
 31
0.0
  0
LINE
  5
12B
100
AcDbEntity
  8
0
  6
CONTINUOUS
 62
               4
100
AcDbLine
 10
14.500007629394531
 20
6.899993896484375
 30
0.0
 11
14.500007629394531
 21
8.5
 31
0.0
  0
LINE
  5
12C
100
AcDbEntity
  8
0
  6
CONTINUOUS
 62
               4
100
AcDbLine
 10
9.5000076293945313
 20
6.899993896484375
 30
0.0
 11
9.5000076293945313
 21
8.5
 31
0.0
  0
LINE
  5
12D
100
AcDbEntity
  8
0
  6
CONTINUOUS
 62
               4
100
AcDbLine
 10
15.500003814697266
 20
6.899993896484375
 30
0.0
 11
8.5000038146972656
 21
6.899993896484375
 31
0.0
  0
LINE
  5
12E
100
AcDbEntity
  8
0
  6
CONTINUOUS
 62
               4
100
AcDbLine
 10
15.500007629394531
 20
6.3000030517578125
 30
0.0
 11
15.500007629394531
 21
6.899993896484375
 31
0.0
  0
LINE
  5
12F
100
AcDbEntity
  8
0
  6
CONTINUOUS
 62
               4
100
AcDbLine
 10
8.5000076293945313
 20
6.3000030517578125
 30
0.0
 11
8.5000076293945313
 21
6.899993896484375
 31
0.0
  0
LINE
  5
130
100
AcDbEntity
  8
0
  6
CONTINUOUS
 62
               4
100
AcDbLine
 10
9.5000076293945313
 20
-8.5
 30
0.0
 11
9.5000076293945313
 21
-6.9000091552734375
 31
0.0
  0
LINE
  5
131
100
AcDbEntity
  8
0
  6
CONTINUOUS
 62
               4
100
AcDbLine
 10
15.500003814697266
 20
6.29998779296875
 30
0.0
 11
8.5000038146972656
 21
6.29998779296875
 31
0.0
  0
LINE
  5
132
100
AcDbEntity
  8
0
  6
CONTINUOUS
 62
               4
100
AcDbLine
 10
14.500003814697266
 20
8.4999847412109375
 30
0.0
 11
9.5000038146972656
 21
8.4999847412109375
 31
0.0
  0
LINE
  5
133
100
AcDbEntity
  8
0
  6
CONTINUOUS
 62
               4
100
AcDbLine
 10
14.500007629394531
 20
-8.5
 30
0.0
 11
14.500007629394531
 21
-6.9000091552734375
 31
0.0
  0
LINE
  5
134
100
AcDbEntity
  8
0
  6
CONTINUOUS
 62
               4
100
AcDbLine
 10
4.2000298142195334
 20
-8.0000273745038157
 30
0.0
 11
4.0000339177388469
 21
-8.2000232709845022
 31
0.0
  0
LINE
  5
135
100
AcDbEntity
  8
0
  6
CONTINUOUS
 62
               4
100
AcDbLine
 10
4.1999812610508798
 20
8.0000004005212304
 30
0.0
 11
3.9999853645701933
 21
8.1999962970019169
 31
0.0
  0
LINE
  5
136
100
AcDbEntity
  8
0
  6
CENTER
 62
             200
100
AcDbLine
 10
-0.957550048828125
 20
-9.9000091552734375
 30
0.0
 11
5.4337921142578125
 21
-9.9000091552734375
 31
0.0
  0
LINE
  5
137
100
AcDbEntity
  8
0
  6
CENTER
 62
             200
100
AcDbLine
 10
-0.957550048828125
 20
9.899993896484375
 30
0.0
 11
5.4337921142578125
 21
9.899993896484375
 31
0.0
  0
LINE
  5
138
100
AcDbEntity
  8
0
  6
CONTINUOUS
 62
               4
100
AcDbLine
 10
5.0
 20
-6.0
 30
0.0
 11
16.200004577636719
 21
-6.0
 31
0.0
  0
LINE
  5
139
100
AcDbEntity
  8
0
  6
CONTINUOUS
 62
               4
100
AcDbLine
 10
16.200031763700508
 20
-6.0000252513248142
 30
0.0
 11
17.000026139216288
 21
-5.2000308758090341
 31
0.0
  0
LINE
  5
13A
100
AcDbEntity
  8
0
  6
CONTINUOUS
 62
               4
100
AcDbLine
 10
17.000003814697266
 20
-2.5
 30
0.0
 11
17.000003814697266
 21
-5.1999969482421875
 31
0.0
  0
LINE
  5
13B
100
AcDbEntity
  8
0
  6
CONTINUOUS
 62
               4
100
AcDbLine
 10
16.200004577636719
 20
-2.5
 30
0.0
 11
16.200004577636719
 21
-6.0
 31
0.0
  0
LINE
  5
13C
100
AcDbEntity
  8
0
  6
CONTINUOUS
 62
               4
100
AcDbLine
 10
5.0
 20
-2.5
 30
0.0
 11
17.000003814697266
 21
-2.5
 31
0.0
  0
LINE
  5
13D
100
AcDbEntity
  8
0
  6
CONTINUOUS
 62
               4
100
AcDbLine
 10
16.199994000124889
 20
5.9999874877491948
 30
0.0
 11
16.999988375640669
 21
5.1999931122334146
 31
0.0
  0
LINE
  5
13E
100
AcDbEntity
  8
0
  6
CONTINUOUS
 62
               4
100
AcDbLine
 10
16.200004577636719
 20
2.5
 30
0.0
 11
16.200004577636719
 21
6.0
 31
0.0
  0
LINE
  5
13F
100
AcDbEntity
  8
0
  6
CONTINUOUS
 62
               4
100
AcDbLine
 10
5.0
 20
2.5
 30
0.0
 11
17.000003814697266
 21
2.5
 31
0.0
  0
LINE
  5
140
100
AcDbEntity
  8
0
  6
CONTINUOUS
 62
               4
100
AcDbLine
 10
0.0
 20
12.278030395507813
 30
0.0
 11
4.0
 21
12.278030395507813
 31
0.0
  0
LINE
  5
141
100
AcDbEntity
  8
0
  6
CONTINUOUS
 62
               4
100
AcDbLine
 10
0.0
 20
-12.278030395507813
 30
0.0
 11
4.0
 21
-12.278030395507813
 31
0.0
  0
LINE
  5
142
100
AcDbEntity
  8
0
  6
CENTER
 62
             200
100
AcDbLine
 10
12.000003814697266
 20
-9.31427001953125
 30
0.0
 11
12.000003814697266
 21
9.1747283935546875
 31
0.0
  0
LINE
  5
143
100
AcDbEntity
  8
0
  6
CONTINUOUS
 62
               4
100
AcDbLine
 10
4.2000045776367187
 20
-8.0
 30
0.0
 11
5.0
 21
-8.0
 31
0.0
  0
LINE
  5
144
100
AcDbEntity
  8
0
  6
CONTINUOUS
 62
               4
100
AcDbLine
 10
4.2000045776367187
 20
8.0
 30
0.0
 11
5.0
 21
8.0
 31
0.0
  0
LINE
  5
145
100
AcDbEntity
  8
0
  6
CONTINUOUS
 62
               4
100
AcDbLine
 10
5.0
 20
-7.5
 30
0.0
 11
5.0
 21
8.0
 31
0.0
  0
LINE
  5
146
100
AcDbEntity
  8
0
  6
CONTINUOUS
 62
               4
100
AcDbLine
 10
5.0
 20
6.0
 30
0.0
 11
16.200004577636719
 21
6.0
 31
0.0
  0
LINE
  5
147
100
AcDbEntity
  8
0
  6
CENTER
 62
             200
100
AcDbLine
 10
-2.73834228515625
 20
0.0
 30
0.0
 11
17.459560394287109
 21
0.0
 31
0.0
  0
LINE
  5
148
100
AcDbEntity
  8
0
  6
CONTINUOUS
 62
               4
100
AcDbLine
 10
17.000003814697266
 20
2.5
 30
0.0
 11
17.000003814697266
 21
5.1999969482421875
 31
0.0
  0
LINE
  5
149
100
AcDbEntity
  8
0
  6
CONTINUOUS
 62
               4
100
AcDbLine
 10
5.0
 20
-8.0
 30
0.0
 11
5.0
 21
-7.5
 31
0.0
  0
LINE
  5
14A
100
AcDbEntity
  8
0
  6
CONTINUOUS
 62
               4
100
AcDbLine
 10
4.0
 20
-14.300003051757813
 30
0.0
 11
4.0
 21
14.300003051757813
 31
0.0
  0
LINE
  5
14B
100
AcDbEntity
  8
0
  6
CONTINUOUS
 62
               4
100
AcDbLine
 10
0.0
 20
-14.300003051757813
 30
0.0
 11
0.0
 21
14.300003051757813
 31
0.0
  0
LINE
  5
14C
100
AcDbEntity
  8
0
  6
CONTINUOUS
 62
               4
100
AcDbLine
 10
0.2000045776367188
 20
14.5
 30
0.0
 11
3.8000030517578125
 21
14.5
 31
0.0
  0
LINE
  5
14D
100
AcDbEntity
  8
0
  6
CONTINUOUS
 62
               4
100
AcDbLine
 10
0.2000045776367188
 20
-14.5
 30
0.0
 11
3.8000030517578125
 21
-14.5
 31
0.0
  0
ENDBLK
  5
14E
100
AcDbEntity
  8
0
100
AcDbBlockEnd
  0
BLOCK
  5
14F
100
AcDbEntity
  8
0
100
AcDbBlockBegin
  2
JIG-C_CLEVIS1-7
 70
               0
 10
0.0
 20
0.0
 30
0.0
  3
JIG-C_CLEVIS1-7
  1

  0
ARC
  5
150
100
AcDbEntity
  8
0
  6
CONTINUOUS
 62
               4
100
AcDbCircle
 10
0.1999969482421875
 20
-16.799999237060547
 30
0.0
 40
0.2000000029802322
100
AcDbArc
 50
179.99998133066532
 51
270.00001798608935
  0
ARC
  5
151
100
AcDbEntity
  8
0
  6
CONTINUOUS
 62
               4
100
AcDbCircle
 10
3.8000030517578125
 20
16.800003051757812
 30
0.0
 40
0.2000000029802322
100
AcDbArc
 50
0.0
 51
89.999982013910653
  0
ARC
  5
152
100
AcDbEntity
  8
0
  6
CONTINUOUS
 62
               4
100
AcDbCircle
 10
0.1999969482421875
 20
16.800003051757812
 30
0.0
 40
0.2000000029802322
100
AcDbArc
 50
89.999982013910653
 51
179.99996402782131
  0
CIRCLE
  5
153
100
AcDbEntity
  8
0
  6
CONTINUOUS
 62
               4
100
AcDbCircle
 10
17.0
 20
0.0
 30
0.0
 40
4.0
  0
ARC
  5
154
100
AcDbEntity
  8
0
  6
CONTINUOUS
 62
               4
100
AcDbCircle
 10
3.8000030517578125
 20
-16.799999237060547
 30
0.0
 40
0.2000000029802322
100
AcDbArc
 50
270.00001798608935
 51
0.0
  0
ARC
  5
155
100
AcDbEntity
  8
0
  6
CONTINUOUS
 62
               4
100
AcDbCircle
 10
17.0
 20
0.0
 30
0.0
 40
6.0
100
AcDbArc
 50
300.00008029261795
 51
239.99995203709508
  0
LINE
  5
156
100
AcDbEntity
  8
0
  6
CONTINUOUS
 62
               4
100
AcDbLine
 10
20.000050621769788
 20
-5.1961400794994006
 30
0.0
 11
19.000050502560498
 21
-3.4640893030177722
 31
0.0
  0
LINE
  5
157
100
AcDbEntity
  8
0
  6
CONTINUOUS
 62
               4
100
AcDbLine
 10
14.000028118120497
 20
-5.1961431901873425
 30
0.0
 11
15.000028237329786
 21
-3.4640924137057141
 31
0.0
  0
LINE
  5
158
100
AcDbEntity
  8
0
  6
CONTINUOUS
 62
               4
100
AcDbLine
 10
4.0000581610696599
 20
11.200025413626747
 30
0.0
 11
4.2000623183511152
 21
11.000026971494947
 31
0.0
  0
LINE
  5
159
100
AcDbEntity
  8
0
  6
CONTINUOUS
 62
               4
100
AcDbLine
 10
3.9999537724003176
 20
-11.199955279194171
 30
0.0
 11
4.1999574576340137
 21
-10.999956365014611
 31
0.0
  0
LINE
  5
15A
100
AcDbEntity
  8
0
  6
CONTINUOUS
 62
               4
100
AcDbLine
 10
4.0
 20
-16.799999237060547
 30
0.0
 11
4.0
 21
16.800003051757812
 31
0.0
  0
LINE
  5
15B
100
AcDbEntity
  8
0
  6
CONTINUOUS
 62
               4
100
AcDbLine
 10
5.0
 20
11.0
 30
0.0
 11
5.0
 21
10.0
 31
0.0
  0
LINE
  5
15C
100
AcDbEntity
  8
0
  6
CONTINUOUS
 62
               4
100
AcDbLine
 10
0.0
 20
-13.964218139648438
 30
0.0
 11
4.0
 21
-13.964218139648438
 31
0.0
  0
LINE
  5
15D
100
AcDbEntity
  8
0
  6
CENTER
 62
             200
100
AcDbLine
 10
-0.754150390625
 20
-12.0
 30
0.0
 11
5.145843505859375
 21
-12.0
 31
0.0
  0
LINE
  5
15E
100
AcDbEntity
  8
0
  6
CENTER
 62
             200
100
AcDbLine
 10
-0.754150390625
 20
12.0
 30
0.0
 11
5.145843505859375
 21
12.0
 31
0.0
  0
LINE
  5
15F
100
AcDbEntity
  8
0
  6
CONTINUOUS
 62
               4
100
AcDbLine
 10
0.0
 20
13.964218139648438
 30
0.0
 11
4.0
 21
13.964218139648438
 31
0.0
  0
LINE
  5
160
100
AcDbEntity
  8
0
  6
CENTER
 62
             200
100
AcDbLine
 10
17.0
 20
-11.842597961425781
 30
0.0
 11
17.0
 21
12.290733337402344
 31
0.0
  0
LINE
  5
161
100
AcDbEntity
  8
0
  6
CONTINUOUS
 62
               4
100
AcDbLine
 10
24.199996948242188
 20
6.0299224853515625
 30
0.0
 11
24.199996948242188
 21
10.0
 31
0.0
  0
LINE
  5
162
100
AcDbEntity
  8
0
  6
CONTINUOUS
 62
               4
100
AcDbLine
 10
24.199991366113068
 20
10.000004985099281
 30
0.0
 11
24.999990192336213
 21
9.200004270697832
 31
0.0
  0
LINE
  5
163
100
AcDbEntity
  8
0
  6
CONTINUOUS
 62
               4
100
AcDbLine
 10
24.199996948242188
 20
-6.0299263000488281
 30
0.0
 11
24.199996948242188
 21
-10.0
 31
0.0
  0
LINE
  5
164
100
AcDbEntity
  8
0
  6
CONTINUOUS
 62
               4
100
AcDbLine
 10
24.199992714788323
 20
-9.9999847546107503
 30
0.0
 11
24.999996935801619
 21
-9.1999786454064179
 31
0.0
  0
LINE
  5
165
100
AcDbEntity
  8
0
  6
CONTINUOUS
 62
               4
100
AcDbLine
 10
25.0
 20
-9.1999969482421875
 30
0.0
 11
25.0
 21
9.1999969482421875
 31
0.0
  0
LINE
  5
166
100
AcDbEntity
  8
0
  6
CONTINUOUS
 62
               4
100
AcDbLine
 10
5.0
 20
-6.0299263000488281
 30
0.0
 11
5.0
 21
6.0299224853515625
 31
0.0
  0
LINE
  5
167
100
AcDbEntity
  8
0
  6
CONTINUOUS
 62
               4
100
AcDbLine
 10
5.0
 20
-10.0
 30
0.0
 11
24.199996948242188
 21
-10.0
 31
0.0
  0
LINE
  5
168
100
AcDbEntity
  8
0
  6
CONTINUOUS
 62
               4
100
AcDbLine
 10
5.0
 20
10.0
 30
0.0
 11
24.199996948242188
 21
10.0
 31
0.0
  0
LINE
  5
169
100
AcDbEntity
  8
0
  6
CONTINUOUS
 62
               4
100
AcDbLine
 10
4.20001220703125
 20
-11.0
 30
0.0
 11
5.0
 21
-11.0
 31
0.0
  0
LINE
  5
16A
100
AcDbEntity
  8
0
  6
CONTINUOUS
 62
               4
100
AcDbLine
 10
4.20001220703125
 20
11.0
 30
0.0
 11
5.0
 21
11.0
 31
0.0
  0
LINE
  5
16B
100
AcDbEntity
  8
0
  6
CONTINUOUS
 62
               4
100
AcDbLine
 10
5.0
 20
-11.0
 30
0.0
 11
5.0
 21
-10.0
 31
0.0
  0
LINE
  5
16C
100
AcDbEntity
  8
0
  6
CONTINUOUS
 62
               4
100
AcDbLine
 10
0.0
 20
-16.799999237060547
 30
0.0
 11
0.0
 21
16.800003051757812
 31
0.0
  0
LINE
  5
16D
100
AcDbEntity
  8
0
  6
CONTINUOUS
 62
               4
100
AcDbLine
 10
0.1999969482421875
 20
-17.0
 30
0.0
 11
3.8000030517578125
 21
-17.0
 31
0.0
  0
LINE
  5
16E
100
AcDbEntity
  8
0
  6
CONTINUOUS
 62
               4
100
AcDbLine
 10
0.1999969482421875
 20
17.0
 30
0.0
 11
3.8000030517578125
 21
17.0
 31
0.0
  0
LINE
  5
16F
100
AcDbEntity
  8
0
  6
CENTER
 62
             200
100
AcDbLine
 10
-2.666656494140625
 20
0.0
 30
0.0
 11
27.968597412109375
 21
0.0
 31
0.0
  0
LINE
  5
170
100
AcDbEntity
  8
0
  6
CONTINUOUS
 62
               4
100
AcDbLine
 10
24.199982642159966
 20
6.0299246739645014
 30
0.0
 11
24.999982146760885
 21
3.9191705296588282
 31
0.0
  0
LINE
  5
171
100
AcDbEntity
  8
0
  6
CONTINUOUS
 62
               4
100
AcDbLine
 10
24.200032213298073
 20
6.0299354556241269
 30
0.0
 11
21.28557077061032
 21
4.1993106376298783
 31
0.0
  0
LINE
  5
172
100
AcDbEntity
  8
0
  6
CONTINUOUS
 62
               4
100
AcDbLine
 10
5.0
 20
6.0299224853515625
 30
0.0
 11
24.199996948242188
 21
6.0299224853515625
 31
0.0
  0
LINE
  5
173
100
AcDbEntity
  8
0
  6
CONTINUOUS
 62
               4
100
AcDbLine
 10
5.0000328496301449
 20
6.0299657180651138
 30
0.0
 11
11.356501469827265
 21
2.0373590771016552
 31
0.0
  0
LINE
  5
174
100
AcDbEntity
  8
0
  6
CONTINUOUS
 62
               4
100
AcDbLine
 10
24.199957822357391
 20
-6.0299911259373005
 30
0.0
 11
21.285495764246406
 21
-4.1993673336484392
 31
0.0
  0
LINE
  5
175
100
AcDbEntity
  8
0
  6
CONTINUOUS
 62
               4
100
AcDbLine
 10
4.9999696181937452
 20
-6.0299212613970212
 30
0.0
 11
11.356457172914588
 21
-2.0373019988899159
 31
0.0
  0
LINE
  5
176
100
AcDbEntity
  8
0
  6
CONTINUOUS
 62
               4
100
AcDbLine
 10
24.200028914673567
 20
-6.0299327179299098
 30
0.0
 11
25.000030345499454
 21
-3.9191736688807168
 31
0.0
  0
LINE
  5
177
100
AcDbEntity
  8
0
  6
CONTINUOUS
 62
               4
100
AcDbLine
 10
5.0
 20
-6.0299263000488281
 30
0.0
 11
24.199996948242188
 21
-6.0299263000488281
 31
0.0
  0
ENDBLK
  5
178
100
AcDbEntity
  8
0
100
AcDbBlockEnd
  0
BLOCK
  5
179
100
AcDbEntity
  8
0
100
AcDbBlockBegin
  2
JIG-C_CLEVIS1-8
 70
               0
 10
0.0
 20
0.0
 30
0.0
  3
JIG-C_CLEVIS1-8
  1

  0
ARC
  5
17A
100
AcDbEntity
  8
0
  6
CONTINUOUS
 62
               4
100
AcDbCircle
 10
0.0
 20
0.0
 30
0.0
 40
10.0
100
AcDbArc
 50
203.07384932820747
 51
246.42174734853094
  0
ARC
  5
17B
100
AcDbEntity
  8
0
  6
CONTINUOUS
 62
               4
100
AcDbCircle
 10
0.0
 20
0.0
 30
0.0
 40
10.0
100
AcDbArc
 50
23.073908978677157
 51
66.421806999000623
  0
ARC
  5
17C
100
AcDbEntity
  8
0
  6
CONTINUOUS
 62
               4
100
AcDbCircle
 10
0.0
 20
0.0
 30
0.0
 40
10.0
100
AcDbArc
 50
113.5781980099557
 51
156.92609603027918
  0
CIRCLE
  5
17D
100
AcDbEntity
  8
0
  6
CONTINUOUS
 62
               4
100
AcDbCircle
 10
12.0
 20
-12.0
 30
0.0
 40
2.75
  0
CIRCLE
  5
17E
100
AcDbEntity
  8
0
  6
CONTINUOUS
 62
               4
100
AcDbCircle
 10
-12.0
 20
-12.0
 30
0.0
 40
2.75
  0
CIRCLE
  5
17F
100
AcDbEntity
  8
0
  6
CONTINUOUS
 62
               4
100
AcDbCircle
 10
12.0
 20
12.0
 30
0.0
 40
2.75
  0
CIRCLE
  5
180
100
AcDbEntity
  8
0
  6
CONTINUOUS
 62
               4
100
AcDbCircle
 10
-12.0
 20
12.0
 30
0.0
 40
2.75
  0
ARC
  5
181
100
AcDbEntity
  8
0
  6
CONTINUOUS
 62
               4
100
AcDbCircle
 10
0.0
 20
0.0
 30
0.0
 40
11.0
100
AcDbArc
 50
27.012291676754888
 51
152.98771333220145
  0
ARC
  5
182
100
AcDbEntity
  8
0
  6
CONTINUOUS
 62
               4
100
AcDbCircle
 10
0.0
 20
0.0
 30
0.0
 40
22.0
100
AcDbArc
 50
309.40051062844151
 51
320.59937075386443
  0
ARC
  5
183
100
AcDbEntity
  8
0
  6
CONTINUOUS
 62
               4
100
AcDbCircle
 10
0.0
 20
0.0
 30
0.0
 40
22.0
100
AcDbArc
 50
219.40050129377417
 51
230.59936141919709
  0
ARC
  5
184
100
AcDbEntity
  8
0
  6
CONTINUOUS
 62
               4
100
AcDbCircle
 10
0.0
 20
0.0
 30
0.0
 40
22.0
100
AcDbArc
 50
39.400574604622193
 51
50.599434730045139
  0
ARC
  5
185
100
AcDbEntity
  8
0
  6
CONTINUOUS
 62
               4
100
AcDbCircle
 10
0.0
 20
0.0
 30
0.0
 40
22.0
100
AcDbArc
 50
129.40058393928953
 51
140.59944406471249
  0
ARC
  5
186
100
AcDbEntity
  8
0
  6
CONTINUOUS
 62
               4
100
AcDbCircle
 10
0.0
 20
0.0
 30
0.0
 40
10.0
100
AcDbArc
 50
293.57813835948599
 51
336.92603637980949
  0
ARC
  5
187
100
AcDbEntity
  8
0
  6
CONTINUOUS
 62
               4
100
AcDbCircle
 10
0.0
 20
0.0
 30
0.0
 40
11.0
100
AcDbArc
 50
207.01228666779855
 51
332.98769466286677
  0
LINE
  5
188
100
AcDbEntity
  8
0
  6
CONTINUOUS
 62
               4
100
AcDbLine
 10
9.1999969482421875
 20
-4.0
 30
0.0
 11
9.8000030517578125
 21
-4.0
 31
0.0
  0
LINE
  5
189
100
AcDbEntity
  8
0
  6
CONTINUOUS
 62
               4
100
AcDbLine
 10
9.1999969482421875
 20
4.0
 30
0.0
 11
9.8000030517578125
 21
4.0
 31
0.0
  0
LINE
  5
18A
100
AcDbEntity
  8
0
  6
CONTINUOUS
 62
               4
100
AcDbLine
 10
-4.0
 20
-4.0
 30
0.0
 11
4.0
 21
-4.0
 31
0.0
  0
LINE
  5
18B
100
AcDbEntity
  8
0
  6
CONTINUOUS
 62
               4
100
AcDbLine
 10
-4.0
 20
4.0
 30
0.0
 11
4.0
 21
4.0
 31
0.0
  0
LINE
  5
18C
100
AcDbEntity
  8
0
  6
CONTINUOUS
 62
               4
100
AcDbLine
 10
-9.8000030517578125
 20
-6.0
 30
0.0
 11
-10.600006103515625
 21
-6.0
 31
0.0
  0
LINE
  5
18D
100
AcDbEntity
  8
0
  6
CONTINUOUS
 62
               4
100
AcDbLine
 10
-10.600006103515625
 20
-6.0
 30
0.0
 11
-10.600006103515625
 21
6.0
 31
0.0
  0
LINE
  5
18E
100
AcDbEntity
  8
0
  6
CONTINUOUS
 62
               4
100
AcDbLine
 10
-9.8000030517578125
 20
-6.0
 30
0.0
 11
-9.8000030517578125
 21
6.0
 31
0.0
  0
LINE
  5
18F
100
AcDbEntity
  8
0
  6
CONTINUOUS
 62
               4
100
AcDbLine
 10
-9.8000030517578125
 20
6.0
 30
0.0
 11
-10.600006103515625
 21
6.0
 31
0.0
  0
LINE
  5
190
100
AcDbEntity
  8
0
  6
CONTINUOUS
 62
               4
100
AcDbLine
 10
-9.8000030517578125
 20
-4.0
 30
0.0
 11
-9.1999969482421875
 21
-4.0
 31
0.0
  0
LINE
  5
191
100
AcDbEntity
  8
0
  6
CONTINUOUS
 62
               4
100
AcDbLine
 10
-9.8000030517578125
 20
4.0
 30
0.0
 11
-9.1999969482421875
 21
4.0
 31
0.0
  0
LINE
  5
192
100
AcDbEntity
  8
0
  6
CONTINUOUS
 62
               4
100
AcDbLine
 10
10.600006103515625
 20
-4.0
 30
0.0
 11
12.199996948242188
 21
-4.0
 31
0.0
  0
LINE
  5
193
100
AcDbEntity
  8
0
  6
CONTINUOUS
 62
               4
100
AcDbLine
 10
10.600006103515625
 20
4.0
 30
0.0
 11
12.199996948242188
 21
4.0
 31
0.0
  0
LINE
  5
194
100
AcDbEntity
  8
0
  6
CONTINUOUS
 62
               4
100
AcDbLine
 10
9.8000030517578125
 20
-6.0
 30
0.0
 11
10.600006103515625
 21
-6.0
 31
0.0
  0
LINE
  5
195
100
AcDbEntity
  8
0
  6
CONTINUOUS
 62
               4
100
AcDbLine
 10
9.8000030517578125
 20
6.0
 30
0.0
 11
10.600006103515625
 21
6.0
 31
0.0
  0
LINE
  5
196
100
AcDbEntity
  8
0
  6
CONTINUOUS
 62
               4
100
AcDbLine
 10
10.600006103515625
 20
-6.0
 30
0.0
 11
10.600006103515625
 21
6.0
 31
0.0
  0
LINE
  5
197
100
AcDbEntity
  8
0
  6
CONTINUOUS
 62
               4
100
AcDbLine
 10
9.8000030517578125
 20
-6.0
 30
0.0
 11
9.8000030517578125
 21
6.0
 31
0.0
  0
LINE
  5
198
100
AcDbEntity
  8
0
  6
CONTINUOUS
 62
               4
100
AcDbLine
 10
12.199996948242188
 20
-4.0
 30
0.0
 11
12.199996948242188
 21
4.0
 31
0.0
  0
LINE
  5
199
100
AcDbEntity
  8
0
  6
CONTINUOUS
 62
               4
100
AcDbLine
 10
-12.199996948242188
 20
4.0
 30
0.0
 11
-10.600006103515625
 21
4.0
 31
0.0
  0
LINE
  5
19A
100
AcDbEntity
  8
0
  6
CONTINUOUS
 62
               4
100
AcDbLine
 10
-12.199996948242188
 20
-4.0
 30
0.0
 11
-12.199996948242188
 21
4.0
 31
0.0
  0
LINE
  5
19B
100
AcDbEntity
  8
0
  6
CONTINUOUS
 62
               4
100
AcDbLine
 10
-12.199996948242188
 20
-4.0
 30
0.0
 11
-10.600006103515625
 21
-4.0
 31
0.0
  0
LINE
  5
19C
100
AcDbEntity
  8
0
  6
CENTER
 62
             200
100
AcDbLine
 10
-15.866241455078125
 20
-12.0
 30
0.0
 11
-7.9073486328125
 21
-12.0
 31
0.0
  0
LINE
  5
19D
100
AcDbEntity
  8
0
  6
CONTINUOUS
 62
               4
100
AcDbLine
 10
-9.1999969482421875
 20
-6.0299263000488281
 30
0.0
 11
-9.1999969482421875
 21
6.0299224853515625
 31
0.0
  0
LINE
  5
19E
100
AcDbEntity
  8
0
  6
CONTINUOUS
 62
               4
100
AcDbLine
 10
9.1999969482421875
 20
-6.0299263000488281
 30
0.0
 11
9.1999969482421875
 21
6.0299224853515625
 31
0.0
  0
LINE
  5
19F
100
AcDbEntity
  8
0
  6
CONTINUOUS
 62
               4
100
AcDbLine
 10
-4.0
 20
-10.246952056884766
 30
0.0
 11
-4.0
 21
10.2469482421875
 31
0.0
  0
LINE
  5
1A0
100
AcDbEntity
  8
0
  6
CONTINUOUS
 62
               4
100
AcDbLine
 10
4.0
 20
-10.246952056884766
 30
0.0
 11
4.0
 21
10.2469482421875
 31
0.0
  0
LINE
  5
1A1
100
AcDbEntity
  8
0
  6
CENTER
 62
             200
100
AcDbLine
 10
12.0
 20
-7.9732398986816406
 30
0.0
 11
12.0
 21
-15.682899475097656
 31
0.0
  0
LINE
  5
1A2
100
AcDbEntity
  8
0
  6
CENTER
 62
             200
100
AcDbLine
 10
15.814697265625
 20
-12.0
 30
0.0
 11
7.9073486328125
 21
-12.0
 31
0.0
  0
LINE
  5
1A3
100
AcDbEntity
  8
0
  6
CENTER
 62
             200
100
AcDbLine
 10
-12.0
 20
-7.9732398986816406
 30
0.0
 11
-12.0
 21
-15.682899475097656
 31
0.0
  0
LINE
  5
1A4
100
AcDbEntity
  8
0
  6
CENTER
 62
             200
100
AcDbLine
 10
12.0
 20
7.973236083984375
 30
0.0
 11
12.0
 21
15.682899475097656
 31
0.0
  0
LINE
  5
1A5
100
AcDbEntity
  8
0
  6
CENTER
 62
             200
100
AcDbLine
 10
15.814697265625
 20
12.0
 30
0.0
 11
7.9073486328125
 21
12.0
 31
0.0
  0
LINE
  5
1A6
100
AcDbEntity
  8
0
  6
CENTER
 62
             200
100
AcDbLine
 10
-12.0
 20
7.973236083984375
 30
0.0
 11
-12.0
 21
15.682899475097656
 31
0.0
  0
LINE
  5
1A7
100
AcDbEntity
  8
0
  6
CENTER
 62
             200
100
AcDbLine
 10
-15.814697265625
 20
12.0
 30
0.0
 11
-7.9073486328125
 21
12.0
 31
0.0
  0
LINE
  5
1A8
100
AcDbEntity
  8
0
  6
CONTINUOUS
 62
               4
100
AcDbLine
 10
-13.9642333984375
 20
17.0
 30
0.0
 11
13.9642333984375
 21
17.0
 31
0.0
  0
LINE
  5
1A9
100
AcDbEntity
  8
0
  6
CONTINUOUS
 62
               4
100
AcDbLine
 10
-13.9642333984375
 20
-17.0
 30
0.0
 11
13.9642333984375
 21
-17.0
 31
0.0
  0
LINE
  5
1AA
100
AcDbEntity
  8
0
  6
CONTINUOUS
 62
               4
100
AcDbLine
 10
-17.0
 20
-13.964241027832031
 30
0.0
 11
-17.0
 21
13.964241027832031
 31
0.0
  0
LINE
  5
1AB
100
AcDbEntity
  8
0
  6
CONTINUOUS
 62
               4
100
AcDbLine
 10
17.0
 20
-13.964241027832031
 30
0.0
 11
17.0
 21
13.964241027832031
 31
0.0
  0
LINE
  5
1AC
100
AcDbEntity
  8
0
  6
CENTER
 62
             200
100
AcDbLine
 10
0.0
 20
-19.636573791503906
 30
0.0
 11
0.0
 21
19.702468872070313
 31
0.0
  0
LINE
  5
1AD
100
AcDbEntity
  8
0
  6
CENTER
 62
             200
100
AcDbLine
 10
-18.911727905273438
 20
0.0
 30
0.0
 11
19.175308227539063
 21
0.0
 31
0.0
  0
ENDBLK
  5
1AE
100
AcDbEntity
  8
0
100
AcDbBlockEnd
  0
BLOCK
  5
1AF
100
AcDbEntity
  8
0
100
AcDbBlockBegin
  2
JIG-C_CLEVIS1-9
 70
               0
 10
0.0
 20
0.0
 30
0.0
  3
JIG-C_CLEVIS1-9
  1

  0
ARC
  5
1B0
100
AcDbEntity
  8
0
  6
CONTINUOUS
 62
               4
100
AcDbCircle
 10
0.1999969482421875
 20
-16.800003051757812
 30
0.0
 40
0.2000000029802322
100
AcDbArc
 50
179.99998133066532
 51
270.00001798608935
  0
ARC
  5
1B1
100
AcDbEntity
  8
0
  6
CONTINUOUS
 62
               4
100
AcDbCircle
 10
3.8000030517578125
 20
16.800003051757812
 30
0.0
 40
0.2000000029802322
100
AcDbArc
 50
0.0
 51
89.999982013910653
  0
ARC
  5
1B2
100
AcDbEntity
  8
0
  6
CONTINUOUS
 62
               4
100
AcDbCircle
 10
0.1999969482421875
 20
16.800003051757812
 30
0.0
 40
0.2000000029802322
100
AcDbArc
 50
89.999982013910653
 51
179.99996402782131
  0
ARC
  5
1B3
100
AcDbEntity
  8
0
  6
CONTINUOUS
 62
               4
100
AcDbCircle
 10
3.8000030517578125
 20
-16.800003051757812
 30
0.0
 40
0.2000000029802322
100
AcDbArc
 50
270.00001798608935
 51
0.0
  0
ARC
  5
1B4
100
AcDbEntity
  8
0
  6
CONTINUOUS
 62
               4
100
AcDbCircle
 10
5.1999969482421875
 20
-10.199996948242187
 30
0.0
 40
0.2000000029802322
100
AcDbArc
 50
89.999982013910653
 51
179.99996402782131
  0
LINE
  5
1B5
100
AcDbEntity
  8
0
  6
CONTINUOUS
 62
               4
100
AcDbLine
 10
21.0
 20
-4.0
 30
0.0
 11
21.0
 21
4.0
 31
0.0
  0
LINE
  5
1B6
100
AcDbEntity
  8
0
  6
CONTINUOUS
 62
               4
100
AcDbLine
 10
21.0
 20
9.1999969482421875
 30
0.0
 11
21.0
 21
9.8000030517578125
 31
0.0
  0
LINE
  5
1B7
100
AcDbEntity
  8
0
  6
CONTINUOUS
 62
               4
100
AcDbLine
 10
13.0
 20
-4.0
 30
0.0
 11
13.0
 21
4.0
 31
0.0
  0
LINE
  5
1B8
100
AcDbEntity
  8
0
  6
CONTINUOUS
 62
               4
100
AcDbLine
 10
13.0
 20
9.1999969482421875
 30
0.0
 11
13.0
 21
9.8000030517578125
 31
0.0
  0
LINE
  5
1B9
100
AcDbEntity
  8
0
  6
CONTINUOUS
 62
               4
100
AcDbLine
 10
23.0
 20
-9.8000030517578125
 30
0.0
 11
23.0
 21
-10.600006103515625
 31
0.0
  0
LINE
  5
1BA
100
AcDbEntity
  8
0
  6
CONTINUOUS
 62
               4
100
AcDbLine
 10
23.0
 20
-10.600006103515625
 30
0.0
 11
11.0
 21
-10.600006103515625
 31
0.0
  0
LINE
  5
1BB
100
AcDbEntity
  8
0
  6
CONTINUOUS
 62
               4
100
AcDbLine
 10
23.0
 20
-9.8000030517578125
 30
0.0
 11
11.0
 21
-9.8000030517578125
 31
0.0
  0
LINE
  5
1BC
100
AcDbEntity
  8
0
  6
CONTINUOUS
 62
               4
100
AcDbLine
 10
11.0
 20
-9.8000030517578125
 30
0.0
 11
11.0
 21
-10.600006103515625
 31
0.0
  0
LINE
  5
1BD
100
AcDbEntity
  8
0
  6
CONTINUOUS
 62
               4
100
AcDbLine
 10
21.0
 20
-9.8000030517578125
 30
0.0
 11
21.0
 21
-9.1999969482421875
 31
0.0
  0
LINE
  5
1BE
100
AcDbEntity
  8
0
  6
CONTINUOUS
 62
               4
100
AcDbLine
 10
13.0
 20
-9.8000030517578125
 30
0.0
 11
13.0
 21
-9.1999969482421875
 31
0.0
  0
LINE
  5
1BF
100
AcDbEntity
  8
0
  6
CONTINUOUS
 62
               4
100
AcDbLine
 10
21.0
 20
10.599990844726563
 30
0.0
 11
21.0
 21
12.199996948242188
 31
0.0
  0
LINE
  5
1C0
100
AcDbEntity
  8
0
  6
CONTINUOUS
 62
               4
100
AcDbLine
 10
13.0
 20
10.599990844726563
 30
0.0
 11
13.0
 21
12.199996948242188
 31
0.0
  0
LINE
  5
1C1
100
AcDbEntity
  8
0
  6
CONTINUOUS
 62
               4
100
AcDbLine
 10
23.0
 20
9.8000030517578125
 30
0.0
 11
23.0
 21
10.599990844726563
 31
0.0
  0
LINE
  5
1C2
100
AcDbEntity
  8
0
  6
CONTINUOUS
 62
               4
100
AcDbLine
 10
11.0
 20
9.8000030517578125
 30
0.0
 11
11.0
 21
10.599990844726563
 31
0.0
  0
LINE
  5
1C3
100
AcDbEntity
  8
0
  6
CONTINUOUS
 62
               4
100
AcDbLine
 10
23.0
 20
10.599990844726563
 30
0.0
 11
11.0
 21
10.599990844726563
 31
0.0
  0
LINE
  5
1C4
100
AcDbEntity
  8
0
  6
CONTINUOUS
 62
               4
100
AcDbLine
 10
23.0
 20
9.8000030517578125
 30
0.0
 11
11.0
 21
9.8000030517578125
 31
0.0
  0
LINE
  5
1C5
100
AcDbEntity
  8
0
  6
CONTINUOUS
 62
               4
100
AcDbLine
 10
21.0
 20
12.199996948242188
 30
0.0
 11
13.0
 21
12.199996948242188
 31
0.0
  0
LINE
  5
1C6
100
AcDbEntity
  8
0
  6
CONTINUOUS
 62
               4
100
AcDbLine
 10
13.0
 20
-12.199996948242188
 30
0.0
 11
13.0
 21
-10.600006103515625
 31
0.0
  0
LINE
  5
1C7
100
AcDbEntity
  8
0
  6
CONTINUOUS
 62
               4
100
AcDbLine
 10
21.0
 20
-12.199996948242188
 30
0.0
 11
13.0
 21
-12.199996948242188
 31
0.0
  0
LINE
  5
1C8
100
AcDbEntity
  8
0
  6
CONTINUOUS
 62
               4
100
AcDbLine
 10
21.0
 20
-12.199996948242188
 30
0.0
 11
21.0
 21
-10.600006103515625
 31
0.0
  0
LINE
  5
1C9
100
AcDbEntity
  8
0
  6
CONTINUOUS
 62
               4
100
AcDbLine
 10
3.9999856009138739
 20
-11.200005180909955
 30
0.0
 11
4.1999942089481692
 21
-11.000000399937505
 31
0.0
  0
LINE
  5
1CA
100
AcDbEntity
  8
0
  6
CONTINUOUS
 62
               4
100
AcDbLine
 10
4.0000395484167939
 20
11.200053734596793
 30
0.0
 11
4.2000427616027309
 21
11.000054348369474
 31
0.0
  0
LINE
  5
1CB
100
AcDbEntity
  8
0
  6
CONTINUOUS
 62
               4
100
AcDbLine
 10
25.0
 20
4.0
 30
0.0
 11
25.0
 21
8.4000091552734375
 31
0.0
  0
LINE
  5
1CC
100
AcDbEntity
  8
0
  6
CONTINUOUS
 62
               4
100
AcDbLine
 10
5.0
 20
-4.0
 30
0.0
 11
25.0
 21
-4.0
 31
0.0
  0
LINE
  5
1CD
100
AcDbEntity
  8
0
  6
CONTINUOUS
 62
               4
100
AcDbLine
 10
5.0
 20
4.0
 30
0.0
 11
25.0
 21
4.0
 31
0.0
  0
LINE
  5
1CE
100
AcDbEntity
  8
0
  6
CONTINUOUS
 62
               4
100
AcDbLine
 10
0.0
 20
13.964218139648438
 30
0.0
 11
4.0
 21
13.964218139648438
 31
0.0
  0
LINE
  5
1CF
100
AcDbEntity
  8
0
  6
CENTER
 62
             200
100
AcDbLine
 10
-0.754150390625
 20
12.0
 30
0.0
 11
5.145843505859375
 21
12.0
 31
0.0
  0
LINE
  5
1D0
100
AcDbEntity
  8
0
  6
CONTINUOUS
 62
               4
100
AcDbLine
 10
0.0
 20
-13.964218139648438
 30
0.0
 11
4.0
 21
-13.964218139648438
 31
0.0
  0
LINE
  5
1D1
100
AcDbEntity
  8
0
  6
CONTINUOUS
 62
               4
100
AcDbLine
 10
24.199996948242188
 20
4.0
 30
0.0
 11
24.199996948242188
 21
9.1999969482421875
 31
0.0
  0
LINE
  5
1D2
100
AcDbEntity
  8
0
  6
CENTER
 62
             200
100
AcDbLine
 10
17.0
 20
-13.930526733398438
 30
0.0
 11
17.0
 21
14.202804565429688
 31
0.0
  0
LINE
  5
1D3
100
AcDbEntity
  8
0
  6
CONTINUOUS
 62
               4
100
AcDbLine
 10
24.199996948242188
 20
-4.0
 30
0.0
 11
24.199996948242188
 21
-9.1999969482421875
 31
0.0
  0
LINE
  5
1D4
100
AcDbEntity
  8
0
  6
CONTINUOUS
 62
               4
100
AcDbLine
 10
24.200002560324037
 20
-9.2000119582683055
 30
0.0
 11
25.000006781337333
 21
-8.4000058490639731
 31
0.0
  0
LINE
  5
1D5
100
AcDbEntity
  8
0
  6
CONTINUOUS
 62
               4
100
AcDbLine
 10
24.199991096366318
 20
9.1999991456401062
 30
0.0
 11
24.999989922589464
 21
8.3999984312386573
 31
0.0
  0
LINE
  5
1D6
100
AcDbEntity
  8
0
  6
CONTINUOUS
 62
               4
100
AcDbLine
 10
5.1999969482421875
 20
-9.1999969482421875
 30
0.0
 11
24.199996948242188
 21
-9.1999969482421875
 31
0.0
  0
LINE
  5
1D7
100
AcDbEntity
  8
0
  6
CONTINUOUS
 62
               4
100
AcDbLine
 10
5.0
 20
9.1999969482421875
 30
0.0
 11
24.199996948242188
 21
9.1999969482421875
 31
0.0
  0
LINE
  5
1D8
100
AcDbEntity
  8
0
  6
CONTINUOUS
 62
               4
100
AcDbLine
 10
5.0
 20
-10.0
 30
0.0
 11
5.0
 21
11.0
 31
0.0
  0
LINE
  5
1D9
100
AcDbEntity
  8
0
  6
CONTINUOUS
 62
               4
100
AcDbLine
 10
4.1999969482421875
 20
-11.0
 30
0.0
 11
5.0
 21
-11.0
 31
0.0
  0
LINE
  5
1DA
100
AcDbEntity
  8
0
  6
CONTINUOUS
 62
               4
100
AcDbLine
 10
4.20001220703125
 20
11.0
 30
0.0
 11
5.0
 21
11.0
 31
0.0
  0
LINE
  5
1DB
100
AcDbEntity
  8
0
  6
CONTINUOUS
 62
               4
100
AcDbLine
 10
25.0
 20
-8.4000244140625
 30
0.0
 11
25.0
 21
-4.0
 31
0.0
  0
LINE
  5
1DC
100
AcDbEntity
  8
0
  6
CONTINUOUS
 62
               4
100
AcDbLine
 10
5.0
 20
-11.0
 30
0.0
 11
5.0
 21
-10.199996948242187
 31
0.0
  0
LINE
  5
1DD
100
AcDbEntity
  8
0
  6
CONTINUOUS
 62
               4
100
AcDbLine
 10
4.0
 20
-16.800003051757812
 30
0.0
 11
4.0
 21
16.800003051757812
 31
0.0
  0
LINE
  5
1DE
100
AcDbEntity
  8
0
  6
CONTINUOUS
 62
               4
100
AcDbLine
 10
0.0
 20
-16.800003051757812
 30
0.0
 11
0.0
 21
16.800003051757812
 31
0.0
  0
LINE
  5
1DF
100
AcDbEntity
  8
0
  6
CONTINUOUS
 62
               4
100
AcDbLine
 10
0.1999969482421875
 20
-17.0
 30
0.0
 11
3.8000030517578125
 21
-17.0
 31
0.0
  0
LINE
  5
1E0
100
AcDbEntity
  8
0
  6
CONTINUOUS
 62
               4
100
AcDbLine
 10
0.1999969482421875
 20
17.0
 30
0.0
 11
3.8000030517578125
 21
17.0
 31
0.0
  0
LINE
  5
1E1
100
AcDbEntity
  8
0
  6
CENTER
 62
             200
100
AcDbLine
 10
-2.666656494140625
 20
0.0
 30
0.0
 11
27.968597412109375
 21
0.0
 31
0.0
  0
LINE
  5
1E2
100
AcDbEntity
  8
0
  6
CENTER
 62
             200
100
AcDbLine
 10
-0.754150390625
 20
-12.0
 30
0.0
 11
5.145843505859375
 21
-12.0
 31
0.0
  0
ENDBLK
  5
1E3
100
AcDbEntity
  8
0
100
AcDbBlockEnd
  0
BLOCK
  5
1E4
100
AcDbEntity
  8
0
100
AcDbBlockBegin
  2
JIG-C_CLEVIS1-10
 70
               0
 10
0.0
 20
0.0
 30
0.0
  3
JIG-C_CLEVIS1-10
  1

  0
ARC
  5
1E5
100
AcDbEntity
  8
0
  6
CONTINUOUS
 62
               4
100
AcDbCircle
 10
0.1999969482421875
 20
-19.800003051757813
 30
0.0
 40
0.2000000029802322
100
AcDbArc
 50
179.99998133066532
 51
270.00001798608935
  0
ARC
  5
1E6
100
AcDbEntity
  8
0
  6
CONTINUOUS
 62
               4
100
AcDbCircle
 10
3.8000030517578125
 20
19.800003051757813
 30
0.0
 40
0.2000000029802322
100
AcDbArc
 50
0.0
 51
89.999982013910653
  0
ARC
  5
1E7
100
AcDbEntity
  8
0
  6
CONTINUOUS
 62
               4
100
AcDbCircle
 10
0.1999969482421875
 20
19.800003051757813
 30
0.0
 40
0.2000000029802322
100
AcDbArc
 50
89.999982013910653
 51
179.99996402782131
  0
CIRCLE
  5
1E8
100
AcDbEntity
  8
0
  6
CONTINUOUS
 62
               4
100
AcDbCircle
 10
17.0
 20
0.0
 30
0.0
 40
4.0
  0
ARC
  5
1E9
100
AcDbEntity
  8
0
  6
CONTINUOUS
 62
               4
100
AcDbCircle
 10
17.0
 20
0.0
 30
0.0
 40
6.0
100
AcDbArc
 50
300.0000461416721
 51
239.99995203709508
  0
ARC
  5
1EA
100
AcDbEntity
  8
0
  6
CONTINUOUS
 62
               4
100
AcDbCircle
 10
3.8000030517578125
 20
-19.800003051757813
 30
0.0
 40
0.2000000029802322
100
AcDbArc
 50
270.00001798608935
 51
0.0
  0
LINE
  5
1EB
100
AcDbEntity
  8
0
  6
CONTINUOUS
 62
               4
100
AcDbLine
 10
19.999841162777301
 20
-5.1962538700567507
 30
0.0
 11
18.999841222381946
 21
-3.4642030935751222
 31
0.0
  0
LINE
  5
1EC
100
AcDbEntity
  8
0
  6
CONTINUOUS
 62
               4
100
AcDbLine
 10
13.999963619792538
 20
-5.1961500003873198
 30
0.0
 11
14.999963739001828
 21
-3.4640992239056914
 31
0.0
  0
LINE
  5
1ED
100
AcDbEntity
  8
0
  6
CONTINUOUS
 62
               4
100
AcDbLine
 10
5.0
 20
-12.5
 30
0.0
 11
5.0
 21
-12.800003051757812
 31
0.0
  0
LINE
  5
1EE
100
AcDbEntity
  8
0
  6
CONTINUOUS
 62
               4
100
AcDbLine
 10
5.0
 20
12.5
 30
0.0
 11
5.0
 21
12.800003051757812
 31
0.0
  0
LINE
  5
1EF
100
AcDbEntity
  8
0
  6
CENTER
 62
             200
100
AcDbLine
 10
4.6599273681640625
 20
-14.0
 30
0.0
 11
-0.9400634765625
 21
-14.0
 31
0.0
  0
LINE
  5
1F0
100
AcDbEntity
  8
0
  6
CENTER
 62
             200
100
AcDbLine
 10
4.6599273681640625
 20
14.0
 30
0.0
 11
-0.9400634765625
 21
14.0
 31
0.0
  0
LINE
  5
1F1
100
AcDbEntity
  8
0
  6
CONTINUOUS
 62
               4
100
AcDbLine
 10
5.0
 20
13.0
 30
0.0
 11
5.0
 21
12.5
 31
0.0
  0
LINE
  5
1F2
100
AcDbEntity
  8
0
  6
CONTINUOUS
 62
               4
100
AcDbLine
 10
4.1999969482421875
 20
13.0
 30
0.0
 11
5.0
 21
13.0
 31
0.0
  0
LINE
  5
1F3
100
AcDbEntity
  8
0
  6
CONTINUOUS
 62
               4
100
AcDbLine
 10
4.1999299769023537
 20
12.999952957378355
 30
0.0
 11
3.9999335915282472
 21
13.199948381824015
 31
0.0
  0
LINE
  5
1F4
100
AcDbEntity
  8
0
  6
CONTINUOUS
 62
               4
100
AcDbLine
 10
4.1999880045465261
 20
-13.000023241557415
 30
0.0
 11
3.9999921080658396
 21
-13.200019138038101
 31
0.0
  0
LINE
  5
1F5
100
AcDbEntity
  8
0
  6
CONTINUOUS
 62
               4
100
AcDbLine
 10
0.0
 20
15.0
 30
0.0
 11
4.0
 21
15.0
 31
0.0
  0
LINE
  5
1F6
100
AcDbEntity
  8
0
  6
CONTINUOUS
 62
               4
100
AcDbLine
 10
24.0
 20
9.1847686767578125
 30
0.0
 11
24.0
 21
12.5
 31
0.0
  0
LINE
  5
1F7
100
AcDbEntity
  8
0
  6
CONTINUOUS
 62
               4
100
AcDbLine
 10
5.0
 20
9.1847686767578125
 30
0.0
 11
24.0
 21
9.1847686767578125
 31
0.0
  0
LINE
  5
1F8
100
AcDbEntity
  8
0
  6
CONTINUOUS
 62
               4
100
AcDbLine
 10
24.000089133823508
 20
9.1848839774667113
 30
0.0
 11
25.000081155371277
 21
8.4623862720337684
 31
0.0
  0
LINE
  5
1F9
100
AcDbEntity
  8
0
  6
CONTINUOUS
 62
               4
100
AcDbLine
 10
19.920865407427186
 20
5.2410224397058869
 30
0.0
 11
23.999972677654
 21
9.1847783376320535
 31
0.0
  0
LINE
  5
1FA
100
AcDbEntity
  8
0
  6
CONTINUOUS
 62
               4
100
AcDbLine
 10
11.663338162780349
 20
2.7423551673491602
 30
0.0
 11
4.9999023991591116
 21
9.1846841025217145
 31
0.0
  0
LINE
  5
1FB
100
AcDbEntity
  8
0
  6
CONTINUOUS
 62
               4
100
AcDbLine
 10
24.000026048733275
 20
-9.1847571931641596
 30
0.0
 11
25.000019320351498
 21
-8.4622612525365639
 31
0.0
  0
LINE
  5
1FC
100
AcDbEntity
  8
0
  6
CONTINUOUS
 62
               4
100
AcDbLine
 10
5.0
 20
-9.1847686767578125
 30
0.0
 11
24.0
 21
-9.1847686767578125
 31
0.0
  0
LINE
  5
1FD
100
AcDbEntity
  8
0
  6
CONTINUOUS
 62
               4
100
AcDbLine
 10
24.000030514775744
 20
-12.50005796658661
 30
0.0
 11
25.000019859550548
 21
-11.500066683075602
 31
0.0
  0
LINE
  5
1FE
100
AcDbEntity
  8
0
  6
CONTINUOUS
 62
               4
100
AcDbLine
 10
5.0
 20
-12.5
 30
0.0
 11
24.0
 21
-12.5
 31
0.0
  0
LINE
  5
1FF
100
AcDbEntity
  8
0
  6
CONTINUOUS
 62
               4
100
AcDbLine
 10
24.000170779606151
 20
12.500176651979018
 30
0.0
 11
25.000170913963984
 21
11.500174578864062
 31
0.0
  0
LINE
  5
200
100
AcDbEntity
  8
0
  6
CONTINUOUS
 62
               4
100
AcDbLine
 10
5.0
 20
12.5
 30
0.0
 11
24.0
 21
12.5
 31
0.0
  0
LINE
  5
201
100
AcDbEntity
  8
0
  6
CONTINUOUS
 62
               4
100
AcDbLine
 10
18.382265990887902
 20
-3.7536244887719477
 30
0.0
 11
23.999903693501039
 21
-9.1848571445202651
 31
0.0
  0
LINE
  5
202
100
AcDbEntity
  8
0
  6
CONTINUOUS
 62
               4
100
AcDbLine
 10
11.663387514645706
 20
-2.7424281656367384
 30
0.0
 11
4.9999517510244686
 21
-9.1847571008092928
 31
0.0
  0
LINE
  5
203
100
AcDbEntity
  8
0
  6
CENTER
 62
             200
100
AcDbLine
 10
17.0
 20
-14.054931640625
 30
0.0
 11
17.0
 21
14.23968505859375
 31
0.0
  0
LINE
  5
204
100
AcDbEntity
  8
0
  6
CONTINUOUS
 62
               4
100
AcDbLine
 10
0.0
 20
-15.0
 30
0.0
 11
4.0
 21
-15.0
 31
0.0
  0
LINE
  5
205
100
AcDbEntity
  8
0
  6
CONTINUOUS
 62
               4
100
AcDbLine
 10
24.0
 20
-9.1847686767578125
 30
0.0
 11
24.0
 21
-12.5
 31
0.0
  0
LINE
  5
206
100
AcDbEntity
  8
0
  6
CONTINUOUS
 62
               4
100
AcDbLine
 10
5.0
 20
-9.1847686767578125
 30
0.0
 11
5.0
 21
9.1847686767578125
 31
0.0
  0
LINE
  5
207
100
AcDbEntity
  8
0
  6
CONTINUOUS
 62
               4
100
AcDbLine
 10
0.1999969482421875
 20
-20.0
 30
0.0
 11
3.8000030517578125
 21
-20.0
 31
0.0
  0
LINE
  5
208
100
AcDbEntity
  8
0
  6
CONTINUOUS
 62
               4
100
AcDbLine
 10
0.1999969482421875
 20
20.0
 30
0.0
 11
3.8000030517578125
 21
20.0
 31
0.0
  0
LINE
  5
209
100
AcDbEntity
  8
0
  6
CONTINUOUS
 62
               4
100
AcDbLine
 10
4.1999969482421875
 20
-13.0
 30
0.0
 11
5.0
 21
-13.0
 31
0.0
  0
LINE
  5
20A
100
AcDbEntity
  8
0
  6
CONTINUOUS
 62
               4
100
AcDbLine
 10
25.0
 20
-11.500015258789063
 30
0.0
 11
25.0
 21
11.5
 31
0.0
  0
LINE
  5
20B
100
AcDbEntity
  8
0
  6
CONTINUOUS
 62
               4
100
AcDbLine
 10
4.0
 20
-19.800003051757813
 30
0.0
 11
4.0
 21
20.0
 31
0.0
  0
LINE
  5
20C
100
AcDbEntity
  8
0
  6
CONTINUOUS
 62
               4
100
AcDbLine
 10
0.0
 20
-19.800003051757813
 30
0.0
 11
0.0
 21
19.800003051757813
 31
0.0
  0
LINE
  5
20D
100
AcDbEntity
  8
0
  6
CENTER
 62
             200
100
AcDbLine
 10
-1.9400634765625
 20
0.0
 30
0.0
 11
26.85992431640625
 21
0.0
 31
0.0
  0
ENDBLK
  5
20E
100
AcDbEntity
  8
0
100
AcDbBlockEnd
  0
BLOCK
  5
20F
100
AcDbEntity
  8
0
100
AcDbBlockBegin
  2
JIG-C_CLEVIS1-11
 70
               0
 10
0.0
 20
0.0
 30
0.0
  3
JIG-C_CLEVIS1-11
  1

  0
CIRCLE
  5
210
100
AcDbEntity
  8
0
  6
CONTINUOUS
 62
               4
100
AcDbCircle
 10
14.0
 20
-14.0
 30
0.0
 40
3.2999999523162842
  0
CIRCLE
  5
211
100
AcDbEntity
  8
0
  6
CONTINUOUS
 62
               4
100
AcDbCircle
 10
14.0
 20
14.0
 30
0.0
 40
3.2999999523162842
  0
ARC
  5
212
100
AcDbEntity
  8
0
  6
CONTINUOUS
 62
             200
100
AcDbCircle
 10
0.0
 20
0.0
 30
0.0
 40
12.5
100
AcDbArc
 50
288.66303177990727
 51
317.39190025924813
  0
ARC
  5
213
100
AcDbEntity
  8
0
  6
CONTINUOUS
 62
             200
100
AcDbCircle
 10
0.0
 20
0.0
 30
0.0
 40
12.5
100
AcDbArc
 50
42.608195363400263
 51
71.337063842741102
  0
ARC
  5
214
100
AcDbEntity
  8
0
  6
CONTINUOUS
 62
             200
100
AcDbCircle
 10
0.0
 20
0.0
 30
0.0
 40
12.5
100
AcDbArc
 50
222.60813571293056
 51
251.33700419227139
  0
ARC
  5
215
100
AcDbEntity
  8
0
  6
CONTINUOUS
 62
             200
100
AcDbCircle
 10
0.0
 20
0.0
 30
0.0
 40
12.5
100
AcDbArc
 50
108.66294116621523
 51
137.39180964555607
  0
ARC
  5
216
100
AcDbEntity
  8
0
  6
CONTINUOUS
 62
               4
100
AcDbCircle
 10
0.0
 20
0.0
 30
0.0
 40
25.0
100
AcDbArc
 50
306.86982991830337
 51
323.13003780362419
  0
ARC
  5
217
100
AcDbEntity
  8
0
  6
CONTINUOUS
 62
               4
100
AcDbCircle
 10
0.0
 20
0.0
 30
0.0
 40
25.0
100
AcDbArc
 50
216.86982058363606
 51
233.13002846895688
  0
ARC
  5
218
100
AcDbEntity
  8
0
  6
CONTINUOUS
 62
               4
100
AcDbCircle
 10
0.0
 20
0.0
 30
0.0
 40
25.0
100
AcDbArc
 50
36.869907554862429
 51
53.130115440183246
  0
CIRCLE
  5
219
100
AcDbEntity
  8
0
  6
CONTINUOUS
 62
               4
100
AcDbCircle
 10
0.0
 20
0.0
 30
0.0
 40
13.0
  0
ARC
  5
21A
100
AcDbEntity
  8
0
  6
CONTINUOUS
 62
               4
100
AcDbCircle
 10
0.0
 20
0.0
 30
0.0
 40
25.0
100
AcDbArc
 50
126.86991688952976
 51
143.13012477485057
  0
CIRCLE
  5
21B
100
AcDbEntity
  8
0
  6
CONTINUOUS
 62
               4
100
AcDbCircle
 10
-14.0
 20
-14.0
 30
0.0
 40
3.2999999523162842
  0
CIRCLE
  5
21C
100
AcDbEntity
  8
0
  6
CONTINUOUS
 62
               4
100
AcDbCircle
 10
-14.0
 20
14.0
 30
0.0
 40
3.2999999523162842
  0
LINE
  5
21D
100
AcDbEntity
  8
0
  6
CONTINUOUS
 62
               4
100
AcDbLine
 10
9.1999969482421875
 20
-4.0
 30
0.0
 11
9.8000030517578125
 21
-4.0
 31
0.0
  0
LINE
  5
21E
100
AcDbEntity
  8
0
  6
CONTINUOUS
 62
               4
100
AcDbLine
 10
-4.0
 20
-4.0
 30
0.0
 11
4.0
 21
-4.0
 31
0.0
  0
LINE
  5
21F
100
AcDbEntity
  8
0
  6
CONTINUOUS
 62
               4
100
AcDbLine
 10
9.1999969482421875
 20
4.0
 30
0.0
 11
9.8000030517578125
 21
4.0
 31
0.0
  0
LINE
  5
220
100
AcDbEntity
  8
0
  6
CONTINUOUS
 62
               4
100
AcDbLine
 10
-4.0
 20
4.0
 30
0.0
 11
4.0
 21
4.0
 31
0.0
  0
LINE
  5
221
100
AcDbEntity
  8
0
  6
CONTINUOUS
 62
               4
100
AcDbLine
 10
-9.8000030517578125
 20
-6.0
 30
0.0
 11
-10.600006103515625
 21
-6.0
 31
0.0
  0
LINE
  5
222
100
AcDbEntity
  8
0
  6
CONTINUOUS
 62
               4
100
AcDbLine
 10
-10.600006103515625
 20
4.0
 30
0.0
 11
-12.199996948242188
 21
4.0
 31
0.0
  0
LINE
  5
223
100
AcDbEntity
  8
0
  6
CONTINUOUS
 62
               4
100
AcDbLine
 10
-10.600006103515625
 20
-4.0
 30
0.0
 11
-12.199996948242188
 21
-4.0
 31
0.0
  0
LINE
  5
224
100
AcDbEntity
  8
0
  6
CONTINUOUS
 62
               4
100
AcDbLine
 10
-10.600006103515625
 20
-6.0
 30
0.0
 11
-10.600006103515625
 21
6.0
 31
0.0
  0
LINE
  5
225
100
AcDbEntity
  8
0
  6
CONTINUOUS
 62
               4
100
AcDbLine
 10
-9.8000030517578125
 20
-6.0
 30
0.0
 11
-9.8000030517578125
 21
6.0
 31
0.0
  0
LINE
  5
226
100
AcDbEntity
  8
0
  6
CONTINUOUS
 62
               4
100
AcDbLine
 10
-9.8000030517578125
 20
6.0
 30
0.0
 11
-10.600006103515625
 21
6.0
 31
0.0
  0
LINE
  5
227
100
AcDbEntity
  8
0
  6
CONTINUOUS
 62
               4
100
AcDbLine
 10
10.600006103515625
 20
-4.0
 30
0.0
 11
12.199996948242188
 21
-4.0
 31
0.0
  0
LINE
  5
228
100
AcDbEntity
  8
0
  6
CONTINUOUS
 62
               4
100
AcDbLine
 10
10.600006103515625
 20
4.0
 30
0.0
 11
12.199996948242188
 21
4.0
 31
0.0
  0
LINE
  5
229
100
AcDbEntity
  8
0
  6
CONTINUOUS
 62
               4
100
AcDbLine
 10
9.8000030517578125
 20
-6.0
 30
0.0
 11
10.600006103515625
 21
-6.0
 31
0.0
  0
LINE
  5
22A
100
AcDbEntity
  8
0
  6
CONTINUOUS
 62
               4
100
AcDbLine
 10
9.8000030517578125
 20
6.0
 30
0.0
 11
10.600006103515625
 21
6.0
 31
0.0
  0
LINE
  5
22B
100
AcDbEntity
  8
0
  6
CONTINUOUS
 62
               4
100
AcDbLine
 10
10.600006103515625
 20
-6.0
 30
0.0
 11
10.600006103515625
 21
6.0
 31
0.0
  0
LINE
  5
22C
100
AcDbEntity
  8
0
  6
CONTINUOUS
 62
               4
100
AcDbLine
 10
9.8000030517578125
 20
-6.0
 30
0.0
 11
9.8000030517578125
 21
6.0
 31
0.0
  0
LINE
  5
22D
100
AcDbEntity
  8
0
  6
CONTINUOUS
 62
               4
100
AcDbLine
 10
-9.8000030517578125
 20
4.0
 30
0.0
 11
-9.1999969482421875
 21
4.0
 31
0.0
  0
LINE
  5
22E
100
AcDbEntity
  8
0
  6
CONTINUOUS
 62
               4
100
AcDbLine
 10
12.199996948242188
 20
-4.0
 30
0.0
 11
12.199996948242188
 21
4.0
 31
0.0
  0
LINE
  5
22F
100
AcDbEntity
  8
0
  6
CONTINUOUS
 62
               4
100
AcDbLine
 10
-12.199996948242188
 20
-4.0
 30
0.0
 11
-12.199996948242188
 21
4.0
 31
0.0
  0
LINE
  5
230
100
AcDbEntity
  8
0
  6
CONTINUOUS
 62
               4
100
AcDbLine
 10
-9.8000030517578125
 20
-4.0
 30
0.0
 11
-9.1999969482421875
 21
-4.0
 31
0.0
  0
LINE
  5
231
100
AcDbEntity
  8
0
  6
CENTER
 62
             200
100
AcDbLine
 10
-9.1666717529296875
 20
-14.0
 30
0.0
 11
-18.5
 21
-14.0
 31
0.0
  0
LINE
  5
232
100
AcDbEntity
  8
0
  6
CENTER
 62
             200
100
AcDbLine
 10
-14.0
 20
-8.666656494140625
 30
0.0
 11
-14.0
 21
-19.333343505859375
 31
0.0
  0
LINE
  5
233
100
AcDbEntity
  8
0
  6
CENTER
 62
             200
100
AcDbLine
 10
-9.1666717529296875
 20
14.0
 30
0.0
 11
-18.540069580078125
 21
14.0
 31
0.0
  0
LINE
  5
234
100
AcDbEntity
  8
0
  6
CENTER
 62
             200
100
AcDbLine
 10
-14.0
 20
8.666656494140625
 30
0.0
 11
-14.0
 21
18.535293579101563
 31
0.0
  0
LINE
  5
235
100
AcDbEntity
  8
0
  6
CENTER
 62
             200
100
AcDbLine
 10
14.0
 20
-8.666656494140625
 30
0.0
 11
14.0
 21
-19.333343505859375
 31
0.0
  0
LINE
  5
236
100
AcDbEntity
  8
0
  6
CENTER
 62
             200
100
AcDbLine
 10
9.1666717529296875
 20
-14.0
 30
0.0
 11
18.5
 21
-14.0
 31
0.0
  0
LINE
  5
237
100
AcDbEntity
  8
0
  6
CENTER
 62
             200
100
AcDbLine
 10
9.1666717529296875
 20
14.0
 30
0.0
 11
18.5
 21
14.0
 31
0.0
  0
LINE
  5
238
100
AcDbEntity
  8
0
  6
CENTER
 62
             200
100
AcDbLine
 10
14.0
 20
8.666656494140625
 30
0.0
 11
14.0
 21
19.333335876464844
 31
0.0
  0
LINE
  5
239
100
AcDbEntity
  8
0
  6
CENTER
 62
             200
100
AcDbLine
 10
-21.9400634765625
 20
0.0
 30
0.0
 11
24.760513305664063
 21
0.0
 31
0.0
  0
LINE
  5
23A
100
AcDbEntity
  8
0
  6
CONTINUOUS
 62
               4
100
AcDbLine
 10
-9.1999969482421875
 20
-9.1847686767578125
 30
0.0
 11
-9.1999969482421875
 21
9.1847686767578125
 31
0.0
  0
LINE
  5
23B
100
AcDbEntity
  8
0
  6
CONTINUOUS
 62
               4
100
AcDbLine
 10
9.1999969482421875
 20
-9.1847686767578125
 30
0.0
 11
9.1999969482421875
 21
9.1847686767578125
 31
0.0
  0
LINE
  5
23C
100
AcDbEntity
  8
0
  6
CONTINUOUS
 62
               4
100
AcDbLine
 10
-4.0
 20
-12.36932373046875
 30
0.0
 11
-4.0
 21
12.36932373046875
 31
0.0
  0
LINE
  5
23D
100
AcDbEntity
  8
0
  6
CONTINUOUS
 62
               4
100
AcDbLine
 10
4.0
 20
-12.36932373046875
 30
0.0
 11
4.0
 21
12.36932373046875
 31
0.0
  0
LINE
  5
23E
100
AcDbEntity
  8
0
  6
CENTER
 62
             200
100
AcDbLine
 10
0.0
 20
-22.064697265625
 30
0.0
 11
0.0
 21
21.935295104980469
 31
0.0
  0
LINE
  5
23F
100
AcDbEntity
  8
0
  6
CONTINUOUS
 62
               4
100
AcDbLine
 10
-15.0
 20
20.0
 30
0.0
 11
15.0
 21
20.0
 31
0.0
  0
LINE
  5
240
100
AcDbEntity
  8
0
  6
CONTINUOUS
 62
               4
100
AcDbLine
 10
20.0
 20
-15.0
 30
0.0
 11
20.0
 21
15.0
 31
0.0
  0
LINE
  5
241
100
AcDbEntity
  8
0
  6
CONTINUOUS
 62
               4
100
AcDbLine
 10
-20.0
 20
-15.0
 30
0.0
 11
-20.0
 21
15.0
 31
0.0
  0
LINE
  5
242
100
AcDbEntity
  8
0
  6
CONTINUOUS
 62
               4
100
AcDbLine
 10
-15.0
 20
-20.0
 30
0.0
 11
15.0
 21
-20.0
 31
0.0
  0
ENDBLK
  5
243
100
AcDbEntity
  8
0
100
AcDbBlockEnd
  0
BLOCK
  5
244
100
AcDbEntity
  8
0
100
AcDbBlockBegin
  2
JIG-C_CLEVIS1-12
 70
               0
 10
0.0
 20
0.0
 30
0.0
  3
JIG-C_CLEVIS1-12
  1

  0
ARC
  5
245
100
AcDbEntity
  8
0
  6
CONTINUOUS
 62
               4
100
AcDbCircle
 10
3.8000030517578125
 20
19.800003051757813
 30
0.0
 40
0.2000000029802322
100
AcDbArc
 50
0.0
 51
89.999982013910653
  0
ARC
  5
246
100
AcDbEntity
  8
0
  6
CONTINUOUS
 62
               4
100
AcDbCircle
 10
0.1999969482421875
 20
19.800003051757813
 30
0.0
 40
0.2000000029802322
100
AcDbArc
 50
89.999982013910653
 51
179.99996402782131
  0
ARC
  5
247
100
AcDbEntity
  8
0
  6
CONTINUOUS
 62
               4
100
AcDbCircle
 10
0.1999969482421875
 20
-19.800003051757813
 30
0.0
 40
0.2000000029802322
100
AcDbArc
 50
179.99998133066532
 51
270.00001798608935
  0
ARC
  5
248
100
AcDbEntity
  8
0
  6
CONTINUOUS
 62
               4
100
AcDbCircle
 10
3.8000030517578125
 20
-19.800003051757813
 30
0.0
 40
0.2000000029802322
100
AcDbArc
 50
270.00001798608935
 51
0.0
  0
LINE
  5
249
100
AcDbEntity
  8
0
  6
CONTINUOUS
 62
               4
100
AcDbLine
 10
23.0
 20
-9.8000030517578125
 30
0.0
 11
23.0
 21
-10.599998474121094
 31
0.0
  0
LINE
  5
24A
100
AcDbEntity
  8
0
  6
CONTINUOUS
 62
               4
100
AcDbLine
 10
21.0
 20
-4.0
 30
0.0
 11
21.0
 21
4.0
 31
0.0
  0
LINE
  5
24B
100
AcDbEntity
  8
0
  6
CONTINUOUS
 62
               4
100
AcDbLine
 10
21.0
 20
9.1999969482421875
 30
0.0
 11
21.0
 21
9.8000030517578125
 31
0.0
  0
LINE
  5
24C
100
AcDbEntity
  8
0
  6
CONTINUOUS
 62
               4
100
AcDbLine
 10
13.0
 20
-4.0
 30
0.0
 11
13.0
 21
4.0
 31
0.0
  0
LINE
  5
24D
100
AcDbEntity
  8
0
  6
CONTINUOUS
 62
               4
100
AcDbLine
 10
13.0
 20
9.1999969482421875
 30
0.0
 11
13.0
 21
9.8000030517578125
 31
0.0
  0
LINE
  5
24E
100
AcDbEntity
  8
0
  6
CONTINUOUS
 62
               4
100
AcDbLine
 10
13.0
 20
-10.599998474121094
 30
0.0
 11
13.0
 21
-12.199996948242188
 31
0.0
  0
LINE
  5
24F
100
AcDbEntity
  8
0
  6
CONTINUOUS
 62
               4
100
AcDbLine
 10
21.0
 20
-10.599998474121094
 30
0.0
 11
21.0
 21
-12.199996948242188
 31
0.0
  0
LINE
  5
250
100
AcDbEntity
  8
0
  6
CONTINUOUS
 62
               4
100
AcDbLine
 10
23.0
 20
-10.600006103515625
 30
0.0
 11
11.0
 21
-10.600006103515625
 31
0.0
  0
LINE
  5
251
100
AcDbEntity
  8
0
  6
CONTINUOUS
 62
               4
100
AcDbLine
 10
23.0
 20
-9.8000030517578125
 30
0.0
 11
11.0
 21
-9.8000030517578125
 31
0.0
  0
LINE
  5
252
100
AcDbEntity
  8
0
  6
CONTINUOUS
 62
               4
100
AcDbLine
 10
11.0
 20
-9.8000030517578125
 30
0.0
 11
11.0
 21
-10.599998474121094
 31
0.0
  0
LINE
  5
253
100
AcDbEntity
  8
0
  6
CONTINUOUS
 62
               4
100
AcDbLine
 10
21.0
 20
10.599998474121094
 30
0.0
 11
21.0
 21
12.199996948242188
 31
0.0
  0
LINE
  5
254
100
AcDbEntity
  8
0
  6
CONTINUOUS
 62
               4
100
AcDbLine
 10
13.0
 20
10.599998474121094
 30
0.0
 11
13.0
 21
12.199996948242188
 31
0.0
  0
LINE
  5
255
100
AcDbEntity
  8
0
  6
CONTINUOUS
 62
               4
100
AcDbLine
 10
23.0
 20
9.8000030517578125
 30
0.0
 11
23.0
 21
10.599998474121094
 31
0.0
  0
LINE
  5
256
100
AcDbEntity
  8
0
  6
CONTINUOUS
 62
               4
100
AcDbLine
 10
11.0
 20
9.8000030517578125
 30
0.0
 11
11.0
 21
10.599998474121094
 31
0.0
  0
LINE
  5
257
100
AcDbEntity
  8
0
  6
CONTINUOUS
 62
               4
100
AcDbLine
 10
23.0
 20
10.599990844726563
 30
0.0
 11
11.0
 21
10.599990844726563
 31
0.0
  0
LINE
  5
258
100
AcDbEntity
  8
0
  6
CONTINUOUS
 62
               4
100
AcDbLine
 10
23.0
 20
9.7999954223632812
 30
0.0
 11
11.0
 21
9.7999954223632812
 31
0.0
  0
LINE
  5
259
100
AcDbEntity
  8
0
  6
CONTINUOUS
 62
               4
100
AcDbLine
 10
13.0
 20
-9.8000030517578125
 30
0.0
 11
13.0
 21
-9.1999969482421875
 31
0.0
  0
LINE
  5
25A
100
AcDbEntity
  8
0
  6
CONTINUOUS
 62
               4
100
AcDbLine
 10
21.0
 20
12.199996948242188
 30
0.0
 11
13.0
 21
12.199996948242188
 31
0.0
  0
LINE
  5
25B
100
AcDbEntity
  8
0
  6
CONTINUOUS
 62
               4
100
AcDbLine
 10
21.0
 20
-12.199996948242188
 30
0.0
 11
13.0
 21
-12.199996948242188
 31
0.0
  0
LINE
  5
25C
100
AcDbEntity
  8
0
  6
CONTINUOUS
 62
               4
100
AcDbLine
 10
21.0
 20
-9.8000030517578125
 30
0.0
 11
21.0
 21
-9.1999969482421875
 31
0.0
  0
LINE
  5
25D
100
AcDbEntity
  8
0
  6
CONTINUOUS
 62
               4
100
AcDbLine
 10
25.0
 20
4.0
 30
0.0
 11
25.0
 21
8.199981689453125
 31
0.0
  0
LINE
  5
25E
100
AcDbEntity
  8
0
  6
CONTINUOUS
 62
               4
100
AcDbLine
 10
5.0
 20
4.0
 30
0.0
 11
25.0
 21
4.0
 31
0.0
  0
LINE
  5
25F
100
AcDbEntity
  8
0
  6
CONTINUOUS
 62
               4
100
AcDbLine
 10
5.0
 20
-4.0
 30
0.0
 11
25.0
 21
-4.0
 31
0.0
  0
LINE
  5
260
100
AcDbEntity
  8
0
  6
CONTINUOUS
 62
               4
100
AcDbLine
 10
5.0
 20
12.5
 30
0.0
 11
5.0
 21
12.800003051757812
 31
0.0
  0
LINE
  5
261
100
AcDbEntity
  8
0
  6
CENTER
 62
             200
100
AcDbLine
 10
4.6599273681640625
 20
-14.0
 30
0.0
 11
-0.9400634765625
 21
-14.0
 31
0.0
  0
LINE
  5
262
100
AcDbEntity
  8
0
  6
CENTER
 62
             200
100
AcDbLine
 10
4.6599273681640625
 20
14.0
 30
0.0
 11
-0.9400634765625
 21
14.0
 31
0.0
  0
LINE
  5
263
100
AcDbEntity
  8
0
  6
CONTINUOUS
 62
               4
100
AcDbLine
 10
5.0
 20
13.0
 30
0.0
 11
5.0
 21
12.5
 31
0.0
  0
LINE
  5
264
100
AcDbEntity
  8
0
  6
CONTINUOUS
 62
               4
100
AcDbLine
 10
4.1999969482421875
 20
13.0
 30
0.0
 11
5.0
 21
13.0
 31
0.0
  0
LINE
  5
265
100
AcDbEntity
  8
0
  6
CONTINUOUS
 62
               4
100
AcDbLine
 10
4.1999582996209028
 20
12.999938121755349
 30
0.0
 11
3.9999619142467964
 21
13.199933546201009
 31
0.0
  0
LINE
  5
266
100
AcDbEntity
  8
0
  6
CONTINUOUS
 62
               4
100
AcDbLine
 10
4.2000190246264992
 20
-13.000054261637388
 30
0.0
 11
4.0000231281458127
 21
-13.200050158118074
 31
0.0
  0
LINE
  5
267
100
AcDbEntity
  8
0
  6
CONTINUOUS
 62
               4
100
AcDbLine
 10
0.0
 20
15.0
 30
0.0
 11
4.0
 21
15.0
 31
0.0
  0
LINE
  5
268
100
AcDbEntity
  8
0
  6
CONTINUOUS
 62
               4
100
AcDbLine
 10
24.0
 20
4.0
 30
0.0
 11
24.0
 21
9.1999969482421875
 31
0.0
  0
LINE
  5
269
100
AcDbEntity
  8
0
  6
CONTINUOUS
 62
               4
100
AcDbLine
 10
24.000168929342749
 20
-9.2001592529159097
 30
0.0
 11
25.000147484534523
 21
-8.2001787590088497
 31
0.0
  0
LINE
  5
26A
100
AcDbEntity
  8
0
  6
CONTINUOUS
 62
               4
100
AcDbLine
 10
5.0
 20
-9.1999969482421875
 30
0.0
 11
24.0
 21
-9.1999969482421875
 31
0.0
  0
LINE
  5
26B
100
AcDbEntity
  8
0
  6
CONTINUOUS
 62
               4
100
AcDbLine
 10
24.000159488407917
 20
9.2001174432502921
 30
0.0
 11
25.00015962276575
 21
8.200115370135336
 31
0.0
  0
LINE
  5
26C
100
AcDbEntity
  8
0
  6
CONTINUOUS
 62
               4
100
AcDbLine
 10
5.0
 20
9.1999969482421875
 30
0.0
 11
24.0
 21
9.1999969482421875
 31
0.0
  0
LINE
  5
26D
100
AcDbEntity
  8
0
  6
CENTER
 62
             200
100
AcDbLine
 10
17.0
 20
-14.054931640625
 30
0.0
 11
17.0
 21
14.23968505859375
 31
0.0
  0
LINE
  5
26E
100
AcDbEntity
  8
0
  6
CONTINUOUS
 62
               4
100
AcDbLine
 10
0.0
 20
-15.0
 30
0.0
 11
4.0
 21
-15.0
 31
0.0
  0
LINE
  5
26F
100
AcDbEntity
  8
0
  6
CONTINUOUS
 62
               4
100
AcDbLine
 10
24.0
 20
-4.0
 30
0.0
 11
24.0
 21
-9.1999969482421875
 31
0.0
  0
LINE
  5
270
100
AcDbEntity
  8
0
  6
CONTINUOUS
 62
               4
100
AcDbLine
 10
5.0
 20
-12.5
 30
0.0
 11
5.0
 21
12.5
 31
0.0
  0
LINE
  5
271
100
AcDbEntity
  8
0
  6
CONTINUOUS
 62
               4
100
AcDbLine
 10
0.1999969482421875
 20
-20.0
 30
0.0
 11
3.8000030517578125
 21
-20.0
 31
0.0
  0
LINE
  5
272
100
AcDbEntity
  8
0
  6
CONTINUOUS
 62
               4
100
AcDbLine
 10
0.1999969482421875
 20
20.0
 30
0.0
 11
3.8000030517578125
 21
20.0
 31
0.0
  0
LINE
  5
273
100
AcDbEntity
  8
0
  6
CONTINUOUS
 62
               4
100
AcDbLine
 10
4.1999969482421875
 20
-13.0
 30
0.0
 11
5.0
 21
-13.0
 31
0.0
  0
LINE
  5
274
100
AcDbEntity
  8
0
  6
CONTINUOUS
 62
               4
100
AcDbLine
 10
25.0
 20
-8.2001266479492187
 30
0.0
 11
25.0
 21
-4.0
 31
0.0
  0
LINE
  5
275
100
AcDbEntity
  8
0
  6
CONTINUOUS
 62
               4
100
AcDbLine
 10
5.0
 20
-13.0
 30
0.0
 11
5.0
 21
-12.5
 31
0.0
  0
LINE
  5
276
100
AcDbEntity
  8
0
  6
CONTINUOUS
 62
               4
100
AcDbLine
 10
4.0
 20
-19.800003051757813
 30
0.0
 11
4.0
 21
20.0
 31
0.0
  0
LINE
  5
277
100
AcDbEntity
  8
0
  6
CONTINUOUS
 62
               4
100
AcDbLine
 10
0.0
 20
-19.800003051757813
 30
0.0
 11
0.0
 21
19.800003051757813
 31
0.0
  0
LINE
  5
278
100
AcDbEntity
  8
0
  6
CENTER
 62
             200
100
AcDbLine
 10
-1.9400634765625
 20
0.0
 30
0.0
 11
26.85992431640625
 21
0.0
 31
0.0
  0
ENDBLK
  5
279
100
AcDbEntity
  8
0
100
AcDbBlockEnd
  0
BLOCK
  5
27A
100
AcDbEntity
  8
0
100
AcDbBlockBegin
  2
JIG-C_CLEVIS1-13
 70
               0
 10
0.0
 20
0.0
 30
0.0
  3
JIG-C_CLEVIS1-13
  1

  0
ARC
  5
27B
100
AcDbEntity
  8
0
  6
CONTINUOUS
 62
               4
100
AcDbCircle
 10
3.8000030517578125
 20
-21.800003051757813
 30
0.0
 40
0.2000000029802322
100
AcDbArc
 50
270.00001798608935
 51
0.0
  0
ARC
  5
27C
100
AcDbEntity
  8
0
  6
CONTINUOUS
 62
               4
100
AcDbCircle
 10
3.8000030517578125
 20
21.800003051757813
 30
0.0
 40
0.2000000029802322
100
AcDbArc
 50
0.0
 51
89.999982013910653
  0
ARC
  5
27D
100
AcDbEntity
  8
0
  6
CONTINUOUS
 62
               4
100
AcDbCircle
 10
0.1999969482421875
 20
-21.800003051757813
 30
0.0
 40
0.2000000029802322
100
AcDbArc
 50
179.99998133066532
 51
270.00001798608935
  0
CIRCLE
  5
27E
100
AcDbEntity
  8
0
  6
CONTINUOUS
 62
               4
100
AcDbCircle
 10
19.0
 20
0.0
 30
0.0
 40
5.0
  0
ARC
  5
27F
100
AcDbEntity
  8
0
  6
CONTINUOUS
 62
               4
100
AcDbCircle
 10
0.1999969482421875
 20
21.800003051757813
 30
0.0
 40
0.2000000029802322
100
AcDbArc
 50
89.999982013910653
 51
179.99996402782131
  0
ARC
  5
280
100
AcDbEntity
  8
0
  6
CONTINUOUS
 62
               4
100
AcDbCircle
 10
19.0
 20
0.0
 30
0.0
 40
8.0
100
AcDbArc
 50
300.00005980205043
 51
239.99995203709508
  0
LINE
  5
281
100
AcDbEntity
  8
0
  6
CONTINUOUS
 62
               4
100
AcDbLine
 10
23.000044046488028
 20
-6.9281770018021689
 30
0.0
 11
21.500043867674094
 21
-4.3301008370797263
 31
0.0
  0
LINE
  5
282
100
AcDbEntity
  8
0
  6
CONTINUOUS
 62
               4
100
AcDbLine
 10
14.999995190255845
 20
-6.9282015534923858
 30
0.0
 11
16.499995369069779
 21
-4.3301253887699431
 31
0.0
  0
LINE
  5
283
100
AcDbEntity
  8
0
  6
CONTINUOUS
 62
               4
100
AcDbLine
 10
0.0
 20
-19.653244018554688
 30
0.0
 11
4.0
 21
-19.653244018554688
 31
0.0
  0
LINE
  5
284
100
AcDbEntity
  8
0
  6
CENTER
 62
             200
100
AcDbLine
 10
-0.9834518432617188
 20
-17.0
 30
0.0
 11
6.0165481567382813
 21
-17.0
 31
0.0
  0
LINE
  5
285
100
AcDbEntity
  8
0
  6
CENTER
 62
             200
100
AcDbLine
 10
-0.9834518432617188
 20
17.0
 30
0.0
 11
6.0165481567382813
 21
17.0
 31
0.0
  0
LINE
  5
286
100
AcDbEntity
  8
0
  6
CONTINUOUS
 62
               4
100
AcDbLine
 10
0.0
 20
19.653244018554688
 30
0.0
 11
4.0
 21
19.653244018554688
 31
0.0
  0
LINE
  5
287
100
AcDbEntity
  8
0
  6
CENTER
 62
             200
100
AcDbLine
 10
19.0
 20
-19.158203125
 30
0.0
 11
19.0
 21
19.098564147949219
 31
0.0
  0
LINE
  5
288
100
AcDbEntity
  8
0
  6
CONTINUOUS
 62
               4
100
AcDbLine
 10
29.0
 20
-15.0
 30
0.0
 11
29.0
 21
15.0
 31
0.0
  0
LINE
  5
289
100
AcDbEntity
  8
0
  6
CONTINUOUS
 62
               4
100
AcDbLine
 10
27.999985217438848
 20
-15.999993383208334
 30
0.0
 11
28.999985773265621
 21
-14.999991815856106
 31
0.0
  0
LINE
  5
28A
100
AcDbEntity
  8
0
  6
CONTINUOUS
 62
               4
100
AcDbLine
 10
28.0
 20
-16.0
 30
0.0
 11
28.0
 21
-9.643646240234375
 31
0.0
  0
LINE
  5
28B
100
AcDbEntity
  8
0
  6
CONTINUOUS
 62
               4
100
AcDbLine
 10
4.2000045776367187
 20
-17.0
 30
0.0
 11
5.0
 21
-17.0
 31
0.0
  0
LINE
  5
28C
100
AcDbEntity
  8
0
  6
CONTINUOUS
 62
               4
100
AcDbLine
 10
4.000004398238616
 20
-17.20002326800045
 30
0.0
 11
4.2000022165761948
 21
-17.000029276518262
 31
0.0
  0
LINE
  5
28D
100
AcDbEntity
  8
0
  6
CONTINUOUS
 62
               4
100
AcDbLine
 10
3.9999875399697657
 20
17.199974040318864
 30
0.0
 11
4.1999907531557028
 21
16.999974654091545
 31
0.0
  0
LINE
  5
28E
100
AcDbEntity
  8
0
  6
CONTINUOUS
 62
               4
100
AcDbLine
 10
5.0
 20
16.0
 30
0.0
 11
5.0
 21
17.0
 31
0.0
  0
LINE
  5
28F
100
AcDbEntity
  8
0
  6
CONTINUOUS
 62
               4
100
AcDbLine
 10
5.0
 20
16.0
 30
0.0
 11
28.0
 21
16.0
 31
0.0
  0
LINE
  5
290
100
AcDbEntity
  8
0
  6
CONTINUOUS
 62
               4
100
AcDbLine
 10
5.0
 20
-16.0
 30
0.0
 11
28.0
 21
-16.0
 31
0.0
  0
LINE
  5
291
100
AcDbEntity
  8
0
  6
CONTINUOUS
 62
               4
100
AcDbLine
 10
5.0
 20
-9.643646240234375
 30
0.0
 11
5.0
 21
9.6436538696289062
 31
0.0
  0
LINE
  5
292
100
AcDbEntity
  8
0
  6
CONTINUOUS
 62
               4
100
AcDbLine
 10
4.2000045776367187
 20
17.0
 30
0.0
 11
5.0
 21
17.0
 31
0.0
  0
LINE
  5
293
100
AcDbEntity
  8
0
  6
CONTINUOUS
 62
               4
100
AcDbLine
 10
0.1999969482421875
 20
-22.0
 30
0.0
 11
3.8000030517578125
 21
-22.0
 31
0.0
  0
LINE
  5
294
100
AcDbEntity
  8
0
  6
CONTINUOUS
 62
               4
100
AcDbLine
 10
0.1999969482421875
 20
22.0
 30
0.0
 11
3.8000030517578125
 21
22.0
 31
0.0
  0
LINE
  5
295
100
AcDbEntity
  8
0
  6
CONTINUOUS
 62
               4
100
AcDbLine
 10
5.0
 20
-17.0
 30
0.0
 11
5.0
 21
-16.0
 31
0.0
  0
LINE
  5
296
100
AcDbEntity
  8
0
  6
CONTINUOUS
 62
               4
100
AcDbLine
 10
4.0
 20
-21.800003051757813
 30
0.0
 11
4.0
 21
21.800003051757813
 31
0.0
  0
LINE
  5
297
100
AcDbEntity
  8
0
  6
CONTINUOUS
 62
               4
100
AcDbLine
 10
0.0
 20
-21.800003051757813
 30
0.0
 11
0.0
 21
21.800003051757813
 31
0.0
  0
LINE
  5
298
100
AcDbEntity
  8
0
  6
CENTER
 62
             200
100
AcDbLine
 10
-4.8846588134765625
 20
0.0
 30
0.0
 11
35.068428039550781
 21
0.0
 31
0.0
  0
LINE
  5
299
100
AcDbEntity
  8
0
  6
CONTINUOUS
 62
               4
100
AcDbLine
 10
28.000078681760328
 20
9.6436799954361163
 30
0.0
 11
29.000072809825156
 21
7.7459836232617931
 31
0.0
  0
LINE
  5
29A
100
AcDbEntity
  8
0
  6
CONTINUOUS
 62
               4
100
AcDbLine
 10
23.972913934997905
 20
6.2665801207831464
 30
0.0
 11
28.000024369395305
 21
9.6436256245087861
 31
0.0
  0
LINE
  5
29B
100
AcDbEntity
  8
0
  6
CONTINUOUS
 62
               4
100
AcDbLine
 10
4.9999348421160903
 20
9.6435798854861332
 30
0.0
 11
11.962672940996072
 21
3.8047796779835608
 31
0.0
  0
LINE
  5
29C
100
AcDbEntity
  8
0
  6
CONTINUOUS
 62
               4
100
AcDbLine
 10
23.972880715003271
 20
-6.2666171843501388
 30
0.0
 11
27.999990209613884
 21
-9.6436636278625656
 31
0.0
  0
LINE
  5
29D
100
AcDbEntity
  8
0
  6
CONTINUOUS
 62
               4
100
AcDbLine
 10
5.0000047189137717
 20
-9.6436626005996118
 30
0.0
 11
11.962742817793753
 21
-3.8048618514770283
 31
0.0
  0
LINE
  5
29E
100
AcDbEntity
  8
0
  6
CONTINUOUS
 62
               4
100
AcDbLine
 10
28.0
 20
16.0
 30
0.0
 11
28.0
 21
9.6436538696289062
 31
0.0
  0
LINE
  5
29F
100
AcDbEntity
  8
0
  6
CONTINUOUS
 62
               4
100
AcDbLine
 10
5.0
 20
9.6436538696289062
 30
0.0
 11
28.000003814697266
 21
9.6436538696289062
 31
0.0
  0
LINE
  5
2A0
100
AcDbEntity
  8
0
  6
CONTINUOUS
 62
               4
100
AcDbLine
 10
5.0
 20
-9.643646240234375
 30
0.0
 11
28.000003814697266
 21
-9.643646240234375
 31
0.0
  0
LINE
  5
2A1
100
AcDbEntity
  8
0
  6
CONTINUOUS
 62
               4
100
AcDbLine
 10
28.000005575237083
 20
-9.6436384459666442
 30
0.0
 11
29.000009565649634
 21
-7.745930108821085
 31
0.0
  0
LINE
  5
2A2
100
AcDbEntity
  8
0
  6
CONTINUOUS
 62
               4
100
AcDbLine
 10
28.000065296530011
 20
16.000057952123598
 30
0.0
 11
29.000065430887844
 21
15.000055879008642
 31
0.0
  0
ENDBLK
  5
2A3
100
AcDbEntity
  8
0
100
AcDbBlockEnd
  0
BLOCK
  5
2A4
100
AcDbEntity
  8
0
100
AcDbBlockBegin
  2
JIG-C_CLEVIS1-14
 70
               0
 10
0.0
 20
0.0
 30
0.0
  3
JIG-C_CLEVIS1-14
  1

  0
ARC
  5
2A5
100
AcDbEntity
  8
0
  6
CONTINUOUS
 62
               4
100
AcDbCircle
 10
0.0
 20
0.0
 30
0.0
 40
17.0
100
AcDbArc
 50
154.94240418963238
 51
162.89538083654685
  0
ARC
  5
2A6
100
AcDbEntity
  8
0
  6
CONTINUOUS
 62
               4
100
AcDbCircle
 10
0.0
 20
0.0
 30
0.0
 40
17.0
100
AcDbArc
 50
208.07246863076793
 51
331.92751269989736
  0
ARC
  5
2A7
100
AcDbEntity
  8
0
  6
CONTINUOUS
 62
               4
100
AcDbCircle
 10
0.0
 20
0.0
 30
0.0
 40
17.0
100
AcDbArc
 50
197.10461916345315
 51
205.05759581036762
  0
ARC
  5
2A8
100
AcDbEntity
  8
0
  6
CONTINUOUS
 62
               4
100
AcDbCircle
 10
0.0
 20
0.0
 30
0.0
 40
29.5
100
AcDbArc
 50
311.77528544058487
 51
318.22459594172108
  0
CIRCLE
  5
2A9
100
AcDbEntity
  8
0
  6
CONTINUOUS
 62
               4
100
AcDbCircle
 10
16.999998092651367
 20
-17.0
 30
0.0
 40
3.2999999523162842
  0
ARC
  5
2AA
100
AcDbEntity
  8
0
  6
CONTINUOUS
 62
               4
100
AcDbCircle
 10
0.0
 20
0.0
 30
0.0
 40
29.5
100
AcDbArc
 50
221.77527610591756
 51
228.22458660705371
  0
CIRCLE
  5
2AB
100
AcDbEntity
  8
0
  6
CONTINUOUS
 62
               4
100
AcDbCircle
 10
-17.0
 20
-17.0
 30
0.0
 40
3.2999999523162842
  0
ARC
  5
2AC
100
AcDbEntity
  8
0
  6
CONTINUOUS
 62
               4
100
AcDbCircle
 10
0.0
 20
0.0
 30
0.0
 40
29.5
100
AcDbArc
 50
41.775349416765586
 51
48.224659917901747
  0
CIRCLE
  5
2AD
100
AcDbEntity
  8
0
  6
CONTINUOUS
 62
               4
100
AcDbCircle
 10
16.999998092651367
 20
17.0
 30
0.0
 40
3.2999999523162842
  0
ARC
  5
2AE
100
AcDbEntity
  8
0
  6
CONTINUOUS
 62
               4
100
AcDbCircle
 10
0.0
 20
0.0
 30
0.0
 40
29.5
100
AcDbArc
 50
131.77535875143292
 51
138.22466925256907
  0
CIRCLE
  5
2AF
100
AcDbEntity
  8
0
  6
CONTINUOUS
 62
               4
100
AcDbCircle
 10
-17.0
 20
17.0
 30
0.0
 40
3.2999999523162842
  0
ARC
  5
2B0
100
AcDbEntity
  8
0
  6
CONTINUOUS
 62
             200
100
AcDbCircle
 10
0.0
 20
0.0
 30
0.0
 40
16.0
100
AcDbArc
 50
292.02425666292976
 51
331.04491565534835
  0
ARC
  5
2B1
100
AcDbEntity
  8
0
  6
CONTINUOUS
 62
             200
100
AcDbCircle
 10
0.0
 20
0.0
 30
0.0
 40
16.0
100
AcDbArc
 50
208.95495639229026
 51
247.97561538470885
  0
ARC
  5
2B2
100
AcDbEntity
  8
0
  6
CONTINUOUS
 62
             200
100
AcDbCircle
 10
0.0
 20
0.0
 30
0.0
 40
16.0
100
AcDbArc
 50
28.955026288043708
 51
67.975688695556869
  0
ARC
  5
2B3
100
AcDbEntity
  8
0
  6
CONTINUOUS
 62
             200
100
AcDbCircle
 10
0.0
 20
0.0
 30
0.0
 40
16.0
100
AcDbArc
 50
112.0243299737778
 51
151.04498896619637
  0
ARC
  5
2B4
100
AcDbEntity
  8
0
  6
CONTINUOUS
 62
               4
100
AcDbCircle
 10
0.0
 20
0.0
 30
0.0
 40
17.0
100
AcDbArc
 50
17.104634417693248
 51
25.057617894796884
  0
ARC
  5
2B5
100
AcDbEntity
  8
0
  6
CONTINUOUS
 62
               4
100
AcDbCircle
 10
0.0
 20
0.0
 30
0.0
 40
17.0
100
AcDbArc
 50
28.072487300102608
 51
151.92753136923207
  0
ARC
  5
2B6
100
AcDbEntity
  8
0
  6
CONTINUOUS
 62
               4
100
AcDbCircle
 10
0.0
 20
0.0
 30
0.0
 40
17.0
100
AcDbArc
 50
334.94238210520314
 51
342.89536558230674
  0
LINE
  5
2B7
100
AcDbEntity
  8
0
  6
CONTINUOUS
 62
               4
100
AcDbLine
 10
-6.0
 20
5.0
 30
0.0
 11
5.9999980926513672
 21
5.0
 31
0.0
  0
LINE
  5
2B8
100
AcDbEntity
  8
0
  6
CONTINUOUS
 62
               4
100
AcDbLine
 10
13.999998092651367
 20
5.0
 30
0.0
 11
14.600000381469727
 21
5.0
 31
0.0
  0
LINE
  5
2B9
100
AcDbEntity
  8
0
  6
CONTINUOUS
 62
               4
100
AcDbLine
 10
13.999998092651367
 20
-5.0
 30
0.0
 11
14.600000381469727
 21
-5.0
 31
0.0
  0
LINE
  5
2BA
100
AcDbEntity
  8
0
  6
CONTINUOUS
 62
               4
100
AcDbLine
 10
-6.0
 20
-5.0
 30
0.0
 11
5.9999980926513672
 21
-5.0
 31
0.0
  0
LINE
  5
2BB
100
AcDbEntity
  8
0
  6
CONTINUOUS
 62
               4
100
AcDbLine
 10
-15.399999618530273
 20
5.0
 30
0.0
 11
-17.0
 21
5.0
 31
0.0
  0
LINE
  5
2BC
100
AcDbEntity
  8
0
  6
CONTINUOUS
 62
               4
100
AcDbLine
 10
-15.399999618530273
 20
-5.0
 30
0.0
 11
-17.0
 21
-5.0
 31
0.0
  0
LINE
  5
2BD
100
AcDbEntity
  8
0
  6
CONTINUOUS
 62
               4
100
AcDbLine
 10
-14.600000381469727
 20
-8.0
 30
0.0
 11
-15.399999618530273
 21
-8.0
 31
0.0
  0
LINE
  5
2BE
100
AcDbEntity
  8
0
  6
CONTINUOUS
 62
               4
100
AcDbLine
 10
-15.399999618530273
 20
-8.0
 30
0.0
 11
-15.399999618530273
 21
8.0
 31
0.0
  0
LINE
  5
2BF
100
AcDbEntity
  8
0
  6
CONTINUOUS
 62
               4
100
AcDbLine
 10
-14.600000381469727
 20
-8.0
 30
0.0
 11
-14.600000381469727
 21
8.0
 31
0.0
  0
LINE
  5
2C0
100
AcDbEntity
  8
0
  6
CONTINUOUS
 62
               4
100
AcDbLine
 10
-14.600000381469727
 20
8.0
 30
0.0
 11
-15.399999618530273
 21
8.0
 31
0.0
  0
LINE
  5
2C1
100
AcDbEntity
  8
0
  6
CONTINUOUS
 62
               4
100
AcDbLine
 10
15.399999618530273
 20
-5.0
 30
0.0
 11
16.999998092651367
 21
-5.0
 31
0.0
  0
LINE
  5
2C2
100
AcDbEntity
  8
0
  6
CONTINUOUS
 62
               4
100
AcDbLine
 10
15.399999618530273
 20
5.0
 30
0.0
 11
16.999998092651367
 21
5.0
 31
0.0
  0
LINE
  5
2C3
100
AcDbEntity
  8
0
  6
CONTINUOUS
 62
               4
100
AcDbLine
 10
14.600000381469727
 20
-8.0
 30
0.0
 11
15.399999618530273
 21
-8.0
 31
0.0
  0
LINE
  5
2C4
100
AcDbEntity
  8
0
  6
CONTINUOUS
 62
               4
100
AcDbLine
 10
14.600000381469727
 20
8.0
 30
0.0
 11
15.399999618530273
 21
8.0
 31
0.0
  0
LINE
  5
2C5
100
AcDbEntity
  8
0
  6
CONTINUOUS
 62
               4
100
AcDbLine
 10
15.399999618530273
 20
-8.0
 30
0.0
 11
15.399999618530273
 21
8.0
 31
0.0
  0
LINE
  5
2C6
100
AcDbEntity
  8
0
  6
CONTINUOUS
 62
               4
100
AcDbLine
 10
14.600000381469727
 20
-8.0
 30
0.0
 11
14.600000381469727
 21
8.0
 31
0.0
  0
LINE
  5
2C7
100
AcDbEntity
  8
0
  6
CONTINUOUS
 62
               4
100
AcDbLine
 10
-14.600000381469727
 20
5.0
 30
0.0
 11
-14.0
 21
5.0
 31
0.0
  0
LINE
  5
2C8
100
AcDbEntity
  8
0
  6
CONTINUOUS
 62
               4
100
AcDbLine
 10
16.999998092651367
 20
-5.0
 30
0.0
 11
16.999998092651367
 21
5.0
 31
0.0
  0
LINE
  5
2C9
100
AcDbEntity
  8
0
  6
CONTINUOUS
 62
               4
100
AcDbLine
 10
-17.0
 20
-5.0
 30
0.0
 11
-17.0
 21
5.0
 31
0.0
  0
LINE
  5
2CA
100
AcDbEntity
  8
0
  6
CONTINUOUS
 62
               4
100
AcDbLine
 10
-14.600000381469727
 20
-5.0
 30
0.0
 11
-14.0
 21
-5.0
 31
0.0
  0
LINE
  5
2CB
100
AcDbEntity
  8
0
  6
CENTER
 62
             200
100
AcDbLine
 10
-21.316783905029297
 20
17.0
 30
0.0
 11
-12.494592666625977
 21
17.0
 31
0.0
  0
LINE
  5
2CC
100
AcDbEntity
  8
0
  6
CENTER
 62
             200
100
AcDbLine
 10
21.536874771118164
 20
-17.0
 30
0.0
 11
12.494592666625977
 21
-17.0
 31
0.0
  0
LINE
  5
2CD
100
AcDbEntity
  8
0
  6
CENTER
 62
             200
100
AcDbLine
 10
16.999998092651367
 20
-12.77679443359375
 30
0.0
 11
16.999998092651367
 21
-21.462142944335938
 31
0.0
  0
LINE
  5
2CE
100
AcDbEntity
  8
0
  6
CENTER
 62
             200
100
AcDbLine
 10
-17.0
 20
-12.77679443359375
 30
0.0
 11
-17.0
 21
-21.462142944335938
 31
0.0
  0
LINE
  5
2CF
100
AcDbEntity
  8
0
  6
CENTER
 62
             200
100
AcDbLine
 10
-21.536874771118164
 20
-17.0
 30
0.0
 11
-12.494592666625977
 21
-17.0
 31
0.0
  0
LINE
  5
2D0
100
AcDbEntity
  8
0
  6
CENTER
 62
             200
100
AcDbLine
 10
16.999998092651367
 20
12.77679443359375
 30
0.0
 11
16.999998092651367
 21
21.462142944335938
 31
0.0
  0
LINE
  5
2D1
100
AcDbEntity
  8
0
  6
CENTER
 62
             200
100
AcDbLine
 10
21.536874771118164
 20
17.0
 30
0.0
 11
12.494592666625977
 21
17.0
 31
0.0
  0
LINE
  5
2D2
100
AcDbEntity
  8
0
  6
CENTER
 62
             200
100
AcDbLine
 10
-17.0
 20
12.77679443359375
 30
0.0
 11
-17.0
 21
21.462142944335938
 31
0.0
  0
LINE
  5
2D3
100
AcDbEntity
  8
0
  6
CONTINUOUS
 62
               4
100
AcDbLine
 10
-14.0
 20
-9.643646240234375
 30
0.0
 11
-14.0
 21
9.6436538696289062
 31
0.0
  0
LINE
  5
2D4
100
AcDbEntity
  8
0
  6
CONTINUOUS
 62
               4
100
AcDbLine
 10
-6.0
 20
-15.905975341796875
 30
0.0
 11
-6.0
 21
15.905975341796875
 31
0.0
  0
LINE
  5
2D5
100
AcDbEntity
  8
0
  6
CONTINUOUS
 62
               4
100
AcDbLine
 10
13.999998092651367
 20
-9.643646240234375
 30
0.0
 11
13.999998092651367
 21
9.6436538696289062
 31
0.0
  0
LINE
  5
2D6
100
AcDbEntity
  8
0
  6
CONTINUOUS
 62
               4
100
AcDbLine
 10
5.9999980926513672
 20
-15.905975341796875
 30
0.0
 11
5.9999980926513672
 21
15.905975341796875
 31
0.0
  0
LINE
  5
2D7
100
AcDbEntity
  8
0
  6
CENTER
 62
             200
100
AcDbLine
 10
-23.559490203857422
 20
0.0
 30
0.0
 11
23.436574935913086
 21
0.0
 31
0.0
  0
LINE
  5
2D8
100
AcDbEntity
  8
0
  6
CENTER
 62
             200
100
AcDbLine
 10
0.0
 20
-23.868240356445313
 30
0.0
 11
0.0
 21
23.603736877441406
 31
0.0
  0
LINE
  5
2D9
100
AcDbEntity
  8
0
  6
CONTINUOUS
 62
               4
100
AcDbLine
 10
21.999998092651367
 20
-19.653244018554688
 30
0.0
 11
21.999998092651367
 21
19.653244018554688
 31
0.0
  0
LINE
  5
2DA
100
AcDbEntity
  8
0
  6
CONTINUOUS
 62
               4
100
AcDbLine
 10
-19.653244018554688
 20
22.0
 30
0.0
 11
19.653242111206055
 21
22.0
 31
0.0
  0
LINE
  5
2DB
100
AcDbEntity
  8
0
  6
CONTINUOUS
 62
               4
100
AcDbLine
 10
-19.653244018554688
 20
-22.0
 30
0.0
 11
19.653242111206055
 21
-22.0
 31
0.0
  0
LINE
  5
2DC
100
AcDbEntity
  8
0
  6
CONTINUOUS
 62
               4
100
AcDbLine
 10
-22.0
 20
-19.653244018554688
 30
0.0
 11
-22.0
 21
19.653244018554688
 31
0.0
  0
ENDBLK
  5
2DD
100
AcDbEntity
  8
0
100
AcDbBlockEnd
  0
BLOCK
  5
2DE
100
AcDbEntity
  8
0
100
AcDbBlockBegin
  2
JIG-C_CLEVIS1-15
 70
               0
 10
0.0
 20
0.0
 30
0.0
  3
JIG-C_CLEVIS1-15
  1

  0
ARC
  5
2DF
100
AcDbEntity
  8
0
  6
CONTINUOUS
 62
               4
100
AcDbCircle
 10
3.8000030517578125
 20
-21.800003051757813
 30
0.0
 40
0.2000000029802322
100
AcDbArc
 50
270.00001798608935
 51
0.0
  0
ARC
  5
2E0
100
AcDbEntity
  8
0
  6
CONTINUOUS
 62
               4
100
AcDbCircle
 10
0.1999969482421875
 20
-21.800003051757813
 30
0.0
 40
0.2000000029802322
100
AcDbArc
 50
179.99998133066532
 51
270.00001798608935
  0
ARC
  5
2E1
100
AcDbEntity
  8
0
  6
CONTINUOUS
 62
               4
100
AcDbCircle
 10
3.8000030517578125
 20
21.800003051757813
 30
0.0
 40
0.2000000029802322
100
AcDbArc
 50
0.0
 51
89.999982013910653
  0
ARC
  5
2E2
100
AcDbEntity
  8
0
  6
CONTINUOUS
 62
               4
100
AcDbCircle
 10
0.1999969482421875
 20
21.800003051757813
 30
0.0
 40
0.2000000029802322
100
AcDbArc
 50
89.999982013910653
 51
179.99996402782131
  0
LINE
  5
2E3
100
AcDbEntity
  8
0
  6
CONTINUOUS
 62
               4
100
AcDbLine
 10
24.000003814697266
 20
-6.0
 30
0.0
 11
24.000003814697266
 21
6.0
 31
0.0
  0
LINE
  5
2E4
100
AcDbEntity
  8
0
  6
CONTINUOUS
 62
               4
100
AcDbLine
 10
24.000003814697266
 20
14.0
 30
0.0
 11
24.000003814697266
 21
14.599998474121094
 31
0.0
  0
LINE
  5
2E5
100
AcDbEntity
  8
0
  6
CONTINUOUS
 62
               4
100
AcDbLine
 10
14.000007629394531
 20
-6.0
 30
0.0
 11
14.000007629394531
 21
6.0
 31
0.0
  0
LINE
  5
2E6
100
AcDbEntity
  8
0
  6
CONTINUOUS
 62
               4
100
AcDbLine
 10
14.000007629394531
 20
14.0
 30
0.0
 11
14.000007629394531
 21
14.599998474121094
 31
0.0
  0
LINE
  5
2E7
100
AcDbEntity
  8
0
  6
CONTINUOUS
 62
               4
100
AcDbLine
 10
14.000007629394531
 20
-15.400001525878906
 30
0.0
 11
14.000007629394531
 21
-17.0
 31
0.0
  0
LINE
  5
2E8
100
AcDbEntity
  8
0
  6
CONTINUOUS
 62
               4
100
AcDbLine
 10
24.000003814697266
 20
-15.400001525878906
 30
0.0
 11
24.000003814697266
 21
-17.0
 31
0.0
  0
LINE
  5
2E9
100
AcDbEntity
  8
0
  6
CONTINUOUS
 62
               4
100
AcDbLine
 10
27.000003814697266
 20
-14.599998474121094
 30
0.0
 11
27.000003814697266
 21
-15.400001525878906
 31
0.0
  0
LINE
  5
2EA
100
AcDbEntity
  8
0
  6
CONTINUOUS
 62
               4
100
AcDbLine
 10
27.0
 20
-15.400009155273437
 30
0.0
 11
11.0
 21
-15.400009155273437
 31
0.0
  0
LINE
  5
2EB
100
AcDbEntity
  8
0
  6
CONTINUOUS
 62
               4
100
AcDbLine
 10
27.0
 20
-14.600006103515625
 30
0.0
 11
11.0
 21
-14.600006103515625
 31
0.0
  0
LINE
  5
2EC
100
AcDbEntity
  8
0
  6
CONTINUOUS
 62
               4
100
AcDbLine
 10
11.000007629394531
 20
-14.599998474121094
 30
0.0
 11
11.000007629394531
 21
-15.400001525878906
 31
0.0
  0
LINE
  5
2ED
100
AcDbEntity
  8
0
  6
CONTINUOUS
 62
               4
100
AcDbLine
 10
24.000003814697266
 20
15.400001525878906
 30
0.0
 11
24.000003814697266
 21
17.0
 31
0.0
  0
LINE
  5
2EE
100
AcDbEntity
  8
0
  6
CONTINUOUS
 62
               4
100
AcDbLine
 10
14.000007629394531
 20
15.400001525878906
 30
0.0
 11
14.000007629394531
 21
17.0
 31
0.0
  0
LINE
  5
2EF
100
AcDbEntity
  8
0
  6
CONTINUOUS
 62
               4
100
AcDbLine
 10
27.000003814697266
 20
14.599998474121094
 30
0.0
 11
27.000003814697266
 21
15.400001525878906
 31
0.0
  0
LINE
  5
2F0
100
AcDbEntity
  8
0
  6
CONTINUOUS
 62
               4
100
AcDbLine
 10
11.000007629394531
 20
14.599998474121094
 30
0.0
 11
11.000007629394531
 21
15.400001525878906
 31
0.0
  0
LINE
  5
2F1
100
AcDbEntity
  8
0
  6
CONTINUOUS
 62
               4
100
AcDbLine
 10
27.0
 20
15.399993896484375
 30
0.0
 11
11.0
 21
15.399993896484375
 31
0.0
  0
LINE
  5
2F2
100
AcDbEntity
  8
0
  6
CONTINUOUS
 62
               4
100
AcDbLine
 10
27.0
 20
14.599990844726563
 30
0.0
 11
11.0
 21
14.599990844726563
 31
0.0
  0
LINE
  5
2F3
100
AcDbEntity
  8
0
  6
CONTINUOUS
 62
               4
100
AcDbLine
 10
14.000007629394531
 20
-14.599998474121094
 30
0.0
 11
14.000007629394531
 21
-14.0
 31
0.0
  0
LINE
  5
2F4
100
AcDbEntity
  8
0
  6
CONTINUOUS
 62
               4
100
AcDbLine
 10
24.0
 20
17.0
 30
0.0
 11
14.0
 21
17.0
 31
0.0
  0
LINE
  5
2F5
100
AcDbEntity
  8
0
  6
CONTINUOUS
 62
               4
100
AcDbLine
 10
24.0
 20
-17.0
 30
0.0
 11
14.0
 21
-17.0
 31
0.0
  0
LINE
  5
2F6
100
AcDbEntity
  8
0
  6
CONTINUOUS
 62
               4
100
AcDbLine
 10
24.000003814697266
 20
-14.599998474121094
 30
0.0
 11
24.000003814697266
 21
-14.0
 31
0.0
  0
LINE
  5
2F7
100
AcDbEntity
  8
0
  6
CONTINUOUS
 62
               4
100
AcDbLine
 10
0.0
 20
19.653244018554688
 30
0.0
 11
4.0
 21
19.653244018554688
 31
0.0
  0
LINE
  5
2F8
100
AcDbEntity
  8
0
  6
CONTINUOUS
 62
               4
100
AcDbLine
 10
0.0
 20
-19.653244018554688
 30
0.0
 11
4.0
 21
-19.653244018554688
 31
0.0
  0
LINE
  5
2F9
100
AcDbEntity
  8
0
  6
CENTER
 62
             200
100
AcDbLine
 10
-0.9834518432617188
 20
-17.0
 30
0.0
 11
6.0165481567382813
 21
-17.0
 31
0.0
  0
LINE
  5
2FA
100
AcDbEntity
  8
0
  6
CONTINUOUS
 62
               4
100
AcDbLine
 10
28.000026352758198
 20
14.000026326195609
 30
0.0
 11
29.000027414347699
 21
13.000025264606109
 31
0.0
  0
LINE
  5
2FB
100
AcDbEntity
  8
0
  6
CONTINUOUS
 62
               4
100
AcDbLine
 10
29.0
 20
13.000030517578125
 30
0.0
 11
29.0
 21
6.0
 31
0.0
  0
LINE
  5
2FC
100
AcDbEntity
  8
0
  6
CONTINUOUS
 62
               4
100
AcDbLine
 10
28.0
 20
14.0
 30
0.0
 11
28.0
 21
6.0
 31
0.0
  0
LINE
  5
2FD
100
AcDbEntity
  8
0
  6
CONTINUOUS
 62
               4
100
AcDbLine
 10
5.0
 20
6.0
 30
0.0
 11
29.0
 21
6.0
 31
0.0
  0
LINE
  5
2FE
100
AcDbEntity
  8
0
  6
CONTINUOUS
 62
               4
100
AcDbLine
 10
5.0
 20
-6.0
 30
0.0
 11
29.0
 21
-6.0
 31
0.0
  0
LINE
  5
2FF
100
AcDbEntity
  8
0
  6
CONTINUOUS
 62
               4
100
AcDbLine
 10
4.2000045776367187
 20
-17.0
 30
0.0
 11
5.0
 21
-17.0
 31
0.0
  0
LINE
  5
300
100
AcDbEntity
  8
0
  6
CONTINUOUS
 62
               4
100
AcDbLine
 10
3.999967983812212
 20
-17.199976063180543
 30
0.0
 11
4.1999765918465073
 21
-16.999971282208094
 31
0.0
  0
LINE
  5
301
100
AcDbEntity
  8
0
  6
CONTINUOUS
 62
               4
100
AcDbLine
 10
3.9999733784928253
 20
17.199988201524832
 30
0.0
 11
4.1999711968304041
 21
16.999994210042644
 31
0.0
  0
LINE
  5
302
100
AcDbEntity
  8
0
  6
CENTER
 62
             200
100
AcDbLine
 10
-0.9834518432617188
 20
17.0
 30
0.0
 11
6.0165481567382813
 21
17.0
 31
0.0
  0
LINE
  5
303
100
AcDbEntity
  8
0
  6
CONTINUOUS
 62
               4
100
AcDbLine
 10
28.0
 20
-14.0
 30
0.0
 11
28.0
 21
-6.0
 31
0.0
  0
LINE
  5
304
100
AcDbEntity
  8
0
  6
CENTER
 62
             200
100
AcDbLine
 10
19.0
 20
-19.158203125
 30
0.0
 11
19.0
 21
19.09857177734375
 31
0.0
  0
LINE
  5
305
100
AcDbEntity
  8
0
  6
CONTINUOUS
 62
               4
100
AcDbLine
 10
5.0
 20
14.0
 30
0.0
 11
28.0
 21
14.0
 31
0.0
  0
LINE
  5
306
100
AcDbEntity
  8
0
  6
CONTINUOUS
 62
               4
100
AcDbLine
 10
28.000001739010941
 20
-14.000008793109146
 30
0.0
 11
29.000002294837714
 21
-13.000007225756917
 31
0.0
  0
LINE
  5
307
100
AcDbEntity
  8
0
  6
CONTINUOUS
 62
               4
100
AcDbLine
 10
5.0
 20
-14.0
 30
0.0
 11
28.0
 21
-14.0
 31
0.0
  0
LINE
  5
308
100
AcDbEntity
  8
0
  6
CONTINUOUS
 62
               4
100
AcDbLine
 10
5.0
 20
-17.0
 30
0.0
 11
5.0
 21
17.0
 31
0.0
  0
LINE
  5
309
100
AcDbEntity
  8
0
  6
CONTINUOUS
 62
               4
100
AcDbLine
 10
4.2000045776367187
 20
17.0
 30
0.0
 11
5.0
 21
17.0
 31
0.0
  0
LINE
  5
30A
100
AcDbEntity
  8
0
  6
CONTINUOUS
 62
               4
100
AcDbLine
 10
0.1999969482421875
 20
-22.0
 30
0.0
 11
3.8000030517578125
 21
-22.0
 31
0.0
  0
LINE
  5
30B
100
AcDbEntity
  8
0
  6
CONTINUOUS
 62
               4
100
AcDbLine
 10
0.1999969482421875
 20
22.0
 30
0.0
 11
3.8000030517578125
 21
22.0
 31
0.0
  0
LINE
  5
30C
100
AcDbEntity
  8
0
  6
CONTINUOUS
 62
               4
100
AcDbLine
 10
29.0
 20
-13.000038146972656
 30
0.0
 11
29.0
 21
-6.0
 31
0.0
  0
LINE
  5
30D
100
AcDbEntity
  8
0
  6
CONTINUOUS
 62
               4
100
AcDbLine
 10
4.0
 20
-21.800003051757813
 30
0.0
 11
4.0
 21
21.800003051757813
 31
0.0
  0
LINE
  5
30E
100
AcDbEntity
  8
0
  6
CONTINUOUS
 62
               4
100
AcDbLine
 10
0.0
 20
-21.800003051757813
 30
0.0
 11
0.0
 21
21.800003051757813
 31
0.0
  0
LINE
  5
30F
100
AcDbEntity
  8
0
  6
CENTER
 62
             200
100
AcDbLine
 10
-4.8846588134765625
 20
0.0
 30
0.0
 11
35.068428039550781
 21
0.0
 31
0.0
  0
ENDBLK
  5
310
100
AcDbEntity
  8
0
100
AcDbBlockEnd
  0
BLOCK
  5
311
100
AcDbEntity
  8
0
100
AcDbBlockBegin
  2
JIG-C_CLEVIS1-16
 70
               0
 10
0.0
 20
0.0
 30
0.0
  3
JIG-C_CLEVIS1-16
  1

  0
CIRCLE
  5
312
100
AcDbEntity
  8
0
  6
CONTINUOUS
 62
               4
100
AcDbCircle
 10
19.0
 20
0.0
 30
0.0
 40
5.0
  0
ARC
  5
313
100
AcDbEntity
  8
0
  6
CONTINUOUS
 62
               4
100
AcDbCircle
 10
19.0
 20
0.0
 30
0.0
 40
8.0
100
AcDbArc
 50
300.00005297186124
 51
239.99995203709508
  0
LINE
  5
314
100
AcDbEntity
  8
0
  6
CONTINUOUS
 62
               4
100
AcDbLine
 10
23.000043111533728
 20
-6.9281604900820071
 30
0.0
 11
21.500043200940695
 21
-4.3300843253595644
 31
0.0
  0
LINE
  5
315
100
AcDbEntity
  8
0
  6
CONTINUOUS
 62
               4
100
AcDbLine
 10
15.000049070396813
 20
-6.9282150418777064
 30
0.0
 11
16.500049249210747
 21
-4.3301388771552638
 31
0.0
  0
LINE
  5
316
100
AcDbEntity
  8
0
  6
CENTER
 62
             200
100
AcDbLine
 10
4.899932861328125
 20
-19.999992370605469
 30
0.0
 11
-1.366729736328125
 21
-19.999992370605469
 31
0.0
  0
LINE
  5
317
100
AcDbEntity
  8
0
  6
CONTINUOUS
 62
               4
100
AcDbLine
 10
0.0
 20
-23.430747985839844
 30
0.0
 11
4.0
 21
-23.430747985839844
 31
0.0
  0
LINE
  5
318
100
AcDbEntity
  8
0
  6
CONTINUOUS
 62
               4
100
AcDbLine
 10
0.0
 20
23.430747985839844
 30
0.0
 11
4.0
 21
23.430747985839844
 31
0.0
  0
LINE
  5
319
100
AcDbEntity
  8
0
  6
CENTER
 62
             200
100
AcDbLine
 10
4.899932861328125
 20
20.0
 30
0.0
 11
-1.366729736328125
 21
20.0
 31
0.0
  0
LINE
  5
31A
100
AcDbEntity
  8
0
  6
CONTINUOUS
 62
               4
100
AcDbLine
 10
28.0
 20
16.0
 30
0.0
 11
28.0
 21
9.6436538696289062
 31
0.0
  0
LINE
  5
31B
100
AcDbEntity
  8
0
  6
CONTINUOUS
 62
               4
100
AcDbLine
 10
5.0
 20
9.6436538696289062
 30
0.0
 11
28.0
 21
9.6436538696289062
 31
0.0
  0
LINE
  5
31C
100
AcDbEntity
  8
0
  6
CONTINUOUS
 62
               4
100
AcDbLine
 10
29.000066455226147
 20
7.7460045916741365
 30
0.0
 11
28.000069961844815
 21
9.6436996852989978
 31
0.0
  0
LINE
  5
31D
100
AcDbEntity
  8
0
  6
CONTINUOUS
 62
               4
100
AcDbLine
 10
23.972895713386379
 20
6.2666074927585669
 30
0.0
 11
28.000001658494966
 21
9.6436521116493168
 31
0.0
  0
LINE
  5
31E
100
AcDbEntity
  8
0
  6
CONTINUOUS
 62
               4
100
AcDbLine
 10
5.0000170534322024
 20
9.6436304277929139
 30
0.0
 11
11.962749306356272
 21
3.8048351225813803
 31
0.0
  0
LINE
  5
31F
100
AcDbEntity
  8
0
  6
CONTINUOUS
 62
               4
100
AcDbLine
 10
5.0
 20
16.200004577636719
 30
0.0
 11
5.0
 21
17.0
 31
0.0
  0
LINE
  5
320
100
AcDbEntity
  8
0
  6
CONTINUOUS
 62
               4
100
AcDbLine
 10
4.1999306848335323
 20
-16.999951286414614
 30
0.0
 11
3.9999347883528458
 21
-17.199947182895301
 31
0.0
  0
LINE
  5
321
100
AcDbEntity
  8
0
  6
CONTINUOUS
 62
               4
100
AcDbLine
 10
4.1999969482421875
 20
-16.999992370605469
 30
0.0
 11
5.0
 21
-16.999992370605469
 31
0.0
  0
LINE
  5
322
100
AcDbEntity
  8
0
  6
CONTINUOUS
 62
               4
100
AcDbLine
 10
4.2000212669474877
 20
17.000003481356373
 30
0.0
 11
4.0000263145368535
 21
17.200000338765506
 31
0.0
  0
LINE
  5
323
100
AcDbEntity
  8
0
  6
CONTINUOUS
 62
               4
100
AcDbLine
 10
23.972910698523492
 20
-6.2666348601949267
 30
0.0
 11
28.000014347178194
 21
-9.6436764014158598
 31
0.0
  0
LINE
  5
324
100
AcDbEntity
  8
0
  6
CONTINUOUS
 62
               4
100
AcDbLine
 10
5.0000108467781388
 20
-9.643669908044501
 30
0.0
 11
11.96274894565812
 21
-3.8048691589219175
 31
0.0
  0
LINE
  5
325
100
AcDbEntity
  8
0
  6
CONTINUOUS
 62
               4
100
AcDbLine
 10
28.999929529967744
 20
-7.7459224291336568
 30
0.0
 11
27.999929096288383
 21
-9.6436240166639209
 31
0.0
  0
LINE
  5
326
100
AcDbEntity
  8
0
  6
CONTINUOUS
 62
               4
100
AcDbLine
 10
5.0
 20
-9.6436538696289062
 30
0.0
 11
28.0
 21
-9.6436538696289062
 31
0.0
  0
LINE
  5
327
100
AcDbEntity
  8
0
  6
CONTINUOUS
 62
               4
100
AcDbLine
 10
4.9999801228016736
 20
-16.199999232588709
 30
0.0
 11
5.1999722092853631
 21
-15.999999526111026
 31
0.0
  0
LINE
  5
328
100
AcDbEntity
  8
0
  6
CONTINUOUS
 62
               4
100
AcDbLine
 10
5.0
 20
-16.200004577636719
 30
0.0
 11
5.0
 21
-16.999992370605469
 31
0.0
  0
LINE
  5
329
100
AcDbEntity
  8
0
  6
CONTINUOUS
 62
               4
100
AcDbLine
 10
28.0
 20
-15.999992370605469
 30
0.0
 11
28.0
 21
-9.6436538696289062
 31
0.0
  0
LINE
  5
32A
100
AcDbEntity
  8
0
  6
CENTER
 62
             200
100
AcDbLine
 10
19.0
 20
-19.789512634277344
 30
0.0
 11
19.0
 21
20.210487365722656
 31
0.0
  0
LINE
  5
32B
100
AcDbEntity
  8
0
  6
CONTINUOUS
 62
               4
100
AcDbLine
 10
28.000080132312632
 20
-16.000063010329768
 30
0.0
 11
29.000090466233814
 21
-15.000060347184672
 31
0.0
  0
LINE
  5
32C
100
AcDbEntity
  8
0
  6
CONTINUOUS
 62
               4
100
AcDbLine
 10
5.1999969482421875
 20
-15.999992370605469
 30
0.0
 11
28.0
 21
-15.999992370605469
 31
0.0
  0
LINE
  5
32D
100
AcDbEntity
  8
0
  6
CONTINUOUS
 62
               4
100
AcDbLine
 10
27.999990612237525
 20
16.000018671311864
 30
0.0
 11
28.999992601058693
 21
15.00001853695403
 31
0.0
  0
LINE
  5
32E
100
AcDbEntity
  8
0
  6
CONTINUOUS
 62
               4
100
AcDbLine
 10
5.0000060839524281
 20
16.200005516070973
 30
0.0
 11
5.2000000754346161
 21
16.000007697733395
 31
0.0
  0
LINE
  5
32F
100
AcDbEntity
  8
0
  6
CONTINUOUS
 62
               4
100
AcDbLine
 10
5.0
 20
-9.6436538696289062
 30
0.0
 11
5.0
 21
9.6436538696289062
 31
0.0
  0
LINE
  5
330
100
AcDbEntity
  8
0
  6
CONTINUOUS
 62
               4
100
AcDbLine
 10
5.1999969482421875
 20
16.0
 30
0.0
 11
28.0
 21
16.0
 31
0.0
  0
LINE
  5
331
100
AcDbEntity
  8
0
  6
CONTINUOUS
 62
               4
100
AcDbLine
 10
4.1999969482421875
 20
17.0
 30
0.0
 11
5.0
 21
17.0
 31
0.0
  0
LINE
  5
332
100
AcDbEntity
  8
0
  6
CONTINUOUS
 62
               4
100
AcDbLine
 10
4.0000124227417473
 20
-25.799955841754809
 30
0.0
 11
3.8000125644666696
 21
-25.999958566034138
 31
0.0
  0
LINE
  5
333
100
AcDbEntity
  8
0
  6
CONTINUOUS
 62
               4
100
AcDbLine
 10
3.8000272316651262
 20
25.999981745556624
 30
0.0
 11
4.0000231281458127
 21
25.799985849075938
 31
0.0
  0
LINE
  5
334
100
AcDbEntity
  8
0
  6
CONTINUOUS
 62
               4
100
AcDbLine
 10
0.0000204577647764
 20
-25.799974801597841
 30
0.0
 11
0.2000403275817462
 21
-25.999989899974594
 31
0.0
  0
LINE
  5
335
100
AcDbEntity
  8
0
  6
CONTINUOUS
 62
               4
100
AcDbLine
 10
0.2000356068720066
 20
25.999960699458484
 30
0.0
 11
0.000040485958607
 21
25.799969405348861
 31
0.0
  0
LINE
  5
336
100
AcDbEntity
  8
0
  6
CONTINUOUS
 62
               4
100
AcDbLine
 10
0.20001220703125
 20
-25.999992370605469
 30
0.0
 11
3.8000030517578125
 21
-25.999992370605469
 31
0.0
  0
LINE
  5
337
100
AcDbEntity
  8
0
  6
CONTINUOUS
 62
               4
100
AcDbLine
 10
0.1999969482421875
 20
26.0
 30
0.0
 11
3.8000030517578125
 21
26.0
 31
0.0
  0
LINE
  5
338
100
AcDbEntity
  8
0
  6
CONTINUOUS
 62
               4
100
AcDbLine
 10
29.0
 20
-15.000007629394531
 30
0.0
 11
29.0
 21
15.0
 31
0.0
  0
LINE
  5
339
100
AcDbEntity
  8
0
  6
CONTINUOUS
 62
               4
100
AcDbLine
 10
4.0
 20
-25.799995422363281
 30
0.0
 11
4.0
 21
25.800010681152344
 31
0.0
  0
LINE
  5
33A
100
AcDbEntity
  8
0
  6
CONTINUOUS
 62
               4
100
AcDbLine
 10
0.0
 20
-25.799995422363281
 30
0.0
 11
0.0
 21
25.800010681152344
 31
0.0
  0
LINE
  5
33B
100
AcDbEntity
  8
0
  6
CENTER
 62
             200
100
AcDbLine
 10
-2.383575439453125
 20
0.0
 30
0.0
 11
33.216415405273438
 21
0.0
 31
0.0
  0
ENDBLK
  5
33C
100
AcDbEntity
  8
0
100
AcDbBlockEnd
  0
BLOCK
  5
33D
100
AcDbEntity
  8
0
100
AcDbBlockBegin
  2
JIG-C_CLEVIS1-17
 70
               0
 10
0.0
 20
0.0
 30
0.0
  3
JIG-C_CLEVIS1-17
  1

  0
ARC
  5
33E
100
AcDbEntity
  8
0
  6
CONTINUOUS
 62
               4
100
AcDbCircle
 10
0.0
 20
0.0
 30
0.0
 40
17.0
100
AcDbArc
 50
208.07246863076793
 51
331.92751269989736
  0
ARC
  5
33F
100
AcDbEntity
  8
0
  6
CONTINUOUS
 62
               4
100
AcDbCircle
 10
0.0
 20
0.0
 30
0.0
 40
17.0
100
AcDbArc
 50
334.94238893539227
 51
342.8953758275905
  0
ARC
  5
340
100
AcDbEntity
  8
0
  6
CONTINUOUS
 62
               4
100
AcDbCircle
 10
0.0
 20
0.0
 30
0.0
 40
17.0
100
AcDbArc
 50
28.072487300102608
 51
151.92753136923207
  0
ARC
  5
341
100
AcDbEntity
  8
0
  6
CONTINUOUS
 62
               4
100
AcDbCircle
 10
0.0
 20
0.0
 30
0.0
 40
35.0
100
AcDbArc
 50
312.02457368491201
 51
317.97532135777226
  0
ARC
  5
342
100
AcDbEntity
  8
0
  6
CONTINUOUS
 62
               4
100
AcDbCircle
 10
0.0
 20
0.0
 30
0.0
 40
35.0
100
AcDbArc
 50
222.02455068986635
 51
227.97529836272659
  0
ARC
  5
343
100
AcDbEntity
  8
0
  6
CONTINUOUS
 62
               4
100
AcDbCircle
 10
0.0
 20
0.0
 30
0.0
 40
35.0
100
AcDbArc
 50
42.024624000714375
 51
47.975371673574621
  0
ARC
  5
344
100
AcDbEntity
  8
0
  6
CONTINUOUS
 62
               4
100
AcDbCircle
 10
0.0
 20
0.0
 30
0.0
 40
35.0
100
AcDbArc
 50
132.02464699576004
 51
137.97539466862031
  0
CIRCLE
  5
345
100
AcDbEntity
  8
0
  6
CONTINUOUS
 62
               4
100
AcDbCircle
 10
-20.0
 20
-19.999992370605469
 30
0.0
 40
4.5
  0
CIRCLE
  5
346
100
AcDbEntity
  8
0
  6
CONTINUOUS
 62
               4
100
AcDbCircle
 10
-20.0
 20
20.0
 30
0.0
 40
4.5
  0
CIRCLE
  5
347
100
AcDbEntity
  8
0
  6
CONTINUOUS
 62
               4
100
AcDbCircle
 10
20.0
 20
-19.999992370605469
 30
0.0
 40
4.5
  0
CIRCLE
  5
348
100
AcDbEntity
  8
0
  6
CONTINUOUS
 62
               4
100
AcDbCircle
 10
20.0
 20
20.0
 30
0.0
 40
4.5
  0
ARC
  5
349
100
AcDbEntity
  8
0
  6
CONTINUOUS
 62
             200
100
AcDbCircle
 10
0.0
 20
0.0
 30
0.0
 40
16.0
100
AcDbArc
 50
292.02425666292976
 51
331.04491565534835
  0
ARC
  5
34A
100
AcDbEntity
  8
0
  6
CONTINUOUS
 62
             200
100
AcDbCircle
 10
0.0
 20
0.0
 30
0.0
 40
16.0
100
AcDbArc
 50
208.95495639229026
 51
247.97561538470885
  0
ARC
  5
34B
100
AcDbEntity
  8
0
  6
CONTINUOUS
 62
             200
100
AcDbCircle
 10
0.0
 20
0.0
 30
0.0
 40
16.0
100
AcDbArc
 50
28.955029703138294
 51
67.975688695556869
  0
ARC
  5
34C
100
AcDbEntity
  8
0
  6
CONTINUOUS
 62
             200
100
AcDbCircle
 10
0.0
 20
0.0
 30
0.0
 40
16.0
100
AcDbArc
 50
112.0243299737778
 51
151.04498896619637
  0
ARC
  5
34D
100
AcDbEntity
  8
0
  6
CONTINUOUS
 62
               4
100
AcDbCircle
 10
0.0
 20
0.0
 30
0.0
 40
17.0
100
AcDbArc
 50
17.104634417693248
 51
25.057611064607713
  0
ARC
  5
34E
100
AcDbEntity
  8
0
  6
CONTINUOUS
 62
               4
100
AcDbCircle
 10
0.0
 20
0.0
 30
0.0
 40
17.0
100
AcDbArc
 50
154.94241785001071
 51
162.89538083654685
  0
ARC
  5
34F
100
AcDbEntity
  8
0
  6
CONTINUOUS
 62
               4
100
AcDbCircle
 10
0.0
 20
0.0
 30
0.0
 40
17.0
100
AcDbArc
 50
197.10461916345315
 51
205.05758214998929
  0
LINE
  5
350
100
AcDbEntity
  8
0
  6
CONTINUOUS
 62
               4
100
AcDbLine
 10
14.0
 20
-4.9999923706054687
 30
0.0
 11
14.600006103515625
 21
-4.9999923706054687
 31
0.0
  0
LINE
  5
351
100
AcDbEntity
  8
0
  6
CONTINUOUS
 62
               4
100
AcDbLine
 10
-6.0
 20
-4.9999923706054687
 30
0.0
 11
6.0
 21
-4.9999923706054687
 31
0.0
  0
LINE
  5
352
100
AcDbEntity
  8
0
  6
CONTINUOUS
 62
               4
100
AcDbLine
 10
14.0
 20
5.0
 30
0.0
 11
14.600006103515625
 21
5.0
 31
0.0
  0
LINE
  5
353
100
AcDbEntity
  8
0
  6
CONTINUOUS
 62
               4
100
AcDbLine
 10
-6.0
 20
5.0
 30
0.0
 11
6.0
 21
5.0
 31
0.0
  0
LINE
  5
354
100
AcDbEntity
  8
0
  6
CONTINUOUS
 62
               4
100
AcDbLine
 10
-14.600006103515625
 20
-7.9999923706054687
 30
0.0
 11
-15.399993896484375
 21
-7.9999923706054687
 31
0.0
  0
LINE
  5
355
100
AcDbEntity
  8
0
  6
CONTINUOUS
 62
               4
100
AcDbLine
 10
-15.399993896484375
 20
-4.9999923706054687
 30
0.0
 11
-17.0
 21
-4.9999923706054687
 31
0.0
  0
LINE
  5
356
100
AcDbEntity
  8
0
  6
CONTINUOUS
 62
               4
100
AcDbLine
 10
-15.399993896484375
 20
5.0
 30
0.0
 11
-17.0
 21
5.0
 31
0.0
  0
LINE
  5
357
100
AcDbEntity
  8
0
  6
CONTINUOUS
 62
               4
100
AcDbLine
 10
-15.399993896484375
 20
-7.9999923706054687
 30
0.0
 11
-15.399993896484375
 21
8.0
 31
0.0
  0
LINE
  5
358
100
AcDbEntity
  8
0
  6
CONTINUOUS
 62
               4
100
AcDbLine
 10
-14.600006103515625
 20
-7.9999923706054687
 30
0.0
 11
-14.600006103515625
 21
8.0
 31
0.0
  0
LINE
  5
359
100
AcDbEntity
  8
0
  6
CONTINUOUS
 62
               4
100
AcDbLine
 10
-14.600006103515625
 20
8.0
 30
0.0
 11
-15.399993896484375
 21
8.0
 31
0.0
  0
LINE
  5
35A
100
AcDbEntity
  8
0
  6
CONTINUOUS
 62
               4
100
AcDbLine
 10
15.399993896484375
 20
-4.9999923706054687
 30
0.0
 11
17.0
 21
-4.9999923706054687
 31
0.0
  0
LINE
  5
35B
100
AcDbEntity
  8
0
  6
CONTINUOUS
 62
               4
100
AcDbLine
 10
15.399993896484375
 20
5.0
 30
0.0
 11
17.0
 21
5.0
 31
0.0
  0
LINE
  5
35C
100
AcDbEntity
  8
0
  6
CONTINUOUS
 62
               4
100
AcDbLine
 10
14.600006103515625
 20
-7.9999923706054687
 30
0.0
 11
15.399993896484375
 21
-7.9999923706054687
 31
0.0
  0
LINE
  5
35D
100
AcDbEntity
  8
0
  6
CONTINUOUS
 62
               4
100
AcDbLine
 10
14.600006103515625
 20
8.0
 30
0.0
 11
15.399993896484375
 21
8.0
 31
0.0
  0
LINE
  5
35E
100
AcDbEntity
  8
0
  6
CONTINUOUS
 62
               4
100
AcDbLine
 10
15.399993896484375
 20
-7.9999923706054687
 30
0.0
 11
15.399993896484375
 21
8.0
 31
0.0
  0
LINE
  5
35F
100
AcDbEntity
  8
0
  6
CONTINUOUS
 62
               4
100
AcDbLine
 10
14.600006103515625
 20
-7.9999923706054687
 30
0.0
 11
14.600006103515625
 21
8.0
 31
0.0
  0
LINE
  5
360
100
AcDbEntity
  8
0
  6
CONTINUOUS
 62
               4
100
AcDbLine
 10
17.0
 20
-4.9999923706054687
 30
0.0
 11
17.0
 21
5.0
 31
0.0
  0
LINE
  5
361
100
AcDbEntity
  8
0
  6
CONTINUOUS
 62
               4
100
AcDbLine
 10
-14.600006103515625
 20
5.0
 30
0.0
 11
-14.0
 21
5.0
 31
0.0
  0
LINE
  5
362
100
AcDbEntity
  8
0
  6
CONTINUOUS
 62
               4
100
AcDbLine
 10
-17.0
 20
-4.9999923706054687
 30
0.0
 11
-17.0
 21
5.0
 31
0.0
  0
LINE
  5
363
100
AcDbEntity
  8
0
  6
CONTINUOUS
 62
               4
100
AcDbLine
 10
-14.600006103515625
 20
-4.9999923706054687
 30
0.0
 11
-14.0
 21
-4.9999923706054687
 31
0.0
  0
LINE
  5
364
100
AcDbEntity
  8
0
  6
CENTER
 62
             200
100
AcDbLine
 10
-20.0
 20
-14.226646423339844
 30
0.0
 11
-20.0
 21
-26.025566101074219
 31
0.0
  0
LINE
  5
365
100
AcDbEntity
  8
0
  6
CENTER
 62
             200
100
AcDbLine
 10
-14.001235961914063
 20
-19.999992370605469
 30
0.0
 11
-25.45648193359375
 21
-19.999992370605469
 31
0.0
  0
LINE
  5
366
100
AcDbEntity
  8
0
  6
CENTER
 62
             200
100
AcDbLine
 10
-14.001235961914063
 20
20.0
 30
0.0
 11
-25.633392333984375
 21
20.0
 31
0.0
  0
LINE
  5
367
100
AcDbEntity
  8
0
  6
CENTER
 62
             200
100
AcDbLine
 10
-20.0
 20
14.226646423339844
 30
0.0
 11
-20.0
 21
26.025566101074219
 31
0.0
  0
LINE
  5
368
100
AcDbEntity
  8
0
  6
CENTER
 62
             200
100
AcDbLine
 10
20.0
 20
-14.226646423339844
 30
0.0
 11
20.0
 21
-26.025566101074219
 31
0.0
  0
LINE
  5
369
100
AcDbEntity
  8
0
  6
CENTER
 62
             200
100
AcDbLine
 10
14.001235961914063
 20
-19.999992370605469
 30
0.0
 11
25.45648193359375
 21
-19.999992370605469
 31
0.0
  0
LINE
  5
36A
100
AcDbEntity
  8
0
  6
CENTER
 62
             200
100
AcDbLine
 10
14.001235961914063
 20
20.0
 30
0.0
 11
25.45648193359375
 21
20.0
 31
0.0
  0
LINE
  5
36B
100
AcDbEntity
  8
0
  6
CENTER
 62
             200
100
AcDbLine
 10
20.0
 20
14.226646423339844
 30
0.0
 11
20.0
 21
26.025566101074219
 31
0.0
  0
LINE
  5
36C
100
AcDbEntity
  8
0
  6
CONTINUOUS
 62
               4
100
AcDbLine
 10
-14.0
 20
-9.6436538696289062
 30
0.0
 11
-14.0
 21
9.6436538696289062
 31
0.0
  0
LINE
  5
36D
100
AcDbEntity
  8
0
  6
CONTINUOUS
 62
               4
100
AcDbLine
 10
-6.0
 20
-15.905967712402344
 30
0.0
 11
-6.0
 21
15.905975341796875
 31
0.0
  0
LINE
  5
36E
100
AcDbEntity
  8
0
  6
CONTINUOUS
 62
               4
100
AcDbLine
 10
14.0
 20
-9.6436538696289062
 30
0.0
 11
14.0
 21
9.6436538696289062
 31
0.0
  0
LINE
  5
36F
100
AcDbEntity
  8
0
  6
CONTINUOUS
 62
               4
100
AcDbLine
 10
6.0
 20
-15.905967712402344
 30
0.0
 11
6.0
 21
15.905975341796875
 31
0.0
  0
LINE
  5
370
100
AcDbEntity
  8
0
  6
CENTER
 62
             200
100
AcDbLine
 10
-29.070556640625
 20
0.0
 30
0.0
 11
28.77850341796875
 21
0.0
 31
0.0
  0
LINE
  5
371
100
AcDbEntity
  8
0
  6
CENTER
 62
             200
100
AcDbLine
 10
0.0
 20
-28.616035461425781
 30
0.0
 11
0.0
 21
29.233039855957031
 31
0.0
  0
LINE
  5
372
100
AcDbEntity
  8
0
  6
CONTINUOUS
 62
               4
100
AcDbLine
 10
-23.430755615234375
 20
26.0
 30
0.0
 11
23.430755615234375
 21
26.0
 31
0.0
  0
LINE
  5
373
100
AcDbEntity
  8
0
  6
CONTINUOUS
 62
               4
100
AcDbLine
 10
26.0
 20
-23.430747985839844
 30
0.0
 11
26.0
 21
23.430747985839844
 31
0.0
  0
LINE
  5
374
100
AcDbEntity
  8
0
  6
CONTINUOUS
 62
               4
100
AcDbLine
 10
-23.430755615234375
 20
-25.999992370605469
 30
0.0
 11
23.430755615234375
 21
-25.999992370605469
 31
0.0
  0
LINE
  5
375
100
AcDbEntity
  8
0
  6
CONTINUOUS
 62
               4
100
AcDbLine
 10
-26.0
 20
-23.430747985839844
 30
0.0
 11
-26.0
 21
23.430747985839844
 31
0.0
  0
ENDBLK
  5
376
100
AcDbEntity
  8
0
100
AcDbBlockEnd
  0
BLOCK
  5
377
100
AcDbEntity
  8
0
100
AcDbBlockBegin
  2
JIG-C_CLEVIS1-18
 70
               0
 10
0.0
 20
0.0
 30
0.0
  3
JIG-C_CLEVIS1-18
  1

  0
LINE
  5
378
100
AcDbEntity
  8
0
  6
CONTINUOUS
 62
               4
100
AcDbLine
 10
24.0
 20
-6.0
 30
0.0
 11
24.0
 21
6.0
 31
0.0
  0
LINE
  5
379
100
AcDbEntity
  8
0
  6
CONTINUOUS
 62
               4
100
AcDbLine
 10
24.0
 20
14.0
 30
0.0
 11
24.0
 21
14.599998474121094
 31
0.0
  0
LINE
  5
37A
100
AcDbEntity
  8
0
  6
CONTINUOUS
 62
               4
100
AcDbLine
 10
14.0
 20
-6.0
 30
0.0
 11
14.0
 21
6.0
 31
0.0
  0
LINE
  5
37B
100
AcDbEntity
  8
0
  6
CONTINUOUS
 62
               4
100
AcDbLine
 10
14.0
 20
14.0
 30
0.0
 11
14.0
 21
14.599998474121094
 31
0.0
  0
LINE
  5
37C
100
AcDbEntity
  8
0
  6
CONTINUOUS
 62
               4
100
AcDbLine
 10
27.0
 20
-14.600006103515625
 30
0.0
 11
27.0
 21
-15.400001525878906
 31
0.0
  0
LINE
  5
37D
100
AcDbEntity
  8
0
  6
CONTINUOUS
 62
               4
100
AcDbLine
 10
24.0
 20
-15.400001525878906
 30
0.0
 11
24.0
 21
-17.0
 31
0.0
  0
LINE
  5
37E
100
AcDbEntity
  8
0
  6
CONTINUOUS
 62
               4
100
AcDbLine
 10
14.0
 20
-15.400001525878906
 30
0.0
 11
14.0
 21
-17.0
 31
0.0
  0
LINE
  5
37F
100
AcDbEntity
  8
0
  6
CONTINUOUS
 62
               4
100
AcDbLine
 10
27.0
 20
-15.400009155273437
 30
0.0
 11
11.0
 21
-15.400009155273437
 31
0.0
  0
LINE
  5
380
100
AcDbEntity
  8
0
  6
CONTINUOUS
 62
               4
100
AcDbLine
 10
27.0
 20
-14.600013732910156
 30
0.0
 11
11.0
 21
-14.600013732910156
 31
0.0
  0
LINE
  5
381
100
AcDbEntity
  8
0
  6
CONTINUOUS
 62
               4
100
AcDbLine
 10
11.0
 20
-14.600006103515625
 30
0.0
 11
11.0
 21
-15.400001525878906
 31
0.0
  0
LINE
  5
382
100
AcDbEntity
  8
0
  6
CONTINUOUS
 62
               4
100
AcDbLine
 10
24.0
 20
15.400001525878906
 30
0.0
 11
24.0
 21
17.0
 31
0.0
  0
LINE
  5
383
100
AcDbEntity
  8
0
  6
CONTINUOUS
 62
               4
100
AcDbLine
 10
14.0
 20
15.400001525878906
 30
0.0
 11
14.0
 21
17.0
 31
0.0
  0
LINE
  5
384
100
AcDbEntity
  8
0
  6
CONTINUOUS
 62
               4
100
AcDbLine
 10
27.0
 20
14.599998474121094
 30
0.0
 11
27.0
 21
15.400001525878906
 31
0.0
  0
LINE
  5
385
100
AcDbEntity
  8
0
  6
CONTINUOUS
 62
               4
100
AcDbLine
 10
11.0
 20
14.599998474121094
 30
0.0
 11
11.0
 21
15.400001525878906
 31
0.0
  0
LINE
  5
386
100
AcDbEntity
  8
0
  6
CONTINUOUS
 62
               4
100
AcDbLine
 10
27.0
 20
15.399993896484375
 30
0.0
 11
11.0
 21
15.399993896484375
 31
0.0
  0
LINE
  5
387
100
AcDbEntity
  8
0
  6
CONTINUOUS
 62
               4
100
AcDbLine
 10
27.0
 20
14.599990844726563
 30
0.0
 11
11.0
 21
14.599990844726563
 31
0.0
  0
LINE
  5
388
100
AcDbEntity
  8
0
  6
CONTINUOUS
 62
               4
100
AcDbLine
 10
24.0
 20
16.999992370605469
 30
0.0
 11
14.0
 21
16.999992370605469
 31
0.0
  0
LINE
  5
389
100
AcDbEntity
  8
0
  6
CONTINUOUS
 62
               4
100
AcDbLine
 10
14.0
 20
-14.600006103515625
 30
0.0
 11
14.0
 21
-14.0
 31
0.0
  0
LINE
  5
38A
100
AcDbEntity
  8
0
  6
CONTINUOUS
 62
               4
100
AcDbLine
 10
24.0
 20
-17.000007629394531
 30
0.0
 11
14.0
 21
-17.000007629394531
 31
0.0
  0
LINE
  5
38B
100
AcDbEntity
  8
0
  6
CONTINUOUS
 62
               4
100
AcDbLine
 10
24.0
 20
-14.600006103515625
 30
0.0
 11
24.0
 21
-14.0
 31
0.0
  0
LINE
  5
38C
100
AcDbEntity
  8
0
  6
CONTINUOUS
 62
               4
100
AcDbLine
 10
0.0
 20
23.430999755859375
 30
0.0
 11
4.0
 21
23.430999755859375
 31
0.0
  0
LINE
  5
38D
100
AcDbEntity
  8
0
  6
CENTER
 62
             200
100
AcDbLine
 10
-1.1667327880859375
 20
20.0
 30
0.0
 11
4.9665985107421875
 21
20.0
 31
0.0
  0
LINE
  5
38E
100
AcDbEntity
  8
0
  6
CONTINUOUS
 62
               4
100
AcDbLine
 10
0.0
 20
-23.430999755859375
 30
0.0
 11
4.0
 21
-23.430999755859375
 31
0.0
  0
LINE
  5
38F
100
AcDbEntity
  8
0
  6
CENTER
 62
             200
100
AcDbLine
 10
-2.383575439453125
 20
0.0
 30
0.0
 11
33.216415405273438
 21
0.0
 31
0.0
  0
LINE
  5
390
100
AcDbEntity
  8
0
  6
CONTINUOUS
 62
               4
100
AcDbLine
 10
5.1999969482421875
 20
-14.0
 30
0.0
 11
28.0
 21
-14.0
 31
0.0
  0
LINE
  5
391
100
AcDbEntity
  8
0
  6
CONTINUOUS
 62
               4
100
AcDbLine
 10
27.999970381744333
 20
-13.999944729898289
 30
0.0
 11
28.9999606537408
 21
-12.999954457901822
 31
0.0
  0
LINE
  5
392
100
AcDbEntity
  8
0
  6
CONTINUOUS
 62
               4
100
AcDbLine
 10
28.0
 20
-14.0
 30
0.0
 11
28.0
 21
-6.0
 31
0.0
  0
LINE
  5
393
100
AcDbEntity
  8
0
  6
CONTINUOUS
 62
               4
100
AcDbLine
 10
29.0
 20
-6.0
 30
0.0
 11
29.0
 21
-13.0
 31
0.0
  0
LINE
  5
394
100
AcDbEntity
  8
0
  6
CONTINUOUS
 62
               4
100
AcDbLine
 10
5.0
 20
-6.0
 30
0.0
 11
29.0
 21
-6.0
 31
0.0
  0
LINE
  5
395
100
AcDbEntity
  8
0
  6
CONTINUOUS
 62
               4
100
AcDbLine
 10
29.0
 20
6.0
 30
0.0
 11
29.0
 21
13.000007629394531
 31
0.0
  0
LINE
  5
396
100
AcDbEntity
  8
0
  6
CONTINUOUS
 62
               4
100
AcDbLine
 10
5.0
 20
6.0
 30
0.0
 11
29.0
 21
6.0
 31
0.0
  0
LINE
  5
397
100
AcDbEntity
  8
0
  6
CONTINUOUS
 62
               4
100
AcDbLine
 10
28.0
 20
14.0
 30
0.0
 11
28.0
 21
6.0
 31
0.0
  0
LINE
  5
398
100
AcDbEntity
  8
0
  6
CONTINUOUS
 62
               4
100
AcDbLine
 10
4.1999603562143761
 20
-16.999967470804165
 30
0.0
 11
3.9999644597336896
 21
-17.199963367284852
 31
0.0
  0
LINE
  5
399
100
AcDbEntity
  8
0
  6
CONTINUOUS
 62
               4
100
AcDbLine
 10
4.1999969482421875
 20
-17.0
 30
0.0
 11
5.0
 21
-17.0
 31
0.0
  0
LINE
  5
39A
100
AcDbEntity
  8
0
  6
CONTINUOUS
 62
               4
100
AcDbLine
 10
4.2000259873657342
 20
16.999997412187554
 30
0.0
 11
4.0000310349551
 21
17.199994269596687
 31
0.0
  0
LINE
  5
39B
100
AcDbEntity
  8
0
  6
CENTER
 62
             200
100
AcDbLine
 10
19.0
 20
-19.789505004882813
 30
0.0
 11
19.0
 21
20.210494995117188
 31
0.0
  0
LINE
  5
39C
100
AcDbEntity
  8
0
  6
CONTINUOUS
 62
               4
100
AcDbLine
 10
28.00001944073847
 20
13.999957205396186
 30
0.0
 11
29.000021429559638
 21
12.999957071038352
 31
0.0
  0
LINE
  5
39D
100
AcDbEntity
  8
0
  6
CONTINUOUS
 62
               4
100
AcDbLine
 10
5.0000384528361224
 20
16.200016305354779
 30
0.0
 11
5.2000324443183104
 21
16.000018487017201
 31
0.0
  0
LINE
  5
39E
100
AcDbEntity
  8
0
  6
CONTINUOUS
 62
               4
100
AcDbLine
 10
5.0
 20
-17.0
 30
0.0
 11
5.0
 21
17.0
 31
0.0
  0
LINE
  5
39F
100
AcDbEntity
  8
0
  6
CONTINUOUS
 62
               4
100
AcDbLine
 10
5.1999969482421875
 20
14.0
 30
0.0
 11
28.0
 21
14.0
 31
0.0
  0
LINE
  5
3A0
100
AcDbEntity
  8
0
  6
CONTINUOUS
 62
               4
100
AcDbLine
 10
4.1999969482421875
 20
17.0
 30
0.0
 11
5.0
 21
17.0
 31
0.0
  0
LINE
  5
3A1
100
AcDbEntity
  8
0
  6
CONTINUOUS
 62
               4
100
AcDbLine
 10
3.9999975873315634
 20
-25.799994954135855
 30
0.0
 11
3.7999977290564857
 21
-25.999997678415184
 31
0.0
  0
LINE
  5
3A2
100
AcDbEntity
  8
0
  6
CONTINUOUS
 62
               4
100
AcDbLine
 10
3.8000016063816702
 20
25.999977699459237
 30
0.0
 11
3.9999975028623567
 21
25.79998180297855
 31
0.0
  0
LINE
  5
3A3
100
AcDbEntity
  8
0
  6
CONTINUOUS
 62
               4
100
AcDbLine
 10
0.000028550378147
 20
-25.80000986768016
 30
0.0
 11
0.2000268407507519
 21
-26.000003387127322
 31
0.0
  0
LINE
  5
3A4
100
AcDbEntity
  8
0
  6
CONTINUOUS
 62
               4
100
AcDbLine
 10
0.1999830082618246
 20
26.00002948362021
 30
0.0
 11
-0.0000148100757542
 21
25.800035492138022
 31
0.0
  0
LINE
  5
3A5
100
AcDbEntity
  8
0
  6
CONTINUOUS
 62
               4
100
AcDbLine
 10
0.20001220703125
 20
-26.0
 30
0.0
 11
3.8000030517578125
 21
-26.0
 31
0.0
  0
LINE
  5
3A6
100
AcDbEntity
  8
0
  6
CONTINUOUS
 62
               4
100
AcDbLine
 10
0.1999969482421875
 20
26.0
 30
0.0
 11
3.8000030517578125
 21
26.0
 31
0.0
  0
LINE
  5
3A7
100
AcDbEntity
  8
0
  6
CONTINUOUS
 62
               4
100
AcDbLine
 10
4.0
 20
-25.800003051757812
 30
0.0
 11
4.0
 21
25.800018310546875
 31
0.0
  0
LINE
  5
3A8
100
AcDbEntity
  8
0
  6
CONTINUOUS
 62
               4
100
AcDbLine
 10
0.0
 20
-25.800003051757812
 30
0.0
 11
0.0
 21
25.800003051757812
 31
0.0
  0
LINE
  5
3A9
100
AcDbEntity
  8
0
  6
CENTER
 62
             200
100
AcDbLine
 10
-1.1667327880859375
 20
-20.0
 30
0.0
 11
4.9665985107421875
 21
-20.0
 31
0.0
  0
ENDBLK
  5
3AA
100
AcDbEntity
  8
0
100
AcDbBlockEnd
  0
ENDSEC
  0
SECTION
  2
ENTITIES
  0
INSERT
  5
3AB
100
AcDbEntity
  8
0
  6
ByBlock
100
AcDbBlockReference
  2
JIG-C_CLEVIS1-18
 10
139.14791870117187
 20
-54.252235412597656
 30
0.0
  0
INSERT
  5
3AC
100
AcDbEntity
  8
0
  6
ByBlock
100
AcDbBlockReference
  2
JIG-C_CLEVIS1-17
 10
234.14788818359375
 20
-124.252197265625
 30
0.0
  0
INSERT
  5
3AD
100
AcDbEntity
  8
0
  6
ByBlock
100
AcDbBlockReference
  2
JIG-C_CLEVIS1-16
 10
139.14791870117187
 20
-124.25223541259766
 30
0.0
  0
INSERT
  5
3AE
100
AcDbEntity
  8
0
  6
ByBlock
100
AcDbBlockReference
  2
JIG-C_CLEVIS1-15
 10
-52.126548767089844
 20
-54.720325469970703
 30
0.0
  0
INSERT
  5
3AF
100
AcDbEntity
  8
0
  6
ByBlock
100
AcDbBlockReference
  2
JIG-C_CLEVIS1-14
 10
29.873392105102539
 20
-131.72030639648437
 30
0.0
  0
INSERT
  5
3B0
100
AcDbEntity
  8
0
  6
ByBlock
100
AcDbBlockReference
  2
JIG-C_CLEVIS1-13
 10
-52.126556396484375
 20
-131.72032165527344
 30
0.0
  0
INSERT
  5
3B1
100
AcDbEntity
  8
0
  6
ByBlock
100
AcDbBlockReference
  2
JIG-C_CLEVIS1-12
 10
-237.04273986816406
 20
-57.299716949462891
 30
0.0
  0
INSERT
  5
3B2
100
AcDbEntity
  8
0
  6
ByBlock
100
AcDbBlockReference
  2
JIG-C_CLEVIS1-11
 10
-156.04273986816406
 20
-134.29971313476562
 30
0.0
  0
INSERT
  5
3B3
100
AcDbEntity
  8
0
  6
ByBlock
100
AcDbBlockReference
  2
JIG-C_CLEVIS1-10
 10
-237.04275512695312
 20
-134.29971313476562
 30
0.0
  0
INSERT
  5
3B4
100
AcDbEntity
  8
0
  6
ByBlock
100
AcDbBlockReference
  2
JIG-C_CLEVIS1-9
 10
136.23194885253906
 20
122.19580078125
 30
0.0
  0
INSERT
  5
3B5
100
AcDbEntity
  8
0
  6
ByBlock
100
AcDbBlockReference
  2
JIG-C_CLEVIS1-8
 10
223.54411315917969
 20
47.195812225341797
 30
0.0
  0
INSERT
  5
3B6
100
AcDbEntity
  8
0
  6
ByBlock
100
AcDbBlockReference
  2
JIG-C_CLEVIS1-7
 10
136.23199462890625
 20
47.195819854736328
 30
0.0
  0
INSERT
  5
3B7
100
AcDbEntity
  8
0
  6
ByBlock
100
AcDbBlockReference
  2
JIG-C_CLEVIS1-6
 10
-49.561286926269531
 20
119.24330139160156
 30
0.0
  0
INSERT
  5
3B8
100
AcDbEntity
  8
0
  6
ByBlock
100
AcDbBlockReference
  2
JIG-C_CLEVIS1-5
 10
37.882335662841797
 20
43.2432861328125
 30
0.0
  0
INSERT
  5
3B9
100
AcDbEntity
  8
0
  6
ByBlock
100
AcDbBlockReference
  2
JIG-C_CLEVIS1-4
 10
-49.561264038085937
 20
43.243293762207031
 30
0.0
  0
INSERT
  5
3BA
100
AcDbEntity
  8
0
  6
ByBlock
100
AcDbBlockReference
  2
JIG-C_CLEVIS1-3
 10
-234.48008728027344
 20
117.66112518310547
 30
0.0
  0
INSERT
  5
3BB
100
AcDbEntity
  8
0
  6
ByBlock
100
AcDbBlockReference
  2
JIG-C_CLEVIS1-2
 10
-152.48005676269531
 20
43.661113739013672
 30
0.0
  0
INSERT
  5
3BC
100
AcDbEntity
  8
0
  6
ByBlock
100
AcDbBlockReference
  2
JIG-C_CLEVIS1-1
 10
-234.48005676269531
 20
43.6611328125
 30
0.0
  0
MTEXT
  5
3BD
100
AcDbEntity
  8
0
  6
CONTINUOUS
 62
               7
100
AcDbMText
 10
-232.80000034968057
 20
181.5
 30
0.0
 40
6.3000001907348633
 41
0.0
 71
               4
 72
               1
  1
\A1;FOOT
  0
MTEXT
  5
3BE
100
AcDbEntity
  8
0
  6
CONTINUOUS
 62
               7
100
AcDbMText
 10
-272.45969360297306
 20
163.64511108398437
 30
0.0
 40
6.3000001907348633
 41
0.0
 71
               4
 72
               1
  1
\W1.117;\A1;BORE 12
  0
MTEXT
  5
3BF
100
AcDbEntity
  8
0
  6
CONTINUOUS
 62
               7
100
AcDbMText
 10
-89.893043212348076
 20
163.64511108398437
 30
0.0
 40
6.3000001907348633
 41
0.0
 71
               4
 72
               1
  1
\W1.117;\A1;BORE 16
  0
MTEXT
  5
3C0
100
AcDbEntity
  8
0
  6
CONTINUOUS
 62
               7
100
AcDbMText
 10
100.07655624139645
 20
163.64511108398437
 30
0.0
 40
6.3000001907348633
 41
0.0
 71
               4
 72
               1
  1
\W1.088;\A1;BORE 20
  0
MTEXT
  5
3C1
100
AcDbEntity
  8
0
  6
CONTINUOUS
 62
               7
100
AcDbMText
 10
-89.952294446001147
 20
-10.354888916015625
 30
0.0
 40
6.3000001907348633
 41
0.0
 71
               4
 72
               1
  1
\W1.061;\A1;BORE 32
  0
MTEXT
  5
3C2
100
AcDbEntity
  8
0
  6
CONTINUOUS
 62
               7
100
AcDbMText
 10
-272.51894483662613
 20
-10.354888916015625
 30
0.0
 40
6.3000001907348633
 41
0.0
 71
               4
 72
               1
  1
\W1.061;\A1;BORE 25
  0
MTEXT
  5
3C3
100
AcDbEntity
  8
0
  6
CONTINUOUS
 62
               7
100
AcDbMText
 10
100.07655624139645
 20
-10.354888916015625
 30
0.0
 40
6.3000001907348633
 41
0.0
 71
               4
 72
               1
  1
\W1.088;\A1;BORE 40
  0
MTEXT
  5
3C4
100
AcDbEntity
  8
0
  6
CONTINUOUS
 62
               7
100
AcDbMText
 10
-257.89756208931686
 20
189.5
 30
0.0
 40
6.3000001907348633
 41
0.0
 71
               4
 72
               1
  1
\W1.098;\A1;JIG CYLINDER
  0
MTEXT
  5
3C5
100
AcDbEntity
  8
0
  6
CONTINUOUS
 62
               7
100
AcDbMText
 10
170.28101006437726
 20
-185.0
 30
0.0
 40
9.0
 41
0.0
 71
               4
 72
               1
  1
\W1.121;\A1;KOGANEI CORP.
  0
MTEXT
  5
3C6
100
AcDbEntity
  8
0
  6
CONTINUOUS
 62
               7
100
AcDbMText
 10
176.09013167037702
 20
185.5
 30
0.0
 40
6.3000001907348633
 41
0.0
 71
               4
 72
               1
  1
\W1.181;\A1;DATE: JUL ,1994
  0
LINE
  5
3C7
100
AcDbEntity
  8
0
  6
CONTINUOUS
 62
               7
100
AcDbLine
 10
-281.25
 20
0.25
 30
0.0
 11
282.0999755859375
 21
0.25
 31
0.0
  0
LINE
  5
3C8
100
AcDbEntity
  8
0
  6
CONTINUOUS
 62
               7
100
AcDbLine
 10
94.316650390625
 20
195.5
 30
0.0
 11
94.316650390625
 21
-195.0
 31
0.0
  0
LINE
  5
3C9
100
AcDbEntity
  8
0
  6
CONTINUOUS
 62
               7
100
AcDbLine
 10
-93.4666748046875
 20
195.5
 30
0.0
 11
-93.4666748046875
 21
-195.0
 31
0.0
  0
LINE
  5
3CA
100
AcDbEntity
  8
0
  6
CONTINUOUS
 62
               7
100
AcDbLine
 10
-161.25
 20
195.5
 30
0.0
 11
-161.25
 21
175.5
 31
0.0
  0
LINE
  5
3CB
100
AcDbEntity
  8
0
  6
CONTINUOUS
 62
               7
100
AcDbLine
 10
162.0999755859375
 20
195.5
 30
0.0
 11
162.0999755859375
 21
175.5
 31
0.0
  0
LINE
  5
3CC
100
AcDbEntity
  8
0
  6
CONTINUOUS
 62
               7
100
AcDbLine
 10
-281.25
 20
175.5
 30
0.0
 11
-161.25
 21
175.5
 31
0.0
  0
LINE
  5
3CD
100
AcDbEntity
  8
0
  6
CONTINUOUS
 62
               7
100
AcDbLine
 10
162.0999755859375
 20
175.5
 30
0.0
 11
282.0999755859375
 21
175.5
 31
0.0
  0
LINE
  5
3CE
100
AcDbEntity
  8
0
  6
CONTINUOUS
 62
               7
100
AcDbLine
 10
162.0999755859375
 20
-175.0
 30
0.0
 11
282.0999755859375
 21
-175.0
 31
0.0
  0
LINE
  5
3CF
100
AcDbEntity
  8
0
  6
CONTINUOUS
 62
               7
100
AcDbLine
 10
162.0999755859375
 20
-175.0
 30
0.0
 11
162.0999755859375
 21
-195.0
 31
0.0
  0
LINE
  5
3D0
100
AcDbEntity
  8
0
  6
CONTINUOUS
 62
               7
100
AcDbLine
 10
-281.25
 20
-195.0
 30
0.0
 11
282.0999755859375
 21
-195.0
 31
0.0
  0
LINE
  5
3D1
100
AcDbEntity
  8
0
  6
CONTINUOUS
 62
               7
100
AcDbLine
 10
282.0999755859375
 20
195.5
 30
0.0
 11
282.0999755859375
 21
-195.0
 31
0.0
  0
LINE
  5
3D2
100
AcDbEntity
  8
0
  6
CONTINUOUS
 62
               7
100
AcDbLine
 10
-281.25
 20
195.5
 30
0.0
 11
-281.25
 21
-195.0
 31
0.0
  0
LINE
  5
3D3
100
AcDbEntity
  8
0
  6
CONTINUOUS
 62
               7
100
AcDbLine
 10
-281.25
 20
195.5
 30
0.0
 11
282.0999755859375
 21
195.5
 31
0.0
  0
ENDSEC
  0
SECTION
  2
OBJECTS
  0
DICTIONARY
  5
19
100
AcDbDictionary
  3
ACAD_GROUP
350
1A
  3
ACAD_MLINESTYLE
350
1B
  0
DICTIONARY
  5
1A
102
{ACAD_REACTORS
330
19
102
}
100
AcDbDictionary
  0
DICTIONARY
  5
1B
102
{ACAD_REACTORS
330
19
102
}
100
AcDbDictionary
  3
STANDARD
350
1C
  0
MLINESTYLE
  5
1C
102
{ACAD_REACTORS
330
1B
102
}
100
AcDbMlineStyle
  2
Standard
 70
               0
  3

 62
               0
 51
90.0
 52
90.0
 71
               2
 49
0.5
 62
             256
  6
ByLayer
 49
-0.5
 62
             256
  6
ByLayer
  0
ENDSEC
  0
EOF
