  0
SECTION
  2
HEADER
  9
$ACADVER
  1
AC1012
  9
$DWGCODEPAGE
  3
dos932
  9
$INSBASE
 10
0.0
 20
0.0
 30
0.0
  9
$EXTMIN
 10
-281.25
 20
-195.0
 30
0.0
  9
$EXTMAX
 10
285.5999755859375
 20
195.5
 30
0.0
  9
$LIMMIN
 10
-281.25
 20
-195.0
  9
$LIMMAX
 10
285.5999755859375
 20
195.5
  9
$ORTHOMODE
 70
               0
  9
$REGENMODE
 70
               1
  9
$FILLMODE
 70
               1
  9
$QTEXTMODE
 70
               0
  9
$MIRRTEXT
 70
               1
  9
$DRAGMODE
 70
               2
  9
$LTSCALE
 40
1.0
  9
$OSMODE
 70
               0
  9
$ATTMODE
 70
               1
  9
$TEXTSIZE
 40
3.2000000476837158
  9
$TRACEWID
 40
0.05
  9
$TEXTSTYLE
  7
MX_NOTE_STANDARD
  9
$CLAYER
  8
0
  9
$CELTYPE
  6
CONTINUOUS
  9
$CECOLOR
 62
             256
  9
$CELTSCALE
 40
1.0
  9
$DELOBJ
 70
               1
  9
$DISPSILH
 70
               0
  9
$DIMSCALE
 40
1.0
  9
$DIMASZ
 40
2.5
  9
$DIMEXO
 40
1.5
  9
$DIMDLI
 40
3.75
  9
$DIMRND
 40
0.0
  9
$DIMDLE
 40
0.0
  9
$DIMEXE
 40
1.5
  9
$DIMTP
 40
0.0
  9
$DIMTM
 40
0.0
  9
$DIMTXT
 40
3.2000000476837158
  9
$DIMCEN
 40
2.5
  9
$DIMTSZ
 40
0.0
  9
$DIMTOL
 70
               0
  9
$DIMLIM
 70
               0
  9
$DIMTIH
 70
               0
  9
$DIMTOH
 70
               0
  9
$DIMSE1
 70
               0
  9
$DIMSE2
 70
               0
  9
$DIMTAD
 70
               1
  9
$DIMZIN
 70
               8
  9
$DIMBLK
  1

  9
$DIMASO
 70
               1
  9
$DIMSHO
 70
               1
  9
$DIMPOST
  1

  9
$DIMAPOST
  1

  9
$DIMALT
 70
               0
  9
$DIMALTD
 70
               4
  9
$DIMALTF
 40
0.03937007874016
  9
$DIMLFAC
 40
1.0
  9
$DIMTOFL
 70
               1
  9
$DIMTVP
 40
0.0
  9
$DIMTIX
 70
               0
  9
$DIMSOXD
 70
               0
  9
$DIMSAH
 70
               0
  9
$DIMBLK1
  1

  9
$DIMBLK2
  1

  9
$DIMSTYLE
  2
MXDIMSTYLE
  9
$DIMCLRD
 70
               0
  9
$DIMCLRE
 70
               0
  9
$DIMCLRT
 70
               0
  9
$DIMTFAC
 40
1.0
  9
$DIMGAP
 40
1.0
  9
$DIMJUST
 70
               0
  9
$DIMSD1
 70
               0
  9
$DIMSD2
 70
               0
  9
$DIMTOLJ
 70
               1
  9
$DIMTZIN
 70
               0
  9
$DIMALTZ
 70
               0
  9
$DIMALTTZ
 70
               0
  9
$DIMFIT
 70
               3
  9
$DIMUPT
 70
               1
  9
$DIMUNIT
 70
               2
  9
$DIMDEC
 70
               4
  9
$DIMTDEC
 70
               4
  9
$DIMALTU
 70
               2
  9
$DIMALTTD
 70
               4
  9
$DIMTXSTY
  7
MX_NOTE_STANDARD
  9
$DIMAUNIT
 70
               0
  9
$LUNITS
 70
               2
  9
$LUPREC
 70
               4
  9
$SKETCHINC
 40
0.1
  9
$FILLETRAD
 40
0.0
  9
$AUNITS
 70
               0
  9
$AUPREC
 70
               0
  9
$MENU
  1
acad
  9
$ELEVATION
 40
0.0
  9
$PELEVATION
 40
0.0
  9
$THICKNESS
 40
0.0
  9
$LIMCHECK
 70
               0
  9
$BLIPMODE
 70
               1
  9
$CHAMFERA
 40
0.0
  9
$CHAMFERB
 40
0.0
  9
$CHAMFERC
 40
0.0
  9
$CHAMFERD
 40
0.0
  9
$SKPOLY
 70
               0
  9
$TDCREATE
 40
2453446.620983796
  9
$TDUPDATE
 40
2453446.620983796
  9
$TDINDWG
 40
0.0000000000
  9
$TDUSRTIMER
 40
0.0000000000
  9
$USRTIMER
 70
               1
  9
$ANGBASE
 50
0.0
  9
$ANGDIR
 70
               0
  9
$PDMODE
 70
               0
  9
$PDSIZE
 40
0.0
  9
$PLINEWID
 40
0.0
  9
$COORDS
 70
               1
  9
$SPLFRAME
 70
               0
  9
$SPLINETYPE
 70
               6
  9
$SPLINESEGS
 70
               8
  9
$ATTDIA
 70
               0
  9
$ATTREQ
 70
               1
  9
$HANDLING
 70
               1
  9
$HANDSEED
  5
162
  9
$SURFTAB1
 70
               6
  9
$SURFTAB2
 70
               6
  9
$SURFTYPE
 70
               6
  9
$SURFU
 70
               6
  9
$SURFV
 70
               6
  9
$UCSNAME
  2

  9
$UCSORG
 10
0.0
 20
0.0
 30
0.0
  9
$UCSXDIR
 10
1.0
 20
0.0
 30
0.0
  9
$UCSYDIR
 10
0.0
 20
1.0
 30
0.0
  9
$PUCSNAME
  2

  9
$PUCSORG
 10
0.0
 20
0.0
 30
0.0
  9
$PUCSXDIR
 10
1.0
 20
0.0
 30
0.0
  9
$PUCSYDIR
 10
0.0
 20
1.0
 30
0.0
  9
$USERI1
 70
               0
  9
$USERI2
 70
               0
  9
$USERI3
 70
               0
  9
$USERI4
 70
               0
  9
$USERI5
 70
               0
  9
$USERR1
 40
0.0
  9
$USERR2
 40
0.0
  9
$USERR3
 40
0.0
  9
$USERR4
 40
0.0
  9
$USERR5
 40
0.0
  9
$WORLDVIEW
 70
               1
  9
$SHADEDGE
 70
               3
  9
$SHADEDIF
 70
              70
  9
$TILEMODE
 70
               1
  9
$MAXACTVP
 70
              16
  9
$PINSBASE
 10
0.0
 20
0.0
 30
0.0
  9
$PLIMCHECK
 70
               0
  9
$PEXTMIN
 10
1.0000000000000000E+20
 20
1.0000000000000000E+20
 30
1.0000000000000000E+20
  9
$PEXTMAX
 10
-1.0000000000000000E+20
 20
-1.0000000000000000E+20
 30
-1.0000000000000000E+20
  9
$PLIMMIN
 10
0.0
 20
0.0
  9
$PLIMMAX
 10
12.0
 20
9.0
  9
$UNITMODE
 70
               0
  9
$VISRETAIN
 70
               0
  9
$PLINEGEN
 70
               1
  9
$PSLTSCALE
 70
               0
  9
$TREEDEPTH
 70
            3020
  9
$PICKSTYLE
 70
               1
  9
$CMLSTYLE
  2
Standard
  9
$CMLJUST
 70
               0
  9
$CMLSCALE
 40
1.0
  9
$SAVEIMAGES
 70
               0
  0
ENDSEC
  0
SECTION
  2
CLASSES
  0
CLASS
  1
LWPOLYLINE
  2
AcDbPolyline
  3
"AutoCAD"
 90
        0
280
               0
281
               1
  0
CLASS
  1
IMAGE
  2
AcDbRasterImage
  3
ISM
 90
      127
280
               0
281
               1
  0
CLASS
  1
OLE2FRAME
  2
AcDbOle2Frame
  3
""
 90
        0
280
               0
281
               1
  0
CLASS
  1
HATCH
  2
AcDbHatch
  3
"ACAD_SEDONA"
 90
        0
280
               0
281
               1
  0
CLASS
  1
DICTIONARYVAR
  2
AcDbDictionaryVar
  3
"AutoCAD"
 90
        0
280
               0
281
               0
  0
CLASS
  1
RASTERVARIABLES
  2
AcDbRasterVariables
  3
ISM
 90
        0
280
               0
281
               0
  0
CLASS
  1
IMAGEDEF
  2
AcDbRasterImageDef
  3
ISM
 90
        0
280
               0
281
               0
  0
CLASS
  1
IMAGEDEF_REACTOR
  2
AcDbRasterImageDefReactor
  3
ISM
 90
        1
280
               0
281
               0
  0
CLASS
  1
IDBUFFER
  2
AcDbIdBuffer
  3
"Acad"
 90
        0
280
               0
281
               0
  0
CLASS
  1
SPATIAL_FILTER
  2
AcDbSpatialFilter
  3
"Acad"
 90
        0
280
               0
281
               0
  0
CLASS
  1
XRECORD
  2
AcDbXrecord
  3
"<Built In>"
 90
        0
280
               0
281
               0
  0
CLASS
  1
SORTENTSTABLE
  2
AcDbSortentsTable
  3
"AutoCAD"
 90
        0
280
               0
281
               0
  0
CLASS
  1
LAYER_INDEX
  2
AcDbLayerIndex
  3
"Acad"
 90
        0
280
               0
281
               0
  0
CLASS
  1
SPATIAL_INDEX
  2
AcDbSpatialIndex
  3
"Acad"
 90
        0
280
               0
281
               0
  0
CLASS
  1
OBJECT_PTR
  2
CAseDLPNTableRecord
  3
"ASE-LPNTableRecord"
 90
        1
280
               0
281
               0
  0
CLASS
  1
LAYOUT
  2
AcDbLayout
  3
"AutoCAD 2000"
 90
        1
280
               0
281
               0
  0
CLASS
  1
PLOTSETTINGS
  2
AcDbPlotSettings
  3
"AutoCAD 2000"
 90
        1
280
               0
281
               0
  0
CLASS
  1
ACDBDICTIONARYWDFLT
  2
AcDbDictionaryWithDefault
  3
"AutoCAD 2000"
 90
        1
280
               0
281
               0
  0
CLASS
  1
ACDBPLACEHOLDER
  2
AcDbPlaceHolder
  3
"AutoCAD 2000"
 90
        1
280
               0
281
               0
  0
ENDSEC
  0
SECTION
  2
TABLES
  0
TABLE
  2
VPORT
  5
7
100
AcDbSymbolTable
 70
               1
  0
VPORT
  5
15
100
AcDbSymbolTableRecord
100
AcDbViewportTableRecord
  2
*ACTIVE
 70
               0
 10
0.0
 20
0.0
 11
1.0
 21
1.0
 12
2.17498779296875
 22
0.25
 13
0.0
 23
0.0
 14
1.0
 24
1.0
 15
0.0
 25
0.0
 16
0.0
 26
0.0
 36
1.0
 17
0.0
 27
0.0
 37
0.0
 40
394.40500000000003
 41
1.7320508075688772
 42
50.0
 43
0.0
 44
0.0
 50
0.0
 51
0.0
 71
               0
 72
             100
 73
               1
 74
               1
 75
               0
 76
               0
 77
               0
 78
               0
  0
ENDTAB
  0
TABLE
  2
LTYPE
  5
4
100
AcDbSymbolTable
 70
               5
  0
LTYPE
  5
11
100
AcDbSymbolTableRecord
100
AcDbLinetypeTableRecord
  2
BYBLOCK
 70
              64
  3

 72
              65
 73
               0
 40
0.0
  0
LTYPE
  5
12
100
AcDbSymbolTableRecord
100
AcDbLinetypeTableRecord
  2
BYLAYER
 70
              64
  3

 72
              65
 73
               0
 40
0.0
  0
LTYPE
  5
13
100
AcDbSymbolTableRecord
100
AcDbLinetypeTableRecord
  2
CONTINUOUS
 70
              64
  3
Solid line
 72
              65
 73
               0
 40
0.0
  0
LTYPE
  5
38
100
AcDbSymbolTableRecord
100
AcDbLinetypeTableRecord
  2
CENTER
 70
              64
  3
Center ____ _ ____ _ ____ _ ____ _ ____ _ ____
 72
              65
 73
               4
 40
26.0
 49
20.0
 74
               0
 49
-2.0
 74
               0
 49
2.0
 74
               0
 49
-2.0
 74
               0
  0
LTYPE
  5
51
100
AcDbSymbolTableRecord
100
AcDbLinetypeTableRecord
  2
DASHED
 70
              64
  3
Dashed __ __ __ __ __ __ __ __ __ __ __ __ __ _
 72
              65
 73
               2
 40
4.0
 49
2.0
 74
               0
 49
-2.0
 74
               0
  0
ENDTAB
  0
TABLE
  2
LAYER
  5
2
100
AcDbSymbolTable
 70
               2
  0
LAYER
  5
14
100
AcDbSymbolTableRecord
100
AcDbLayerTableRecord
  2
0
 70
               0
 62
               7
  6
CONTINUOUS
  0
LAYER
  5
1D
100
AcDbSymbolTableRecord
100
AcDbLayerTableRecord
  2
DEFPOINTS
 70
               0
 62
               7
  6
CONTINUOUS
  0
ENDTAB
  0
TABLE
  2
STYLE
  5
3
100
AcDbSymbolTable
 70
               1
  0
STYLE
  5
17
100
AcDbSymbolTableRecord
100
AcDbTextStyleTableRecord
  2
MX_NOTE_STANDARD
 70
               0
 40
0.0
 41
1.0
 50
0.0
 71
               0
 42
3.2000000476837158
  3
txt.shx
  4
extfont.shx
  0
ENDTAB
  0
TABLE
  2
VIEW
  5
5
100
AcDbSymbolTable
 70
               0
  0
ENDTAB
  0
TABLE
  2
UCS
  5
6
100
AcDbSymbolTable
 70
               0
  0
ENDTAB
  0
TABLE
  2
APPID
  5
8
100
AcDbSymbolTable
 70
               1
  0
APPID
  5
16
100
AcDbSymbolTableRecord
100
AcDbRegAppTableRecord
  2
ACAD
 70
               0
  0
ENDTAB
  0
TABLE
  2
DIMSTYLE
  5
9
100
AcDbSymbolTable
 70
               1
  0
DIMSTYLE
105
18
100
AcDbSymbolTableRecord
100
AcDbDimStyleTableRecord
  2
MXDIMSTYLE
 70
               0
  3

  4

  5

  6

  7

 40
1.0
 41
2.5
 42
1.5
 43
3.75
 44
1.5
 45
0.0
 46
0.0
 47
0.0
 48
0.0
 71
               0
 72
               0
 73
               0
 74
               0
 75
               0
 76
               0
 77
               1
 78
               8
140
3.2000000476837158
141
2.5
142
0.0
143
0.03937007874016
144
1.0
145
0.0
146
1.0
147
1.0
170
               0
171
               4
172
               1
173
               0
174
               0
175
               0
176
               0
177
               0
178
               0
270
               2
271
               4
272
               4
273
               2
274
               4
275
               0
280
               0
281
               0
282
               0
283
               1
284
               0
285
               0
286
               0
287
               3
288
               1
340
17
  0
ENDTAB
  0
TABLE
  2
BLOCK_RECORD
  5
1
100
AcDbSymbolTable
 70
              12
  0
BLOCK_RECORD
  5
A
100
AcDbSymbolTableRecord
100
AcDbBlockTableRecord
  2
*MODEL_SPACE
  0
BLOCK_RECORD
  5
B
100
AcDbSymbolTableRecord
100
AcDbBlockTableRecord
  2
*PAPER_SPACE
  0
BLOCK_RECORD
  5
1E
100
AcDbSymbolTableRecord
100
AcDbBlockTableRecord
  2
JIG-C_FLANGE2-1
  0
BLOCK_RECORD
  5
1F
100
AcDbSymbolTableRecord
100
AcDbBlockTableRecord
  2
JIG-C_FLANGE2-2
  0
BLOCK_RECORD
  5
20
100
AcDbSymbolTableRecord
100
AcDbBlockTableRecord
  2
JIG-C_FLANGE2-3
  0
BLOCK_RECORD
  5
21
100
AcDbSymbolTableRecord
100
AcDbBlockTableRecord
  2
JIG-C_FLANGE2-4
  0
BLOCK_RECORD
  5
22
100
AcDbSymbolTableRecord
100
AcDbBlockTableRecord
  2
JIG-C_FLANGE2-5
  0
BLOCK_RECORD
  5
23
100
AcDbSymbolTableRecord
100
AcDbBlockTableRecord
  2
JIG-C_FLANGE2-6
  0
BLOCK_RECORD
  5
24
100
AcDbSymbolTableRecord
100
AcDbBlockTableRecord
  2
JIG-C_FLANGE2-7
  0
BLOCK_RECORD
  5
25
100
AcDbSymbolTableRecord
100
AcDbBlockTableRecord
  2
JIG-C_FLANGE2-8
  0
BLOCK_RECORD
  5
26
100
AcDbSymbolTableRecord
100
AcDbBlockTableRecord
  2
JIG-C_FLANGE2-9
  0
BLOCK_RECORD
  5
27
100
AcDbSymbolTableRecord
100
AcDbBlockTableRecord
  2
JIG-C_FLANGE2-10
  0
BLOCK_RECORD
  5
28
100
AcDbSymbolTableRecord
100
AcDbBlockTableRecord
  2
JIG-C_FLANGE2-11
  0
BLOCK_RECORD
  5
29
100
AcDbSymbolTableRecord
100
AcDbBlockTableRecord
  2
JIG-C_FLANGE2-12
  0
ENDTAB
  0
ENDSEC
  0
SECTION
  2
BLOCKS
  0
BLOCK
  5
D
100
AcDbEntity
  8
0
100
AcDbBlockBegin
  2
*MODEL_SPACE
 70
               0
 10
0.0
 20
0.0
 30
0.0
  3
*MODEL_SPACE
  1

  0
ENDBLK
  5
E
100
AcDbEntity
  8
0
100
AcDbBlockEnd
  0
BLOCK
  5
F
100
AcDbEntity
 67
               1
  8
0
100
AcDbBlockBegin
  2
*PAPER_SPACE
 70
               0
 10
0.0
 20
0.0
 30
0.0
  3
*PAPER_SPACE
  1

  0
ENDBLK
  5
10
100
AcDbEntity
 67
               1
  8
0
100
AcDbBlockEnd
  0
BLOCK
  5
2A
100
AcDbEntity
  8
0
100
AcDbBlockBegin
  2
JIG-C_FLANGE2-1
 70
               0
 10
0.0
 20
0.0
 30
0.0
  3
JIG-C_FLANGE2-1
  1

  0
CIRCLE
  5
2B
100
AcDbEntity
  8
0
  6
CONTINUOUS
 62
               4
100
AcDbCircle
 10
-24.0
 20
-24.0
 30
0.0
 40
4.5
  0
CIRCLE
  5
2C
100
AcDbEntity
  8
0
  6
CONTINUOUS
 62
               4
100
AcDbCircle
 10
-41.0
 20
20.0
 30
0.0
 40
4.5
  0
CIRCLE
  5
2D
100
AcDbEntity
  8
0
  6
CONTINUOUS
 62
               4
100
AcDbCircle
 10
-24.0
 20
24.0
 30
0.0
 40
4.5
  0
CIRCLE
  5
2E
100
AcDbEntity
  8
0
  6
CONTINUOUS
 62
               4
100
AcDbCircle
 10
-24.0
 20
24.0
 30
0.0
 40
7.5
  0
CIRCLE
  5
2F
100
AcDbEntity
  8
0
  6
CONTINUOUS
 62
               4
100
AcDbCircle
 10
41.0
 20
-20.0
 30
0.0
 40
4.5
  0
CIRCLE
  5
30
100
AcDbEntity
  8
0
  6
CONTINUOUS
 62
               4
100
AcDbCircle
 10
24.0
 20
-24.0
 30
0.0
 40
4.5
  0
CIRCLE
  5
31
100
AcDbEntity
  8
0
  6
CONTINUOUS
 62
               4
100
AcDbCircle
 10
24.0
 20
-24.0
 30
0.0
 40
7.5
  0
CIRCLE
  5
32
100
AcDbEntity
  8
0
  6
CONTINUOUS
 62
               4
100
AcDbCircle
 10
41.0
 20
20.0
 30
0.0
 40
4.5
  0
CIRCLE
  5
33
100
AcDbEntity
  8
0
  6
CONTINUOUS
 62
               4
100
AcDbCircle
 10
24.0
 20
24.0
 30
0.0
 40
4.5
  0
CIRCLE
  5
34
100
AcDbEntity
  8
0
  6
CONTINUOUS
 62
               4
100
AcDbCircle
 10
24.0
 20
24.0
 30
0.0
 40
7.5
  0
CIRCLE
  5
35
100
AcDbEntity
  8
0
  6
CONTINUOUS
 62
               4
100
AcDbCircle
 10
0.0
 20
0.0
 30
0.0
 40
19.0
  0
CIRCLE
  5
36
100
AcDbEntity
  8
0
  6
CONTINUOUS
 62
               4
100
AcDbCircle
 10
-24.0
 20
-24.0
 30
0.0
 40
7.5
  0
CIRCLE
  5
37
100
AcDbEntity
  8
0
  6
CONTINUOUS
 62
               4
100
AcDbCircle
 10
-41.0
 20
-20.0
 30
0.0
 40
4.5
  0
LINE
  5
39
100
AcDbEntity
  8
0
  6
CENTER
 62
             200
100
AcDbLine
 10
13.534912109375
 20
-24.0
 30
0.0
 11
34.824050903320312
 21
-24.0
 31
0.0
  0
LINE
  5
3A
100
AcDbEntity
  8
0
  6
CENTER
 62
             200
100
AcDbLine
 10
13.534912109375
 20
24.0
 30
0.0
 11
34.824050903320312
 21
24.0
 31
0.0
  0
LINE
  5
3B
100
AcDbEntity
  8
0
  6
CENTER
 62
             200
100
AcDbLine
 10
-13.534912109375
 20
-24.0
 30
0.0
 11
-34.824050903320312
 21
-24.0
 31
0.0
  0
LINE
  5
3C
100
AcDbEntity
  8
0
  6
CENTER
 62
             200
100
AcDbLine
 10
-13.534912109375
 20
24.0
 30
0.0
 11
-34.359725952148438
 21
24.0
 31
0.0
  0
LINE
  5
3D
100
AcDbEntity
  8
0
  6
CENTER
 62
             200
100
AcDbLine
 10
-41.0
 20
-12.777786254882812
 30
0.0
 11
-41.0
 21
-26.653884887695313
 31
0.0
  0
LINE
  5
3E
100
AcDbEntity
  8
0
  6
CENTER
 62
             200
100
AcDbLine
 10
-24.0
 20
-14.575225830078125
 30
0.0
 11
-24.0
 21
-33.957717895507813
 31
0.0
  0
LINE
  5
3F
100
AcDbEntity
  8
0
  6
CENTER
 62
             200
100
AcDbLine
 10
-33.895401000976562
 20
-20.0
 30
0.0
 11
-48.11505126953125
 21
-20.0
 31
0.0
  0
LINE
  5
40
100
AcDbEntity
  8
0
  6
CENTER
 62
             200
100
AcDbLine
 10
-41.0
 20
12.777786254882812
 30
0.0
 11
-41.0
 21
26.653884887695313
 31
0.0
  0
LINE
  5
41
100
AcDbEntity
  8
0
  6
CENTER
 62
             200
100
AcDbLine
 10
-34.359725952148438
 20
20.0
 30
0.0
 11
-48.11505126953125
 21
20.0
 31
0.0
  0
LINE
  5
42
100
AcDbEntity
  8
0
  6
CENTER
 62
             200
100
AcDbLine
 10
-24.0
 20
14.575225830078125
 30
0.0
 11
-24.0
 21
33.957717895507813
 31
0.0
  0
LINE
  5
43
100
AcDbEntity
  8
0
  6
CENTER
 62
             200
100
AcDbLine
 10
24.0
 20
-14.575225830078125
 30
0.0
 11
24.0
 21
-33.957717895507813
 31
0.0
  0
LINE
  5
44
100
AcDbEntity
  8
0
  6
CENTER
 62
             200
100
AcDbLine
 10
41.0
 20
-12.777786254882812
 30
0.0
 11
41.0
 21
-26.653884887695313
 31
0.0
  0
LINE
  5
45
100
AcDbEntity
  8
0
  6
CENTER
 62
             200
100
AcDbLine
 10
33.895416259765625
 20
-20.0
 30
0.0
 11
48.11505126953125
 21
-20.0
 31
0.0
  0
LINE
  5
46
100
AcDbEntity
  8
0
  6
CENTER
 62
             200
100
AcDbLine
 10
41.0
 20
12.777786254882812
 30
0.0
 11
41.0
 21
26.653884887695313
 31
0.0
  0
LINE
  5
47
100
AcDbEntity
  8
0
  6
CENTER
 62
             200
100
AcDbLine
 10
32.966766357421875
 20
20.0
 30
0.0
 11
48.11505126953125
 21
20.0
 31
0.0
  0
LINE
  5
48
100
AcDbEntity
  8
0
  6
CENTER
 62
             200
100
AcDbLine
 10
24.0
 20
14.575225830078125
 30
0.0
 11
24.0
 21
33.957717895507813
 31
0.0
  0
LINE
  5
49
100
AcDbEntity
  8
0
  6
CENTER
 62
             200
100
AcDbLine
 10
-58.708953857421875
 20
0.0
 30
0.0
 11
57.586044311523438
 21
0.0
 31
0.0
  0
LINE
  5
4A
100
AcDbEntity
  8
0
  6
CENTER
 62
             200
100
AcDbLine
 10
0.0
 20
-40.048171997070312
 30
0.0
 11
0.0
 21
41.446426391601563
 31
0.0
  0
LINE
  5
4B
100
AcDbEntity
  8
0
  6
CONTINUOUS
 62
               4
100
AcDbLine
 10
-51.0
 20
33.0
 30
0.0
 11
51.0
 21
33.0
 31
0.0
  0
LINE
  5
4C
100
AcDbEntity
  8
0
  6
CONTINUOUS
 62
               4
100
AcDbLine
 10
51.0
 20
-33.0
 30
0.0
 11
51.0
 21
33.0
 31
0.0
  0
LINE
  5
4D
100
AcDbEntity
  8
0
  6
CONTINUOUS
 62
               4
100
AcDbLine
 10
-51.0
 20
-33.0
 30
0.0
 11
-51.0
 21
33.0
 31
0.0
  0
LINE
  5
4E
100
AcDbEntity
  8
0
  6
CONTINUOUS
 62
               4
100
AcDbLine
 10
-51.0
 20
-33.0
 30
0.0
 11
51.0
 21
-33.0
 31
0.0
  0
ENDBLK
  5
4F
100
AcDbEntity
  8
0
100
AcDbBlockEnd
  0
BLOCK
  5
50
100
AcDbEntity
  8
0
100
AcDbBlockBegin
  2
JIG-C_FLANGE2-2
 70
               0
 10
0.0
 20
0.0
 30
0.0
  3
JIG-C_FLANGE2-2
  1

  0
LINE
  5
52
100
AcDbEntity
  8
0
  6
DASHED
 62
             200
100
AcDbLine
 10
-2.7000274658203125
 20
-16.499977111816406
 30
0.0
 11
-2.7000274658203125
 21
-31.499977111816406
 31
0.0
  0
LINE
  5
53
100
AcDbEntity
  8
0
  6
DASHED
 62
             200
100
AcDbLine
 10
-8.000030517578125
 20
-16.499977111816406
 30
0.0
 11
-2.7000274658203125
 21
-16.499977111816406
 31
0.0
  0
LINE
  5
54
100
AcDbEntity
  8
0
  6
DASHED
 62
             200
100
AcDbLine
 10
-8.000030517578125
 20
-31.499977111816406
 30
0.0
 11
-2.7000274658203125
 21
-31.499977111816406
 31
0.0
  0
LINE
  5
55
100
AcDbEntity
  8
0
  6
DASHED
 62
             200
100
AcDbLine
 10
-2.7000274658203125
 20
-19.499977111816406
 30
0.0
 11
-0.000030517578125
 21
-19.499977111816406
 31
0.0
  0
LINE
  5
56
100
AcDbEntity
  8
0
  6
DASHED
 62
             200
100
AcDbLine
 10
-2.7000274658203125
 20
-28.499977111816406
 30
0.0
 11
-0.000030517578125
 21
-28.499977111816406
 31
0.0
  0
LINE
  5
57
100
AcDbEntity
  8
0
  6
DASHED
 62
             200
100
AcDbLine
 10
-2.7000274658203125
 20
19.500022888183594
 30
0.0
 11
-0.000030517578125
 21
19.500022888183594
 31
0.0
  0
LINE
  5
58
100
AcDbEntity
  8
0
  6
DASHED
 62
             200
100
AcDbLine
 10
-2.7000274658203125
 20
28.500022888183594
 30
0.0
 11
-0.000030517578125
 21
28.500022888183594
 31
0.0
  0
LINE
  5
59
100
AcDbEntity
  8
0
  6
DASHED
 62
             200
100
AcDbLine
 10
-2.7000274658203125
 20
16.500022888183594
 30
0.0
 11
-2.7000274658203125
 21
31.500022888183594
 31
0.0
  0
LINE
  5
5A
100
AcDbEntity
  8
0
  6
DASHED
 62
             200
100
AcDbLine
 10
-8.000030517578125
 20
16.500022888183594
 30
0.0
 11
-2.7000274658203125
 21
16.500022888183594
 31
0.0
  0
LINE
  5
5B
100
AcDbEntity
  8
0
  6
DASHED
 62
             200
100
AcDbLine
 10
-8.000030517578125
 20
31.500022888183594
 30
0.0
 11
-2.7000274658203125
 21
31.500022888183594
 31
0.0
  0
LINE
  5
5C
100
AcDbEntity
  8
0
  6
CENTER
 62
             200
100
AcDbLine
 10
-11.137855529785156
 20
-23.999977111816406
 30
0.0
 11
3.8240203857421875
 21
-23.999977111816406
 31
0.0
  0
LINE
  5
5D
100
AcDbEntity
  8
0
  6
CENTER
 62
             200
100
AcDbLine
 10
-11.137855529785156
 20
24.000022888183594
 30
0.0
 11
3.8240203857421875
 21
24.000022888183594
 31
0.0
  0
LINE
  5
5E
100
AcDbEntity
  8
0
  6
CENTER
 62
             200
100
AcDbLine
 10
-9.983306884765625
 20
20.000022888183594
 30
0.0
 11
1.69024658203125
 21
20.000022888183594
 31
0.0
  0
LINE
  5
5F
100
AcDbEntity
  8
0
  6
CENTER
 62
             200
100
AcDbLine
 10
-12.185867309570313
 20
0.0000228881835938
 30
0.0
 11
4.1130523681640625
 21
0.0000228881835938
 31
0.0
  0
LINE
  5
60
100
AcDbEntity
  8
0
  6
CENTER
 62
             200
100
AcDbLine
 10
-9.322540283203125
 20
-19.999977111816406
 30
0.0
 11
1.4699859619140625
 21
-19.999977111816406
 31
0.0
  0
LINE
  5
61
100
AcDbEntity
  8
0
  6
CONTINUOUS
 62
               4
100
AcDbLine
 10
-8.000030517578125
 20
-32.999977111816406
 30
0.0
 11
-0.000030517578125
 21
-32.999977111816406
 31
0.0
  0
LINE
  5
62
100
AcDbEntity
  8
0
  6
CONTINUOUS
 62
               4
100
AcDbLine
 10
-8.000030517578125
 20
33.000022888183594
 30
0.0
 11
-0.000030517578125
 21
33.000022888183594
 31
0.0
  0
LINE
  5
63
100
AcDbEntity
  8
0
  6
CONTINUOUS
 62
               4
100
AcDbLine
 10
-0.000030517578125
 20
-32.999977111816406
 30
0.0
 11
-0.000030517578125
 21
33.000022888183594
 31
0.0
  0
LINE
  5
64
100
AcDbEntity
  8
0
  6
CONTINUOUS
 62
               4
100
AcDbLine
 10
-8.000030517578125
 20
-32.999977111816406
 30
0.0
 11
-8.000030517578125
 21
33.000022888183594
 31
0.0
  0
ENDBLK
  5
65
100
AcDbEntity
  8
0
100
AcDbBlockEnd
  0
BLOCK
  5
66
100
AcDbEntity
  8
0
100
AcDbBlockBegin
  2
JIG-C_FLANGE2-3
 70
               0
 10
0.0
 20
0.0
 30
0.0
  3
JIG-C_FLANGE2-3
  1

  0
LINE
  5
67
100
AcDbEntity
  8
0
  6
CENTER
 62
             200
100
AcDbLine
 10
-40.999862670898437
 20
-2.6293792724609375
 30
0.0
 11
-40.999862670898437
 21
10.14544677734375
 31
0.0
  0
LINE
  5
68
100
AcDbEntity
  8
0
  6
CENTER
 62
             200
100
AcDbLine
 10
-23.999862670898437
 20
-3.06988525390625
 30
0.0
 11
-23.999862670898437
 21
10.585952758789063
 31
0.0
  0
LINE
  5
69
100
AcDbEntity
  8
0
  6
CENTER
 62
             200
100
AcDbLine
 10
24.000137329101563
 20
-2.40911865234375
 30
0.0
 11
24.000137329101563
 21
10.585952758789063
 31
0.0
  0
LINE
  5
6A
100
AcDbEntity
  8
0
  6
CENTER
 62
             200
100
AcDbLine
 10
0.0001373291015625
 20
-3.9509124755859375
 30
0.0
 11
0.0001373291015625
 21
14.110061645507813
 31
0.0
  0
LINE
  5
6B
100
AcDbEntity
  8
0
  6
CENTER
 62
             200
100
AcDbLine
 10
41.000137329101563
 20
-2.6293792724609375
 30
0.0
 11
41.000137329101563
 21
10.585952758789063
 31
0.0
  0
LINE
  5
6C
100
AcDbEntity
  8
0
  6
CONTINUOUS
 62
               4
100
AcDbLine
 10
-50.999862670898437
 20
-0.0000762939453125
 30
0.0
 11
-50.999862670898437
 21
7.9999237060546875
 31
0.0
  0
LINE
  5
6D
100
AcDbEntity
  8
0
  6
CONTINUOUS
 62
               4
100
AcDbLine
 10
51.000137329101562
 20
-0.0000762939453125
 30
0.0
 11
51.000137329101562
 21
7.9999237060546875
 31
0.0
  0
LINE
  5
6E
100
AcDbEntity
  8
0
  6
CONTINUOUS
 62
               4
100
AcDbLine
 10
-50.999862670898437
 20
-0.0000762939453125
 30
0.0
 11
51.000137329101562
 21
-0.0000762939453125
 31
0.0
  0
LINE
  5
6F
100
AcDbEntity
  8
0
  6
CONTINUOUS
 62
               4
100
AcDbLine
 10
-50.999862670898437
 20
7.9999237060546875
 30
0.0
 11
51.000137329101562
 21
7.9999237060546875
 31
0.0
  0
ENDBLK
  5
70
100
AcDbEntity
  8
0
100
AcDbBlockEnd
  0
BLOCK
  5
71
100
AcDbEntity
  8
0
100
AcDbBlockBegin
  2
JIG-C_FLANGE2-4
 70
               0
 10
0.0
 20
0.0
 30
0.0
  3
JIG-C_FLANGE2-4
  1

  0
CIRCLE
  5
72
100
AcDbEntity
  8
0
  6
CONTINUOUS
 62
               4
100
AcDbCircle
 10
-48.000007629394531
 20
-25.0
 30
0.0
 40
4.5
  0
CIRCLE
  5
73
100
AcDbEntity
  8
0
  6
CONTINUOUS
 62
               4
100
AcDbCircle
 10
-48.000007629394531
 20
25.0
 30
0.0
 40
4.5
  0
CIRCLE
  5
74
100
AcDbEntity
  8
0
  6
CONTINUOUS
 62
               4
100
AcDbCircle
 10
-30.0
 20
30.0
 30
0.0
 40
4.5
  0
CIRCLE
  5
75
100
AcDbEntity
  8
0
  6
CONTINUOUS
 62
               4
100
AcDbCircle
 10
-30.0
 20
30.0
 30
0.0
 40
7.5
  0
CIRCLE
  5
76
100
AcDbEntity
  8
0
  6
CONTINUOUS
 62
               4
100
AcDbCircle
 10
48.0
 20
-25.0
 30
0.0
 40
4.5
  0
CIRCLE
  5
77
100
AcDbEntity
  8
0
  6
CONTINUOUS
 62
               4
100
AcDbCircle
 10
30.0
 20
-30.0
 30
0.0
 40
4.5
  0
CIRCLE
  5
78
100
AcDbEntity
  8
0
  6
CONTINUOUS
 62
               4
100
AcDbCircle
 10
30.0
 20
-30.0
 30
0.0
 40
7.5
  0
CIRCLE
  5
79
100
AcDbEntity
  8
0
  6
CONTINUOUS
 62
               4
100
AcDbCircle
 10
48.0
 20
25.0
 30
0.0
 40
4.5
  0
CIRCLE
  5
7A
100
AcDbEntity
  8
0
  6
CONTINUOUS
 62
               4
100
AcDbCircle
 10
30.0
 20
30.0
 30
0.0
 40
4.5
  0
CIRCLE
  5
7B
100
AcDbEntity
  8
0
  6
CONTINUOUS
 62
               4
100
AcDbCircle
 10
30.0
 20
30.0
 30
0.0
 40
7.5
  0
CIRCLE
  5
7C
100
AcDbEntity
  8
0
  6
CONTINUOUS
 62
               4
100
AcDbCircle
 10
0.0
 20
0.0
 30
0.0
 40
20.0
  0
CIRCLE
  5
7D
100
AcDbEntity
  8
0
  6
CONTINUOUS
 62
               4
100
AcDbCircle
 10
-30.0
 20
-30.0
 30
0.0
 40
7.5
  0
CIRCLE
  5
7E
100
AcDbEntity
  8
0
  6
CONTINUOUS
 62
               4
100
AcDbCircle
 10
-30.0
 20
-30.0
 30
0.0
 40
4.5
  0
LINE
  5
7F
100
AcDbEntity
  8
0
  6
CENTER
 62
             200
100
AcDbLine
 10
-20.460174560546875
 20
-30.0
 30
0.0
 11
-40.460182189941406
 21
-30.0
 31
0.0
  0
LINE
  5
80
100
AcDbEntity
  8
0
  6
CENTER
 62
             200
100
AcDbLine
 10
-30.0
 20
-19.8023681640625
 30
0.0
 11
-30.0
 21
-41.135696411132812
 31
0.0
  0
LINE
  5
81
100
AcDbEntity
  8
0
  6
CENTER
 62
             200
100
AcDbLine
 10
-48.000007629394531
 20
-17.8023681640625
 30
0.0
 11
-48.000007629394531
 21
-31.8023681640625
 31
0.0
  0
LINE
  5
82
100
AcDbEntity
  8
0
  6
CENTER
 62
             200
100
AcDbLine
 10
-40.79351806640625
 20
-25.0
 30
0.0
 11
-55.126846313476563
 21
-25.0
 31
0.0
  0
LINE
  5
83
100
AcDbEntity
  8
0
  6
CENTER
 62
             200
100
AcDbLine
 10
-40.79351806640625
 20
25.0
 30
0.0
 11
-54.79351806640625
 21
25.0
 31
0.0
  0
LINE
  5
84
100
AcDbEntity
  8
0
  6
CENTER
 62
             200
100
AcDbLine
 10
-48.000007629394531
 20
17.530960083007813
 30
0.0
 11
-48.000007629394531
 21
32.1976318359375
 31
0.0
  0
LINE
  5
85
100
AcDbEntity
  8
0
  6
CENTER
 62
             200
100
AcDbLine
 10
-19.79351806640625
 20
30.0
 30
0.0
 11
-40.126846313476563
 21
30.0
 31
0.0
  0
LINE
  5
86
100
AcDbEntity
  8
0
  6
CENTER
 62
             200
100
AcDbLine
 10
-30.0
 20
20.1976318359375
 30
0.0
 11
-30.0
 21
41.1976318359375
 31
0.0
  0
LINE
  5
87
100
AcDbEntity
  8
0
  6
CENTER
 62
             200
100
AcDbLine
 10
30.0
 20
-19.469039916992188
 30
0.0
 11
30.0
 21
-41.469039916992188
 31
0.0
  0
LINE
  5
88
100
AcDbEntity
  8
0
  6
CENTER
 62
             200
100
AcDbLine
 10
40.873153686523438
 20
-25.0
 30
0.0
 11
54.20648193359375
 21
-25.0
 31
0.0
  0
LINE
  5
89
100
AcDbEntity
  8
0
  6
CENTER
 62
             200
100
AcDbLine
 10
48.0
 20
-17.469039916992188
 30
0.0
 11
48.0
 21
-31.8023681640625
 31
0.0
  0
LINE
  5
8A
100
AcDbEntity
  8
0
  6
CENTER
 62
             200
100
AcDbLine
 10
20.20648193359375
 20
-30.0
 30
0.0
 11
39.20648193359375
 21
-30.0
 31
0.0
  0
LINE
  5
8B
100
AcDbEntity
  8
0
  6
CENTER
 62
             200
100
AcDbLine
 10
41.539825439453125
 20
25.0
 30
0.0
 11
55.20648193359375
 21
25.0
 31
0.0
  0
LINE
  5
8C
100
AcDbEntity
  8
0
  6
CENTER
 62
             200
100
AcDbLine
 10
48.0
 20
17.864303588867188
 30
0.0
 11
48.0
 21
32.530960083007813
 31
0.0
  0
LINE
  5
8D
100
AcDbEntity
  8
0
  6
CENTER
 62
             200
100
AcDbLine
 10
-67.000007629394531
 20
0.0
 30
0.0
 11
65.539825439453125
 21
0.0
 31
0.0
  0
LINE
  5
8E
100
AcDbEntity
  8
0
  6
CENTER
 62
             200
100
AcDbLine
 10
30.0
 20
20.530960083007813
 30
0.0
 11
30.0
 21
40.864303588867188
 31
0.0
  0
LINE
  5
8F
100
AcDbEntity
  8
0
  6
CENTER
 62
             200
100
AcDbLine
 10
0.0
 20
-48.333328247070313
 30
0.0
 11
0.0
 21
46.530960083007813
 31
0.0
  0
LINE
  5
90
100
AcDbEntity
  8
0
  6
CENTER
 62
             200
100
AcDbLine
 10
19.539810180664062
 20
30.0
 30
0.0
 11
40.20648193359375
 21
30.0
 31
0.0
  0
LINE
  5
91
100
AcDbEntity
  8
0
  6
CONTINUOUS
 62
               4
100
AcDbLine
 10
-58.000007629394531
 20
39.0
 30
0.0
 11
58.0
 21
39.0
 31
0.0
  0
LINE
  5
92
100
AcDbEntity
  8
0
  6
CONTINUOUS
 62
               4
100
AcDbLine
 10
58.0
 20
-39.0
 30
0.0
 11
58.0
 21
39.0
 31
0.0
  0
LINE
  5
93
100
AcDbEntity
  8
0
  6
CONTINUOUS
 62
               4
100
AcDbLine
 10
-58.000007629394531
 20
-39.0
 30
0.0
 11
-58.000007629394531
 21
39.0
 31
0.0
  0
LINE
  5
94
100
AcDbEntity
  8
0
  6
CONTINUOUS
 62
               4
100
AcDbLine
 10
-58.000007629394531
 20
-39.0
 30
0.0
 11
58.0
 21
-39.0
 31
0.0
  0
ENDBLK
  5
95
100
AcDbEntity
  8
0
100
AcDbBlockEnd
  0
BLOCK
  5
96
100
AcDbEntity
  8
0
100
AcDbBlockBegin
  2
JIG-C_FLANGE2-5
 70
               0
 10
0.0
 20
0.0
 30
0.0
  3
JIG-C_FLANGE2-5
  1

  0
LINE
  5
97
100
AcDbEntity
  8
0
  6
DASHED
 62
             200
100
AcDbLine
 10
-8.0
 20
-22.5
 30
0.0
 11
-2.70001220703125
 21
-22.5
 31
0.0
  0
LINE
  5
98
100
AcDbEntity
  8
0
  6
DASHED
 62
             200
100
AcDbLine
 10
-2.70001220703125
 20
-25.5
 30
0.0
 11
0.0
 21
-25.5
 31
0.0
  0
LINE
  5
99
100
AcDbEntity
  8
0
  6
DASHED
 62
             200
100
AcDbLine
 10
-2.70001220703125
 20
-22.5
 30
0.0
 11
-2.70001220703125
 21
-37.5
 31
0.0
  0
LINE
  5
9A
100
AcDbEntity
  8
0
  6
DASHED
 62
             200
100
AcDbLine
 10
-2.70001220703125
 20
-34.5
 30
0.0
 11
0.0
 21
-34.5
 31
0.0
  0
LINE
  5
9B
100
AcDbEntity
  8
0
  6
DASHED
 62
             200
100
AcDbLine
 10
-8.0
 20
-37.5
 30
0.0
 11
-2.70001220703125
 21
-37.5
 31
0.0
  0
LINE
  5
9C
100
AcDbEntity
  8
0
  6
DASHED
 62
             200
100
AcDbLine
 10
-2.70001220703125
 20
25.5
 30
0.0
 11
0.0
 21
25.5
 31
0.0
  0
LINE
  5
9D
100
AcDbEntity
  8
0
  6
DASHED
 62
             200
100
AcDbLine
 10
-2.70001220703125
 20
34.5
 30
0.0
 11
0.0
 21
34.5
 31
0.0
  0
LINE
  5
9E
100
AcDbEntity
  8
0
  6
DASHED
 62
             200
100
AcDbLine
 10
-2.70001220703125
 20
22.5
 30
0.0
 11
-2.70001220703125
 21
37.5
 31
0.0
  0
LINE
  5
9F
100
AcDbEntity
  8
0
  6
DASHED
 62
             200
100
AcDbLine
 10
-8.0
 20
37.5
 30
0.0
 11
-2.70001220703125
 21
37.5
 31
0.0
  0
LINE
  5
A0
100
AcDbEntity
  8
0
  6
DASHED
 62
             200
100
AcDbLine
 10
-8.0
 20
22.5
 30
0.0
 11
-2.70001220703125
 21
22.5
 31
0.0
  0
LINE
  5
A1
100
AcDbEntity
  8
0
  6
CENTER
 62
             200
100
AcDbLine
 10
-12.126861572265625
 20
30.0
 30
0.0
 11
2.873138427734375
 21
30.0
 31
0.0
  0
LINE
  5
A2
100
AcDbEntity
  8
0
  6
CENTER
 62
             200
100
AcDbLine
 10
-9.25518798828125
 20
-25.0
 30
0.0
 11
1.40362548828125
 21
-25.0
 31
0.0
  0
LINE
  5
A3
100
AcDbEntity
  8
0
  6
CENTER
 62
             200
100
AcDbLine
 10
-9.521636962890625
 20
25.0
 30
0.0
 11
1.40362548828125
 21
25.0
 31
0.0
  0
LINE
  5
A4
100
AcDbEntity
  8
0
  6
CENTER
 62
             200
100
AcDbLine
 10
-14.126861572265625
 20
0.0
 30
0.0
 11
5.20648193359375
 21
0.0
 31
0.0
  0
LINE
  5
A5
100
AcDbEntity
  8
0
  6
CENTER
 62
             200
100
AcDbLine
 10
-12.126861572265625
 20
-30.0
 30
0.0
 11
3.20648193359375
 21
-30.0
 31
0.0
  0
LINE
  5
A6
100
AcDbEntity
  8
0
  6
CONTINUOUS
 62
               4
100
AcDbLine
 10
-8.0
 20
-39.0
 30
0.0
 11
0.0
 21
-39.0
 31
0.0
  0
LINE
  5
A7
100
AcDbEntity
  8
0
  6
CONTINUOUS
 62
               4
100
AcDbLine
 10
-8.0
 20
39.0
 30
0.0
 11
0.0
 21
39.0
 31
0.0
  0
LINE
  5
A8
100
AcDbEntity
  8
0
  6
CONTINUOUS
 62
               4
100
AcDbLine
 10
0.0
 20
-39.0
 30
0.0
 11
0.0
 21
39.0
 31
0.0
  0
LINE
  5
A9
100
AcDbEntity
  8
0
  6
CONTINUOUS
 62
               4
100
AcDbLine
 10
-8.0
 20
-39.0
 30
0.0
 11
-8.0
 21
39.0
 31
0.0
  0
ENDBLK
  5
AA
100
AcDbEntity
  8
0
100
AcDbBlockEnd
  0
BLOCK
  5
AB
100
AcDbEntity
  8
0
100
AcDbBlockBegin
  2
JIG-C_FLANGE2-6
 70
               0
 10
0.0
 20
0.0
 30
0.0
  3
JIG-C_FLANGE2-6
  1

  0
LINE
  5
AC
100
AcDbEntity
  8
0
  6
CENTER
 62
             200
100
AcDbLine
 10
-48.000022888183594
 20
-3.1357269287109375
 30
0.0
 11
-48.000022888183594
 21
10.864273071289063
 31
0.0
  0
LINE
  5
AD
100
AcDbEntity
  8
0
  6
CENTER
 62
             200
100
AcDbLine
 10
-30.000007629394531
 20
-3.1357269287109375
 30
0.0
 11
-30.000007629394531
 21
11.197616577148437
 31
0.0
  0
LINE
  5
AE
100
AcDbEntity
  8
0
  6
CENTER
 62
             200
100
AcDbLine
 10
29.999992370605469
 20
-3.8023834228515625
 30
0.0
 11
29.999992370605469
 21
10.864273071289063
 31
0.0
  0
LINE
  5
AF
100
AcDbEntity
  8
0
  6
CENTER
 62
             200
100
AcDbLine
 10
-0.0000076293945313
 20
-5.4690704345703125
 30
0.0
 11
-0.0000076293945313
 21
13.530929565429687
 31
0.0
  0
LINE
  5
B0
100
AcDbEntity
  8
0
  6
CENTER
 62
             200
100
AcDbLine
 10
47.999977111816406
 20
-4.4690704345703125
 30
0.0
 11
47.999977111816406
 21
10.864273071289063
 31
0.0
  0
LINE
  5
B1
100
AcDbEntity
  8
0
  6
CONTINUOUS
 62
               4
100
AcDbLine
 10
57.999992370605469
 20
-0.0000152587890625
 30
0.0
 11
57.999992370605469
 21
7.9999847412109375
 31
0.0
  0
LINE
  5
B2
100
AcDbEntity
  8
0
  6
CONTINUOUS
 62
               4
100
AcDbLine
 10
-58.000015258789063
 20
-0.0000152587890625
 30
0.0
 11
-58.000015258789063
 21
7.9999847412109375
 31
0.0
  0
LINE
  5
B3
100
AcDbEntity
  8
0
  6
CONTINUOUS
 62
               4
100
AcDbLine
 10
-58.000015258789063
 20
7.9999847412109375
 30
0.0
 11
57.999992370605469
 21
7.9999847412109375
 31
0.0
  0
LINE
  5
B4
100
AcDbEntity
  8
0
  6
CONTINUOUS
 62
               4
100
AcDbLine
 10
-58.000015258789063
 20
-0.0000152587890625
 30
0.0
 11
57.999992370605469
 21
-0.0000152587890625
 31
0.0
  0
ENDBLK
  5
B5
100
AcDbEntity
  8
0
100
AcDbBlockEnd
  0
BLOCK
  5
B6
100
AcDbEntity
  8
0
100
AcDbBlockBegin
  2
JIG-C_FLANGE2-7
 70
               0
 10
0.0
 20
0.0
 30
0.0
  3
JIG-C_FLANGE2-7
  1

  0
CIRCLE
  5
B7
100
AcDbEntity
  8
0
  6
CONTINUOUS
 62
               4
100
AcDbCircle
 10
-37.0
 20
-37.0
 30
0.0
 40
11.0
  0
CIRCLE
  5
B8
100
AcDbEntity
  8
0
  6
CONTINUOUS
 62
               4
100
AcDbCircle
 10
-59.0
 20
35.0
 30
0.0
 40
5.5
  0
CIRCLE
  5
B9
100
AcDbEntity
  8
0
  6
CONTINUOUS
 62
               4
100
AcDbCircle
 10
-37.0
 20
37.0
 30
0.0
 40
11.0
  0
CIRCLE
  5
BA
100
AcDbEntity
  8
0
  6
CONTINUOUS
 62
               4
100
AcDbCircle
 10
-37.0
 20
37.0
 30
0.0
 40
7.0
  0
CIRCLE
  5
BB
100
AcDbEntity
  8
0
  6
CONTINUOUS
 62
               4
100
AcDbCircle
 10
59.0
 20
-35.0
 30
0.0
 40
5.5
  0
CIRCLE
  5
BC
100
AcDbEntity
  8
0
  6
CONTINUOUS
 62
               4
100
AcDbCircle
 10
37.0
 20
-37.0
 30
0.0
 40
11.0
  0
CIRCLE
  5
BD
100
AcDbEntity
  8
0
  6
CONTINUOUS
 62
               4
100
AcDbCircle
 10
37.0
 20
-37.0
 30
0.0
 40
7.0
  0
CIRCLE
  5
BE
100
AcDbEntity
  8
0
  6
CONTINUOUS
 62
               4
100
AcDbCircle
 10
37.0
 20
37.0
 30
0.0
 40
7.0
  0
CIRCLE
  5
BF
100
AcDbEntity
  8
0
  6
CONTINUOUS
 62
               4
100
AcDbCircle
 10
37.0
 20
37.0
 30
0.0
 40
11.0
  0
CIRCLE
  5
C0
100
AcDbEntity
  8
0
  6
CONTINUOUS
 62
               4
100
AcDbCircle
 10
59.0
 20
35.0
 30
0.0
 40
5.5
  0
CIRCLE
  5
C1
100
AcDbEntity
  8
0
  6
CONTINUOUS
 62
               4
100
AcDbCircle
 10
0.0
 20
0.0
 30
0.0
 40
22.5
  0
CIRCLE
  5
C2
100
AcDbEntity
  8
0
  6
CONTINUOUS
 62
               4
100
AcDbCircle
 10
-37.0
 20
-37.0
 30
0.0
 40
7.0
  0
CIRCLE
  5
C3
100
AcDbEntity
  8
0
  6
CONTINUOUS
 62
               4
100
AcDbCircle
 10
-59.0
 20
-35.0
 30
0.0
 40
5.5
  0
LINE
  5
C4
100
AcDbEntity
  8
0
  6
CENTER
 62
             200
100
AcDbLine
 10
-59.0
 20
-27.333328247070313
 30
0.0
 11
-59.0
 21
-42.333328247070313
 31
0.0
  0
LINE
  5
C5
100
AcDbEntity
  8
0
  6
CENTER
 62
             200
100
AcDbLine
 10
-50.0
 20
-35.0
 30
0.0
 11
-67.666671752929688
 21
-35.0
 31
0.0
  0
LINE
  5
C6
100
AcDbEntity
  8
0
  6
CENTER
 62
             200
100
AcDbLine
 10
-22.666671752929687
 20
-37.0
 30
0.0
 11
-50.666671752929688
 21
-37.0
 31
0.0
  0
LINE
  5
C7
100
AcDbEntity
  8
0
  6
CENTER
 62
             200
100
AcDbLine
 10
-37.0
 20
-23.0
 30
0.0
 11
-37.0
 21
-50.0
 31
0.0
  0
LINE
  5
C8
100
AcDbEntity
  8
0
  6
CENTER
 62
             200
100
AcDbLine
 10
-50.0
 20
35.0
 30
0.0
 11
-67.666671752929688
 21
35.0
 31
0.0
  0
LINE
  5
C9
100
AcDbEntity
  8
0
  6
CENTER
 62
             200
100
AcDbLine
 10
-59.0
 20
27.333328247070313
 30
0.0
 11
-59.0
 21
42.333328247070313
 31
0.0
  0
LINE
  5
CA
100
AcDbEntity
  8
0
  6
CENTER
 62
             200
100
AcDbLine
 10
-37.0
 20
23.0
 30
0.0
 11
-37.0
 21
50.0
 31
0.0
  0
LINE
  5
CB
100
AcDbEntity
  8
0
  6
CENTER
 62
             200
100
AcDbLine
 10
-22.666671752929687
 20
37.0
 30
0.0
 11
-50.666671752929688
 21
37.0
 31
0.0
  0
LINE
  5
CC
100
AcDbEntity
  8
0
  6
CENTER
 62
             200
100
AcDbLine
 10
50.0
 20
-35.0
 30
0.0
 11
67.666671752929688
 21
-35.0
 31
0.0
  0
LINE
  5
CD
100
AcDbEntity
  8
0
  6
CENTER
 62
             200
100
AcDbLine
 10
59.0
 20
-27.333328247070313
 30
0.0
 11
59.0
 21
-42.333328247070313
 31
0.0
  0
LINE
  5
CE
100
AcDbEntity
  8
0
  6
CENTER
 62
             200
100
AcDbLine
 10
22.666671752929687
 20
-37.0
 30
0.0
 11
50.666671752929688
 21
-37.0
 31
0.0
  0
LINE
  5
CF
100
AcDbEntity
  8
0
  6
CENTER
 62
             200
100
AcDbLine
 10
37.0
 20
-23.0
 30
0.0
 11
37.0
 21
-50.0
 31
0.0
  0
LINE
  5
D0
100
AcDbEntity
  8
0
  6
CENTER
 62
             200
100
AcDbLine
 10
59.0
 20
27.333328247070313
 30
0.0
 11
59.0
 21
42.333328247070313
 31
0.0
  0
LINE
  5
D1
100
AcDbEntity
  8
0
  6
CENTER
 62
             200
100
AcDbLine
 10
22.666671752929687
 20
37.0
 30
0.0
 11
50.666671752929688
 21
37.0
 31
0.0
  0
LINE
  5
D2
100
AcDbEntity
  8
0
  6
CENTER
 62
             200
100
AcDbLine
 10
0.0
 20
-54.875701904296875
 30
0.0
 11
0.0
 21
58.333328247070313
 31
0.0
  0
LINE
  5
D3
100
AcDbEntity
  8
0
  6
CENTER
 62
             200
100
AcDbLine
 10
-79.000015258789063
 20
0.0
 30
0.0
 11
78.666671752929688
 21
0.0
 31
0.0
  0
LINE
  5
D4
100
AcDbEntity
  8
0
  6
CENTER
 62
             200
100
AcDbLine
 10
50.0
 20
35.0
 30
0.0
 11
67.666671752929688
 21
35.0
 31
0.0
  0
LINE
  5
D5
100
AcDbEntity
  8
0
  6
CENTER
 62
             200
100
AcDbLine
 10
37.0
 20
23.0
 30
0.0
 11
37.0
 21
50.0
 31
0.0
  0
LINE
  5
D6
100
AcDbEntity
  8
0
  6
CONTINUOUS
 62
               4
100
AcDbLine
 10
-71.0
 20
50.0
 30
0.0
 11
71.0
 21
50.0
 31
0.0
  0
LINE
  5
D7
100
AcDbEntity
  8
0
  6
CONTINUOUS
 62
               4
100
AcDbLine
 10
71.0
 20
-50.0
 30
0.0
 11
71.0
 21
50.0
 31
0.0
  0
LINE
  5
D8
100
AcDbEntity
  8
0
  6
CONTINUOUS
 62
               4
100
AcDbLine
 10
-71.0
 20
-50.0
 30
0.0
 11
71.0
 21
-50.0
 31
0.0
  0
LINE
  5
D9
100
AcDbEntity
  8
0
  6
CONTINUOUS
 62
               4
100
AcDbLine
 10
-71.0
 20
-50.0
 30
0.0
 11
-71.0
 21
50.0
 31
0.0
  0
ENDBLK
  5
DA
100
AcDbEntity
  8
0
100
AcDbBlockEnd
  0
BLOCK
  5
DB
100
AcDbEntity
  8
0
100
AcDbBlockBegin
  2
JIG-C_FLANGE2-8
 70
               0
 10
0.0
 20
0.0
 30
0.0
  3
JIG-C_FLANGE2-8
  1

  0
LINE
  5
DC
100
AcDbEntity
  8
0
  6
DASHED
 62
             200
100
AcDbLine
 10
-4.6999969482421875
 20
-44.0
 30
0.0
 11
0.0
 21
-44.0
 31
0.0
  0
LINE
  5
DD
100
AcDbEntity
  8
0
  6
DASHED
 62
             200
100
AcDbLine
 10
-12.0
 20
-48.0
 30
0.0
 11
-4.6999969482421875
 21
-48.0
 31
0.0
  0
LINE
  5
DE
100
AcDbEntity
  8
0
  6
DASHED
 62
             200
100
AcDbLine
 10
-4.6999969482421875
 20
-26.0
 30
0.0
 11
-4.6999969482421875
 21
-48.0
 31
0.0
  0
LINE
  5
DF
100
AcDbEntity
  8
0
  6
DASHED
 62
             200
100
AcDbLine
 10
-4.6999969482421875
 20
-30.0
 30
0.0
 11
0.0
 21
-30.0
 31
0.0
  0
LINE
  5
E0
100
AcDbEntity
  8
0
  6
DASHED
 62
             200
100
AcDbLine
 10
-12.0
 20
-26.0
 30
0.0
 11
-4.6999969482421875
 21
-26.0
 31
0.0
  0
LINE
  5
E1
100
AcDbEntity
  8
0
  6
DASHED
 62
             200
100
AcDbLine
 10
-4.6999969482421875
 20
30.0
 30
0.0
 11
0.0
 21
30.0
 31
0.0
  0
LINE
  5
E2
100
AcDbEntity
  8
0
  6
DASHED
 62
             200
100
AcDbLine
 10
-4.6999969482421875
 20
44.0
 30
0.0
 11
0.0
 21
44.0
 31
0.0
  0
LINE
  5
E3
100
AcDbEntity
  8
0
  6
DASHED
 62
             200
100
AcDbLine
 10
-4.6999969482421875
 20
26.0
 30
0.0
 11
-4.6999969482421875
 21
48.0
 31
0.0
  0
LINE
  5
E4
100
AcDbEntity
  8
0
  6
DASHED
 62
             200
100
AcDbLine
 10
-12.0
 20
26.0
 30
0.0
 11
-4.6999969482421875
 21
26.0
 31
0.0
  0
LINE
  5
E5
100
AcDbEntity
  8
0
  6
DASHED
 62
             200
100
AcDbLine
 10
-12.0
 20
48.0
 30
0.0
 11
-4.6999969482421875
 21
48.0
 31
0.0
  0
LINE
  5
E6
100
AcDbEntity
  8
0
  6
CENTER
 62
             200
100
AcDbLine
 10
-15.0
 20
-35.0
 30
0.0
 11
3.0
 21
-35.0
 31
0.0
  0
LINE
  5
E7
100
AcDbEntity
  8
0
  6
CENTER
 62
             200
100
AcDbLine
 10
-15.333328247070313
 20
35.0
 30
0.0
 11
2.6666717529296875
 21
35.0
 31
0.0
  0
LINE
  5
E8
100
AcDbEntity
  8
0
  6
CENTER
 62
             200
100
AcDbLine
 10
-15.333328247070313
 20
37.0
 30
0.0
 11
2.6666717529296875
 21
37.0
 31
0.0
  0
LINE
  5
E9
100
AcDbEntity
  8
0
  6
CENTER
 62
             200
100
AcDbLine
 10
-15.999992370605469
 20
0.0
 30
0.0
 11
4.0
 21
0.0
 31
0.0
  0
LINE
  5
EA
100
AcDbEntity
  8
0
  6
CENTER
 62
             200
100
AcDbLine
 10
-15.0
 20
-37.0
 30
0.0
 11
2.6666717529296875
 21
-37.0
 31
0.0
  0
LINE
  5
EB
100
AcDbEntity
  8
0
  6
CONTINUOUS
 62
               4
100
AcDbLine
 10
-12.0
 20
-50.0
 30
0.0
 11
0.0
 21
-50.0
 31
0.0
  0
LINE
  5
EC
100
AcDbEntity
  8
0
  6
CONTINUOUS
 62
               4
100
AcDbLine
 10
-12.0
 20
50.0
 30
0.0
 11
0.0
 21
50.0
 31
0.0
  0
LINE
  5
ED
100
AcDbEntity
  8
0
  6
CONTINUOUS
 62
               4
100
AcDbLine
 10
0.0
 20
-50.0
 30
0.0
 11
0.0
 21
50.0
 31
0.0
  0
LINE
  5
EE
100
AcDbEntity
  8
0
  6
CONTINUOUS
 62
               4
100
AcDbLine
 10
-12.0
 20
-50.0
 30
0.0
 11
-12.0
 21
50.0
 31
0.0
  0
ENDBLK
  5
EF
100
AcDbEntity
  8
0
100
AcDbBlockEnd
  0
BLOCK
  5
F0
100
AcDbEntity
  8
0
100
AcDbBlockBegin
  2
JIG-C_FLANGE2-9
 70
               0
 10
0.0
 20
0.0
 30
0.0
  3
JIG-C_FLANGE2-9
  1

  0
LINE
  5
F1
100
AcDbEntity
  8
0
  6
CENTER
 62
             200
100
AcDbLine
 10
-59.0
 20
-2.3333244323730469
 30
0.0
 11
-59.0
 21
14.333339691162109
 31
0.0
  0
LINE
  5
F2
100
AcDbEntity
  8
0
  6
CENTER
 62
             200
100
AcDbLine
 10
-37.0
 20
-2.9999961853027344
 30
0.0
 11
-37.0
 21
14.999996185302734
 31
0.0
  0
LINE
  5
F3
100
AcDbEntity
  8
0
  6
CENTER
 62
             200
100
AcDbLine
 10
37.0
 20
-2.9999961853027344
 30
0.0
 11
37.0
 21
15.333339691162109
 31
0.0
  0
LINE
  5
F4
100
AcDbEntity
  8
0
  6
CENTER
 62
             200
100
AcDbLine
 10
0.0
 20
-4.6666679382324219
 30
0.0
 11
0.0
 21
18.666667938232422
 31
0.0
  0
LINE
  5
F5
100
AcDbEntity
  8
0
  6
CENTER
 62
             200
100
AcDbLine
 10
59.0
 20
-3.3333244323730469
 30
0.0
 11
59.0
 21
15.333339691162109
 31
0.0
  0
LINE
  5
F6
100
AcDbEntity
  8
0
  6
CONTINUOUS
 62
               4
100
AcDbLine
 10
71.0
 20
0.0000038146972656
 30
0.0
 11
71.0
 21
12.000003814697266
 31
0.0
  0
LINE
  5
F7
100
AcDbEntity
  8
0
  6
CONTINUOUS
 62
               4
100
AcDbLine
 10
-71.0
 20
0.0000038146972656
 30
0.0
 11
-71.0
 21
12.000003814697266
 31
0.0
  0
LINE
  5
F8
100
AcDbEntity
  8
0
  6
CONTINUOUS
 62
               4
100
AcDbLine
 10
-71.0
 20
12.000003814697266
 30
0.0
 11
71.0
 21
12.000003814697266
 31
0.0
  0
LINE
  5
F9
100
AcDbEntity
  8
0
  6
CONTINUOUS
 62
               4
100
AcDbLine
 10
-71.0
 20
0.0000038146972656
 30
0.0
 11
71.0
 21
0.0000038146972656
 31
0.0
  0
ENDBLK
  5
FA
100
AcDbEntity
  8
0
100
AcDbBlockEnd
  0
BLOCK
  5
FB
100
AcDbEntity
  8
0
100
AcDbBlockBegin
  2
JIG-C_FLANGE2-10
 70
               0
 10
0.0
 20
0.0
 30
0.0
  3
JIG-C_FLANGE2-10
  1

  0
CIRCLE
  5
FC
100
AcDbEntity
  8
0
  6
CONTINUOUS
 62
               4
100
AcDbCircle
 10
-45.000007629394531
 20
-44.999977111816406
 30
0.0
 40
8.0
  0
CIRCLE
  5
FD
100
AcDbEntity
  8
0
  6
CONTINUOUS
 62
               4
100
AcDbCircle
 10
-71.000007629394531
 20
40.000015258789063
 30
0.0
 40
7.0
  0
CIRCLE
  5
FE
100
AcDbEntity
  8
0
  6
CONTINUOUS
 62
               4
100
AcDbCircle
 10
-45.000007629394531
 20
45.000015258789063
 30
0.0
 40
11.5
  0
CIRCLE
  5
FF
100
AcDbEntity
  8
0
  6
CONTINUOUS
 62
               4
100
AcDbCircle
 10
-45.000007629394531
 20
45.000015258789063
 30
0.0
 40
8.0
  0
CIRCLE
  5
100
100
AcDbEntity
  8
0
  6
CONTINUOUS
 62
               4
100
AcDbCircle
 10
70.999992370605469
 20
-39.999977111816406
 30
0.0
 40
7.0
  0
CIRCLE
  5
101
100
AcDbEntity
  8
0
  6
CONTINUOUS
 62
               4
100
AcDbCircle
 10
44.999992370605469
 20
-44.999977111816406
 30
0.0
 40
11.5
  0
CIRCLE
  5
102
100
AcDbEntity
  8
0
  6
CONTINUOUS
 62
               4
100
AcDbCircle
 10
44.999992370605469
 20
-44.999977111816406
 30
0.0
 40
8.0
  0
CIRCLE
  5
103
100
AcDbEntity
  8
0
  6
CONTINUOUS
 62
               4
100
AcDbCircle
 10
70.999992370605469
 20
40.000015258789063
 30
0.0
 40
7.0
  0
CIRCLE
  5
104
100
AcDbEntity
  8
0
  6
CONTINUOUS
 62
               4
100
AcDbCircle
 10
44.999992370605469
 20
45.000015258789063
 30
0.0
 40
8.0
  0
CIRCLE
  5
105
100
AcDbEntity
  8
0
  6
CONTINUOUS
 62
               4
100
AcDbCircle
 10
44.999992370605469
 20
45.000015258789063
 30
0.0
 40
11.5
  0
CIRCLE
  5
106
100
AcDbEntity
  8
0
  6
CONTINUOUS
 62
               4
100
AcDbCircle
 10
-0.0000076293945313
 20
0.0000152587890625
 30
0.0
 40
27.5
  0
CIRCLE
  5
107
100
AcDbEntity
  8
0
  6
CONTINUOUS
 62
               4
100
AcDbCircle
 10
-45.000007629394531
 20
-44.999977111816406
 30
0.0
 40
11.5
  0
CIRCLE
  5
108
100
AcDbEntity
  8
0
  6
CONTINUOUS
 62
               4
100
AcDbCircle
 10
-71.000007629394531
 20
-39.999977111816406
 30
0.0
 40
7.0
  0
LINE
  5
109
100
AcDbEntity
  8
0
  6
CENTER
 62
             200
100
AcDbLine
 10
-61.000007629394531
 20
-39.999977111816406
 30
0.0
 11
-81.000007629394531
 21
-39.999977111816406
 31
0.0
  0
LINE
  5
10A
100
AcDbEntity
  8
0
  6
CENTER
 62
             200
100
AcDbLine
 10
-71.000007629394531
 20
-28.999977111816406
 30
0.0
 11
-71.000007629394531
 21
-50.333320617675781
 31
0.0
  0
LINE
  5
10B
100
AcDbEntity
  8
0
  6
CENTER
 62
             200
100
AcDbLine
 10
-29.000007629394531
 20
-44.999977111816406
 30
0.0
 11
-60.333343505859375
 21
-44.999977111816406
 31
0.0
  0
LINE
  5
10C
100
AcDbEntity
  8
0
  6
CENTER
 62
             200
100
AcDbLine
 10
-45.000007629394531
 20
-29.999977111816406
 30
0.0
 11
-45.000007629394531
 21
-59.666648864746094
 31
0.0
  0
LINE
  5
10D
100
AcDbEntity
  8
0
  6
CENTER
 62
             200
100
AcDbLine
 10
-71.000007629394531
 20
29.000015258789063
 30
0.0
 11
-71.000007629394531
 21
50.333351135253906
 31
0.0
  0
LINE
  5
10E
100
AcDbEntity
  8
0
  6
CENTER
 62
             200
100
AcDbLine
 10
-61.000007629394531
 20
40.000015258789063
 30
0.0
 11
-81.000007629394531
 21
40.000015258789063
 31
0.0
  0
LINE
  5
10F
100
AcDbEntity
  8
0
  6
CENTER
 62
             200
100
AcDbLine
 10
-29.000007629394531
 20
45.000015258789063
 30
0.0
 11
-60.333343505859375
 21
45.000015258789063
 31
0.0
  0
LINE
  5
110
100
AcDbEntity
  8
0
  6
CENTER
 62
             200
100
AcDbLine
 10
-45.000007629394531
 20
30.000015258789063
 30
0.0
 11
-45.000007629394531
 21
59.666679382324219
 31
0.0
  0
LINE
  5
111
100
AcDbEntity
  8
0
  6
CENTER
 62
             200
100
AcDbLine
 10
70.999992370605469
 20
-28.999977111816406
 30
0.0
 11
70.999992370605469
 21
-50.333320617675781
 31
0.0
  0
LINE
  5
112
100
AcDbEntity
  8
0
  6
CENTER
 62
             200
100
AcDbLine
 10
60.999992370605469
 20
-39.999977111816406
 30
0.0
 11
80.999992370605469
 21
-39.999977111816406
 31
0.0
  0
LINE
  5
113
100
AcDbEntity
  8
0
  6
CENTER
 62
             200
100
AcDbLine
 10
44.999992370605469
 20
-29.999977111816406
 30
0.0
 11
44.999992370605469
 21
-59.666648864746094
 31
0.0
  0
LINE
  5
114
100
AcDbEntity
  8
0
  6
CENTER
 62
             200
100
AcDbLine
 10
28.999992370605469
 20
-44.999977111816406
 30
0.0
 11
60.333320617675781
 21
-44.999977111816406
 31
0.0
  0
LINE
  5
115
100
AcDbEntity
  8
0
  6
CENTER
 62
             200
100
AcDbLine
 10
70.999992370605469
 20
29.000015258789063
 30
0.0
 11
70.999992370605469
 21
50.333351135253906
 31
0.0
  0
LINE
  5
116
100
AcDbEntity
  8
0
  6
CENTER
 62
             200
100
AcDbLine
 10
60.999992370605469
 20
40.000015258789063
 30
0.0
 11
80.999992370605469
 21
40.000015258789063
 31
0.0
  0
LINE
  5
117
100
AcDbEntity
  8
0
  6
CENTER
 62
             200
100
AcDbLine
 10
28.999992370605469
 20
45.000015258789063
 30
0.0
 11
60.333320617675781
 21
45.000015258789063
 31
0.0
  0
LINE
  5
118
100
AcDbEntity
  8
0
  6
CENTER
 62
             200
100
AcDbLine
 10
44.999992370605469
 20
30.000015258789063
 30
0.0
 11
44.999992370605469
 21
59.666679382324219
 31
0.0
  0
LINE
  5
119
100
AcDbEntity
  8
0
  6
CENTER
 62
             200
100
AcDbLine
 10
-96.000007629394531
 20
0.0000152587890625
 30
0.0
 11
97.166664123535156
 21
0.0000152587890625
 31
0.0
  0
LINE
  5
11A
100
AcDbEntity
  8
0
  6
CENTER
 62
             200
100
AcDbLine
 10
-0.0000076293945313
 20
-69.666648864746094
 30
0.0
 11
-0.0000076293945313
 21
62.572723388671875
 31
0.0
  0
LINE
  5
11B
100
AcDbEntity
  8
0
  6
CONTINUOUS
 62
               4
100
AcDbLine
 10
-85.000007629394531
 20
58.000015258789063
 30
0.0
 11
84.999992370605469
 21
58.000015258789063
 31
0.0
  0
LINE
  5
11C
100
AcDbEntity
  8
0
  6
CONTINUOUS
 62
               4
100
AcDbLine
 10
84.999992370605469
 20
-57.999977111816406
 30
0.0
 11
84.999992370605469
 21
58.000015258789063
 31
0.0
  0
LINE
  5
11D
100
AcDbEntity
  8
0
  6
CONTINUOUS
 62
               4
100
AcDbLine
 10
-85.000007629394531
 20
-57.999977111816406
 30
0.0
 11
-85.000007629394531
 21
58.000015258789063
 31
0.0
  0
LINE
  5
11E
100
AcDbEntity
  8
0
  6
CONTINUOUS
 62
               4
100
AcDbLine
 10
-85.000007629394531
 20
-57.999977111816406
 30
0.0
 11
84.999992370605469
 21
-57.999977111816406
 31
0.0
  0
ENDBLK
  5
11F
100
AcDbEntity
  8
0
100
AcDbBlockEnd
  0
BLOCK
  5
120
100
AcDbEntity
  8
0
100
AcDbBlockBegin
  2
JIG-C_FLANGE2-11
 70
               0
 10
0.0
 20
0.0
 30
0.0
  3
JIG-C_FLANGE2-11
  1

  0
LINE
  5
121
100
AcDbEntity
  8
0
  6
CENTER
 62
             200
100
AcDbLine
 10
-24.16668701171875
 20
-40.0
 30
0.0
 11
4.83331298828125
 21
-40.0
 31
0.0
  0
LINE
  5
122
100
AcDbEntity
  8
0
  6
DASHED
 62
             200
100
AcDbLine
 10
-20.000015258789063
 20
-33.499992370605469
 30
0.0
 11
-4.800018310546875
 21
-33.499992370605469
 31
0.0
  0
LINE
  5
123
100
AcDbEntity
  8
0
  6
DASHED
 62
             200
100
AcDbLine
 10
-4.800018310546875
 20
-36.999992370605469
 30
0.0
 11
0.0
 21
-36.999992370605469
 31
0.0
  0
LINE
  5
124
100
AcDbEntity
  8
0
  6
DASHED
 62
             200
100
AcDbLine
 10
-4.800018310546875
 20
-33.499992370605469
 30
0.0
 11
-4.800018310546875
 21
-56.499992370605469
 31
0.0
  0
LINE
  5
125
100
AcDbEntity
  8
0
  6
DASHED
 62
             200
100
AcDbLine
 10
-4.800018310546875
 20
-52.999992370605469
 30
0.0
 11
0.0
 21
-52.999992370605469
 31
0.0
  0
LINE
  5
126
100
AcDbEntity
  8
0
  6
DASHED
 62
             200
100
AcDbLine
 10
-20.000015258789063
 20
-56.499992370605469
 30
0.0
 11
-4.800018310546875
 21
-56.499992370605469
 31
0.0
  0
LINE
  5
127
100
AcDbEntity
  8
0
  6
DASHED
 62
             200
100
AcDbLine
 10
-4.800018310546875
 20
37.0
 30
0.0
 11
0.0
 21
37.0
 31
0.0
  0
LINE
  5
128
100
AcDbEntity
  8
0
  6
DASHED
 62
             200
100
AcDbLine
 10
-4.800018310546875
 20
53.0
 30
0.0
 11
0.0
 21
53.0
 31
0.0
  0
LINE
  5
129
100
AcDbEntity
  8
0
  6
DASHED
 62
             200
100
AcDbLine
 10
-4.800018310546875
 20
33.5
 30
0.0
 11
-4.800018310546875
 21
56.5
 31
0.0
  0
LINE
  5
12A
100
AcDbEntity
  8
0
  6
DASHED
 62
             200
100
AcDbLine
 10
-20.000015258789063
 20
56.5
 30
0.0
 11
-4.800018310546875
 21
56.5
 31
0.0
  0
LINE
  5
12B
100
AcDbEntity
  8
0
  6
DASHED
 62
             200
100
AcDbLine
 10
-20.000015258789063
 20
33.5
 30
0.0
 11
-4.800018310546875
 21
33.5
 31
0.0
  0
LINE
  5
12C
100
AcDbEntity
  8
0
  6
CENTER
 62
             200
100
AcDbLine
 10
-24.16668701171875
 20
40.0
 30
0.0
 11
4.83331298828125
 21
40.0
 31
0.0
  0
LINE
  5
12D
100
AcDbEntity
  8
0
  6
CENTER
 62
             200
100
AcDbLine
 10
-23.500015258789063
 20
-44.999992370605469
 30
0.0
 11
4.5
 21
-44.999992370605469
 31
0.0
  0
LINE
  5
12E
100
AcDbEntity
  8
0
  6
CENTER
 62
             200
100
AcDbLine
 10
-24.16668701171875
 20
45.0
 30
0.0
 11
4.83331298828125
 21
45.0
 31
0.0
  0
LINE
  5
12F
100
AcDbEntity
  8
0
  6
CENTER
 62
             200
100
AcDbLine
 10
-27.833358764648438
 20
0.0
 30
0.0
 11
8.166656494140625
 21
0.0
 31
0.0
  0
LINE
  5
130
100
AcDbEntity
  8
0
  6
CONTINUOUS
 62
               4
100
AcDbLine
 10
-20.000015258789063
 20
-57.999992370605469
 30
0.0
 11
0.0
 21
-57.999992370605469
 31
0.0
  0
LINE
  5
131
100
AcDbEntity
  8
0
  6
CONTINUOUS
 62
               4
100
AcDbLine
 10
-20.000015258789063
 20
58.0
 30
0.0
 11
0.0
 21
58.0
 31
0.0
  0
LINE
  5
132
100
AcDbEntity
  8
0
  6
CONTINUOUS
 62
               4
100
AcDbLine
 10
-20.000015258789063
 20
-57.999992370605469
 30
0.0
 11
-20.000015258789063
 21
58.0
 31
0.0
  0
LINE
  5
133
100
AcDbEntity
  8
0
  6
CONTINUOUS
 62
               4
100
AcDbLine
 10
0.0
 20
-57.999992370605469
 30
0.0
 11
0.0
 21
58.0
 31
0.0
  0
ENDBLK
  5
134
100
AcDbEntity
  8
0
100
AcDbBlockEnd
  0
BLOCK
  5
135
100
AcDbEntity
  8
0
100
AcDbBlockBegin
  2
JIG-C_FLANGE2-12
 70
               0
 10
0.0
 20
0.0
 30
0.0
  3
JIG-C_FLANGE2-12
  1

  0
LINE
  5
136
100
AcDbEntity
  8
0
  6
CENTER
 62
             200
100
AcDbLine
 10
-71.0
 20
-3.8397560119628906
 30
0.0
 11
-71.0
 21
23.390960693359375
 31
0.0
  0
LINE
  5
137
100
AcDbEntity
  8
0
  6
CENTER
 62
             200
100
AcDbLine
 10
71.0
 20
-4.9985084533691406
 30
0.0
 11
71.0
 21
23.9703369140625
 31
0.0
  0
LINE
  5
138
100
AcDbEntity
  8
0
  6
CENTER
 62
             200
100
AcDbLine
 10
-45.0
 20
-4.4191322326660156
 30
0.0
 11
-45.0
 21
23.9703369140625
 31
0.0
  0
LINE
  5
139
100
AcDbEntity
  8
0
  6
CENTER
 62
             200
100
AcDbLine
 10
45.0
 20
-4.9985084533691406
 30
0.0
 11
45.0
 21
23.390960693359375
 31
0.0
  0
LINE
  5
13A
100
AcDbEntity
  8
0
  6
CENTER
 62
             200
100
AcDbLine
 10
0.0
 20
-5.5778846740722656
 30
0.0
 11
0.0
 21
24.549713134765625
 31
0.0
  0
LINE
  5
13B
100
AcDbEntity
  8
0
  6
CONTINUOUS
 62
               4
100
AcDbLine
 10
85.0
 20
0.0
 30
0.0
 11
85.0
 21
20.0
 31
0.0
  0
LINE
  5
13C
100
AcDbEntity
  8
0
  6
CONTINUOUS
 62
               4
100
AcDbLine
 10
-85.0
 20
0.0
 30
0.0
 11
-85.0
 21
20.0
 31
0.0
  0
LINE
  5
13D
100
AcDbEntity
  8
0
  6
CONTINUOUS
 62
               4
100
AcDbLine
 10
-85.0
 20
20.0
 30
0.0
 11
85.0
 21
20.0
 31
0.0
  0
LINE
  5
13E
100
AcDbEntity
  8
0
  6
CONTINUOUS
 62
               4
100
AcDbLine
 10
-85.0
 20
0.0
 30
0.0
 11
85.0
 21
0.0
 31
0.0
  0
ENDBLK
  5
13F
100
AcDbEntity
  8
0
100
AcDbBlockEnd
  0
ENDSEC
  0
SECTION
  2
ENTITIES
  0
INSERT
  5
140
100
AcDbEntity
  8
0
  6
ByBlock
100
AcDbBlockReference
  2
JIG-C_FLANGE2-6
 10
106.74065779555514
 20
154.25151598452683
 30
0.0
 50
0.0000753676938674
  0
INSERT
  5
141
100
AcDbEntity
  8
0
  6
ByBlock
100
AcDbBlockReference
  2
JIG-C_FLANGE2-4
 10
106.74064946790622
 20
81.251490690686978
 30
0.0
  0
INSERT
  5
142
100
AcDbEntity
  8
0
  6
ByBlock
100
AcDbBlockReference
  2
JIG-C_FLANGE2-12
 10
89.423110961914062
 20
-20.672826766967773
 30
0.0
 50
359.99999742863514
  0
INSERT
  5
143
100
AcDbEntity
  8
0
  6
ByBlock
100
AcDbBlockReference
  2
JIG-C_FLANGE2-11
 10
231.42315673828125
 20
-108.67285919189453
 30
0.0
  0
INSERT
  5
144
100
AcDbEntity
  8
0
  6
ByBlock
100
AcDbBlockReference
  2
JIG-C_FLANGE2-10
 10
89.423141479492188
 20
-108.6728515625
 30
0.0
 50
359.99998971453772
  0
INSERT
  5
145
100
AcDbEntity
  8
0
  6
ByBlock
100
AcDbBlockReference
  2
JIG-C_FLANGE2-9
 10
-179.71710205078125
 20
-20.427312850952148
 30
0.0
 50
0.0000015391978902
  0
INSERT
  5
146
100
AcDbEntity
  8
0
  6
ByBlock
100
AcDbBlockReference
  2
JIG-C_FLANGE2-8
 10
-66.717079162597656
 20
-124.42730712890625
 30
0.0
  0
INSERT
  5
147
100
AcDbEntity
  8
0
  6
ByBlock
100
AcDbBlockReference
  2
JIG-C_FLANGE2-7
 10
-179.71713256835937
 20
-124.42732238769531
 30
0.0
  0
INSERT
  5
148
100
AcDbEntity
  8
0
  6
ByBlock
100
AcDbBlockReference
  2
JIG-C_FLANGE2-5
 10
212.74066162109375
 20
81.25146484375
 30
0.0
  0
INSERT
  5
149
100
AcDbEntity
  8
0
  6
ByBlock
100
AcDbBlockReference
  2
JIG-C_FLANGE2-3
 10
-182.931640625
 20
148.41036987304687
 30
0.0
 50
0.000119996779682
  0
INSERT
  5
14A
100
AcDbEntity
  8
0
  6
ByBlock
100
AcDbBlockReference
  2
JIG-C_FLANGE2-2
 10
-65.931449890136719
 20
74.410224914550781
 30
0.0
 50
359.99956286689257
  0
INSERT
  5
14B
100
AcDbEntity
  8
0
  6
ByBlock
100
AcDbBlockReference
  2
JIG-C_FLANGE2-1
 10
-182.93138122558594
 20
74.410263061523438
 30
0.0
  0
MTEXT
  5
14C
100
AcDbEntity
  8
0
  6
CONTINUOUS
 62
               7
100
AcDbMText
 10
-239.10000054041544
 20
181.5
 30
0.0
 40
6.3000001907348633
 41
0.0
 71
               4
 72
               1
  1
\A1;FLANGE
  0
MTEXT
  5
14D
100
AcDbEntity
  8
0
  6
CONTINUOUS
 62
               7
100
AcDbMText
 10
-3.5749719658392598
 20
10.099407196044922
 30
0.0
 40
6.3000001907348633
 41
0.0
 71
               4
 72
               1
  1
\W1.154;\A1;BORE 100
  0
MTEXT
  5
14E
100
AcDbEntity
  8
0
  6
CONTINUOUS
 62
               7
100
AcDbMText
 10
-275.69804092657228
 20
8.3612766265869141
 30
0.0
 40
6.3000001907348633
 41
0.0
 71
               4
 72
               1
  1
\W1.088;\A1;BORE 80
  0
MTEXT
  5
14F
100
AcDbEntity
  8
0
  6
CONTINUOUS
 62
               7
100
AcDbMText
 10
-4.5785113344288835
 20
170.68992614746094
 30
0.0
 40
6.3000001907348633
 41
0.0
 71
               4
 72
               1
  1
\W1.061;\A1;BORE 63
  0
MTEXT
  5
150
100
AcDbEntity
  8
0
  6
CONTINUOUS
 62
               7
100
AcDbMText
 10
-277.43616958868165
 20
164.3167724609375
 30
0.0
 40
6.3000001907348633
 41
0.0
 71
               4
 72
               1
  1
\W1.088;\A1;BORE 50
  0
MTEXT
  5
151
100
AcDbEntity
  8
0
  6
CONTINUOUS
 62
               7
100
AcDbMText
 10
-257.89756208931686
 20
189.5
 30
0.0
 40
6.3000001907348633
 41
0.0
 71
               4
 72
               1
  1
\W1.098;\A1;JIG CYLINDER
  0
MTEXT
  5
152
100
AcDbEntity
  8
0
  6
CONTINUOUS
 62
               7
100
AcDbMText
 10
170.28101006437726
 20
-185.0
 30
0.0
 40
9.0
 41
0.0
 71
               4
 72
               1
  1
\W1.121;\A1;KOGANEI CORP.
  0
MTEXT
  5
153
100
AcDbEntity
  8
0
  6
CONTINUOUS
 62
               7
100
AcDbMText
 10
198.31570517923507
 20
185.5
 30
0.0
 40
6.3000001907348633
 41
0.0
 71
               4
 72
               1
  1
\W1.348;\A1;Ver. 1.1
  0
LINE
  5
154
100
AcDbEntity
  8
0
  6
CONTINUOUS
 62
               7
100
AcDbLine
 10
-281.25
 20
-195.0
 30
0.0
 11
282.0999755859375
 21
-195.0
 31
0.0
  0
LINE
  5
155
100
AcDbEntity
  8
0
  6
CONTINUOUS
 62
               7
100
AcDbLine
 10
-9.57501220703125
 20
195.5
 30
0.0
 11
-9.57501220703125
 21
-195.0
 31
0.0
  0
LINE
  5
156
100
AcDbEntity
  8
0
  6
CONTINUOUS
 62
               7
100
AcDbLine
 10
-281.25
 20
20.25
 30
0.0
 11
282.0999755859375
 21
20.25
 31
0.0
  0
LINE
  5
157
100
AcDbEntity
  8
0
  6
CONTINUOUS
 62
               7
100
AcDbLine
 10
-161.25
 20
195.5
 30
0.0
 11
-161.25
 21
175.5
 31
0.0
  0
LINE
  5
158
100
AcDbEntity
  8
0
  6
CONTINUOUS
 62
               7
100
AcDbLine
 10
162.0999755859375
 20
195.5
 30
0.0
 11
162.0999755859375
 21
175.5
 31
0.0
  0
LINE
  5
159
100
AcDbEntity
  8
0
  6
CONTINUOUS
 62
               7
100
AcDbLine
 10
-281.25
 20
175.5
 30
0.0
 11
-161.25
 21
175.5
 31
0.0
  0
LINE
  5
15A
100
AcDbEntity
  8
0
  6
CONTINUOUS
 62
               7
100
AcDbLine
 10
162.0999755859375
 20
175.5
 30
0.0
 11
282.0999755859375
 21
175.5
 31
0.0
  0
LINE
  5
15B
100
AcDbEntity
  8
0
  6
CONTINUOUS
 62
               7
100
AcDbLine
 10
162.0999755859375
 20
-175.0
 30
0.0
 11
282.0999755859375
 21
-175.0
 31
0.0
  0
LINE
  5
15C
100
AcDbEntity
  8
0
  6
CONTINUOUS
 62
               7
100
AcDbLine
 10
162.0999755859375
 20
-175.0
 30
0.0
 11
162.0999755859375
 21
-195.0
 31
0.0
  0
LINE
  5
15D
100
AcDbEntity
  8
0
  6
CONTINUOUS
 62
               7
100
AcDbLine
 10
282.0999755859375
 20
195.5
 30
0.0
 11
282.0999755859375
 21
-195.0
 31
0.0
  0
LINE
  5
15E
100
AcDbEntity
  8
0
  6
CONTINUOUS
 62
               7
100
AcDbLine
 10
-281.25
 20
195.5
 30
0.0
 11
-281.25
 21
-195.0
 31
0.0
  0
LINE
  5
15F
100
AcDbEntity
  8
0
  6
CONTINUOUS
 62
               7
100
AcDbLine
 10
-281.25
 20
195.5
 30
0.0
 11
282.0999755859375
 21
195.5
 31
0.0
  0
ENDSEC
  0
SECTION
  2
OBJECTS
  0
DICTIONARY
  5
19
100
AcDbDictionary
  3
ACAD_GROUP
350
1A
  3
ACAD_MLINESTYLE
350
1B
  0
DICTIONARY
  5
1A
102
{ACAD_REACTORS
330
19
102
}
100
AcDbDictionary
  0
DICTIONARY
  5
1B
102
{ACAD_REACTORS
330
19
102
}
100
AcDbDictionary
  3
STANDARD
350
1C
  0
MLINESTYLE
  5
1C
102
{ACAD_REACTORS
330
1B
102
}
100
AcDbMlineStyle
  2
Standard
 70
               0
  3

 62
               0
 51
90.0
 52
90.0
 71
               2
 49
0.5
 62
             256
  6
ByLayer
 49
-0.5
 62
             256
  6
ByLayer
  0
ENDSEC
  0
EOF
