  0
SECTION
  2
HEADER
  9
$ACADVER
  1
AC1012
  9
$DWGCODEPAGE
  3
dos932
  9
$INSBASE
 10
0.0
 20
0.0
 30
0.0
  9
$EXTMIN
 10
-281.25
 20
-195.0
 30
0.0
  9
$EXTMAX
 10
285.5999755859375
 20
195.5
 30
0.0
  9
$LIMMIN
 10
-281.25
 20
-195.0
  9
$LIMMAX
 10
285.5999755859375
 20
195.5
  9
$ORTHOMODE
 70
               0
  9
$REGENMODE
 70
               1
  9
$FILLMODE
 70
               1
  9
$QTEXTMODE
 70
               0
  9
$MIRRTEXT
 70
               1
  9
$DRAGMODE
 70
               2
  9
$LTSCALE
 40
1.0
  9
$OSMODE
 70
               0
  9
$ATTMODE
 70
               1
  9
$TEXTSIZE
 40
3.2000000476837158
  9
$TRACEWID
 40
0.05
  9
$TEXTSTYLE
  7
MX_NOTE_STANDARD
  9
$CLAYER
  8
0
  9
$CELTYPE
  6
CONTINUOUS
  9
$CECOLOR
 62
             256
  9
$CELTSCALE
 40
1.0
  9
$DELOBJ
 70
               1
  9
$DISPSILH
 70
               0
  9
$DIMSCALE
 40
1.0
  9
$DIMASZ
 40
2.5
  9
$DIMEXO
 40
1.5
  9
$DIMDLI
 40
3.75
  9
$DIMRND
 40
0.0
  9
$DIMDLE
 40
0.0
  9
$DIMEXE
 40
1.5
  9
$DIMTP
 40
0.0
  9
$DIMTM
 40
0.0
  9
$DIMTXT
 40
3.2000000476837158
  9
$DIMCEN
 40
2.5
  9
$DIMTSZ
 40
0.0
  9
$DIMTOL
 70
               0
  9
$DIMLIM
 70
               0
  9
$DIMTIH
 70
               0
  9
$DIMTOH
 70
               0
  9
$DIMSE1
 70
               0
  9
$DIMSE2
 70
               0
  9
$DIMTAD
 70
               1
  9
$DIMZIN
 70
               8
  9
$DIMBLK
  1

  9
$DIMASO
 70
               1
  9
$DIMSHO
 70
               1
  9
$DIMPOST
  1

  9
$DIMAPOST
  1

  9
$DIMALT
 70
               0
  9
$DIMALTD
 70
               4
  9
$DIMALTF
 40
0.03937007874016
  9
$DIMLFAC
 40
1.0
  9
$DIMTOFL
 70
               1
  9
$DIMTVP
 40
0.0
  9
$DIMTIX
 70
               0
  9
$DIMSOXD
 70
               0
  9
$DIMSAH
 70
               0
  9
$DIMBLK1
  1

  9
$DIMBLK2
  1

  9
$DIMSTYLE
  2
MXDIMSTYLE
  9
$DIMCLRD
 70
               0
  9
$DIMCLRE
 70
               0
  9
$DIMCLRT
 70
               0
  9
$DIMTFAC
 40
1.0
  9
$DIMGAP
 40
1.0
  9
$DIMJUST
 70
               0
  9
$DIMSD1
 70
               0
  9
$DIMSD2
 70
               0
  9
$DIMTOLJ
 70
               1
  9
$DIMTZIN
 70
               0
  9
$DIMALTZ
 70
               0
  9
$DIMALTTZ
 70
               0
  9
$DIMFIT
 70
               3
  9
$DIMUPT
 70
               1
  9
$DIMUNIT
 70
               2
  9
$DIMDEC
 70
               4
  9
$DIMTDEC
 70
               4
  9
$DIMALTU
 70
               2
  9
$DIMALTTD
 70
               4
  9
$DIMTXSTY
  7
MX_NOTE_STANDARD
  9
$DIMAUNIT
 70
               0
  9
$LUNITS
 70
               2
  9
$LUPREC
 70
               4
  9
$SKETCHINC
 40
0.1
  9
$FILLETRAD
 40
0.0
  9
$AUNITS
 70
               0
  9
$AUPREC
 70
               0
  9
$MENU
  1
acad
  9
$ELEVATION
 40
0.0
  9
$PELEVATION
 40
0.0
  9
$THICKNESS
 40
0.0
  9
$LIMCHECK
 70
               0
  9
$BLIPMODE
 70
               1
  9
$CHAMFERA
 40
0.0
  9
$CHAMFERB
 40
0.0
  9
$CHAMFERC
 40
0.0
  9
$CHAMFERD
 40
0.0
  9
$SKPOLY
 70
               0
  9
$TDCREATE
 40
2453446.620185185
  9
$TDUPDATE
 40
2453446.620185185
  9
$TDINDWG
 40
0.0000000000
  9
$TDUSRTIMER
 40
0.0000000000
  9
$USRTIMER
 70
               1
  9
$ANGBASE
 50
0.0
  9
$ANGDIR
 70
               0
  9
$PDMODE
 70
               0
  9
$PDSIZE
 40
0.0
  9
$PLINEWID
 40
0.0
  9
$COORDS
 70
               1
  9
$SPLFRAME
 70
               0
  9
$SPLINETYPE
 70
               6
  9
$SPLINESEGS
 70
               8
  9
$ATTDIA
 70
               0
  9
$ATTREQ
 70
               1
  9
$HANDLING
 70
               1
  9
$HANDSEED
  5
3FC
  9
$SURFTAB1
 70
               6
  9
$SURFTAB2
 70
               6
  9
$SURFTYPE
 70
               6
  9
$SURFU
 70
               6
  9
$SURFV
 70
               6
  9
$UCSNAME
  2

  9
$UCSORG
 10
0.0
 20
0.0
 30
0.0
  9
$UCSXDIR
 10
1.0
 20
0.0
 30
0.0
  9
$UCSYDIR
 10
0.0
 20
1.0
 30
0.0
  9
$PUCSNAME
  2

  9
$PUCSORG
 10
0.0
 20
0.0
 30
0.0
  9
$PUCSXDIR
 10
1.0
 20
0.0
 30
0.0
  9
$PUCSYDIR
 10
0.0
 20
1.0
 30
0.0
  9
$USERI1
 70
               0
  9
$USERI2
 70
               0
  9
$USERI3
 70
               0
  9
$USERI4
 70
               0
  9
$USERI5
 70
               0
  9
$USERR1
 40
0.0
  9
$USERR2
 40
0.0
  9
$USERR3
 40
0.0
  9
$USERR4
 40
0.0
  9
$USERR5
 40
0.0
  9
$WORLDVIEW
 70
               1
  9
$SHADEDGE
 70
               3
  9
$SHADEDIF
 70
              70
  9
$TILEMODE
 70
               1
  9
$MAXACTVP
 70
              16
  9
$PINSBASE
 10
0.0
 20
0.0
 30
0.0
  9
$PLIMCHECK
 70
               0
  9
$PEXTMIN
 10
1.0000000000000000E+20
 20
1.0000000000000000E+20
 30
1.0000000000000000E+20
  9
$PEXTMAX
 10
-1.0000000000000000E+20
 20
-1.0000000000000000E+20
 30
-1.0000000000000000E+20
  9
$PLIMMIN
 10
0.0
 20
0.0
  9
$PLIMMAX
 10
12.0
 20
9.0
  9
$UNITMODE
 70
               0
  9
$VISRETAIN
 70
               0
  9
$PLINEGEN
 70
               1
  9
$PSLTSCALE
 70
               0
  9
$TREEDEPTH
 70
            3020
  9
$PICKSTYLE
 70
               1
  9
$CMLSTYLE
  2
Standard
  9
$CMLJUST
 70
               0
  9
$CMLSCALE
 40
1.0
  9
$SAVEIMAGES
 70
               0
  0
ENDSEC
  0
SECTION
  2
CLASSES
  0
CLASS
  1
LWPOLYLINE
  2
AcDbPolyline
  3
"AutoCAD"
 90
        0
280
               0
281
               1
  0
CLASS
  1
IMAGE
  2
AcDbRasterImage
  3
ISM
 90
      127
280
               0
281
               1
  0
CLASS
  1
OLE2FRAME
  2
AcDbOle2Frame
  3
""
 90
        0
280
               0
281
               1
  0
CLASS
  1
HATCH
  2
AcDbHatch
  3
"ACAD_SEDONA"
 90
        0
280
               0
281
               1
  0
CLASS
  1
DICTIONARYVAR
  2
AcDbDictionaryVar
  3
"AutoCAD"
 90
        0
280
               0
281
               0
  0
CLASS
  1
RASTERVARIABLES
  2
AcDbRasterVariables
  3
ISM
 90
        0
280
               0
281
               0
  0
CLASS
  1
IMAGEDEF
  2
AcDbRasterImageDef
  3
ISM
 90
        0
280
               0
281
               0
  0
CLASS
  1
IMAGEDEF_REACTOR
  2
AcDbRasterImageDefReactor
  3
ISM
 90
        1
280
               0
281
               0
  0
CLASS
  1
IDBUFFER
  2
AcDbIdBuffer
  3
"Acad"
 90
        0
280
               0
281
               0
  0
CLASS
  1
SPATIAL_FILTER
  2
AcDbSpatialFilter
  3
"Acad"
 90
        0
280
               0
281
               0
  0
CLASS
  1
XRECORD
  2
AcDbXrecord
  3
"<Built In>"
 90
        0
280
               0
281
               0
  0
CLASS
  1
SORTENTSTABLE
  2
AcDbSortentsTable
  3
"AutoCAD"
 90
        0
280
               0
281
               0
  0
CLASS
  1
LAYER_INDEX
  2
AcDbLayerIndex
  3
"Acad"
 90
        0
280
               0
281
               0
  0
CLASS
  1
SPATIAL_INDEX
  2
AcDbSpatialIndex
  3
"Acad"
 90
        0
280
               0
281
               0
  0
CLASS
  1
OBJECT_PTR
  2
CAseDLPNTableRecord
  3
"ASE-LPNTableRecord"
 90
        1
280
               0
281
               0
  0
CLASS
  1
LAYOUT
  2
AcDbLayout
  3
"AutoCAD 2000"
 90
        1
280
               0
281
               0
  0
CLASS
  1
PLOTSETTINGS
  2
AcDbPlotSettings
  3
"AutoCAD 2000"
 90
        1
280
               0
281
               0
  0
CLASS
  1
ACDBDICTIONARYWDFLT
  2
AcDbDictionaryWithDefault
  3
"AutoCAD 2000"
 90
        1
280
               0
281
               0
  0
CLASS
  1
ACDBPLACEHOLDER
  2
AcDbPlaceHolder
  3
"AutoCAD 2000"
 90
        1
280
               0
281
               0
  0
ENDSEC
  0
SECTION
  2
TABLES
  0
TABLE
  2
VPORT
  5
7
100
AcDbSymbolTable
 70
               1
  0
VPORT
  5
15
100
AcDbSymbolTableRecord
100
AcDbViewportTableRecord
  2
*ACTIVE
 70
               0
 10
0.0
 20
0.0
 11
1.0
 21
1.0
 12
2.17498779296875
 22
0.25
 13
0.0
 23
0.0
 14
1.0
 24
1.0
 15
0.0
 25
0.0
 16
0.0
 26
0.0
 36
1.0
 17
0.0
 27
0.0
 37
0.0
 40
394.40500000000003
 41
1.7320508075688772
 42
50.0
 43
0.0
 44
0.0
 50
0.0
 51
0.0
 71
               0
 72
             100
 73
               1
 74
               1
 75
               0
 76
               0
 77
               0
 78
               0
  0
ENDTAB
  0
TABLE
  2
LTYPE
  5
4
100
AcDbSymbolTable
 70
               6
  0
LTYPE
  5
11
100
AcDbSymbolTableRecord
100
AcDbLinetypeTableRecord
  2
BYBLOCK
 70
              64
  3

 72
              65
 73
               0
 40
0.0
  0
LTYPE
  5
12
100
AcDbSymbolTableRecord
100
AcDbLinetypeTableRecord
  2
BYLAYER
 70
              64
  3

 72
              65
 73
               0
 40
0.0
  0
LTYPE
  5
13
100
AcDbSymbolTableRecord
100
AcDbLinetypeTableRecord
  2
CONTINUOUS
 70
              64
  3
Solid line
 72
              65
 73
               0
 40
0.0
  0
LTYPE
  5
36
100
AcDbSymbolTableRecord
100
AcDbLinetypeTableRecord
  2
PHANTOM
 70
              64
  3
Phantom ______  __  __  ______  __  __  ______
 72
              65
 73
               6
 40
30.0
 49
20.0
 74
               0
 49
-2.0
 74
               0
 49
2.0
 74
               0
 49
-2.0
 74
               0
 49
2.0
 74
               0
 49
-2.0
 74
               0
  0
LTYPE
  5
45
100
AcDbSymbolTableRecord
100
AcDbLinetypeTableRecord
  2
CENTER
 70
              64
  3
Center ____ _ ____ _ ____ _ ____ _ ____ _ ____
 72
              65
 73
               4
 40
26.0
 49
20.0
 74
               0
 49
-2.0
 74
               0
 49
2.0
 74
               0
 49
-2.0
 74
               0
  0
LTYPE
  5
48
100
AcDbSymbolTableRecord
100
AcDbLinetypeTableRecord
  2
DASHED
 70
              64
  3
Dashed __ __ __ __ __ __ __ __ __ __ __ __ __ _
 72
              65
 73
               2
 40
4.0
 49
2.0
 74
               0
 49
-2.0
 74
               0
  0
ENDTAB
  0
TABLE
  2
LAYER
  5
2
100
AcDbSymbolTable
 70
               2
  0
LAYER
  5
14
100
AcDbSymbolTableRecord
100
AcDbLayerTableRecord
  2
0
 70
               0
 62
               7
  6
CONTINUOUS
  0
LAYER
  5
1D
100
AcDbSymbolTableRecord
100
AcDbLayerTableRecord
  2
DEFPOINTS
 70
               0
 62
               7
  6
CONTINUOUS
  0
ENDTAB
  0
TABLE
  2
STYLE
  5
3
100
AcDbSymbolTable
 70
               1
  0
STYLE
  5
17
100
AcDbSymbolTableRecord
100
AcDbTextStyleTableRecord
  2
MX_NOTE_STANDARD
 70
               0
 40
0.0
 41
1.0
 50
0.0
 71
               0
 42
3.2000000476837158
  3
txt.shx
  4
extfont.shx
  0
ENDTAB
  0
TABLE
  2
VIEW
  5
5
100
AcDbSymbolTable
 70
               0
  0
ENDTAB
  0
TABLE
  2
UCS
  5
6
100
AcDbSymbolTable
 70
               0
  0
ENDTAB
  0
TABLE
  2
APPID
  5
8
100
AcDbSymbolTable
 70
               1
  0
APPID
  5
16
100
AcDbSymbolTableRecord
100
AcDbRegAppTableRecord
  2
ACAD
 70
               0
  0
ENDTAB
  0
TABLE
  2
DIMSTYLE
  5
9
100
AcDbSymbolTable
 70
               1
  0
DIMSTYLE
105
18
100
AcDbSymbolTableRecord
100
AcDbDimStyleTableRecord
  2
MXDIMSTYLE
 70
               0
  3

  4

  5

  6

  7

 40
1.0
 41
2.5
 42
1.5
 43
3.75
 44
1.5
 45
0.0
 46
0.0
 47
0.0
 48
0.0
 71
               0
 72
               0
 73
               0
 74
               0
 75
               0
 76
               0
 77
               1
 78
               8
140
3.2000000476837158
141
2.5
142
0.0
143
0.03937007874016
144
1.0
145
0.0
146
1.0
147
1.0
170
               0
171
               4
172
               1
173
               0
174
               0
175
               0
176
               0
177
               0
178
               0
270
               2
271
               4
272
               4
273
               2
274
               4
275
               0
280
               0
281
               0
282
               0
283
               1
284
               0
285
               0
286
               0
287
               3
288
               1
340
17
  0
ENDTAB
  0
TABLE
  2
BLOCK_RECORD
  5
1
100
AcDbSymbolTable
 70
              18
  0
BLOCK_RECORD
  5
A
100
AcDbSymbolTableRecord
100
AcDbBlockTableRecord
  2
*MODEL_SPACE
  0
BLOCK_RECORD
  5
B
100
AcDbSymbolTableRecord
100
AcDbBlockTableRecord
  2
*PAPER_SPACE
  0
BLOCK_RECORD
  5
1E
100
AcDbSymbolTableRecord
100
AcDbBlockTableRecord
  2
CBDA63-1
  0
BLOCK_RECORD
  5
1F
100
AcDbSymbolTableRecord
100
AcDbBlockTableRecord
  2
CBDA63-2
  0
BLOCK_RECORD
  5
20
100
AcDbSymbolTableRecord
100
AcDbBlockTableRecord
  2
CBDA63-3
  0
BLOCK_RECORD
  5
21
100
AcDbSymbolTableRecord
100
AcDbBlockTableRecord
  2
CBDA63-4
  0
BLOCK_RECORD
  5
22
100
AcDbSymbolTableRecord
100
AcDbBlockTableRecord
  2
CBDA63-5
  0
BLOCK_RECORD
  5
23
100
AcDbSymbolTableRecord
100
AcDbBlockTableRecord
  2
CBDA63-6
  0
BLOCK_RECORD
  5
24
100
AcDbSymbolTableRecord
100
AcDbBlockTableRecord
  2
CBDA63-7
  0
BLOCK_RECORD
  5
25
100
AcDbSymbolTableRecord
100
AcDbBlockTableRecord
  2
CBDA63-8
  0
BLOCK_RECORD
  5
26
100
AcDbSymbolTableRecord
100
AcDbBlockTableRecord
  2
CBDA63-9
  0
BLOCK_RECORD
  5
27
100
AcDbSymbolTableRecord
100
AcDbBlockTableRecord
  2
CBDA63-10
  0
BLOCK_RECORD
  5
28
100
AcDbSymbolTableRecord
100
AcDbBlockTableRecord
  2
CBDA63-11
  0
BLOCK_RECORD
  5
29
100
AcDbSymbolTableRecord
100
AcDbBlockTableRecord
  2
CBDA63-12
  0
BLOCK_RECORD
  5
2A
100
AcDbSymbolTableRecord
100
AcDbBlockTableRecord
  2
CBDA63-13
  0
BLOCK_RECORD
  5
2B
100
AcDbSymbolTableRecord
100
AcDbBlockTableRecord
  2
CBDA63-14
  0
BLOCK_RECORD
  5
2C
100
AcDbSymbolTableRecord
100
AcDbBlockTableRecord
  2
CBDA63-15
  0
BLOCK_RECORD
  5
2D
100
AcDbSymbolTableRecord
100
AcDbBlockTableRecord
  2
CBDA63-16
  0
BLOCK_RECORD
  5
2E
100
AcDbSymbolTableRecord
100
AcDbBlockTableRecord
  2
CBDA63-17
  0
BLOCK_RECORD
  5
2F
100
AcDbSymbolTableRecord
100
AcDbBlockTableRecord
  2
CBDA63-18
  0
ENDTAB
  0
ENDSEC
  0
SECTION
  2
BLOCKS
  0
BLOCK
  5
D
100
AcDbEntity
  8
0
100
AcDbBlockBegin
  2
*MODEL_SPACE
 70
               0
 10
0.0
 20
0.0
 30
0.0
  3
*MODEL_SPACE
  1

  0
ENDBLK
  5
E
100
AcDbEntity
  8
0
100
AcDbBlockEnd
  0
BLOCK
  5
F
100
AcDbEntity
 67
               1
  8
0
100
AcDbBlockBegin
  2
*PAPER_SPACE
 70
               0
 10
0.0
 20
0.0
 30
0.0
  3
*PAPER_SPACE
  1

  0
ENDBLK
  5
10
100
AcDbEntity
 67
               1
  8
0
100
AcDbBlockEnd
  0
BLOCK
  5
30
100
AcDbEntity
  8
0
100
AcDbBlockBegin
  2
CBDA63-1
 70
               0
 10
0.0
 20
0.0
 30
0.0
  3
CBDA63-1
  1

  0
SPLINE
  5
31
100
AcDbEntity
  8
0
  6
CONTINUOUS
 62
               4
100
AcDbSpline
210
0.0
220
0.0
230
1.0
 70
               0
 71
               3
 72
               0
 73
               0
 74
               5
 44
0.000001
 12
0.4948718272541366
 22
-0.8689659801109316
 32
0.0
 13
-0.4948718409836656
 23
-0.8689659722920327
 33
0.0
 11
-6.0
 21
5.2599999999999998
 31
0.0
 11
-4.911184890975032
 21
2.7253065156497098
 31
0.0
 11
-4.5
 21
0.0
 31
0.0
 11
-4.9111843744551225
 21
-2.7253061075649803
 31
0.0
 11
-6.0
 21
-5.2600000000000016
 31
0.0
  0
CIRCLE
  5
32
100
AcDbEntity
  8
0
  6
CONTINUOUS
 62
               7
100
AcDbCircle
 10
36.0
 20
0.0
 30
0.0
 40
5.7224998474121094
  0
CIRCLE
  5
33
100
AcDbEntity
  8
0
  6
CONTINUOUS
 62
               2
100
AcDbCircle
 10
36.0
 20
0.0
 30
0.0
 40
6.5784997940063477
  0
CIRCLE
  5
34
100
AcDbEntity
  8
0
  6
CONTINUOUS
 62
               7
100
AcDbCircle
 10
12.5
 20
0.0
 30
0.0
 40
5.7224998474121094
  0
CIRCLE
  5
35
100
AcDbEntity
  8
0
  6
CONTINUOUS
 62
               2
100
AcDbCircle
 10
12.5
 20
0.0
 30
0.0
 40
6.5784997940063477
  0
LINE
  5
37
100
AcDbEntity
  8
0
  6
PHANTOM
 62
               3
100
AcDbLine
 10
24.0
 20
-45.539999999999999
 30
0.0
 11
24.0
 21
54.420000000000002
 31
0.0
  0
LINE
  5
38
100
AcDbEntity
  8
0
  6
CONTINUOUS
 62
               7
100
AcDbLine
 10
0.0
 20
37.5
 30
0.0
 11
0.0
 21
-37.5
 31
0.0
  0
LINE
  5
39
100
AcDbEntity
  8
0
  6
CONTINUOUS
 62
               4
100
AcDbLine
 10
-7.2599999999999998
 20
5.2599999999999998
 30
0.0
 11
-7.2599999999999998
 21
10.0
 31
0.0
  0
LINE
  5
3A
100
AcDbEntity
  8
0
  6
CONTINUOUS
 62
               4
100
AcDbLine
 10
-7.2599999999999998
 20
10.0
 30
0.0
 11
0.0
 21
10.0
 31
0.0
  0
LINE
  5
3B
100
AcDbEntity
  8
0
  6
CONTINUOUS
 62
               4
100
AcDbLine
 10
-9.0
 20
9.0
 30
0.0
 11
-7.2599999999999998
 21
10.0
 31
0.0
  0
LINE
  5
3C
100
AcDbEntity
  8
0
  6
CONTINUOUS
 62
               4
100
AcDbLine
 10
-7.2599999999999998
 20
-10.0
 30
0.0
 11
-7.2599999999999998
 21
-5.2599999999999998
 31
0.0
  0
LINE
  5
3D
100
AcDbEntity
  8
0
  6
CONTINUOUS
 62
               4
100
AcDbLine
 10
-9.0
 20
-9.0
 30
0.0
 11
-7.2599999999999998
 21
-10.0
 31
0.0
  0
LINE
  5
3E
100
AcDbEntity
  8
0
  6
CONTINUOUS
 62
               4
100
AcDbLine
 10
-7.2599999999999998
 20
-10.0
 30
0.0
 11
0.0
 21
-10.0
 31
0.0
  0
LINE
  5
3F
100
AcDbEntity
  8
0
  6
CONTINUOUS
 62
               4
100
AcDbLine
 10
-9.0
 20
-9.0
 30
0.0
 11
-9.0
 21
9.0
 31
0.0
  0
LINE
  5
40
100
AcDbEntity
  8
0
  6
CONTINUOUS
 62
             200
100
AcDbLine
 10
-9.0
 20
-5.2599999999999998
 30
0.0
 11
-6.0
 21
5.2599999999999998
 31
0.0
  0
LINE
  5
41
100
AcDbEntity
  8
0
  6
CONTINUOUS
 62
             200
100
AcDbLine
 10
-9.0
 20
5.2599999999999998
 30
0.0
 11
-6.0
 21
-5.2599999999999998
 31
0.0
  0
LINE
  5
42
100
AcDbEntity
  8
0
  6
CONTINUOUS
 62
               4
100
AcDbLine
 10
-9.0
 20
-5.2599999999999998
 30
0.0
 11
-6.0
 21
-5.2599999999999998
 31
0.0
  0
LINE
  5
43
100
AcDbEntity
  8
0
  6
CONTINUOUS
 62
               4
100
AcDbLine
 10
-9.0
 20
5.2599999999999998
 30
0.0
 11
-6.0
 21
5.2599999999999998
 31
0.0
  0
LINE
  5
44
100
AcDbEntity
  8
0
  6
CONTINUOUS
 62
               4
100
AcDbLine
 10
-6.0
 20
5.2599999999999998
 30
0.0
 11
-6.0
 21
-5.2599999999999998
 31
0.0
  0
LINE
  5
46
100
AcDbEntity
  8
0
  6
CENTER
 62
               2
100
AcDbLine
 10
-14.970000000000001
 20
0.0
 30
0.0
 11
53.200000000000003
 21
0.0
 31
0.0
  0
LINE
  5
47
100
AcDbEntity
  8
0
  6
CENTER
 62
               2
100
AcDbLine
 10
-4.96
 20
30.0
 30
0.0
 11
53.200000000000003
 21
30.0
 31
0.0
  0
LINE
  5
49
100
AcDbEntity
  8
0
  6
DASHED
 62
               7
100
AcDbLine
 10
38.5
 20
-33.369999999999997
 30
0.0
 11
30.5
 21
-33.369999999999997
 31
0.0
  0
LINE
  5
4A
100
AcDbEntity
  8
0
  6
DASHED
 62
               7
100
AcDbLine
 10
47.0
 20
-35.5
 30
0.0
 11
38.5
 21
-35.5
 31
0.0
  0
LINE
  5
4B
100
AcDbEntity
  8
0
  6
DASHED
 62
               7
100
AcDbLine
 10
47.0
 20
-24.5
 30
0.0
 11
38.5
 21
-24.5
 31
0.0
  0
LINE
  5
4C
100
AcDbEntity
  8
0
  6
DASHED
 62
               2
100
AcDbLine
 10
38.5
 20
-34.0
 30
0.0
 11
30.5
 21
-34.0
 31
0.0
  0
LINE
  5
4D
100
AcDbEntity
  8
0
  6
DASHED
 62
               2
100
AcDbLine
 10
38.5
 20
-26.0
 30
0.0
 11
30.5
 21
-26.0
 31
0.0
  0
LINE
  5
4E
100
AcDbEntity
  8
0
  6
DASHED
 62
               7
100
AcDbLine
 10
38.5
 20
-26.620000000000001
 30
0.0
 11
30.5
 21
-26.620000000000001
 31
0.0
  0
LINE
  5
4F
100
AcDbEntity
  8
0
  6
DASHED
 62
               7
100
AcDbLine
 10
38.5
 20
-24.5
 30
0.0
 11
38.5
 21
-35.5
 31
0.0
  0
LINE
  5
50
100
AcDbEntity
  8
0
  6
DASHED
 62
               7
100
AcDbLine
 10
30.5
 20
-26.0
 30
0.0
 11
30.5
 21
-34.0
 31
0.0
  0
LINE
  5
51
100
AcDbEntity
  8
0
  6
DASHED
 62
               7
100
AcDbLine
 10
16.5
 20
-33.450000000000003
 30
0.0
 11
30.5
 21
-33.450000000000003
 31
0.0
  0
LINE
  5
52
100
AcDbEntity
  8
0
  6
DASHED
 62
               7
100
AcDbLine
 10
16.5
 20
-26.550000000000001
 30
0.0
 11
30.5
 21
-26.550000000000001
 31
0.0
  0
LINE
  5
53
100
AcDbEntity
  8
0
  6
DASHED
 62
               7
100
AcDbLine
 10
8.5
 20
-26.620000000000001
 30
0.0
 11
16.5
 21
-26.620000000000001
 31
0.0
  0
LINE
  5
54
100
AcDbEntity
  8
0
  6
DASHED
 62
               7
100
AcDbLine
 10
8.5
 20
-33.369999999999997
 30
0.0
 11
16.5
 21
-33.369999999999997
 31
0.0
  0
LINE
  5
55
100
AcDbEntity
  8
0
  6
DASHED
 62
               7
100
AcDbLine
 10
0.0
 20
-35.5
 30
0.0
 11
8.5
 21
-35.5
 31
0.0
  0
LINE
  5
56
100
AcDbEntity
  8
0
  6
DASHED
 62
               7
100
AcDbLine
 10
0.0
 20
-24.5
 30
0.0
 11
8.5
 21
-24.5
 31
0.0
  0
LINE
  5
57
100
AcDbEntity
  8
0
  6
DASHED
 62
               2
100
AcDbLine
 10
8.5
 20
-34.0
 30
0.0
 11
16.5
 21
-34.0
 31
0.0
  0
LINE
  5
58
100
AcDbEntity
  8
0
  6
DASHED
 62
               2
100
AcDbLine
 10
8.5
 20
-26.0
 30
0.0
 11
16.5
 21
-26.0
 31
0.0
  0
LINE
  5
59
100
AcDbEntity
  8
0
  6
CENTER
 62
               2
100
AcDbLine
 10
-4.96
 20
-30.0
 30
0.0
 11
53.200000000000003
 21
-30.0
 31
0.0
  0
LINE
  5
5A
100
AcDbEntity
  8
0
  6
DASHED
 62
               7
100
AcDbLine
 10
8.5
 20
-24.5
 30
0.0
 11
8.5
 21
-35.5
 31
0.0
  0
LINE
  5
5B
100
AcDbEntity
  8
0
  6
DASHED
 62
               7
100
AcDbLine
 10
16.5
 20
-26.0
 30
0.0
 11
16.5
 21
-34.0
 31
0.0
  0
LINE
  5
5C
100
AcDbEntity
  8
0
  6
CONTINUOUS
 62
               7
100
AcDbLine
 10
0.0
 20
-33.07
 30
0.0
 11
47.0
 21
-33.07
 31
0.0
  0
LINE
  5
5D
100
AcDbEntity
  8
0
  6
CENTER
 62
               2
100
AcDbLine
 10
12.5
 20
8.0500000000000007
 30
0.0
 11
12.5
 21
-8.3499999999999996
 31
0.0
  0
LINE
  5
5E
100
AcDbEntity
  8
0
  6
CENTER
 62
               2
100
AcDbLine
 10
36.0
 20
8.0500000000000007
 30
0.0
 11
36.0
 21
-8.3499999999999996
 31
0.0
  0
LINE
  5
5F
100
AcDbEntity
  8
0
  6
CONTINUOUS
 62
               7
100
AcDbLine
 10
0.0
 20
33.07
 30
0.0
 11
47.0
 21
33.07
 31
0.0
  0
LINE
  5
60
100
AcDbEntity
  8
0
  6
CONTINUOUS
 62
               7
100
AcDbLine
 10
0.0
 20
-15.0
 30
0.0
 11
47.0
 21
-15.0
 31
0.0
  0
LINE
  5
61
100
AcDbEntity
  8
0
  6
CONTINUOUS
 62
               7
100
AcDbLine
 10
0.0
 20
-11.800000000000001
 30
0.0
 11
47.0
 21
-11.800000000000001
 31
0.0
  0
LINE
  5
62
100
AcDbEntity
  8
0
  6
CONTINUOUS
 62
               7
100
AcDbLine
 10
0.0
 20
-10.800000000000001
 30
0.0
 11
47.0
 21
-10.800000000000001
 31
0.0
  0
LINE
  5
63
100
AcDbEntity
  8
0
  6
CONTINUOUS
 62
               7
100
AcDbLine
 10
0.0
 20
-9.5
 30
0.0
 11
47.0
 21
-9.5
 31
0.0
  0
LINE
  5
64
100
AcDbEntity
  8
0
  6
CONTINUOUS
 62
               7
100
AcDbLine
 10
0.0
 20
9.5
 30
0.0
 11
47.0
 21
9.5
 31
0.0
  0
LINE
  5
65
100
AcDbEntity
  8
0
  6
CONTINUOUS
 62
               7
100
AcDbLine
 10
0.0
 20
10.800000000000001
 30
0.0
 11
47.0
 21
10.800000000000001
 31
0.0
  0
LINE
  5
66
100
AcDbEntity
  8
0
  6
CONTINUOUS
 62
               7
100
AcDbLine
 10
0.0
 20
11.800000000000001
 30
0.0
 11
47.0
 21
11.800000000000001
 31
0.0
  0
LINE
  5
67
100
AcDbEntity
  8
0
  6
CONTINUOUS
 62
               7
100
AcDbLine
 10
0.0
 20
15.0
 30
0.0
 11
47.0
 21
15.0
 31
0.0
  0
LINE
  5
68
100
AcDbEntity
  8
0
  6
CONTINUOUS
 62
               7
100
AcDbLine
 10
0.0
 20
37.5
 30
0.0
 11
47.0
 21
37.5
 31
0.0
  0
LINE
  5
69
100
AcDbEntity
  8
0
  6
CONTINUOUS
 62
               7
100
AcDbLine
 10
0.0
 20
-37.5
 30
0.0
 11
47.0
 21
-37.5
 31
0.0
  0
LINE
  5
6A
100
AcDbEntity
  8
0
  6
CONTINUOUS
 62
               7
100
AcDbLine
 10
47.0
 20
37.5
 30
0.0
 11
47.0
 21
-37.5
 31
0.0
  0
ENDBLK
  5
6B
100
AcDbEntity
  8
0
100
AcDbBlockEnd
  0
BLOCK
  5
6C
100
AcDbEntity
  8
0
100
AcDbBlockBegin
  2
CBDA63-2
 70
               0
 10
0.0
 20
0.0
 30
0.0
  3
CBDA63-2
  1

  0
CIRCLE
  5
6D
100
AcDbEntity
  8
0
  6
CONTINUOUS
 62
               2
100
AcDbCircle
 10
30.000030517578125
 20
-30.0
 30
0.0
 40
4.0
  0
CIRCLE
  5
6E
100
AcDbEntity
  8
0
  6
CONTINUOUS
 62
               7
100
AcDbCircle
 10
30.000030517578125
 20
-30.000030517578125
 30
0.0
 40
3.375
  0
CIRCLE
  5
6F
100
AcDbEntity
  8
0
  6
CONTINUOUS
 62
               2
100
AcDbCircle
 10
29.999969482421875
 20
29.999984741210937
 30
0.0
 40
4.0
  0
CIRCLE
  5
70
100
AcDbEntity
  8
0
  6
CONTINUOUS
 62
               7
100
AcDbCircle
 10
29.999969482421875
 20
29.999954223632813
 30
0.0
 40
3.375
  0
CIRCLE
  5
71
100
AcDbEntity
  8
0
  6
CONTINUOUS
 62
               2
100
AcDbCircle
 10
-30.000030517578125
 20
-30.0
 30
0.0
 40
4.0
  0
CIRCLE
  5
72
100
AcDbEntity
  8
0
  6
CONTINUOUS
 62
               7
100
AcDbCircle
 10
-30.000030517578125
 20
-30.000030517578125
 30
0.0
 40
3.375
  0
CIRCLE
  5
73
100
AcDbEntity
  8
0
  6
CONTINUOUS
 62
               7
100
AcDbCircle
 10
-30.0
 20
-29.999984741210937
 30
0.0
 40
5.5
  0
CIRCLE
  5
74
100
AcDbEntity
  8
0
  6
CONTINUOUS
 62
               7
100
AcDbCircle
 10
30.0
 20
30.000045776367188
 30
0.0
 40
5.5
  0
CIRCLE
  5
75
100
AcDbEntity
  8
0
  6
CONTINUOUS
 62
               4
100
AcDbCircle
 10
0.0
 20
0.0
 30
0.0
 40
4.25
  0
CIRCLE
  5
76
100
AcDbEntity
  8
0
  6
CONTINUOUS
 62
             200
100
AcDbCircle
 10
0.0
 20
0.0
 30
0.0
 40
5.0
  0
ARC
  5
77
100
AcDbEntity
  8
0
  6
CONTINUOUS
 62
               4
100
AcDbCircle
 10
0.0
 20
0.0000000000000022
 30
0.0
 40
8.9973607241234923
100
AcDbArc
 50
199.13978225865316
 51
340.8602177413469
  0
ARC
  5
78
100
AcDbEntity
  8
0
  6
CONTINUOUS
 62
               4
100
AcDbCircle
 10
0.0
 20
-0.0000000000000022
 30
0.0
 40
8.9973607241234923
100
AcDbArc
 50
19.139782258653149
 51
160.86021774134684
  0
CIRCLE
  5
79
100
AcDbEntity
  8
0
  6
CONTINUOUS
 62
               4
100
AcDbCircle
 10
0.0
 20
0.0
 30
0.0
 40
10.0
  0
CIRCLE
  5
7A
100
AcDbEntity
  8
0
  6
CONTINUOUS
 62
               7
100
AcDbCircle
 10
0.0
 20
0.0
 30
0.0
 40
32.5
  0
ARC
  5
7B
100
AcDbEntity
  8
0
  6
CONTINUOUS
 62
               7
100
AcDbCircle
 10
11.499998474117213
 20
37.199998474117216
 30
0.0
 40
0.3000015258866676
100
AcDbArc
 50
0.0002914206635522
 51
89.999708579336442
  0
ARC
  5
7C
100
AcDbEntity
  8
0
  6
CONTINUOUS
 62
               7
100
AcDbCircle
 10
15.300010681249356
 20
37.199989318750646
 30
0.0
 40
0.3000106814394982
100
AcDbArc
 50
90.002039895730292
 51
179.99796010426937
  0
ARC
  5
7D
100
AcDbEntity
  8
0
  6
CONTINUOUS
 62
               7
100
AcDbCircle
 10
13.4
 20
34.899999999999999
 30
0.0
 40
2.100000000019957
100
AcDbArc
 50
180.0
 51
0.0
  0
ARC
  5
7E
100
AcDbEntity
  8
0
  6
CONTINUOUS
 62
               7
100
AcDbCircle
 10
-13.4
 20
34.899999999999999
 30
0.0
 40
2.1000000000199566
100
AcDbArc
 50
180.0
 51
0.0
  0
ARC
  5
7F
100
AcDbEntity
  8
0
  6
CONTINUOUS
 62
               7
100
AcDbCircle
 10
-11.499983215017711
 20
37.19998321501771
 30
0.0
 40
0.3000167854518236
100
AcDbArc
 50
90.003205516129512
 51
179.99679448386985
  0
ARC
  5
80
100
AcDbEntity
  8
0
  6
CONTINUOUS
 62
               7
100
AcDbCircle
 10
-15.299995422460293
 20
37.200004577539708
 30
0.0
 40
0.2999954224952177
100
AcDbArc
 50
359.99912574097459
 51
90.000874259025736
  0
ARC
  5
81
100
AcDbEntity
  8
0
  6
CONTINUOUS
 62
               7
100
AcDbCircle
 10
0.000030517578125
 20
-0.000030517578125
 30
0.0
 40
49.99870591076219
100
AcDbArc
 50
311.4079934415368
 51
318.5920065584632
  0
ARC
  5
82
100
AcDbEntity
  8
0
  6
CONTINUOUS
 62
               7
100
AcDbCircle
 10
0.0
 20
0.0
 30
0.0
 40
49.998748984349596
100
AcDbArc
 50
131.40799654008688
 51
138.59200345991312
  0
CIRCLE
  5
83
100
AcDbEntity
  8
0
  6
CONTINUOUS
 62
               7
100
AcDbCircle
 10
-30.0
 20
-29.999969482421875
 30
0.0
 40
5.5
  0
CIRCLE
  5
84
100
AcDbEntity
  8
0
  6
CONTINUOUS
 62
               7
100
AcDbCircle
 10
30.0
 20
-29.999984741210937
 30
0.0
 40
5.5
  0
ARC
  5
85
100
AcDbEntity
  8
0
  6
CONTINUOUS
 62
               7
100
AcDbCircle
 10
37.20001220703125
 20
15.29998779296875
 30
0.0
 40
0.2999877932171128
100
AcDbArc
 50
269.99766853389752
 51
0.0023314661031446
  0
ARC
  5
86
100
AcDbEntity
  8
0
  6
CONTINUOUS
 62
               7
100
AcDbCircle
 10
34.899999999999999
 20
13.4
 30
0.0
 40
2.1000000001419155
100
AcDbArc
 50
90.0
 51
270.0
  0
ARC
  5
87
100
AcDbEntity
  8
0
  6
CONTINUOUS
 62
               7
100
AcDbCircle
 10
37.200006103453539
 20
11.500006103453536
 30
0.0
 40
0.2999938966085517
100
AcDbArc
 50
359.99883430252396
 51
90.001165697476054
  0
ARC
  5
88
100
AcDbEntity
  8
0
  6
CONTINUOUS
 62
               7
100
AcDbCircle
 10
37.200013732906278
 20
-11.500013732906275
 30
0.0
 40
0.2999862674080602
100
AcDbArc
 50
269.9973770880344
 51
0.0026229119655697
  0
ARC
  5
89
100
AcDbEntity
  8
0
  6
CONTINUOUS
 62
               7
100
AcDbCircle
 10
37.199996947854139
 20
-15.300003052145863
 30
0.0
 40
0.3000030521613894
100
AcDbArc
 50
0.00058291099077
 51
89.999417089008887
  0
ARC
  5
8A
100
AcDbEntity
  8
0
  6
CONTINUOUS
 62
               7
100
AcDbCircle
 10
34.899999999999999
 20
-13.4
 30
0.0
 40
2.1000000001419155
100
AcDbArc
 50
90.0
 51
270.0
  0
ARC
  5
8B
100
AcDbEntity
  8
0
  6
CONTINUOUS
 62
               7
100
AcDbCircle
 10
15.300003055250272
 20
-37.199996944749728
 30
0.0
 40
0.3000030552658296
100
AcDbArc
 50
180.00058350387783
 51
269.99941649612282
  0
ARC
  5
8C
100
AcDbEntity
  8
0
  6
CONTINUOUS
 62
               7
100
AcDbCircle
 10
13.4
 20
-34.899999999999999
 30
0.0
 40
2.1000000001419155
100
AcDbArc
 50
0.0
 51
180.0
  0
ARC
  5
8D
100
AcDbEntity
  8
0
  6
CONTINUOUS
 62
               7
100
AcDbCircle
 10
11.500006103453536
 20
-37.200006103453539
 30
0.0
 40
0.2999938966085517
100
AcDbArc
 50
269.9988343025239
 51
0.0011656974760504
  0
ARC
  5
8E
100
AcDbEntity
  8
0
  6
CONTINUOUS
 62
               7
100
AcDbCircle
 10
-11.500006103453536
 20
-37.200006103453539
 30
0.0
 40
0.2999938966085517
100
AcDbArc
 50
179.99883430252396
 51
270.00116569747604
  0
ARC
  5
8F
100
AcDbEntity
  8
0
  6
CONTINUOUS
 62
               7
100
AcDbCircle
 10
-15.29998779296875
 20
-37.20001220703125
 30
0.0
 40
0.2999877932171128
100
AcDbArc
 50
269.99766853389684
 51
0.002331466102483
  0
ARC
  5
90
100
AcDbEntity
  8
0
  6
CONTINUOUS
 62
               7
100
AcDbCircle
 10
-13.4
 20
-34.899999999999999
 30
0.0
 40
2.1000000001419155
100
AcDbArc
 50
0.0
 51
180.0
  0
ARC
  5
91
100
AcDbEntity
  8
0
  6
CONTINUOUS
 62
               7
100
AcDbCircle
 10
-37.20001220703125
 20
-15.29998779296875
 30
0.0
 40
0.2999877932171128
100
AcDbArc
 50
89.997668533897539
 51
180.00233146610316
  0
ARC
  5
92
100
AcDbEntity
  8
0
  6
CONTINUOUS
 62
               7
100
AcDbCircle
 10
-34.899999999999999
 20
-13.4
 30
0.0
 40
2.1000000001419155
100
AcDbArc
 50
270.0
 51
90.0
  0
ARC
  5
93
100
AcDbEntity
  8
0
  6
CONTINUOUS
 62
               7
100
AcDbCircle
 10
-37.200006103453539
 20
-11.500006103453536
 30
0.0
 40
0.2999938966085517
100
AcDbArc
 50
179.99883430252396
 51
270.00116569747604
  0
ARC
  5
94
100
AcDbEntity
  8
0
  6
CONTINUOUS
 62
               7
100
AcDbCircle
 10
-37.200013732906278
 20
11.500013732906275
 30
0.0
 40
0.2999862674080602
100
AcDbArc
 50
89.997377088034412
 51
180.00262291196557
  0
ARC
  5
95
100
AcDbEntity
  8
0
  6
CONTINUOUS
 62
               7
100
AcDbCircle
 10
-37.200004577539708
 20
15.299995422460293
 30
0.0
 40
0.2999954224952177
100
AcDbArc
 50
179.99912574097428
 51
270.00087425902541
  0
ARC
  5
96
100
AcDbEntity
  8
0
  6
CONTINUOUS
 62
               7
100
AcDbCircle
 10
-34.899999999999999
 20
13.4
 30
0.0
 40
2.1000000001419155
100
AcDbArc
 50
270.0
 51
90.0
  0
CIRCLE
  5
97
100
AcDbEntity
  8
0
  6
CONTINUOUS
 62
               7
100
AcDbCircle
 10
-30.0
 20
30.000015258789063
 30
0.0
 40
3.375
  0
ARC
  5
98
100
AcDbEntity
  8
0
  6
CONTINUOUS
 62
               7
100
AcDbCircle
 10
0.0
 20
0.0
 30
0.0
 40
49.998748984349596
100
AcDbArc
 50
221.40799654008688
 51
228.59200345991312
  0
ARC
  5
99
100
AcDbEntity
  8
0
  6
CONTINUOUS
 62
               7
100
AcDbCircle
 10
0.0
 20
0.0
 30
0.0
 40
49.998748984349596
100
AcDbArc
 50
41.407996540086899
 51
48.592003459913109
  0
CIRCLE
  5
9A
100
AcDbEntity
  8
0
  6
CONTINUOUS
 62
               2
100
AcDbCircle
 10
-30.0
 20
30.000045776367188
 30
0.0
 40
4.0
  0
CIRCLE
  5
9B
100
AcDbEntity
  8
0
  6
CONTINUOUS
 62
               7
100
AcDbCircle
 10
-30.0
 20
30.000045776367188
 30
0.0
 40
5.5
  0
LINE
  5
9C
100
AcDbEntity
  8
0
  6
CENTER
 62
               2
100
AcDbLine
 10
-22.68
 20
-30.0
 30
0.0
 11
-37.649999999999999
 21
-30.0
 31
0.0
  0
LINE
  5
9D
100
AcDbEntity
  8
0
  6
CENTER
 62
               2
100
AcDbLine
 10
-30.0
 20
-22.140000000000001
 30
0.0
 11
-30.0
 21
-37.670000000000002
 31
0.0
  0
LINE
  5
9E
100
AcDbEntity
  8
0
  6
CENTER
 62
               2
100
AcDbLine
 10
37.310000000000002
 20
30.0
 30
0.0
 11
22.34
 21
30.0
 31
0.0
  0
LINE
  5
9F
100
AcDbEntity
  8
0
  6
CENTER
 62
               2
100
AcDbLine
 10
30.0
 20
37.850000000000001
 30
0.0
 11
30.0
 21
22.32
 31
0.0
  0
LINE
  5
A0
100
AcDbEntity
  8
0
  6
CONTINUOUS
 62
               4
100
AcDbLine
 10
8.5
 20
5.2599999999999998
 30
0.0
 11
8.5
 21
-5.2599999999999998
 31
0.0
  0
LINE
  5
A1
100
AcDbEntity
  8
0
  6
CONTINUOUS
 62
               4
100
AcDbLine
 10
-8.5
 20
5.2599999999999998
 30
0.0
 11
-8.5
 21
-5.2599999999999998
 31
0.0
  0
LINE
  5
A2
100
AcDbEntity
  8
0
  6
CONTINUOUS
 62
               7
100
AcDbLine
 10
-15.300000000000001
 20
37.5
 30
0.0
 11
-33.07
 21
37.5
 31
0.0
  0
LINE
  5
A3
100
AcDbEntity
  8
0
  6
CONTINUOUS
 62
               7
100
AcDbLine
 10
11.5
 20
37.5
 30
0.0
 11
-11.5
 21
37.5
 31
0.0
  0
LINE
  5
A4
100
AcDbEntity
  8
0
  6
CONTINUOUS
 62
               7
100
AcDbLine
 10
-15.5
 20
36.5
 30
0.0
 11
-15.5
 21
34.899999999999999
 31
0.0
  0
LINE
  5
A5
100
AcDbEntity
  8
0
  6
CONTINUOUS
 62
               7
100
AcDbLine
 10
-15.0
 20
37.0
 30
0.0
 11
-15.5
 21
36.5
 31
0.0
  0
LINE
  5
A6
100
AcDbEntity
  8
0
  6
CONTINUOUS
 62
               7
100
AcDbLine
 10
-11.800000000000001
 20
37.0
 30
0.0
 11
-11.300000000000001
 21
36.5
 31
0.0
  0
LINE
  5
A7
100
AcDbEntity
  8
0
  6
CONTINUOUS
 62
               7
100
AcDbLine
 10
-15.0
 20
37.200000000000003
 30
0.0
 11
-15.0
 21
37.0
 31
0.0
  0
LINE
  5
A8
100
AcDbEntity
  8
0
  6
CONTINUOUS
 62
               7
100
AcDbLine
 10
-11.300000000000001
 20
36.5
 30
0.0
 11
-11.300000000000001
 21
34.899999999999999
 31
0.0
  0
LINE
  5
A9
100
AcDbEntity
  8
0
  6
CONTINUOUS
 62
               7
100
AcDbLine
 10
-11.800000000000001
 20
37.200000000000003
 30
0.0
 11
-11.800000000000001
 21
37.0
 31
0.0
  0
LINE
  5
AA
100
AcDbEntity
  8
0
  6
CONTINUOUS
 62
               7
100
AcDbLine
 10
11.800000000000001
 20
37.0
 30
0.0
 11
11.300000000000001
 21
36.5
 31
0.0
  0
LINE
  5
AB
100
AcDbEntity
  8
0
  6
CONTINUOUS
 62
               7
100
AcDbLine
 10
15.0
 20
37.0
 30
0.0
 11
15.5
 21
36.5
 31
0.0
  0
LINE
  5
AC
100
AcDbEntity
  8
0
  6
CONTINUOUS
 62
               7
100
AcDbLine
 10
11.800000000000001
 20
37.200000000000003
 30
0.0
 11
11.800000000000001
 21
37.0
 31
0.0
  0
LINE
  5
AD
100
AcDbEntity
  8
0
  6
CONTINUOUS
 62
               7
100
AcDbLine
 10
15.0
 20
37.200000000000003
 30
0.0
 11
15.0
 21
37.0
 31
0.0
  0
LINE
  5
AE
100
AcDbEntity
  8
0
  6
CONTINUOUS
 62
               7
100
AcDbLine
 10
11.300000000000001
 20
36.5
 30
0.0
 11
11.300000000000001
 21
34.899999999999999
 31
0.0
  0
LINE
  5
AF
100
AcDbEntity
  8
0
  6
CONTINUOUS
 62
               7
100
AcDbLine
 10
15.5
 20
36.5
 30
0.0
 11
15.5
 21
34.899999999999999
 31
0.0
  0
LINE
  5
B0
100
AcDbEntity
  8
0
  6
CENTER
 62
               2
100
AcDbLine
 10
0.0
 20
41.060000000000002
 30
0.0
 11
0.0
 21
-41.369999999999997
 31
0.0
  0
LINE
  5
B1
100
AcDbEntity
  8
0
  6
CONTINUOUS
 62
               7
100
AcDbLine
 10
33.07
 20
37.5
 30
0.0
 11
15.300000000000001
 21
37.5
 31
0.0
  0
LINE
  5
B2
100
AcDbEntity
  8
0
  6
CONTINUOUS
 62
               2
100
AcDbLine
 10
-37.310000000000002
 20
-30.0
 30
0.0
 11
-22.34
 21
-30.0
 31
0.0
  0
LINE
  5
B3
100
AcDbEntity
  8
0
  6
CONTINUOUS
 62
               2
100
AcDbLine
 10
-30.0
 20
-22.140000000000001
 30
0.0
 11
-30.0
 21
-37.670000000000002
 31
0.0
  0
LINE
  5
B4
100
AcDbEntity
  8
0
  6
CENTER
 62
               2
100
AcDbLine
 10
22.68
 20
-30.0
 30
0.0
 11
37.649999999999999
 21
-30.0
 31
0.0
  0
LINE
  5
B5
100
AcDbEntity
  8
0
  6
CENTER
 62
               2
100
AcDbLine
 10
30.0
 20
-22.140000000000001
 30
0.0
 11
30.0
 21
-37.670000000000002
 31
0.0
  0
LINE
  5
B6
100
AcDbEntity
  8
0
  6
CONTINUOUS
 62
               7
100
AcDbLine
 10
37.5
 20
10.800000000000001
 30
0.0
 11
37.5
 21
11.5
 31
0.0
  0
LINE
  5
B7
100
AcDbEntity
  8
0
  6
CONTINUOUS
 62
               7
100
AcDbLine
 10
36.5
 20
15.5
 30
0.0
 11
34.899999999999999
 21
15.5
 31
0.0
  0
LINE
  5
B8
100
AcDbEntity
  8
0
  6
CONTINUOUS
 62
               7
100
AcDbLine
 10
37.0
 20
15.0
 30
0.0
 11
36.5
 21
15.5
 31
0.0
  0
LINE
  5
B9
100
AcDbEntity
  8
0
  6
CONTINUOUS
 62
               7
100
AcDbLine
 10
37.5
 20
15.300000000000001
 30
0.0
 11
37.5
 21
33.07
 31
0.0
  0
LINE
  5
BA
100
AcDbEntity
  8
0
  6
CONTINUOUS
 62
               7
100
AcDbLine
 10
37.0
 20
11.800000000000001
 30
0.0
 11
36.5
 21
11.300000000000001
 31
0.0
  0
LINE
  5
BB
100
AcDbEntity
  8
0
  6
CONTINUOUS
 62
               7
100
AcDbLine
 10
37.200000000000003
 20
15.0
 30
0.0
 11
37.0
 21
15.0
 31
0.0
  0
LINE
  5
BC
100
AcDbEntity
  8
0
  6
CONTINUOUS
 62
               7
100
AcDbLine
 10
36.5
 20
11.300000000000001
 30
0.0
 11
34.899999999999999
 21
11.300000000000001
 31
0.0
  0
LINE
  5
BD
100
AcDbEntity
  8
0
  6
CONTINUOUS
 62
               7
100
AcDbLine
 10
37.200000000000003
 20
11.800000000000001
 30
0.0
 11
37.0
 21
11.800000000000001
 31
0.0
  0
LINE
  5
BE
100
AcDbEntity
  8
0
  6
CONTINUOUS
 62
               7
100
AcDbLine
 10
37.0
 20
-11.800000000000001
 30
0.0
 11
36.5
 21
-11.300000000000001
 31
0.0
  0
LINE
  5
BF
100
AcDbEntity
  8
0
  6
CONTINUOUS
 62
               7
100
AcDbLine
 10
37.0
 20
-15.0
 30
0.0
 11
36.5
 21
-15.5
 31
0.0
  0
LINE
  5
C0
100
AcDbEntity
  8
0
  6
CONTINUOUS
 62
               7
100
AcDbLine
 10
37.200000000000003
 20
-11.800000000000001
 30
0.0
 11
37.0
 21
-11.800000000000001
 31
0.0
  0
LINE
  5
C1
100
AcDbEntity
  8
0
  6
CONTINUOUS
 62
               7
100
AcDbLine
 10
37.200000000000003
 20
-15.0
 30
0.0
 11
37.0
 21
-15.0
 31
0.0
  0
LINE
  5
C2
100
AcDbEntity
  8
0
  6
CONTINUOUS
 62
               7
100
AcDbLine
 10
36.5
 20
-11.300000000000001
 30
0.0
 11
34.899999999999999
 21
-11.300000000000001
 31
0.0
  0
LINE
  5
C3
100
AcDbEntity
  8
0
  6
CONTINUOUS
 62
               7
100
AcDbLine
 10
36.5
 20
-15.5
 30
0.0
 11
34.899999999999999
 21
-15.5
 31
0.0
  0
LINE
  5
C4
100
AcDbEntity
  8
0
  6
CONTINUOUS
 62
               7
100
AcDbLine
 10
37.5
 20
-11.5
 30
0.0
 11
37.5
 21
-10.800000000000001
 31
0.0
  0
LINE
  5
C5
100
AcDbEntity
  8
0
  6
CONTINUOUS
 62
               7
100
AcDbLine
 10
37.5
 20
-33.07
 30
0.0
 11
37.5
 21
-15.300000000000001
 31
0.0
  0
LINE
  5
C6
100
AcDbEntity
  8
0
  6
CONTINUOUS
 62
               7
100
AcDbLine
 10
15.5
 20
-36.5
 30
0.0
 11
15.5
 21
-34.899999999999999
 31
0.0
  0
LINE
  5
C7
100
AcDbEntity
  8
0
  6
CONTINUOUS
 62
               7
100
AcDbLine
 10
15.0
 20
-37.0
 30
0.0
 11
15.5
 21
-36.5
 31
0.0
  0
LINE
  5
C8
100
AcDbEntity
  8
0
  6
CONTINUOUS
 62
               7
100
AcDbLine
 10
15.300000000000001
 20
-37.5
 30
0.0
 11
33.07
 21
-37.5
 31
0.0
  0
LINE
  5
C9
100
AcDbEntity
  8
0
  6
CONTINUOUS
 62
               7
100
AcDbLine
 10
11.800000000000001
 20
-37.0
 30
0.0
 11
11.300000000000001
 21
-36.5
 31
0.0
  0
LINE
  5
CA
100
AcDbEntity
  8
0
  6
CONTINUOUS
 62
               7
100
AcDbLine
 10
15.0
 20
-37.200000000000003
 30
0.0
 11
15.0
 21
-37.0
 31
0.0
  0
LINE
  5
CB
100
AcDbEntity
  8
0
  6
CONTINUOUS
 62
               7
100
AcDbLine
 10
11.300000000000001
 20
-36.5
 30
0.0
 11
11.300000000000001
 21
-34.899999999999999
 31
0.0
  0
LINE
  5
CC
100
AcDbEntity
  8
0
  6
CONTINUOUS
 62
               7
100
AcDbLine
 10
11.800000000000001
 20
-37.200000000000003
 30
0.0
 11
11.800000000000001
 21
-37.0
 31
0.0
  0
LINE
  5
CD
100
AcDbEntity
  8
0
  6
CONTINUOUS
 62
               7
100
AcDbLine
 10
-11.800000000000001
 20
-37.0
 30
0.0
 11
-11.300000000000001
 21
-36.5
 31
0.0
  0
LINE
  5
CE
100
AcDbEntity
  8
0
  6
CONTINUOUS
 62
               7
100
AcDbLine
 10
-15.0
 20
-37.0
 30
0.0
 11
-15.5
 21
-36.5
 31
0.0
  0
LINE
  5
CF
100
AcDbEntity
  8
0
  6
CONTINUOUS
 62
               7
100
AcDbLine
 10
-11.800000000000001
 20
-37.200000000000003
 30
0.0
 11
-11.800000000000001
 21
-37.0
 31
0.0
  0
LINE
  5
D0
100
AcDbEntity
  8
0
  6
CONTINUOUS
 62
               7
100
AcDbLine
 10
-15.0
 20
-37.200000000000003
 30
0.0
 11
-15.0
 21
-37.0
 31
0.0
  0
LINE
  5
D1
100
AcDbEntity
  8
0
  6
CONTINUOUS
 62
               7
100
AcDbLine
 10
-11.300000000000001
 20
-36.5
 30
0.0
 11
-11.300000000000001
 21
-34.899999999999999
 31
0.0
  0
LINE
  5
D2
100
AcDbEntity
  8
0
  6
CONTINUOUS
 62
               7
100
AcDbLine
 10
-15.5
 20
-36.5
 30
0.0
 11
-15.5
 21
-34.899999999999999
 31
0.0
  0
LINE
  5
D3
100
AcDbEntity
  8
0
  6
CONTINUOUS
 62
               7
100
AcDbLine
 10
-11.5
 20
-37.5
 30
0.0
 11
11.5
 21
-37.5
 31
0.0
  0
LINE
  5
D4
100
AcDbEntity
  8
0
  6
CONTINUOUS
 62
               7
100
AcDbLine
 10
-33.07
 20
-37.5
 30
0.0
 11
-15.300000000000001
 21
-37.5
 31
0.0
  0
LINE
  5
D5
100
AcDbEntity
  8
0
  6
CONTINUOUS
 62
               7
100
AcDbLine
 10
-36.5
 20
-15.5
 30
0.0
 11
-34.899999999999999
 21
-15.5
 31
0.0
  0
LINE
  5
D6
100
AcDbEntity
  8
0
  6
CONTINUOUS
 62
               7
100
AcDbLine
 10
-37.0
 20
-15.0
 30
0.0
 11
-36.5
 21
-15.5
 31
0.0
  0
LINE
  5
D7
100
AcDbEntity
  8
0
  6
CONTINUOUS
 62
               7
100
AcDbLine
 10
-37.5
 20
-15.300000000000001
 30
0.0
 11
-37.5
 21
-33.07
 31
0.0
  0
LINE
  5
D8
100
AcDbEntity
  8
0
  6
CONTINUOUS
 62
               7
100
AcDbLine
 10
-37.0
 20
-11.800000000000001
 30
0.0
 11
-36.5
 21
-11.300000000000001
 31
0.0
  0
LINE
  5
D9
100
AcDbEntity
  8
0
  6
CONTINUOUS
 62
               7
100
AcDbLine
 10
-37.200000000000003
 20
-15.0
 30
0.0
 11
-37.0
 21
-15.0
 31
0.0
  0
LINE
  5
DA
100
AcDbEntity
  8
0
  6
CONTINUOUS
 62
               7
100
AcDbLine
 10
-36.5
 20
-11.300000000000001
 30
0.0
 11
-34.899999999999999
 21
-11.300000000000001
 31
0.0
  0
LINE
  5
DB
100
AcDbEntity
  8
0
  6
CONTINUOUS
 62
               7
100
AcDbLine
 10
-37.200000000000003
 20
-11.800000000000001
 30
0.0
 11
-37.0
 21
-11.800000000000001
 31
0.0
  0
LINE
  5
DC
100
AcDbEntity
  8
0
  6
CONTINUOUS
 62
               7
100
AcDbLine
 10
-37.0
 20
11.800000000000001
 30
0.0
 11
-36.5
 21
11.300000000000001
 31
0.0
  0
LINE
  5
DD
100
AcDbEntity
  8
0
  6
CONTINUOUS
 62
               7
100
AcDbLine
 10
-37.0
 20
15.0
 30
0.0
 11
-36.5
 21
15.5
 31
0.0
  0
LINE
  5
DE
100
AcDbEntity
  8
0
  6
CONTINUOUS
 62
               7
100
AcDbLine
 10
-37.200000000000003
 20
11.800000000000001
 30
0.0
 11
-37.0
 21
11.800000000000001
 31
0.0
  0
LINE
  5
DF
100
AcDbEntity
  8
0
  6
CONTINUOUS
 62
               7
100
AcDbLine
 10
-37.200000000000003
 20
15.0
 30
0.0
 11
-37.0
 21
15.0
 31
0.0
  0
LINE
  5
E0
100
AcDbEntity
  8
0
  6
CONTINUOUS
 62
               7
100
AcDbLine
 10
-36.5
 20
11.300000000000001
 30
0.0
 11
-34.899999999999999
 21
11.300000000000001
 31
0.0
  0
LINE
  5
E1
100
AcDbEntity
  8
0
  6
CONTINUOUS
 62
               7
100
AcDbLine
 10
-36.5
 20
15.5
 30
0.0
 11
-34.899999999999999
 21
15.5
 31
0.0
  0
LINE
  5
E2
100
AcDbEntity
  8
0
  6
CONTINUOUS
 62
               7
100
AcDbLine
 10
-37.5
 20
11.5
 30
0.0
 11
-37.5
 21
-11.5
 31
0.0
  0
LINE
  5
E3
100
AcDbEntity
  8
0
  6
CONTINUOUS
 62
               7
100
AcDbLine
 10
-37.5
 20
33.07
 30
0.0
 11
-37.5
 21
15.300000000000001
 31
0.0
  0
LINE
  5
E4
100
AcDbEntity
  8
0
  6
CONTINUOUS
 62
               7
100
AcDbLine
 10
45.5
 20
-9.5
 30
0.0
 11
37.5
 21
-10.800000000000001
 31
0.0
  0
LINE
  5
E5
100
AcDbEntity
  8
0
  6
CONTINUOUS
 62
               7
100
AcDbLine
 10
45.5
 20
9.5
 30
0.0
 11
37.5
 21
10.800000000000001
 31
0.0
  0
LINE
  5
E6
100
AcDbEntity
  8
0
  6
CONTINUOUS
 62
               7
100
AcDbLine
 10
45.5
 20
9.5
 30
0.0
 11
45.5
 21
-9.5
 31
0.0
  0
LINE
  5
E7
100
AcDbEntity
  8
0
  6
CENTER
 62
               2
100
AcDbLine
 10
-41.5
 20
0.0
 30
0.0
 11
48.57
 21
0.0
 31
0.0
  0
LINE
  5
E8
100
AcDbEntity
  8
0
  6
CENTER
 62
               2
100
AcDbLine
 10
-37.310000000000002
 20
30.0
 30
0.0
 11
-22.34
 21
30.0
 31
0.0
  0
LINE
  5
E9
100
AcDbEntity
  8
0
  6
CENTER
 62
               2
100
AcDbLine
 10
-30.0
 20
37.850000000000001
 30
0.0
 11
-30.0
 21
22.32
 31
0.0
  0
ENDBLK
  5
EA
100
AcDbEntity
  8
0
100
AcDbBlockEnd
  0
BLOCK
  5
EB
100
AcDbEntity
  8
0
100
AcDbBlockBegin
  2
CBDA63-3
 70
               0
 10
0.0
 20
0.0
 30
0.0
  3
CBDA63-3
  1

  0
CIRCLE
  5
EC
100
AcDbEntity
  8
0
  6
CONTINUOUS
 62
               2
100
AcDbCircle
 10
30.000030517578125
 20
-30.0
 30
0.0
 40
4.0
  0
CIRCLE
  5
ED
100
AcDbEntity
  8
0
  6
CONTINUOUS
 62
               7
100
AcDbCircle
 10
30.000030517578125
 20
-30.000030517578125
 30
0.0
 40
3.375
  0
CIRCLE
  5
EE
100
AcDbEntity
  8
0
  6
CONTINUOUS
 62
               2
100
AcDbCircle
 10
-30.000030517578125
 20
-30.0
 30
0.0
 40
4.0
  0
CIRCLE
  5
EF
100
AcDbEntity
  8
0
  6
CONTINUOUS
 62
               7
100
AcDbCircle
 10
-30.000030517578125
 20
-30.000030517578125
 30
0.0
 40
3.375
  0
CIRCLE
  5
F0
100
AcDbEntity
  8
0
  6
CONTINUOUS
 62
               2
100
AcDbCircle
 10
29.999969482421875
 20
29.999984741210937
 30
0.0
 40
4.0
  0
CIRCLE
  5
F1
100
AcDbEntity
  8
0
  6
CONTINUOUS
 62
               7
100
AcDbCircle
 10
29.999969482421875
 20
29.999954223632813
 30
0.0
 40
3.375
  0
CIRCLE
  5
F2
100
AcDbEntity
  8
0
  6
CONTINUOUS
 62
               2
100
AcDbCircle
 10
-29.999969482421875
 20
29.999984741210937
 30
0.0
 40
4.0
  0
CIRCLE
  5
F3
100
AcDbEntity
  8
0
  6
CONTINUOUS
 62
               7
100
AcDbCircle
 10
-29.999969482421875
 20
29.999954223632813
 30
0.0
 40
3.375
  0
CIRCLE
  5
F4
100
AcDbEntity
  8
0
  6
CONTINUOUS
 62
               7
100
AcDbCircle
 10
-30.0
 20
30.000045776367188
 30
0.0
 40
5.5
  0
CIRCLE
  5
F5
100
AcDbEntity
  8
0
  6
CONTINUOUS
 62
               7
100
AcDbCircle
 10
30.0
 20
-29.999984741210937
 30
0.0
 40
5.5
  0
CIRCLE
  5
F6
100
AcDbEntity
  8
0
  6
CONTINUOUS
 62
               7
100
AcDbCircle
 10
0.0
 20
0.0
 30
0.0
 40
32.5
  0
ARC
  5
F7
100
AcDbEntity
  8
0
  6
CONTINUOUS
 62
               7
100
AcDbCircle
 10
-11.499998474117213
 20
37.199998474117216
 30
0.0
 40
0.3000015258866676
100
AcDbArc
 50
90.000291420663558
 51
179.99970857933644
  0
ARC
  5
F8
100
AcDbEntity
  8
0
  6
CONTINUOUS
 62
               7
100
AcDbCircle
 10
-15.300010681249356
 20
37.199989318750646
 30
0.0
 40
0.3000106814394982
100
AcDbArc
 50
0.0020398957306297
 51
89.997960104269708
  0
ARC
  5
F9
100
AcDbEntity
  8
0
  6
CONTINUOUS
 62
               7
100
AcDbCircle
 10
-13.4
 20
34.899999999999999
 30
0.0
 40
2.100000000019957
100
AcDbArc
 50
180.0
 51
0.0
  0
ARC
  5
FA
100
AcDbEntity
  8
0
  6
CONTINUOUS
 62
               7
100
AcDbCircle
 10
13.4
 20
34.899999999999999
 30
0.0
 40
2.1000000000199566
100
AcDbArc
 50
180.0
 51
0.0
  0
ARC
  5
FB
100
AcDbEntity
  8
0
  6
CONTINUOUS
 62
               7
100
AcDbCircle
 10
11.499983215017711
 20
37.19998321501771
 30
0.0
 40
0.3000167854518236
100
AcDbArc
 50
0.0032055161301787
 51
89.996794483870502
  0
ARC
  5
FC
100
AcDbEntity
  8
0
  6
CONTINUOUS
 62
               7
100
AcDbCircle
 10
15.299995422460293
 20
37.200004577539708
 30
0.0
 40
0.2999954224952177
100
AcDbArc
 50
89.999125740974279
 51
180.00087425902538
  0
ARC
  5
FD
100
AcDbEntity
  8
0
  6
CONTINUOUS
 62
               7
100
AcDbCircle
 10
-0.000030517578125
 20
-0.000030517578125
 30
0.0
 40
49.99870591076219
100
AcDbArc
 50
221.40799344153677
 51
228.5920065584632
  0
ARC
  5
FE
100
AcDbEntity
  8
0
  6
CONTINUOUS
 62
               7
100
AcDbCircle
 10
0.0
 20
0.0
 30
0.0
 40
49.998748984349596
100
AcDbArc
 50
41.407996540086899
 51
48.592003459913109
  0
CIRCLE
  5
FF
100
AcDbEntity
  8
0
  6
CONTINUOUS
 62
               7
100
AcDbCircle
 10
-30.0
 20
-29.999984741210937
 30
0.0
 40
5.5
  0
ARC
  5
100
100
AcDbEntity
  8
0
  6
CONTINUOUS
 62
               7
100
AcDbCircle
 10
-37.20001220703125
 20
15.29998779296875
 30
0.0
 40
0.2999877932171128
100
AcDbArc
 50
179.99766853389684
 51
270.00233146610248
  0
ARC
  5
101
100
AcDbEntity
  8
0
  6
CONTINUOUS
 62
               7
100
AcDbCircle
 10
-34.899999999999999
 20
13.4
 30
0.0
 40
2.1000000001419155
100
AcDbArc
 50
270.0
 51
90.0
  0
ARC
  5
102
100
AcDbEntity
  8
0
  6
CONTINUOUS
 62
               7
100
AcDbCircle
 10
-37.200006103453539
 20
11.500006103453536
 30
0.0
 40
0.2999938966085517
100
AcDbArc
 50
89.998834302523932
 51
180.00116569747604
  0
ARC
  5
103
100
AcDbEntity
  8
0
  6
CONTINUOUS
 62
               7
100
AcDbCircle
 10
-37.200013732906278
 20
-11.500013732906275
 30
0.0
 40
0.2999862674080602
100
AcDbArc
 50
179.99737708803443
 51
270.00262291196555
  0
ARC
  5
104
100
AcDbEntity
  8
0
  6
CONTINUOUS
 62
               7
100
AcDbCircle
 10
-37.199996947854139
 20
-15.300003052145863
 30
0.0
 40
0.3000030521613894
100
AcDbArc
 50
90.000582910991128
 51
179.99941708900923
  0
ARC
  5
105
100
AcDbEntity
  8
0
  6
CONTINUOUS
 62
               7
100
AcDbCircle
 10
-34.899999999999999
 20
-13.4
 30
0.0
 40
2.1000000001419155
100
AcDbArc
 50
270.0
 51
90.0
  0
ARC
  5
106
100
AcDbEntity
  8
0
  6
CONTINUOUS
 62
               7
100
AcDbCircle
 10
-15.300003055250272
 20
-37.199996944749728
 30
0.0
 40
0.3000030552658296
100
AcDbArc
 50
270.00058350387718
 51
359.99941649612214
  0
ARC
  5
107
100
AcDbEntity
  8
0
  6
CONTINUOUS
 62
               7
100
AcDbCircle
 10
-13.4
 20
-34.899999999999999
 30
0.0
 40
2.1000000001419155
100
AcDbArc
 50
0.0
 51
180.0
  0
ARC
  5
108
100
AcDbEntity
  8
0
  6
CONTINUOUS
 62
               7
100
AcDbCircle
 10
-11.500006103453536
 20
-37.200006103453539
 30
0.0
 40
0.2999938966085517
100
AcDbArc
 50
179.99883430252396
 51
270.00116569747604
  0
ARC
  5
109
100
AcDbEntity
  8
0
  6
CONTINUOUS
 62
               7
100
AcDbCircle
 10
11.500006103453536
 20
-37.200006103453539
 30
0.0
 40
0.2999938966085517
100
AcDbArc
 50
269.9988343025239
 51
0.0011656974760504
  0
ARC
  5
10A
100
AcDbEntity
  8
0
  6
CONTINUOUS
 62
               7
100
AcDbCircle
 10
15.29998779296875
 20
-37.20001220703125
 30
0.0
 40
0.2999877932171128
100
AcDbArc
 50
179.99766853389755
 51
270.00233146610316
  0
ARC
  5
10B
100
AcDbEntity
  8
0
  6
CONTINUOUS
 62
               7
100
AcDbCircle
 10
13.4
 20
-34.899999999999999
 30
0.0
 40
2.1000000001419155
100
AcDbArc
 50
0.0
 51
180.0
  0
ARC
  5
10C
100
AcDbEntity
  8
0
  6
CONTINUOUS
 62
               7
100
AcDbCircle
 10
37.20001220703125
 20
-15.29998779296875
 30
0.0
 40
0.2999877932171128
100
AcDbArc
 50
359.99766853389684
 51
90.002331466102476
  0
ARC
  5
10D
100
AcDbEntity
  8
0
  6
CONTINUOUS
 62
               7
100
AcDbCircle
 10
34.899999999999999
 20
-13.4
 30
0.0
 40
2.1000000001419155
100
AcDbArc
 50
90.0
 51
270.0
  0
ARC
  5
10E
100
AcDbEntity
  8
0
  6
CONTINUOUS
 62
               7
100
AcDbCircle
 10
37.200006103453539
 20
-11.500006103453536
 30
0.0
 40
0.2999938966085517
100
AcDbArc
 50
269.9988343025239
 51
0.0011656974760504
  0
ARC
  5
10F
100
AcDbEntity
  8
0
  6
CONTINUOUS
 62
               7
100
AcDbCircle
 10
37.200013732906278
 20
11.500013732906275
 30
0.0
 40
0.2999862674080602
100
AcDbArc
 50
359.99737708803445
 51
90.002622911965574
  0
ARC
  5
110
100
AcDbEntity
  8
0
  6
CONTINUOUS
 62
               7
100
AcDbCircle
 10
37.200004577539708
 20
15.299995422460293
 30
0.0
 40
0.2999954224952177
100
AcDbArc
 50
269.99912574097459
 51
0.0008742590257426
  0
ARC
  5
111
100
AcDbEntity
  8
0
  6
CONTINUOUS
 62
               7
100
AcDbCircle
 10
34.899999999999999
 20
13.4
 30
0.0
 40
2.1000000001419155
100
AcDbArc
 50
90.0
 51
270.0
  0
ARC
  5
112
100
AcDbEntity
  8
0
  6
CONTINUOUS
 62
               7
100
AcDbCircle
 10
0.0
 20
0.0
 30
0.0
 40
49.998748984349596
100
AcDbArc
 50
311.40799654008686
 51
318.59200345991309
  0
ARC
  5
113
100
AcDbEntity
  8
0
  6
CONTINUOUS
 62
               7
100
AcDbCircle
 10
0.0
 20
0.0
 30
0.0
 40
49.998748984349596
100
AcDbArc
 50
131.40799654008688
 51
138.59200345991312
  0
CIRCLE
  5
114
100
AcDbEntity
  8
0
  6
CONTINUOUS
 62
               7
100
AcDbCircle
 10
30.0
 20
30.000045776367188
 30
0.0
 40
5.5
  0
LINE
  5
115
100
AcDbEntity
  8
0
  6
CENTER
 62
               2
100
AcDbLine
 10
-37.310000000000002
 20
30.0
 30
0.0
 11
-22.34
 21
30.0
 31
0.0
  0
LINE
  5
116
100
AcDbEntity
  8
0
  6
CENTER
 62
               2
100
AcDbLine
 10
-30.0
 20
37.850000000000001
 30
0.0
 11
-30.0
 21
22.32
 31
0.0
  0
LINE
  5
117
100
AcDbEntity
  8
0
  6
CENTER
 62
               2
100
AcDbLine
 10
22.68
 20
-30.0
 30
0.0
 11
37.649999999999999
 21
-30.0
 31
0.0
  0
LINE
  5
118
100
AcDbEntity
  8
0
  6
CENTER
 62
               2
100
AcDbLine
 10
30.0
 20
-22.140000000000001
 30
0.0
 11
30.0
 21
-37.670000000000002
 31
0.0
  0
LINE
  5
119
100
AcDbEntity
  8
0
  6
CONTINUOUS
 62
               7
100
AcDbLine
 10
15.300000000000001
 20
37.5
 30
0.0
 11
33.07
 21
37.5
 31
0.0
  0
LINE
  5
11A
100
AcDbEntity
  8
0
  6
CONTINUOUS
 62
               7
100
AcDbLine
 10
-11.5
 20
37.5
 30
0.0
 11
11.5
 21
37.5
 31
0.0
  0
LINE
  5
11B
100
AcDbEntity
  8
0
  6
CONTINUOUS
 62
               7
100
AcDbLine
 10
15.5
 20
36.5
 30
0.0
 11
15.5
 21
34.899999999999999
 31
0.0
  0
LINE
  5
11C
100
AcDbEntity
  8
0
  6
CONTINUOUS
 62
               7
100
AcDbLine
 10
15.0
 20
37.0
 30
0.0
 11
15.5
 21
36.5
 31
0.0
  0
LINE
  5
11D
100
AcDbEntity
  8
0
  6
CONTINUOUS
 62
               7
100
AcDbLine
 10
11.800000000000001
 20
37.0
 30
0.0
 11
11.300000000000001
 21
36.5
 31
0.0
  0
LINE
  5
11E
100
AcDbEntity
  8
0
  6
CONTINUOUS
 62
               7
100
AcDbLine
 10
15.0
 20
37.200000000000003
 30
0.0
 11
15.0
 21
37.0
 31
0.0
  0
LINE
  5
11F
100
AcDbEntity
  8
0
  6
CONTINUOUS
 62
               7
100
AcDbLine
 10
11.300000000000001
 20
36.5
 30
0.0
 11
11.300000000000001
 21
34.899999999999999
 31
0.0
  0
LINE
  5
120
100
AcDbEntity
  8
0
  6
CONTINUOUS
 62
               7
100
AcDbLine
 10
11.800000000000001
 20
37.200000000000003
 30
0.0
 11
11.800000000000001
 21
37.0
 31
0.0
  0
LINE
  5
121
100
AcDbEntity
  8
0
  6
CONTINUOUS
 62
               7
100
AcDbLine
 10
-11.800000000000001
 20
37.0
 30
0.0
 11
-11.300000000000001
 21
36.5
 31
0.0
  0
LINE
  5
122
100
AcDbEntity
  8
0
  6
CONTINUOUS
 62
               7
100
AcDbLine
 10
-15.0
 20
37.0
 30
0.0
 11
-15.5
 21
36.5
 31
0.0
  0
LINE
  5
123
100
AcDbEntity
  8
0
  6
CONTINUOUS
 62
               7
100
AcDbLine
 10
-11.800000000000001
 20
37.200000000000003
 30
0.0
 11
-11.800000000000001
 21
37.0
 31
0.0
  0
LINE
  5
124
100
AcDbEntity
  8
0
  6
CONTINUOUS
 62
               7
100
AcDbLine
 10
-15.0
 20
37.200000000000003
 30
0.0
 11
-15.0
 21
37.0
 31
0.0
  0
LINE
  5
125
100
AcDbEntity
  8
0
  6
CONTINUOUS
 62
               7
100
AcDbLine
 10
-11.300000000000001
 20
36.5
 30
0.0
 11
-11.300000000000001
 21
34.899999999999999
 31
0.0
  0
LINE
  5
126
100
AcDbEntity
  8
0
  6
CONTINUOUS
 62
               7
100
AcDbLine
 10
-15.5
 20
36.5
 30
0.0
 11
-15.5
 21
34.899999999999999
 31
0.0
  0
LINE
  5
127
100
AcDbEntity
  8
0
  6
CENTER
 62
               2
100
AcDbLine
 10
0.0
 20
41.060000000000002
 30
0.0
 11
0.0
 21
-41.369999999999997
 31
0.0
  0
LINE
  5
128
100
AcDbEntity
  8
0
  6
CONTINUOUS
 62
               7
100
AcDbLine
 10
-33.07
 20
37.5
 30
0.0
 11
-15.300000000000001
 21
37.5
 31
0.0
  0
LINE
  5
129
100
AcDbEntity
  8
0
  6
CENTER
 62
               2
100
AcDbLine
 10
-22.68
 20
-30.0
 30
0.0
 11
-37.649999999999999
 21
-30.0
 31
0.0
  0
LINE
  5
12A
100
AcDbEntity
  8
0
  6
CENTER
 62
               2
100
AcDbLine
 10
-30.0
 20
-22.140000000000001
 30
0.0
 11
-30.0
 21
-37.670000000000002
 31
0.0
  0
LINE
  5
12B
100
AcDbEntity
  8
0
  6
CONTINUOUS
 62
               7
100
AcDbLine
 10
-37.5
 20
10.800000000000001
 30
0.0
 11
-37.5
 21
11.5
 31
0.0
  0
LINE
  5
12C
100
AcDbEntity
  8
0
  6
CONTINUOUS
 62
               7
100
AcDbLine
 10
-36.5
 20
15.5
 30
0.0
 11
-34.899999999999999
 21
15.5
 31
0.0
  0
LINE
  5
12D
100
AcDbEntity
  8
0
  6
CONTINUOUS
 62
               7
100
AcDbLine
 10
-37.0
 20
15.0
 30
0.0
 11
-36.5
 21
15.5
 31
0.0
  0
LINE
  5
12E
100
AcDbEntity
  8
0
  6
CONTINUOUS
 62
               7
100
AcDbLine
 10
-37.5
 20
15.300000000000001
 30
0.0
 11
-37.5
 21
33.07
 31
0.0
  0
LINE
  5
12F
100
AcDbEntity
  8
0
  6
CONTINUOUS
 62
               7
100
AcDbLine
 10
-37.0
 20
11.800000000000001
 30
0.0
 11
-36.5
 21
11.300000000000001
 31
0.0
  0
LINE
  5
130
100
AcDbEntity
  8
0
  6
CONTINUOUS
 62
               7
100
AcDbLine
 10
-37.200000000000003
 20
15.0
 30
0.0
 11
-37.0
 21
15.0
 31
0.0
  0
LINE
  5
131
100
AcDbEntity
  8
0
  6
CONTINUOUS
 62
               7
100
AcDbLine
 10
-36.5
 20
11.300000000000001
 30
0.0
 11
-34.899999999999999
 21
11.300000000000001
 31
0.0
  0
LINE
  5
132
100
AcDbEntity
  8
0
  6
CONTINUOUS
 62
               7
100
AcDbLine
 10
-37.200000000000003
 20
11.800000000000001
 30
0.0
 11
-37.0
 21
11.800000000000001
 31
0.0
  0
LINE
  5
133
100
AcDbEntity
  8
0
  6
CONTINUOUS
 62
               7
100
AcDbLine
 10
-37.0
 20
-11.800000000000001
 30
0.0
 11
-36.5
 21
-11.300000000000001
 31
0.0
  0
LINE
  5
134
100
AcDbEntity
  8
0
  6
CONTINUOUS
 62
               7
100
AcDbLine
 10
-37.0
 20
-15.0
 30
0.0
 11
-36.5
 21
-15.5
 31
0.0
  0
LINE
  5
135
100
AcDbEntity
  8
0
  6
CONTINUOUS
 62
               7
100
AcDbLine
 10
-37.200000000000003
 20
-11.800000000000001
 30
0.0
 11
-37.0
 21
-11.800000000000001
 31
0.0
  0
LINE
  5
136
100
AcDbEntity
  8
0
  6
CONTINUOUS
 62
               7
100
AcDbLine
 10
-37.200000000000003
 20
-15.0
 30
0.0
 11
-37.0
 21
-15.0
 31
0.0
  0
LINE
  5
137
100
AcDbEntity
  8
0
  6
CONTINUOUS
 62
               7
100
AcDbLine
 10
-36.5
 20
-11.300000000000001
 30
0.0
 11
-34.899999999999999
 21
-11.300000000000001
 31
0.0
  0
LINE
  5
138
100
AcDbEntity
  8
0
  6
CONTINUOUS
 62
               7
100
AcDbLine
 10
-36.5
 20
-15.5
 30
0.0
 11
-34.899999999999999
 21
-15.5
 31
0.0
  0
LINE
  5
139
100
AcDbEntity
  8
0
  6
CONTINUOUS
 62
               7
100
AcDbLine
 10
-37.5
 20
-11.5
 30
0.0
 11
-37.5
 21
-10.800000000000001
 31
0.0
  0
LINE
  5
13A
100
AcDbEntity
  8
0
  6
CONTINUOUS
 62
               7
100
AcDbLine
 10
-37.5
 20
-33.07
 30
0.0
 11
-37.5
 21
-15.300000000000001
 31
0.0
  0
LINE
  5
13B
100
AcDbEntity
  8
0
  6
CONTINUOUS
 62
               7
100
AcDbLine
 10
-15.5
 20
-36.5
 30
0.0
 11
-15.5
 21
-34.899999999999999
 31
0.0
  0
LINE
  5
13C
100
AcDbEntity
  8
0
  6
CONTINUOUS
 62
               7
100
AcDbLine
 10
-15.0
 20
-37.0
 30
0.0
 11
-15.5
 21
-36.5
 31
0.0
  0
LINE
  5
13D
100
AcDbEntity
  8
0
  6
CONTINUOUS
 62
               7
100
AcDbLine
 10
-15.300000000000001
 20
-37.5
 30
0.0
 11
-33.07
 21
-37.5
 31
0.0
  0
LINE
  5
13E
100
AcDbEntity
  8
0
  6
CONTINUOUS
 62
               7
100
AcDbLine
 10
-11.800000000000001
 20
-37.0
 30
0.0
 11
-11.300000000000001
 21
-36.5
 31
0.0
  0
LINE
  5
13F
100
AcDbEntity
  8
0
  6
CONTINUOUS
 62
               7
100
AcDbLine
 10
-15.0
 20
-37.200000000000003
 30
0.0
 11
-15.0
 21
-37.0
 31
0.0
  0
LINE
  5
140
100
AcDbEntity
  8
0
  6
CONTINUOUS
 62
               7
100
AcDbLine
 10
-11.300000000000001
 20
-36.5
 30
0.0
 11
-11.300000000000001
 21
-34.899999999999999
 31
0.0
  0
LINE
  5
141
100
AcDbEntity
  8
0
  6
CONTINUOUS
 62
               7
100
AcDbLine
 10
-11.800000000000001
 20
-37.200000000000003
 30
0.0
 11
-11.800000000000001
 21
-37.0
 31
0.0
  0
LINE
  5
142
100
AcDbEntity
  8
0
  6
CONTINUOUS
 62
               7
100
AcDbLine
 10
11.800000000000001
 20
-37.0
 30
0.0
 11
11.300000000000001
 21
-36.5
 31
0.0
  0
LINE
  5
143
100
AcDbEntity
  8
0
  6
CONTINUOUS
 62
               7
100
AcDbLine
 10
15.0
 20
-37.0
 30
0.0
 11
15.5
 21
-36.5
 31
0.0
  0
LINE
  5
144
100
AcDbEntity
  8
0
  6
CONTINUOUS
 62
               7
100
AcDbLine
 10
11.800000000000001
 20
-37.200000000000003
 30
0.0
 11
11.800000000000001
 21
-37.0
 31
0.0
  0
LINE
  5
145
100
AcDbEntity
  8
0
  6
CONTINUOUS
 62
               7
100
AcDbLine
 10
15.0
 20
-37.200000000000003
 30
0.0
 11
15.0
 21
-37.0
 31
0.0
  0
LINE
  5
146
100
AcDbEntity
  8
0
  6
CONTINUOUS
 62
               7
100
AcDbLine
 10
11.300000000000001
 20
-36.5
 30
0.0
 11
11.300000000000001
 21
-34.899999999999999
 31
0.0
  0
LINE
  5
147
100
AcDbEntity
  8
0
  6
CONTINUOUS
 62
               7
100
AcDbLine
 10
15.5
 20
-36.5
 30
0.0
 11
15.5
 21
-34.899999999999999
 31
0.0
  0
LINE
  5
148
100
AcDbEntity
  8
0
  6
CONTINUOUS
 62
               7
100
AcDbLine
 10
11.5
 20
-37.5
 30
0.0
 11
-11.5
 21
-37.5
 31
0.0
  0
LINE
  5
149
100
AcDbEntity
  8
0
  6
CONTINUOUS
 62
               7
100
AcDbLine
 10
33.07
 20
-37.5
 30
0.0
 11
15.300000000000001
 21
-37.5
 31
0.0
  0
LINE
  5
14A
100
AcDbEntity
  8
0
  6
CONTINUOUS
 62
               7
100
AcDbLine
 10
36.5
 20
-15.5
 30
0.0
 11
34.899999999999999
 21
-15.5
 31
0.0
  0
LINE
  5
14B
100
AcDbEntity
  8
0
  6
CONTINUOUS
 62
               7
100
AcDbLine
 10
37.0
 20
-15.0
 30
0.0
 11
36.5
 21
-15.5
 31
0.0
  0
LINE
  5
14C
100
AcDbEntity
  8
0
  6
CONTINUOUS
 62
               7
100
AcDbLine
 10
37.5
 20
-15.300000000000001
 30
0.0
 11
37.5
 21
-33.07
 31
0.0
  0
LINE
  5
14D
100
AcDbEntity
  8
0
  6
CONTINUOUS
 62
               7
100
AcDbLine
 10
37.0
 20
-11.800000000000001
 30
0.0
 11
36.5
 21
-11.300000000000001
 31
0.0
  0
LINE
  5
14E
100
AcDbEntity
  8
0
  6
CONTINUOUS
 62
               7
100
AcDbLine
 10
37.200000000000003
 20
-15.0
 30
0.0
 11
37.0
 21
-15.0
 31
0.0
  0
LINE
  5
14F
100
AcDbEntity
  8
0
  6
CONTINUOUS
 62
               7
100
AcDbLine
 10
36.5
 20
-11.300000000000001
 30
0.0
 11
34.899999999999999
 21
-11.300000000000001
 31
0.0
  0
LINE
  5
150
100
AcDbEntity
  8
0
  6
CONTINUOUS
 62
               7
100
AcDbLine
 10
37.200000000000003
 20
-11.800000000000001
 30
0.0
 11
37.0
 21
-11.800000000000001
 31
0.0
  0
LINE
  5
151
100
AcDbEntity
  8
0
  6
CONTINUOUS
 62
               7
100
AcDbLine
 10
37.0
 20
11.800000000000001
 30
0.0
 11
36.5
 21
11.300000000000001
 31
0.0
  0
LINE
  5
152
100
AcDbEntity
  8
0
  6
CONTINUOUS
 62
               7
100
AcDbLine
 10
37.0
 20
15.0
 30
0.0
 11
36.5
 21
15.5
 31
0.0
  0
LINE
  5
153
100
AcDbEntity
  8
0
  6
CONTINUOUS
 62
               7
100
AcDbLine
 10
37.200000000000003
 20
11.800000000000001
 30
0.0
 11
37.0
 21
11.800000000000001
 31
0.0
  0
LINE
  5
154
100
AcDbEntity
  8
0
  6
CONTINUOUS
 62
               7
100
AcDbLine
 10
37.200000000000003
 20
15.0
 30
0.0
 11
37.0
 21
15.0
 31
0.0
  0
LINE
  5
155
100
AcDbEntity
  8
0
  6
CONTINUOUS
 62
               7
100
AcDbLine
 10
36.5
 20
11.300000000000001
 30
0.0
 11
34.899999999999999
 21
11.300000000000001
 31
0.0
  0
LINE
  5
156
100
AcDbEntity
  8
0
  6
CONTINUOUS
 62
               7
100
AcDbLine
 10
36.5
 20
15.5
 30
0.0
 11
34.899999999999999
 21
15.5
 31
0.0
  0
LINE
  5
157
100
AcDbEntity
  8
0
  6
CONTINUOUS
 62
               7
100
AcDbLine
 10
37.5
 20
11.5
 30
0.0
 11
37.5
 21
-11.5
 31
0.0
  0
LINE
  5
158
100
AcDbEntity
  8
0
  6
CONTINUOUS
 62
               7
100
AcDbLine
 10
37.5
 20
33.07
 30
0.0
 11
37.5
 21
15.300000000000001
 31
0.0
  0
LINE
  5
159
100
AcDbEntity
  8
0
  6
CONTINUOUS
 62
               7
100
AcDbLine
 10
-45.5
 20
-9.5
 30
0.0
 11
-37.5
 21
-10.800000000000001
 31
0.0
  0
LINE
  5
15A
100
AcDbEntity
  8
0
  6
CONTINUOUS
 62
               7
100
AcDbLine
 10
-45.5
 20
9.5
 30
0.0
 11
-37.5
 21
10.800000000000001
 31
0.0
  0
LINE
  5
15B
100
AcDbEntity
  8
0
  6
CONTINUOUS
 62
               7
100
AcDbLine
 10
-45.5
 20
9.5
 30
0.0
 11
-45.5
 21
-9.5
 31
0.0
  0
LINE
  5
15C
100
AcDbEntity
  8
0
  6
CENTER
 62
               2
100
AcDbLine
 10
41.5
 20
0.0
 30
0.0
 11
-48.57
 21
0.0
 31
0.0
  0
LINE
  5
15D
100
AcDbEntity
  8
0
  6
CENTER
 62
               2
100
AcDbLine
 10
37.310000000000002
 20
30.0
 30
0.0
 11
22.34
 21
30.0
 31
0.0
  0
LINE
  5
15E
100
AcDbEntity
  8
0
  6
CENTER
 62
               2
100
AcDbLine
 10
30.0
 20
37.850000000000001
 30
0.0
 11
30.0
 21
22.32
 31
0.0
  0
ENDBLK
  5
15F
100
AcDbEntity
  8
0
100
AcDbBlockEnd
  0
BLOCK
  5
160
100
AcDbEntity
  8
0
100
AcDbBlockBegin
  2
CBDA63-4
 70
               0
 10
0.0
 20
0.0
 30
0.0
  3
CBDA63-4
  1

  0
LINE
  5
161
100
AcDbEntity
  8
0
  6
CENTER
 62
               2
100
AcDbLine
 10
-4.96
 20
30.0
 30
0.0
 11
53.200000000000003
 21
30.0
 31
0.0
  0
LINE
  5
162
100
AcDbEntity
  8
0
  6
CENTER
 62
               2
100
AcDbLine
 10
-4.96
 20
-30.0
 30
0.0
 11
53.200000000000003
 21
-30.0
 31
0.0
  0
LINE
  5
163
100
AcDbEntity
  8
0
  6
PHANTOM
 62
               3
100
AcDbLine
 10
24.0
 20
44.390000000000001
 30
0.0
 11
24.0
 21
-55.57
 31
0.0
  0
LINE
  5
164
100
AcDbEntity
  8
0
  6
CONTINUOUS
 62
               4
100
AcDbLine
 10
-7.2599999999999998
 20
8.5
 30
0.0
 11
-7.2599999999999998
 21
-8.5
 31
0.0
  0
LINE
  5
165
100
AcDbEntity
  8
0
  6
CONTINUOUS
 62
               4
100
AcDbLine
 10
-4.5
 20
-10.0
 30
0.0
 11
0.0
 21
-10.0
 31
0.0
  0
LINE
  5
166
100
AcDbEntity
  8
0
  6
CONTINUOUS
 62
               4
100
AcDbLine
 10
-6.0
 20
-8.5
 30
0.0
 11
-4.5
 21
-10.0
 31
0.0
  0
LINE
  5
167
100
AcDbEntity
  8
0
  6
CONTINUOUS
 62
               4
100
AcDbLine
 10
-9.0
 20
-8.5
 30
0.0
 11
-6.0
 21
-8.5
 31
0.0
  0
LINE
  5
168
100
AcDbEntity
  8
0
  6
CONTINUOUS
 62
               4
100
AcDbLine
 10
-6.0
 20
8.5
 30
0.0
 11
-4.5
 21
10.0
 31
0.0
  0
LINE
  5
169
100
AcDbEntity
  8
0
  6
CONTINUOUS
 62
               4
100
AcDbLine
 10
-9.0
 20
8.5
 30
0.0
 11
-6.0
 21
8.5
 31
0.0
  0
LINE
  5
16A
100
AcDbEntity
  8
0
  6
CONTINUOUS
 62
               4
100
AcDbLine
 10
-4.5
 20
10.0
 30
0.0
 11
0.0
 21
10.0
 31
0.0
  0
LINE
  5
16B
100
AcDbEntity
  8
0
  6
CONTINUOUS
 62
               4
100
AcDbLine
 10
-9.0
 20
-8.5
 30
0.0
 11
-9.0
 21
8.5
 31
0.0
  0
LINE
  5
16C
100
AcDbEntity
  8
0
  6
CENTER
 62
               2
100
AcDbLine
 10
36.0
 20
-40.5
 30
0.0
 11
36.0
 21
-50.5
 31
0.0
  0
LINE
  5
16D
100
AcDbEntity
  8
0
  6
CENTER
 62
               2
100
AcDbLine
 10
12.5
 20
-40.5
 30
0.0
 11
12.5
 21
-50.5
 31
0.0
  0
LINE
  5
16E
100
AcDbEntity
  8
0
  6
CONTINUOUS
 62
               7
100
AcDbLine
 10
0.0
 20
-45.5
 30
0.0
 11
47.0
 21
-45.5
 31
0.0
  0
LINE
  5
16F
100
AcDbEntity
  8
0
  6
CONTINUOUS
 62
               7
100
AcDbLine
 10
0.0
 20
-33.07
 30
0.0
 11
47.0
 21
-33.07
 31
0.0
  0
LINE
  5
170
100
AcDbEntity
  8
0
  6
CONTINUOUS
 62
               7
100
AcDbLine
 10
0.0
 20
37.5
 30
0.0
 11
0.0
 21
-45.5
 31
0.0
  0
LINE
  5
171
100
AcDbEntity
  8
0
  6
CONTINUOUS
 62
               7
100
AcDbLine
 10
0.0
 20
33.07
 30
0.0
 11
47.0
 21
33.07
 31
0.0
  0
LINE
  5
172
100
AcDbEntity
  8
0
  6
CONTINUOUS
 62
               7
100
AcDbLine
 10
0.0
 20
-15.0
 30
0.0
 11
47.0
 21
-15.0
 31
0.0
  0
LINE
  5
173
100
AcDbEntity
  8
0
  6
CONTINUOUS
 62
               7
100
AcDbLine
 10
0.0
 20
-11.800000000000001
 30
0.0
 11
47.0
 21
-11.800000000000001
 31
0.0
  0
LINE
  5
174
100
AcDbEntity
  8
0
  6
CONTINUOUS
 62
               7
100
AcDbLine
 10
0.0
 20
11.800000000000001
 30
0.0
 11
47.0
 21
11.800000000000001
 31
0.0
  0
LINE
  5
175
100
AcDbEntity
  8
0
  6
CONTINUOUS
 62
               7
100
AcDbLine
 10
0.0
 20
15.0
 30
0.0
 11
47.0
 21
15.0
 31
0.0
  0
LINE
  5
176
100
AcDbEntity
  8
0
  6
CONTINUOUS
 62
               7
100
AcDbLine
 10
0.0
 20
37.5
 30
0.0
 11
47.0
 21
37.5
 31
0.0
  0
LINE
  5
177
100
AcDbEntity
  8
0
  6
CONTINUOUS
 62
               7
100
AcDbLine
 10
0.0
 20
-37.5
 30
0.0
 11
47.0
 21
-37.5
 31
0.0
  0
LINE
  5
178
100
AcDbEntity
  8
0
  6
CONTINUOUS
 62
               7
100
AcDbLine
 10
47.0
 20
37.5
 30
0.0
 11
47.0
 21
-45.5
 31
0.0
  0
LINE
  5
179
100
AcDbEntity
  8
0
  6
CENTER
 62
               2
100
AcDbLine
 10
-14.970000000000001
 20
0.0
 30
0.0
 11
53.200000000000003
 21
0.0
 31
0.0
  0
ENDBLK
  5
17A
100
AcDbEntity
  8
0
100
AcDbBlockEnd
  0
BLOCK
  5
17B
100
AcDbEntity
  8
0
100
AcDbBlockBegin
  2
CBDA63-5
 70
               0
 10
0.0
 20
0.0
 30
0.0
  3
CBDA63-5
  1

  0
SPLINE
  5
17C
100
AcDbEntity
  8
0
  6
CONTINUOUS
 62
               4
100
AcDbSpline
210
0.0
220
0.0
230
1.0
 70
               0
 71
               3
 72
               0
 73
               0
 74
               5
 44
0.000001
 12
0.494871835337217
 22
-0.8689659755076573
 32
0.0
 13
-0.4948718409836656
 23
-0.8689659722920327
 33
0.0
 11
-6.0
 21
5.2599999999999998
 31
0.0
 11
-4.9111849140291692
 21
2.7253078748714228
 31
0.0
 11
-4.5
 21
0.0
 31
0.0
 11
-4.9111843744549279
 21
-2.7253074134361177
 31
0.0
 11
-6.0
 21
-5.2600000000000016
 31
0.0
  0
SPLINE
  5
17D
100
AcDbEntity
  8
0
  6
CONTINUOUS
 62
               4
100
AcDbSpline
210
0.0
220
0.0
230
1.0
 70
               0
 71
               3
 72
               0
 73
               0
 74
               5
 44
0.000001
 12
0.5262028541908831
 22
0.850359074886232
 32
0.0
 13
-0.5262028643350745
 23
0.8503590686089984
 33
0.0
 11
-20.199999999999999
 21
-15.58
 31
0.0
 11
-19.33167705376561
 21
-13.714085919249744
 31
0.0
 11
-19.0
 21
-11.69
 31
0.0
 11
-19.33167706523999
 21
-9.6597104512322201
 31
0.0
 11
-20.199999999999999
 21
-7.7899999999999991
 31
0.0
  0
SPLINE
  5
17E
100
AcDbEntity
  8
0
  6
CONTINUOUS
 62
               4
100
AcDbSpline
210
0.0
220
0.0
230
1.0
 70
               0
 71
               3
 72
               0
 73
               0
 74
               5
 44
0.000001
 12
0.5262028643350746
 22
-0.8503590686089984
 32
0.0
 13
-0.5262028541908828
 23
-0.8503590748862321
 33
0.0
 11
-20.199999999999999
 21
15.58
 31
0.0
 11
-19.331677056967074
 21
13.714071347245683
 31
0.0
 11
-19.0
 21
11.69
 31
0.0
 11
-19.331677062038526
 21
9.6597250909519001
 31
0.0
 11
-20.199999999999999
 21
7.7899999999999991
 31
0.0
  0
SPLINE
  5
17F
100
AcDbEntity
  8
0
  6
CONTINUOUS
 62
               4
100
AcDbSpline
210
0.0
220
0.0
230
1.0
 70
               0
 71
               3
 72
               0
 73
               0
 74
               5
 44
0.000001
 12
-0.5262034978056727
 22
-0.8503586766165648
 32
0.0
 13
0.5262034876523883
 23
-0.8503586828994355
 33
0.0
 11
-28.789999999999999
 21
15.58
 31
0.0
 11
-29.663323278012964
 21
13.714073111525156
 31
0.0
 11
-30.0
 21
11.69
 31
0.0
 11
-29.663323284604989
 21
9.659725068715721
 31
0.0
 11
-28.789999999999999
 21
7.7900000000000009
 31
0.0
  0
SPLINE
  5
180
100
AcDbEntity
  8
0
  6
CONTINUOUS
 62
               4
100
AcDbSpline
210
0.0
220
0.0
230
1.0
 70
               0
 71
               3
 72
               0
 73
               0
 74
               5
 44
0.000001
 12
0.2955761072252237
 22
-0.9553191952628101
 32
0.0
 13
-0.2955761014678998
 23
-0.9553191970441282
 33
0.0
 11
-20.199999999999999
 21
7.79
 31
0.0
 11
-19.308601079593636
 21
3.9436833403179072
 31
0.0
 11
-19.0
 21
0.0
 31
0.0
 11
-19.308601069340018
 21
-3.9436833163345182
 31
0.0
 11
-20.199999999999999
 21
-7.7899999999999991
 31
0.0
  0
SPLINE
  5
181
100
AcDbEntity
  8
0
  6
CONTINUOUS
 62
               4
100
AcDbSpline
210
0.0
220
0.0
230
1.0
 70
               0
 71
               3
 72
               0
 73
               0
 74
               5
 44
0.000001
 12
-0.2955765189704644
 22
-0.9553190678685853
 32
0.0
 13
0.2955765676074231
 23
-0.9553190528202683
 33
0.0
 11
-28.789999999999999
 21
7.79
 31
0.0
 11
-29.686399393109895
 21
3.9436833969538339
 31
0.0
 11
-30.0
 21
0.0
 31
0.0
 11
-29.686399421241497
 21
-3.9436834868391752
 31
0.0
 11
-28.789999999999999
 21
-7.7900000000000045
 31
0.0
  0
SPLINE
  5
182
100
AcDbEntity
  8
0
  6
CONTINUOUS
 62
               4
100
AcDbSpline
210
0.0
220
0.0
230
1.0
 70
               0
 71
               3
 72
               0
 73
               0
 74
               5
 44
0.000001
 12
-0.5262034876523885
 22
0.8503586828994355
 32
0.0
 13
0.5262034978056726
 23
0.8503586766165648
 33
0.0
 11
-28.789999999999999
 21
-15.58
 31
0.0
 11
-29.663323281243407
 21
-13.714087683519059
 31
0.0
 11
-30.0
 21
-11.69
 31
0.0
 11
-29.663323281374545
 21
-9.6597104289408655
 31
0.0
 11
-28.789999999999999
 21
-7.7899999999999991
 31
0.0
  0
LINE
  5
183
100
AcDbEntity
  8
0
  6
CONTINUOUS
 62
               4
100
AcDbLine
 10
-9.0
 20
-5.2599999999999998
 30
0.0
 11
-6.0
 21
-5.2599999999999998
 31
0.0
  0
LINE
  5
184
100
AcDbEntity
  8
0
  6
CONTINUOUS
 62
               4
100
AcDbLine
 10
-6.0
 20
5.2599999999999998
 30
0.0
 11
-6.0
 21
-5.2599999999999998
 31
0.0
  0
LINE
  5
185
100
AcDbEntity
  8
0
  6
CONTINUOUS
 62
             200
100
AcDbLine
 10
-9.0
 20
-5.2599999999999998
 30
0.0
 11
-6.0
 21
5.2599999999999998
 31
0.0
  0
LINE
  5
186
100
AcDbEntity
  8
0
  6
CONTINUOUS
 62
             200
100
AcDbLine
 10
-9.0
 20
5.2599999999999998
 30
0.0
 11
-6.0
 21
-5.2599999999999998
 31
0.0
  0
LINE
  5
187
100
AcDbEntity
  8
0
  6
CONTINUOUS
 62
               4
100
AcDbLine
 10
-9.0
 20
5.2599999999999998
 30
0.0
 11
-6.0
 21
5.2599999999999998
 31
0.0
  0
LINE
  5
188
100
AcDbEntity
  8
0
  6
CONTINUOUS
 62
             200
100
AcDbLine
 10
-12.0
 20
8.0
 30
0.0
 11
-10.26
 21
9.0
 31
0.0
  0
LINE
  5
189
100
AcDbEntity
  8
0
  6
CONTINUOUS
 62
             200
100
AcDbLine
 10
-12.0
 20
-8.0
 30
0.0
 11
-10.26
 21
-9.0
 31
0.0
  0
LINE
  5
18A
100
AcDbEntity
  8
0
  6
CONTINUOUS
 62
             200
100
AcDbLine
 10
-37.0
 20
-8.0
 30
0.0
 11
-30.0
 21
-8.0
 31
0.0
  0
LINE
  5
18B
100
AcDbEntity
  8
0
  6
CONTINUOUS
 62
             200
100
AcDbLine
 10
-19.0
 20
-8.0
 30
0.0
 11
-12.0
 21
-8.0
 31
0.0
  0
LINE
  5
18C
100
AcDbEntity
  8
0
  6
CONTINUOUS
 62
             200
100
AcDbLine
 10
-19.0
 20
8.0
 30
0.0
 11
-12.0
 21
8.0
 31
0.0
  0
LINE
  5
18D
100
AcDbEntity
  8
0
  6
CONTINUOUS
 62
             200
100
AcDbLine
 10
-37.0
 20
8.0
 30
0.0
 11
-30.0
 21
8.0
 31
0.0
  0
LINE
  5
18E
100
AcDbEntity
  8
0
  6
CONTINUOUS
 62
               4
100
AcDbLine
 10
-19.0
 20
-9.0
 30
0.0
 11
-9.0
 21
-9.0
 31
0.0
  0
LINE
  5
18F
100
AcDbEntity
  8
0
  6
CONTINUOUS
 62
               4
100
AcDbLine
 10
-20.199999999999999
 20
-15.58
 30
0.0
 11
-19.0
 21
-13.5
 31
0.0
  0
LINE
  5
190
100
AcDbEntity
  8
0
  6
CONTINUOUS
 62
               4
100
AcDbLine
 10
-28.789999999999999
 20
-7.79
 30
0.0
 11
-20.199999999999999
 21
-7.79
 31
0.0
  0
LINE
  5
191
100
AcDbEntity
  8
0
  6
CONTINUOUS
 62
               4
100
AcDbLine
 10
-28.789999999999999
 20
-15.58
 30
0.0
 11
-20.199999999999999
 21
-15.58
 31
0.0
  0
LINE
  5
192
100
AcDbEntity
  8
0
  6
CONTINUOUS
 62
               4
100
AcDbLine
 10
-30.0
 20
-13.5
 30
0.0
 11
-28.789999999999999
 21
-15.58
 31
0.0
  0
LINE
  5
193
100
AcDbEntity
  8
0
  6
CONTINUOUS
 62
               4
100
AcDbLine
 10
-19.0
 20
9.0
 30
0.0
 11
-9.0
 21
9.0
 31
0.0
  0
LINE
  5
194
100
AcDbEntity
  8
0
  6
CONTINUOUS
 62
               4
100
AcDbLine
 10
-20.199999999999999
 20
15.58
 30
0.0
 11
-19.0
 21
13.5
 31
0.0
  0
LINE
  5
195
100
AcDbEntity
  8
0
  6
CONTINUOUS
 62
               4
100
AcDbLine
 10
-30.0
 20
13.5
 30
0.0
 11
-28.789999999999999
 21
15.58
 31
0.0
  0
LINE
  5
196
100
AcDbEntity
  8
0
  6
CONTINUOUS
 62
               4
100
AcDbLine
 10
-19.0
 20
13.5
 30
0.0
 11
-19.0
 21
-13.5
 31
0.0
  0
LINE
  5
197
100
AcDbEntity
  8
0
  6
CONTINUOUS
 62
               4
100
AcDbLine
 10
-30.0
 20
13.5
 30
0.0
 11
-30.0
 21
-13.5
 31
0.0
  0
LINE
  5
198
100
AcDbEntity
  8
0
  6
CONTINUOUS
 62
               4
100
AcDbLine
 10
-28.789999999999999
 20
7.79
 30
0.0
 11
-20.199999999999999
 21
7.79
 31
0.0
  0
LINE
  5
199
100
AcDbEntity
  8
0
  6
CONTINUOUS
 62
               4
100
AcDbLine
 10
-28.789999999999999
 20
15.58
 30
0.0
 11
-20.199999999999999
 21
15.58
 31
0.0
  0
LINE
  5
19A
100
AcDbEntity
  8
0
  6
CONTINUOUS
 62
               4
100
AcDbLine
 10
-12.0
 20
9.0
 30
0.0
 11
-12.0
 21
-9.0
 31
0.0
  0
LINE
  5
19B
100
AcDbEntity
  8
0
  6
CONTINUOUS
 62
               4
100
AcDbLine
 10
-37.0
 20
-8.0
 30
0.0
 11
-36.0
 21
-9.0
 31
0.0
  0
LINE
  5
19C
100
AcDbEntity
  8
0
  6
CONTINUOUS
 62
               4
100
AcDbLine
 10
-37.0
 20
8.0
 30
0.0
 11
-36.0
 21
9.0
 31
0.0
  0
LINE
  5
19D
100
AcDbEntity
  8
0
  6
CONTINUOUS
 62
               4
100
AcDbLine
 10
-36.0
 20
9.0
 30
0.0
 11
-36.0
 21
-9.0
 31
0.0
  0
LINE
  5
19E
100
AcDbEntity
  8
0
  6
CONTINUOUS
 62
               4
100
AcDbLine
 10
-37.0
 20
8.0
 30
0.0
 11
-37.0
 21
-8.0
 31
0.0
  0
LINE
  5
19F
100
AcDbEntity
  8
0
  6
CONTINUOUS
 62
               4
100
AcDbLine
 10
-36.0
 20
-9.0
 30
0.0
 11
-30.0
 21
-9.0
 31
0.0
  0
LINE
  5
1A0
100
AcDbEntity
  8
0
  6
CONTINUOUS
 62
               4
100
AcDbLine
 10
-36.0
 20
9.0
 30
0.0
 11
-30.0
 21
9.0
 31
0.0
  0
LINE
  5
1A1
100
AcDbEntity
  8
0
  6
CONTINUOUS
 62
               4
100
AcDbLine
 10
-8.0
 20
-5.2599999999999998
 30
0.0
 11
-8.0
 21
-10.0
 31
0.0
  0
LINE
  5
1A2
100
AcDbEntity
  8
0
  6
CONTINUOUS
 62
               4
100
AcDbLine
 10
-9.0
 20
9.0
 30
0.0
 11
-8.0
 21
10.0
 31
0.0
  0
LINE
  5
1A3
100
AcDbEntity
  8
0
  6
CONTINUOUS
 62
               4
100
AcDbLine
 10
-9.0
 20
-9.0
 30
0.0
 11
-8.0
 21
-10.0
 31
0.0
  0
LINE
  5
1A4
100
AcDbEntity
  8
0
  6
CONTINUOUS
 62
               4
100
AcDbLine
 10
-8.0
 20
10.0
 30
0.0
 11
-8.0
 21
5.2599999999999998
 31
0.0
  0
LINE
  5
1A5
100
AcDbEntity
  8
0
  6
CONTINUOUS
 62
               4
100
AcDbLine
 10
-9.0
 20
9.0
 30
0.0
 11
-9.0
 21
-9.0
 31
0.0
  0
LINE
  5
1A6
100
AcDbEntity
  8
0
  6
CONTINUOUS
 62
               4
100
AcDbLine
 10
-8.0
 20
-10.0
 30
0.0
 11
0.0
 21
-10.0
 31
0.0
  0
LINE
  5
1A7
100
AcDbEntity
  8
0
  6
CONTINUOUS
 62
               4
100
AcDbLine
 10
-8.0
 20
10.0
 30
0.0
 11
0.0
 21
10.0
 31
0.0
  0
ENDBLK
  5
1A8
100
AcDbEntity
  8
0
100
AcDbBlockEnd
  0
BLOCK
  5
1A9
100
AcDbEntity
  8
0
100
AcDbBlockBegin
  2
CBDA63-6
 70
               0
 10
0.0
 20
0.0
 30
0.0
  3
CBDA63-6
  1

  0
SPLINE
  5
1AA
100
AcDbEntity
  8
0
  6
CONTINUOUS
 62
               4
100
AcDbSpline
210
0.0
220
0.0
230
1.0
 70
               0
 71
               3
 72
               0
 73
               0
 74
               5
 44
0.000001
 12
0.494871835337217
 22
-0.8689659755076573
 32
0.0
 13
-0.4948718409836656
 23
-0.8689659722920327
 33
0.0
 11
-6.0
 21
5.2599999999999998
 31
0.0
 11
-4.9111849140291692
 21
2.7253078748714228
 31
0.0
 11
-4.5
 21
0.0
 31
0.0
 11
-4.9111843744549279
 21
-2.7253074134361177
 31
0.0
 11
-6.0
 21
-5.2600000000000016
 31
0.0
  0
LINE
  5
1AB
100
AcDbEntity
  8
0
  6
CONTINUOUS
 62
               4
100
AcDbLine
 10
-2.0
 20
-20.0
 30
0.0
 11
0.0
 21
-20.0
 31
0.0
  0
LINE
  5
1AC
100
AcDbEntity
  8
0
  6
CONTINUOUS
 62
               4
100
AcDbLine
 10
-2.0
 20
20.0
 30
0.0
 11
0.0
 21
20.0
 31
0.0
  0
LINE
  5
1AD
100
AcDbEntity
  8
0
  6
CONTINUOUS
 62
               4
100
AcDbLine
 10
-2.0
 20
-20.0
 30
0.0
 11
-2.0
 21
20.0
 31
0.0
  0
LINE
  5
1AE
100
AcDbEntity
  8
0
  6
CONTINUOUS
 62
               4
100
AcDbLine
 10
-7.2599999999999998
 20
5.2599999999999998
 30
0.0
 11
-7.2599999999999998
 21
10.0
 31
0.0
  0
LINE
  5
1AF
100
AcDbEntity
  8
0
  6
CONTINUOUS
 62
               4
100
AcDbLine
 10
-7.2599999999999998
 20
10.0
 30
0.0
 11
-2.0
 21
10.0
 31
0.0
  0
LINE
  5
1B0
100
AcDbEntity
  8
0
  6
CONTINUOUS
 62
               4
100
AcDbLine
 10
-9.0
 20
9.0
 30
0.0
 11
-7.2599999999999998
 21
10.0
 31
0.0
  0
LINE
  5
1B1
100
AcDbEntity
  8
0
  6
CONTINUOUS
 62
               4
100
AcDbLine
 10
-7.2599999999999998
 20
-10.0
 30
0.0
 11
-7.2599999999999998
 21
-5.2599999999999998
 31
0.0
  0
LINE
  5
1B2
100
AcDbEntity
  8
0
  6
CONTINUOUS
 62
               4
100
AcDbLine
 10
-9.0
 20
-9.0
 30
0.0
 11
-7.2599999999999998
 21
-10.0
 31
0.0
  0
LINE
  5
1B3
100
AcDbEntity
  8
0
  6
CONTINUOUS
 62
               4
100
AcDbLine
 10
-7.2599999999999998
 20
-10.0
 30
0.0
 11
-2.0
 21
-10.0
 31
0.0
  0
LINE
  5
1B4
100
AcDbEntity
  8
0
  6
CONTINUOUS
 62
               4
100
AcDbLine
 10
-9.0
 20
-9.0
 30
0.0
 11
-9.0
 21
9.0
 31
0.0
  0
LINE
  5
1B5
100
AcDbEntity
  8
0
  6
CONTINUOUS
 62
             200
100
AcDbLine
 10
-9.0
 20
-5.2599999999999998
 30
0.0
 11
-6.0
 21
5.2599999999999998
 31
0.0
  0
LINE
  5
1B6
100
AcDbEntity
  8
0
  6
CONTINUOUS
 62
             200
100
AcDbLine
 10
-9.0
 20
5.2599999999999998
 30
0.0
 11
-6.0
 21
-5.2599999999999998
 31
0.0
  0
LINE
  5
1B7
100
AcDbEntity
  8
0
  6
CONTINUOUS
 62
               4
100
AcDbLine
 10
-9.0
 20
-5.2599999999999998
 30
0.0
 11
-6.0
 21
-5.2599999999999998
 31
0.0
  0
LINE
  5
1B8
100
AcDbEntity
  8
0
  6
CONTINUOUS
 62
               4
100
AcDbLine
 10
-9.0
 20
5.2599999999999998
 30
0.0
 11
-6.0
 21
5.2599999999999998
 31
0.0
  0
LINE
  5
1B9
100
AcDbEntity
  8
0
  6
CONTINUOUS
 62
               4
100
AcDbLine
 10
-6.0
 20
5.2599999999999998
 30
0.0
 11
-6.0
 21
-5.2599999999999998
 31
0.0
  0
ENDBLK
  5
1BA
100
AcDbEntity
  8
0
100
AcDbBlockEnd
  0
BLOCK
  5
1BB
100
AcDbEntity
  8
0
100
AcDbBlockBegin
  2
CBDA63-7
 70
               0
 10
0.0
 20
0.0
 30
0.0
  3
CBDA63-7
  1

  0
LINE
  5
1BC
100
AcDbEntity
  8
0
  6
CONTINUOUS
 62
               4
100
AcDbLine
 10
27.25
 20
-3.6000000000000001
 30
0.0
 11
30.5
 21
-3.6000000000000001
 31
0.0
  0
LINE
  5
1BD
100
AcDbEntity
  8
0
  6
CONTINUOUS
 62
               4
100
AcDbLine
 10
25.75
 20
-1.0
 30
0.0
 11
30.5
 21
-1.0
 31
0.0
  0
LINE
  5
1BE
100
AcDbEntity
  8
0
  6
CONTINUOUS
 62
               4
100
AcDbLine
 10
22.0
 20
-3.6000000000000001
 30
0.0
 11
25.75
 21
-3.6000000000000001
 31
0.0
  0
LINE
  5
1BF
100
AcDbEntity
  8
0
  6
CONTINUOUS
 62
               4
100
AcDbLine
 10
22.0
 20
-1.0
 30
0.0
 11
24.25
 21
-1.0
 31
0.0
  0
LINE
  5
1C0
100
AcDbEntity
  8
0
  6
CONTINUOUS
 62
               4
100
AcDbLine
 10
0.0
 20
-0.45
 30
0.0
 11
22.0
 21
-0.45
 31
0.0
  0
LINE
  5
1C1
100
AcDbEntity
  8
0
  6
CONTINUOUS
 62
               4
100
AcDbLine
 10
0.0
 20
-1.0
 30
0.0
 11
22.0
 21
-1.0
 31
0.0
  0
LINE
  5
1C2
100
AcDbEntity
  8
0
  6
CONTINUOUS
 62
               4
100
AcDbLine
 10
0.75
 20
0.5
 30
0.0
 11
3.25
 21
0.5
 31
0.0
  0
LINE
  5
1C3
100
AcDbEntity
  8
0
  6
CONTINUOUS
 62
               4
100
AcDbLine
 10
3.25
 20
0.5
 30
0.0
 11
3.25
 21
0.0
 31
0.0
  0
LINE
  5
1C4
100
AcDbEntity
  8
0
  6
CONTINUOUS
 62
             200
100
AcDbLine
 10
3.02
 20
0.5
 30
0.0
 11
3.02
 21
0.0
 31
0.0
  0
LINE
  5
1C5
100
AcDbEntity
  8
0
  6
CONTINUOUS
 62
             200
100
AcDbLine
 10
0.97
 20
0.5
 30
0.0
 11
0.97
 21
0.0
 31
0.0
  0
LINE
  5
1C6
100
AcDbEntity
  8
0
  6
CONTINUOUS
 62
               4
100
AcDbLine
 10
0.75
 20
0.5
 30
0.0
 11
0.75
 21
0.0
 31
0.0
  0
LINE
  5
1C7
100
AcDbEntity
  8
0
  6
CONTINUOUS
 62
               4
100
AcDbLine
 10
0.75
 20
-3.77
 30
0.0
 11
3.25
 21
-3.77
 31
0.0
  0
LINE
  5
1C8
100
AcDbEntity
  8
0
  6
CONTINUOUS
 62
               4
100
AcDbLine
 10
3.25
 20
-2.5899999999999999
 30
0.0
 11
3.25
 21
-3.77
 31
0.0
  0
LINE
  5
1C9
100
AcDbEntity
  8
0
  6
CONTINUOUS
 62
             200
100
AcDbLine
 10
3.02
 20
-2.5899999999999999
 30
0.0
 11
3.02
 21
-4.0
 31
0.0
  0
LINE
  5
1CA
100
AcDbEntity
  8
0
  6
CONTINUOUS
 62
             200
100
AcDbLine
 10
0.97
 20
-2.5899999999999999
 30
0.0
 11
0.97
 21
-4.0
 31
0.0
  0
LINE
  5
1CB
100
AcDbEntity
  8
0
  6
CONTINUOUS
 62
               4
100
AcDbLine
 10
0.75
 20
-2.5899999999999999
 30
0.0
 11
0.75
 21
-3.77
 31
0.0
  0
LINE
  5
1CC
100
AcDbEntity
  8
0
  6
CONTINUOUS
 62
               4
100
AcDbLine
 10
0.97
 20
-4.0
 30
0.0
 11
0.75
 21
-3.77
 31
0.0
  0
LINE
  5
1CD
100
AcDbEntity
  8
0
  6
CONTINUOUS
 62
               4
100
AcDbLine
 10
3.02
 20
-4.0
 30
0.0
 11
3.25
 21
-3.77
 31
0.0
  0
LINE
  5
1CE
100
AcDbEntity
  8
0
  6
CONTINUOUS
 62
               4
100
AcDbLine
 10
0.97
 20
-4.0
 30
0.0
 11
3.02
 21
-4.0
 31
0.0
  0
LINE
  5
1CF
100
AcDbEntity
  8
0
  6
CONTINUOUS
 62
             200
100
AcDbLine
 10
23.75
 20
-0.13
 30
0.0
 11
26.25
 21
-4.46
 31
0.0
  0
LINE
  5
1D0
100
AcDbEntity
  8
0
  6
CONTINUOUS
 62
             200
100
AcDbLine
 10
25.25
 20
-0.13
 30
0.0
 11
27.75
 21
-4.46
 31
0.0
  0
LINE
  5
1D1
100
AcDbEntity
  8
0
  6
CONTINUOUS
 62
             200
100
AcDbLine
 10
32.729999999999997
 20
-0.13
 30
0.0
 11
35.229999999999997
 21
-4.46
 31
0.0
  0
LINE
  5
1D2
100
AcDbEntity
  8
0
  6
CENTER
 62
             200
100
AcDbLine
 10
20.68
 20
-2.2999999999999998
 30
0.0
 11
30.5
 21
-2.2999999999999998
 31
0.0
  0
LINE
  5
1D3
100
AcDbEntity
  8
0
  6
CONTINUOUS
 62
             200
100
AcDbLine
 10
34.229999999999997
 20
-0.13
 30
0.0
 11
36.729999999999997
 21
-4.46
 31
0.0
  0
LINE
  5
1D4
100
AcDbEntity
  8
0
  6
CONTINUOUS
 62
               4
100
AcDbLine
 10
37.5
 20
-3.0
 30
0.0
 11
40.5
 21
-3.0
 31
0.0
  0
LINE
  5
1D5
100
AcDbEntity
  8
0
  6
CONTINUOUS
 62
               4
100
AcDbLine
 10
37.5
 20
-2.5
 30
0.0
 11
40.5
 21
-2.5
 31
0.0
  0
LINE
  5
1D6
100
AcDbEntity
  8
0
  6
CONTINUOUS
 62
               4
100
AcDbLine
 10
37.5
 20
-2.1000000000000001
 30
0.0
 11
40.5
 21
-2.1000000000000001
 31
0.0
  0
LINE
  5
1D7
100
AcDbEntity
  8
0
  6
CONTINUOUS
 62
               4
100
AcDbLine
 10
37.5
 20
-1.6000000000000001
 30
0.0
 11
40.5
 21
-1.6000000000000001
 31
0.0
  0
LINE
  5
1D8
100
AcDbEntity
  8
0
  6
CONTINUOUS
 62
               4
100
AcDbLine
 10
34.960000000000001
 20
-1.3999999999999999
 30
0.0
 11
37.5
 21
-1.3999999999999999
 31
0.0
  0
LINE
  5
1D9
100
AcDbEntity
  8
0
  6
CONTINUOUS
 62
               4
100
AcDbLine
 10
30.5
 20
-1.3999999999999999
 30
0.0
 11
33.460000000000001
 21
-1.3999999999999999
 31
0.0
  0
LINE
  5
1DA
100
AcDbEntity
  8
0
  6
CONTINUOUS
 62
               4
100
AcDbLine
 10
36.0
 20
-3.2000000000000002
 30
0.0
 11
37.5
 21
-3.2000000000000002
 31
0.0
  0
LINE
  5
1DB
100
AcDbEntity
  8
0
  6
CONTINUOUS
 62
               4
100
AcDbLine
 10
35.479999999999997
 20
-2.2999999999999998
 30
0.0
 11
37.5
 21
-2.2999999999999998
 31
0.0
  0
LINE
  5
1DC
100
AcDbEntity
  8
0
  6
CONTINUOUS
 62
               4
100
AcDbLine
 10
30.5
 20
-2.2999999999999998
 30
0.0
 11
33.979999999999997
 21
-2.2999999999999998
 31
0.0
  0
LINE
  5
1DD
100
AcDbEntity
  8
0
  6
CONTINUOUS
 62
               4
100
AcDbLine
 10
30.5
 20
-3.2000000000000002
 30
0.0
 11
34.5
 21
-3.2000000000000002
 31
0.0
  0
LINE
  5
1DE
100
AcDbEntity
  8
0
  6
CONTINUOUS
 62
               4
100
AcDbLine
 10
37.5
 20
-1.3999999999999999
 30
0.0
 11
37.5
 21
-3.2000000000000002
 31
0.0
  0
LINE
  5
1DF
100
AcDbEntity
  8
0
  6
CONTINUOUS
 62
               4
100
AcDbLine
 10
40.5
 20
-2.5
 30
0.0
 11
40.5
 21
-3.0
 31
0.0
  0
LINE
  5
1E0
100
AcDbEntity
  8
0
  6
CONTINUOUS
 62
               4
100
AcDbLine
 10
40.5
 20
-1.6000000000000001
 30
0.0
 11
40.5
 21
-2.1000000000000001
 31
0.0
  0
LINE
  5
1E1
100
AcDbEntity
  8
0
  6
CENTER
 62
             200
100
AcDbLine
 10
28.82
 20
-2.75
 30
0.0
 11
40.75
 21
-2.75
 31
0.0
  0
LINE
  5
1E2
100
AcDbEntity
  8
0
  6
CENTER
 62
             200
100
AcDbLine
 10
28.77
 20
-1.8500000000000001
 30
0.0
 11
40.700000000000003
 21
-1.8500000000000001
 31
0.0
  0
LINE
  5
1E3
100
AcDbEntity
  8
0
  6
CONTINUOUS
 62
               4
100
AcDbLine
 10
30.5
 20
-1.0
 30
0.0
 11
30.5
 21
-3.6000000000000001
 31
0.0
  0
LINE
  5
1E4
100
AcDbEntity
  8
0
  6
CONTINUOUS
 62
               4
100
AcDbLine
 10
4.25
 20
-3.04
 30
0.0
 11
4.7000000000000002
 21
-3.04
 31
0.0
  0
LINE
  5
1E5
100
AcDbEntity
  8
0
  6
CONTINUOUS
 62
               4
100
AcDbLine
 10
4.2000000000000002
 20
-3.7999999999999998
 30
0.0
 11
4.7000000000000002
 21
-3.7999999999999998
 31
0.0
  0
LINE
  5
1E6
100
AcDbEntity
  8
0
  6
CONTINUOUS
 62
               4
100
AcDbLine
 10
4.2000000000000002
 20
-1.8
 30
0.0
 11
4.2000000000000002
 21
-3.7999999999999998
 31
0.0
  0
LINE
  5
1E7
100
AcDbEntity
  8
0
  6
CONTINUOUS
 62
               4
100
AcDbLine
 10
0.0
 20
-2.6000000000000001
 30
0.0
 11
4.0
 21
-2.6000000000000001
 31
0.0
  0
LINE
  5
1E8
100
AcDbEntity
  8
0
  6
CONTINUOUS
 62
               4
100
AcDbLine
 10
0.0
 20
-1.8
 30
0.0
 11
0.0
 21
-2.6000000000000001
 31
0.0
  0
LINE
  5
1E9
100
AcDbEntity
  8
0
  6
CONTINUOUS
 62
               4
100
AcDbLine
 10
4.0
 20
-1.8
 30
0.0
 11
4.0
 21
-2.6000000000000001
 31
0.0
  0
LINE
  5
1EA
100
AcDbEntity
  8
0
  6
CONTINUOUS
 62
               4
100
AcDbLine
 10
4.25
 20
-1.8
 30
0.0
 11
4.25
 21
-3.04
 31
0.0
  0
LINE
  5
1EB
100
AcDbEntity
  8
0
  6
CENTER
 62
             200
100
AcDbLine
 10
2.0
 20
0.8
 30
0.0
 11
2.0
 21
-5.4299999999999997
 31
0.0
  0
LINE
  5
1EC
100
AcDbEntity
  8
0
  6
CONTINUOUS
 62
               4
100
AcDbLine
 10
0.0
 20
-1.8
 30
0.0
 11
4.25
 21
-1.8
 31
0.0
  0
LINE
  5
1ED
100
AcDbEntity
  8
0
  6
CONTINUOUS
 62
               4
100
AcDbLine
 10
4.7000000000000002
 20
-3.04
 30
0.0
 11
4.7000000000000002
 21
-4.5999999999999996
 31
0.0
  0
LINE
  5
1EE
100
AcDbEntity
  8
0
  6
CONTINUOUS
 62
               4
100
AcDbLine
 10
0.0
 20
-1.8
 30
0.0
 11
0.0
 21
0.0
 31
0.0
  0
LINE
  5
1EF
100
AcDbEntity
  8
0
  6
CONTINUOUS
 62
               4
100
AcDbLine
 10
22.0
 20
0.0
 30
0.0
 11
22.0
 21
-4.5999999999999996
 31
0.0
  0
LINE
  5
1F0
100
AcDbEntity
  8
0
  6
CONTINUOUS
 62
               4
100
AcDbLine
 10
4.7000000000000002
 20
-4.5999999999999996
 30
0.0
 11
22.0
 21
-4.5999999999999996
 31
0.0
  0
LINE
  5
1F1
100
AcDbEntity
  8
0
  6
CONTINUOUS
 62
               4
100
AcDbLine
 10
0.0
 20
0.0
 30
0.0
 11
22.0
 21
0.0
 31
0.0
  0
ENDBLK
  5
1F2
100
AcDbEntity
  8
0
100
AcDbBlockEnd
  0
BLOCK
  5
1F3
100
AcDbEntity
  8
0
100
AcDbBlockBegin
  2
CBDA63-8
 70
               0
 10
0.0
 20
0.0
 30
0.0
  3
CBDA63-8
  1

  0
ARC
  5
1F4
100
AcDbEntity
  8
0
  6
CONTINUOUS
 62
               4
100
AcDbCircle
 10
-0.0000022888196369
 20
-2.5499977111803629
 30
0.0
 40
2.0500022888209148
100
AcDbArc
 50
270.00006397051652
 51
359.99993602948348
  0
ARC
  5
1F5
100
AcDbEntity
  8
0
  6
CONTINUOUS
 62
               4
100
AcDbCircle
 10
0.0000022888196369
 20
-2.5499977111803629
 30
0.0
 40
2.0500022888209148
100
AcDbArc
 50
180.00006397051652
 51
269.99993602948348
  0
LINE
  5
1F6
100
AcDbEntity
  8
0
  6
CONTINUOUS
 62
               4
100
AcDbLine
 10
-1.25
 20
0.5
 30
0.0
 11
1.25
 21
0.5
 31
0.0
  0
LINE
  5
1F7
100
AcDbEntity
  8
0
  6
CONTINUOUS
 62
               4
100
AcDbLine
 10
1.25
 20
0.5
 30
0.0
 11
1.25
 21
0.0
 31
0.0
  0
LINE
  5
1F8
100
AcDbEntity
  8
0
  6
CONTINUOUS
 62
             200
100
AcDbLine
 10
1.02
 20
0.5
 30
0.0
 11
1.02
 21
0.0
 31
0.0
  0
LINE
  5
1F9
100
AcDbEntity
  8
0
  6
CONTINUOUS
 62
             200
100
AcDbLine
 10
-1.02
 20
0.5
 30
0.0
 11
-1.02
 21
0.0
 31
0.0
  0
LINE
  5
1FA
100
AcDbEntity
  8
0
  6
CONTINUOUS
 62
               4
100
AcDbLine
 10
-1.25
 20
0.5
 30
0.0
 11
-1.25
 21
0.0
 31
0.0
  0
LINE
  5
1FB
100
AcDbEntity
  8
0
  6
CONTINUOUS
 62
               4
100
AcDbLine
 10
-1.25
 20
-3.77
 30
0.0
 11
1.25
 21
-3.77
 31
0.0
  0
LINE
  5
1FC
100
AcDbEntity
  8
0
  6
CONTINUOUS
 62
               4
100
AcDbLine
 10
1.25
 20
-2.5899999999999999
 30
0.0
 11
1.25
 21
-3.77
 31
0.0
  0
LINE
  5
1FD
100
AcDbEntity
  8
0
  6
CONTINUOUS
 62
             200
100
AcDbLine
 10
1.02
 20
-2.5899999999999999
 30
0.0
 11
1.02
 21
-4.0
 31
0.0
  0
LINE
  5
1FE
100
AcDbEntity
  8
0
  6
CONTINUOUS
 62
             200
100
AcDbLine
 10
-1.02
 20
-2.5899999999999999
 30
0.0
 11
-1.02
 21
-4.0
 31
0.0
  0
LINE
  5
1FF
100
AcDbEntity
  8
0
  6
CONTINUOUS
 62
               4
100
AcDbLine
 10
-1.25
 20
-2.5899999999999999
 30
0.0
 11
-1.25
 21
-3.77
 31
0.0
  0
LINE
  5
200
100
AcDbEntity
  8
0
  6
CONTINUOUS
 62
               4
100
AcDbLine
 10
-1.02
 20
-4.0
 30
0.0
 11
-1.25
 21
-3.77
 31
0.0
  0
LINE
  5
201
100
AcDbEntity
  8
0
  6
CONTINUOUS
 62
               4
100
AcDbLine
 10
1.02
 20
-4.0
 30
0.0
 11
1.25
 21
-3.77
 31
0.0
  0
LINE
  5
202
100
AcDbEntity
  8
0
  6
CONTINUOUS
 62
               4
100
AcDbLine
 10
-1.02
 20
-4.0
 30
0.0
 11
1.02
 21
-4.0
 31
0.0
  0
LINE
  5
203
100
AcDbEntity
  8
0
  6
CONTINUOUS
 62
               4
100
AcDbLine
 10
-2.0499999999999998
 20
-2.5899999999999999
 30
0.0
 11
2.0499999999999998
 21
-2.5899999999999999
 31
0.0
  0
LINE
  5
204
100
AcDbEntity
  8
0
  6
CONTINUOUS
 62
               4
100
AcDbLine
 10
-2.0499999999999998
 20
-1.8
 30
0.0
 11
2.0499999999999998
 21
-1.8
 31
0.0
  0
LINE
  5
205
100
AcDbEntity
  8
0
  6
CONTINUOUS
 62
               4
100
AcDbLine
 10
2.0499999999999998
 20
-1.0
 30
0.0
 11
2.0499999999999998
 21
-2.5499999999999998
 31
0.0
  0
LINE
  5
206
100
AcDbEntity
  8
0
  6
CONTINUOUS
 62
               4
100
AcDbLine
 10
2.0499999999999998
 20
-1.0
 30
0.0
 11
1.5
 21
-0.45
 31
0.0
  0
LINE
  5
207
100
AcDbEntity
  8
0
  6
CONTINUOUS
 62
               4
100
AcDbLine
 10
1.5
 20
0.0
 30
0.0
 11
1.5
 21
-0.45
 31
0.0
  0
LINE
  5
208
100
AcDbEntity
  8
0
  6
CONTINUOUS
 62
               4
100
AcDbLine
 10
-1.5
 20
0.0
 30
0.0
 11
1.5
 21
0.0
 31
0.0
  0
LINE
  5
209
100
AcDbEntity
  8
0
  6
CONTINUOUS
 62
               4
100
AcDbLine
 10
-1.5
 20
0.0
 30
0.0
 11
-1.5
 21
-0.45
 31
0.0
  0
LINE
  5
20A
100
AcDbEntity
  8
0
  6
CONTINUOUS
 62
               4
100
AcDbLine
 10
-2.0499999999999998
 20
-1.0
 30
0.0
 11
-1.5
 21
-0.45
 31
0.0
  0
LINE
  5
20B
100
AcDbEntity
  8
0
  6
CONTINUOUS
 62
               4
100
AcDbLine
 10
-2.0499999999999998
 20
-1.0
 30
0.0
 11
-2.0499999999999998
 21
-2.5499999999999998
 31
0.0
  0
LINE
  5
20C
100
AcDbEntity
  8
0
  6
CENTER
 62
             200
100
AcDbLine
 10
0.0
 20
2.0499999999999998
 30
0.0
 11
0.0
 21
-6.6600000000000001
 31
0.0
  0
ENDBLK
  5
20D
100
AcDbEntity
  8
0
100
AcDbBlockEnd
  0
BLOCK
  5
20E
100
AcDbEntity
  8
0
100
AcDbBlockBegin
  2
CBDA63-9
 70
               0
 10
0.0
 20
0.0
 30
0.0
  3
CBDA63-9
  1

  0
CIRCLE
  5
20F
100
AcDbEntity
  8
0
  6
CONTINUOUS
 62
               4
100
AcDbCircle
 10
2.0000152587890625
 20
0.0
 30
0.0
 40
1.3999996185302734
  0
CIRCLE
  5
210
100
AcDbEntity
  8
0
  6
CONTINUOUS
 62
               4
100
AcDbCircle
 10
2.0000152587890625
 20
0.0
 30
0.0
 40
1.25
  0
LINE
  5
211
100
AcDbEntity
  8
0
  6
CONTINUOUS
 62
               4
100
AcDbLine
 10
22.0
 20
-1.3
 30
0.0
 11
25.09
 21
-1.3
 31
0.0
  0
LINE
  5
212
100
AcDbEntity
  8
0
  6
CONTINUOUS
 62
               4
100
AcDbLine
 10
22.0
 20
1.3
 30
0.0
 11
23.579999999999998
 21
1.3
 31
0.0
  0
LINE
  5
213
100
AcDbEntity
  8
0
  6
CONTINUOUS
 62
             200
100
AcDbLine
 10
23.079999999999998
 20
2.1600000000000001
 30
0.0
 11
25.579999999999998
 21
-2.1600000000000001
 31
0.0
  0
LINE
  5
214
100
AcDbEntity
  8
0
  6
CONTINUOUS
 62
               4
100
AcDbLine
 10
1.3
 20
-1.0600000000000001
 30
0.0
 11
2.9399999999999999
 21
0.5600000000000001
 31
0.0
  0
LINE
  5
215
100
AcDbEntity
  8
0
  6
CONTINUOUS
 62
               4
100
AcDbLine
 10
0.95
 20
-0.71
 30
0.0
 11
2.6800000000000002
 21
1.02
 31
0.0
  0
LINE
  5
216
100
AcDbEntity
  8
0
  6
CENTER
 62
             200
100
AcDbLine
 10
2.0
 20
2.8300000000000001
 30
0.0
 11
2.0
 21
-2.75
 31
0.0
  0
LINE
  5
217
100
AcDbEntity
  8
0
  6
CONTINUOUS
 62
               4
100
AcDbLine
 10
22.0
 20
2.0499999999999998
 30
0.0
 11
22.0
 21
-2.0499999999999998
 31
0.0
  0
LINE
  5
218
100
AcDbEntity
  8
0
  6
CONTINUOUS
 62
               4
100
AcDbLine
 10
0.0
 20
2.0499999999999998
 30
0.0
 11
0.0
 21
-2.0499999999999998
 31
0.0
  0
LINE
  5
219
100
AcDbEntity
  8
0
  6
CONTINUOUS
 62
               4
100
AcDbLine
 10
0.0
 20
2.0499999999999998
 30
0.0
 11
22.0
 21
2.0499999999999998
 31
0.0
  0
LINE
  5
21A
100
AcDbEntity
  8
0
  6
CONTINUOUS
 62
               4
100
AcDbLine
 10
0.0
 20
-2.0499999999999998
 30
0.0
 11
22.0
 21
-2.0499999999999998
 31
0.0
  0
LINE
  5
21B
100
AcDbEntity
  8
0
  6
CONTINUOUS
 62
               4
100
AcDbLine
 10
0.0
 20
1.5
 30
0.0
 11
22.0
 21
1.5
 31
0.0
  0
LINE
  5
21C
100
AcDbEntity
  8
0
  6
CONTINUOUS
 62
               4
100
AcDbLine
 10
0.0
 20
-1.5
 30
0.0
 11
22.0
 21
-1.5
 31
0.0
  0
LINE
  5
21D
100
AcDbEntity
  8
0
  6
CENTER
 62
             200
100
AcDbLine
 10
-2.7999999999999998
 20
0.0
 30
0.0
 11
27.399999999999999
 21
0.0
 31
0.0
  0
ENDBLK
  5
21E
100
AcDbEntity
  8
0
100
AcDbBlockEnd
  0
BLOCK
  5
21F
100
AcDbEntity
  8
0
100
AcDbBlockBegin
  2
CBDA63-10
 70
               0
 10
0.0
 20
0.0
 30
0.0
  3
CBDA63-10
  1

  0
LINE
  5
220
100
AcDbEntity
  8
0
  6
CONTINUOUS
 62
               4
100
AcDbLine
 10
20.699999999999999
 20
12.15
 30
0.0
 11
20.699999999999999
 21
15.4
 31
0.0
  0
LINE
  5
221
100
AcDbEntity
  8
0
  6
CONTINUOUS
 62
               4
100
AcDbLine
 10
18.100000000000001
 20
10.65
 30
0.0
 11
18.100000000000001
 21
15.4
 31
0.0
  0
LINE
  5
222
100
AcDbEntity
  8
0
  6
CONTINUOUS
 62
               4
100
AcDbLine
 10
18.100000000000001
 20
6.9000000000000004
 30
0.0
 11
18.100000000000001
 21
9.1500000000000004
 31
0.0
  0
LINE
  5
223
100
AcDbEntity
  8
0
  6
CONTINUOUS
 62
               4
100
AcDbLine
 10
20.699999999999999
 20
6.9000000000000004
 30
0.0
 11
20.699999999999999
 21
10.65
 31
0.0
  0
LINE
  5
224
100
AcDbEntity
  8
0
  6
CONTINUOUS
 62
               4
100
AcDbLine
 10
0.75
 20
0.5
 30
0.0
 11
3.25
 21
0.5
 31
0.0
  0
LINE
  5
225
100
AcDbEntity
  8
0
  6
CONTINUOUS
 62
               4
100
AcDbLine
 10
3.25
 20
0.5
 30
0.0
 11
3.25
 21
0.0
 31
0.0
  0
LINE
  5
226
100
AcDbEntity
  8
0
  6
CONTINUOUS
 62
             200
100
AcDbLine
 10
3.02
 20
0.5
 30
0.0
 11
3.02
 21
0.0
 31
0.0
  0
LINE
  5
227
100
AcDbEntity
  8
0
  6
CONTINUOUS
 62
             200
100
AcDbLine
 10
0.97
 20
0.5
 30
0.0
 11
0.97
 21
0.0
 31
0.0
  0
LINE
  5
228
100
AcDbEntity
  8
0
  6
CONTINUOUS
 62
               4
100
AcDbLine
 10
0.75
 20
0.5
 30
0.0
 11
0.75
 21
0.0
 31
0.0
  0
LINE
  5
229
100
AcDbEntity
  8
0
  6
CONTINUOUS
 62
               4
100
AcDbLine
 10
0.75
 20
-3.77
 30
0.0
 11
3.25
 21
-3.77
 31
0.0
  0
LINE
  5
22A
100
AcDbEntity
  8
0
  6
CONTINUOUS
 62
               4
100
AcDbLine
 10
3.25
 20
-2.6000000000000001
 30
0.0
 11
3.25
 21
-3.77
 31
0.0
  0
LINE
  5
22B
100
AcDbEntity
  8
0
  6
CONTINUOUS
 62
             200
100
AcDbLine
 10
3.02
 20
-2.6000000000000001
 30
0.0
 11
3.02
 21
-4.0
 31
0.0
  0
LINE
  5
22C
100
AcDbEntity
  8
0
  6
CONTINUOUS
 62
             200
100
AcDbLine
 10
0.97
 20
-2.6000000000000001
 30
0.0
 11
0.97
 21
-4.0
 31
0.0
  0
LINE
  5
22D
100
AcDbEntity
  8
0
  6
CONTINUOUS
 62
               4
100
AcDbLine
 10
0.75
 20
-2.6000000000000001
 30
0.0
 11
0.75
 21
-3.77
 31
0.0
  0
LINE
  5
22E
100
AcDbEntity
  8
0
  6
CONTINUOUS
 62
               4
100
AcDbLine
 10
0.97
 20
-4.0
 30
0.0
 11
0.75
 21
-3.77
 31
0.0
  0
LINE
  5
22F
100
AcDbEntity
  8
0
  6
CONTINUOUS
 62
               4
100
AcDbLine
 10
3.02
 20
-4.0
 30
0.0
 11
3.25
 21
-3.77
 31
0.0
  0
LINE
  5
230
100
AcDbEntity
  8
0
  6
CONTINUOUS
 62
               4
100
AcDbLine
 10
0.97
 20
-4.0
 30
0.0
 11
3.02
 21
-4.0
 31
0.0
  0
LINE
  5
231
100
AcDbEntity
  8
0
  6
CONTINUOUS
 62
             200
100
AcDbLine
 10
17.239999999999998
 20
8.6500000000000004
 30
0.0
 11
21.57
 21
11.15
 31
0.0
  0
LINE
  5
232
100
AcDbEntity
  8
0
  6
CONTINUOUS
 62
             200
100
AcDbLine
 10
17.239999999999998
 20
10.15
 30
0.0
 11
21.57
 21
12.65
 31
0.0
  0
LINE
  5
233
100
AcDbEntity
  8
0
  6
CONTINUOUS
 62
             200
100
AcDbLine
 10
17.239999999999998
 20
17.629999999999999
 30
0.0
 11
21.57
 21
20.129999999999999
 31
0.0
  0
LINE
  5
234
100
AcDbEntity
  8
0
  6
CENTER
 62
             200
100
AcDbLine
 10
19.399999999999999
 20
5.5800000000000001
 30
0.0
 11
19.399999999999999
 21
15.4
 31
0.0
  0
LINE
  5
235
100
AcDbEntity
  8
0
  6
CONTINUOUS
 62
             200
100
AcDbLine
 10
17.239999999999998
 20
19.129999999999999
 30
0.0
 11
21.57
 21
21.629999999999999
 31
0.0
  0
LINE
  5
236
100
AcDbEntity
  8
0
  6
CONTINUOUS
 62
               4
100
AcDbLine
 10
20.100000000000001
 20
22.399999999999999
 30
0.0
 11
20.100000000000001
 21
25.399999999999999
 31
0.0
  0
LINE
  5
237
100
AcDbEntity
  8
0
  6
CONTINUOUS
 62
               4
100
AcDbLine
 10
19.600000000000001
 20
22.399999999999999
 30
0.0
 11
19.600000000000001
 21
25.399999999999999
 31
0.0
  0
LINE
  5
238
100
AcDbEntity
  8
0
  6
CONTINUOUS
 62
               4
100
AcDbLine
 10
19.199999999999999
 20
22.399999999999999
 30
0.0
 11
19.199999999999999
 21
25.399999999999999
 31
0.0
  0
LINE
  5
239
100
AcDbEntity
  8
0
  6
CONTINUOUS
 62
               4
100
AcDbLine
 10
18.699999999999999
 20
22.399999999999999
 30
0.0
 11
18.699999999999999
 21
25.399999999999999
 31
0.0
  0
LINE
  5
23A
100
AcDbEntity
  8
0
  6
CONTINUOUS
 62
               4
100
AcDbLine
 10
18.5
 20
19.859999999999999
 30
0.0
 11
18.5
 21
22.399999999999999
 31
0.0
  0
LINE
  5
23B
100
AcDbEntity
  8
0
  6
CONTINUOUS
 62
               4
100
AcDbLine
 10
18.5
 20
15.4
 30
0.0
 11
18.5
 21
18.359999999999999
 31
0.0
  0
LINE
  5
23C
100
AcDbEntity
  8
0
  6
CONTINUOUS
 62
               4
100
AcDbLine
 10
20.300000000000001
 20
20.899999999999999
 30
0.0
 11
20.300000000000001
 21
22.399999999999999
 31
0.0
  0
LINE
  5
23D
100
AcDbEntity
  8
0
  6
CONTINUOUS
 62
               4
100
AcDbLine
 10
19.399999999999999
 20
20.379999999999999
 30
0.0
 11
19.399999999999999
 21
22.399999999999999
 31
0.0
  0
LINE
  5
23E
100
AcDbEntity
  8
0
  6
CONTINUOUS
 62
               4
100
AcDbLine
 10
19.399999999999999
 20
15.4
 30
0.0
 11
19.399999999999999
 21
18.879999999999999
 31
0.0
  0
LINE
  5
23F
100
AcDbEntity
  8
0
  6
CONTINUOUS
 62
               4
100
AcDbLine
 10
20.300000000000001
 20
15.4
 30
0.0
 11
20.300000000000001
 21
19.399999999999999
 31
0.0
  0
LINE
  5
240
100
AcDbEntity
  8
0
  6
CONTINUOUS
 62
               4
100
AcDbLine
 10
18.5
 20
22.399999999999999
 30
0.0
 11
20.300000000000001
 21
22.399999999999999
 31
0.0
  0
LINE
  5
241
100
AcDbEntity
  8
0
  6
CONTINUOUS
 62
               4
100
AcDbLine
 10
19.600000000000001
 20
25.399999999999999
 30
0.0
 11
20.100000000000001
 21
25.399999999999999
 31
0.0
  0
LINE
  5
242
100
AcDbEntity
  8
0
  6
CONTINUOUS
 62
               4
100
AcDbLine
 10
18.699999999999999
 20
25.399999999999999
 30
0.0
 11
19.199999999999999
 21
25.399999999999999
 31
0.0
  0
LINE
  5
243
100
AcDbEntity
  8
0
  6
CENTER
 62
             200
100
AcDbLine
 10
19.850000000000001
 20
13.720000000000001
 30
0.0
 11
19.850000000000001
 21
25.649999999999999
 31
0.0
  0
LINE
  5
244
100
AcDbEntity
  8
0
  6
CENTER
 62
             200
100
AcDbLine
 10
18.949999999999999
 20
13.67
 30
0.0
 11
18.949999999999999
 21
25.600000000000001
 31
0.0
  0
LINE
  5
245
100
AcDbEntity
  8
0
  6
CONTINUOUS
 62
               4
100
AcDbLine
 10
18.100000000000001
 20
15.4
 30
0.0
 11
20.699999999999999
 21
15.4
 31
0.0
  0
LINE
  5
246
100
AcDbEntity
  8
0
  6
CONTINUOUS
 62
               4
100
AcDbLine
 10
16.100000000000001
 20
5.4000000000000004
 30
0.0
 11
22.0
 21
5.4000000000000004
 31
0.0
  0
LINE
  5
247
100
AcDbEntity
  8
0
  6
CONTINUOUS
 62
               4
100
AcDbLine
 10
16.100000000000001
 20
0.4
 30
0.0
 11
22.0
 21
0.4
 31
0.0
  0
LINE
  5
248
100
AcDbEntity
  8
0
  6
CONTINUOUS
 62
               4
100
AcDbLine
 10
16.100000000000001
 20
1.1499999999999999
 30
0.0
 11
22.0
 21
1.1499999999999999
 31
0.0
  0
LINE
  5
249
100
AcDbEntity
  8
0
  6
CONTINUOUS
 62
               4
100
AcDbLine
 10
0.0
 20
-0.45
 30
0.0
 11
22.0
 21
-0.45
 31
0.0
  0
LINE
  5
24A
100
AcDbEntity
  8
0
  6
CONTINUOUS
 62
               4
100
AcDbLine
 10
0.0
 20
-1.0
 30
0.0
 11
22.0
 21
-1.0
 31
0.0
  0
LINE
  5
24B
100
AcDbEntity
  8
0
  6
CONTINUOUS
 62
               4
100
AcDbLine
 10
4.2699999999999996
 20
-1.8
 30
0.0
 11
4.2699999999999996
 21
-2.98
 31
0.0
  0
LINE
  5
24C
100
AcDbEntity
  8
0
  6
CONTINUOUS
 62
               4
100
AcDbLine
 10
4.2699999999999996
 20
-2.98
 30
0.0
 11
4.7000000000000002
 21
-2.98
 31
0.0
  0
LINE
  5
24D
100
AcDbEntity
  8
0
  6
CONTINUOUS
 62
               4
100
AcDbLine
 10
4.2000000000000002
 20
-1.8
 30
0.0
 11
4.2000000000000002
 21
-3.7999999999999998
 31
0.0
  0
LINE
  5
24E
100
AcDbEntity
  8
0
  6
CONTINUOUS
 62
               4
100
AcDbLine
 10
4.2000000000000002
 20
-3.7999999999999998
 30
0.0
 11
4.7000000000000002
 21
-3.7999999999999998
 31
0.0
  0
LINE
  5
24F
100
AcDbEntity
  8
0
  6
CONTINUOUS
 62
               4
100
AcDbLine
 10
16.100000000000001
 20
6.9000000000000004
 30
0.0
 11
22.0
 21
6.9000000000000004
 31
0.0
  0
LINE
  5
250
100
AcDbEntity
  8
0
  6
CONTINUOUS
 62
               4
100
AcDbLine
 10
4.0
 20
-1.8
 30
0.0
 11
4.0
 21
-2.6000000000000001
 31
0.0
  0
LINE
  5
251
100
AcDbEntity
  8
0
  6
CONTINUOUS
 62
               4
100
AcDbLine
 10
0.0
 20
-2.6000000000000001
 30
0.0
 11
4.0
 21
-2.6000000000000001
 31
0.0
  0
LINE
  5
252
100
AcDbEntity
  8
0
  6
CONTINUOUS
 62
               4
100
AcDbLine
 10
0.0
 20
-1.8
 30
0.0
 11
4.2699999999999996
 21
-1.8
 31
0.0
  0
LINE
  5
253
100
AcDbEntity
  8
0
  6
CONTINUOUS
 62
               4
100
AcDbLine
 10
16.100000000000001
 20
6.9000000000000004
 30
0.0
 11
16.100000000000001
 21
0.0
 31
0.0
  0
LINE
  5
254
100
AcDbEntity
  8
0
  6
CENTER
 62
             200
100
AcDbLine
 10
2.0
 20
0.73
 30
0.0
 11
2.0
 21
-5.1699999999999999
 31
0.0
  0
LINE
  5
255
100
AcDbEntity
  8
0
  6
CONTINUOUS
 62
               4
100
AcDbLine
 10
4.7000000000000002
 20
-2.98
 30
0.0
 11
4.7000000000000002
 21
-4.5999999999999996
 31
0.0
  0
LINE
  5
256
100
AcDbEntity
  8
0
  6
CONTINUOUS
 62
               4
100
AcDbLine
 10
0.0
 20
-2.6000000000000001
 30
0.0
 11
0.0
 21
0.0
 31
0.0
  0
LINE
  5
257
100
AcDbEntity
  8
0
  6
CONTINUOUS
 62
               4
100
AcDbLine
 10
22.0
 20
6.9000000000000004
 30
0.0
 11
22.0
 21
-4.5999999999999996
 31
0.0
  0
LINE
  5
258
100
AcDbEntity
  8
0
  6
CONTINUOUS
 62
               4
100
AcDbLine
 10
4.7000000000000002
 20
-4.5999999999999996
 30
0.0
 11
22.0
 21
-4.5999999999999996
 31
0.0
  0
LINE
  5
259
100
AcDbEntity
  8
0
  6
CONTINUOUS
 62
               4
100
AcDbLine
 10
0.0
 20
0.0
 30
0.0
 11
16.100000000000001
 21
0.0
 31
0.0
  0
ENDBLK
  5
25A
100
AcDbEntity
  8
0
100
AcDbBlockEnd
  0
BLOCK
  5
25B
100
AcDbEntity
  8
0
100
AcDbBlockBegin
  2
CBDA63-11
 70
               0
 10
0.0
 20
0.0
 30
0.0
  3
CBDA63-11
  1

  0
ARC
  5
25C
100
AcDbEntity
  8
0
  6
CONTINUOUS
 62
               4
100
AcDbCircle
 10
-0.0000022888196369
 20
-2.5499977111803629
 30
0.0
 40
2.0500022888209148
100
AcDbArc
 50
270.00006397051652
 51
359.99993602948348
  0
ARC
  5
25D
100
AcDbEntity
  8
0
  6
CONTINUOUS
 62
               4
100
AcDbCircle
 10
0.0000022888196369
 20
-2.5499977111803629
 30
0.0
 40
2.0500022888209148
100
AcDbArc
 50
180.00006397051652
 51
269.99993602948348
  0
LINE
  5
25E
100
AcDbEntity
  8
0
  6
CONTINUOUS
 62
               4
100
AcDbLine
 10
1.3
 20
10.65
 30
0.0
 11
1.3
 21
6.9000000000000004
 31
0.0
  0
LINE
  5
25F
100
AcDbEntity
  8
0
  6
CONTINUOUS
 62
               4
100
AcDbLine
 10
-1.3
 20
9.1500000000000004
 30
0.0
 11
-1.3
 21
6.9000000000000004
 31
0.0
  0
LINE
  5
260
100
AcDbEntity
  8
0
  6
CONTINUOUS
 62
               4
100
AcDbLine
 10
-1.25
 20
0.5
 30
0.0
 11
1.25
 21
0.5
 31
0.0
  0
LINE
  5
261
100
AcDbEntity
  8
0
  6
CONTINUOUS
 62
               4
100
AcDbLine
 10
1.25
 20
0.5
 30
0.0
 11
1.25
 21
0.0
 31
0.0
  0
LINE
  5
262
100
AcDbEntity
  8
0
  6
CONTINUOUS
 62
             200
100
AcDbLine
 10
1.02
 20
0.5
 30
0.0
 11
1.02
 21
0.0
 31
0.0
  0
LINE
  5
263
100
AcDbEntity
  8
0
  6
CONTINUOUS
 62
             200
100
AcDbLine
 10
-1.02
 20
0.5
 30
0.0
 11
-1.02
 21
0.0
 31
0.0
  0
LINE
  5
264
100
AcDbEntity
  8
0
  6
CONTINUOUS
 62
               4
100
AcDbLine
 10
-1.25
 20
0.5
 30
0.0
 11
-1.25
 21
0.0
 31
0.0
  0
LINE
  5
265
100
AcDbEntity
  8
0
  6
CONTINUOUS
 62
               4
100
AcDbLine
 10
-1.25
 20
-3.77
 30
0.0
 11
1.25
 21
-3.77
 31
0.0
  0
LINE
  5
266
100
AcDbEntity
  8
0
  6
CONTINUOUS
 62
               4
100
AcDbLine
 10
1.25
 20
-2.6000000000000001
 30
0.0
 11
1.25
 21
-3.77
 31
0.0
  0
LINE
  5
267
100
AcDbEntity
  8
0
  6
CONTINUOUS
 62
             200
100
AcDbLine
 10
1.02
 20
-2.6000000000000001
 30
0.0
 11
1.02
 21
-4.0
 31
0.0
  0
LINE
  5
268
100
AcDbEntity
  8
0
  6
CONTINUOUS
 62
             200
100
AcDbLine
 10
-1.02
 20
-2.6000000000000001
 30
0.0
 11
-1.02
 21
-4.0
 31
0.0
  0
LINE
  5
269
100
AcDbEntity
  8
0
  6
CONTINUOUS
 62
               4
100
AcDbLine
 10
-1.25
 20
-2.6000000000000001
 30
0.0
 11
-1.25
 21
-3.77
 31
0.0
  0
LINE
  5
26A
100
AcDbEntity
  8
0
  6
CONTINUOUS
 62
               4
100
AcDbLine
 10
-1.02
 20
-4.0
 30
0.0
 11
-1.25
 21
-3.77
 31
0.0
  0
LINE
  5
26B
100
AcDbEntity
  8
0
  6
CONTINUOUS
 62
               4
100
AcDbLine
 10
1.02
 20
-4.0
 30
0.0
 11
1.25
 21
-3.77
 31
0.0
  0
LINE
  5
26C
100
AcDbEntity
  8
0
  6
CONTINUOUS
 62
               4
100
AcDbLine
 10
-1.02
 20
-4.0
 30
0.0
 11
1.02
 21
-4.0
 31
0.0
  0
LINE
  5
26D
100
AcDbEntity
  8
0
  6
CONTINUOUS
 62
             200
100
AcDbLine
 10
-2.1600000000000001
 20
8.6500000000000004
 30
0.0
 11
2.1600000000000001
 21
11.15
 31
0.0
  0
LINE
  5
26E
100
AcDbEntity
  8
0
  6
CONTINUOUS
 62
               4
100
AcDbLine
 10
-2.25
 20
6.9000000000000004
 30
0.0
 11
2.25
 21
6.9000000000000004
 31
0.0
  0
LINE
  5
26F
100
AcDbEntity
  8
0
  6
CONTINUOUS
 62
               4
100
AcDbLine
 10
-2.0499999999999998
 20
-2.6000000000000001
 30
0.0
 11
2.0499999999999998
 21
-2.6000000000000001
 31
0.0
  0
LINE
  5
270
100
AcDbEntity
  8
0
  6
CONTINUOUS
 62
               4
100
AcDbLine
 10
-2.0499999999999998
 20
-1.8
 30
0.0
 11
2.0499999999999998
 21
-1.8
 31
0.0
  0
LINE
  5
271
100
AcDbEntity
  8
0
  6
CONTINUOUS
 62
               4
100
AcDbLine
 10
-1.5
 20
0.0
 30
0.0
 11
1.5
 21
0.0
 31
0.0
  0
LINE
  5
272
100
AcDbEntity
  8
0
  6
CENTER
 62
             200
100
AcDbLine
 10
0.0
 20
12.56
 30
0.0
 11
0.0
 21
-6.0599999999999996
 31
0.0
  0
LINE
  5
273
100
AcDbEntity
  8
0
  6
CONTINUOUS
 62
               4
100
AcDbLine
 10
2.25
 20
6.9000000000000004
 30
0.0
 11
2.25
 21
1.1499999999999999
 31
0.0
  0
LINE
  5
274
100
AcDbEntity
  8
0
  6
CONTINUOUS
 62
               4
100
AcDbLine
 10
1.5
 20
0.4
 30
0.0
 11
2.25
 21
1.1499999999999999
 31
0.0
  0
LINE
  5
275
100
AcDbEntity
  8
0
  6
CONTINUOUS
 62
               4
100
AcDbLine
 10
1.5
 20
-0.45
 30
0.0
 11
1.5
 21
0.4
 31
0.0
  0
LINE
  5
276
100
AcDbEntity
  8
0
  6
CONTINUOUS
 62
               4
100
AcDbLine
 10
2.0499999999999998
 20
-1.0
 30
0.0
 11
1.5
 21
-0.45
 31
0.0
  0
LINE
  5
277
100
AcDbEntity
  8
0
  6
CONTINUOUS
 62
               4
100
AcDbLine
 10
2.0499999999999998
 20
-1.0
 30
0.0
 11
2.0499999999999998
 21
-2.5499999999999998
 31
0.0
  0
LINE
  5
278
100
AcDbEntity
  8
0
  6
CONTINUOUS
 62
               4
100
AcDbLine
 10
-2.0499999999999998
 20
-1.0
 30
0.0
 11
-2.0499999999999998
 21
-2.5499999999999998
 31
0.0
  0
LINE
  5
279
100
AcDbEntity
  8
0
  6
CONTINUOUS
 62
               4
100
AcDbLine
 10
-2.0499999999999998
 20
-1.0
 30
0.0
 11
-1.5
 21
-0.45
 31
0.0
  0
LINE
  5
27A
100
AcDbEntity
  8
0
  6
CONTINUOUS
 62
               4
100
AcDbLine
 10
-1.5
 20
-0.45
 30
0.0
 11
-1.5
 21
0.4
 31
0.0
  0
LINE
  5
27B
100
AcDbEntity
  8
0
  6
CONTINUOUS
 62
               4
100
AcDbLine
 10
-1.5
 20
0.4
 30
0.0
 11
-2.25
 21
1.1499999999999999
 31
0.0
  0
LINE
  5
27C
100
AcDbEntity
  8
0
  6
CONTINUOUS
 62
               4
100
AcDbLine
 10
-2.25
 20
6.9000000000000004
 30
0.0
 11
-2.25
 21
1.1499999999999999
 31
0.0
  0
LINE
  5
27D
100
AcDbEntity
  8
0
  6
CONTINUOUS
 62
               4
100
AcDbLine
 10
-2.25
 20
5.4000000000000004
 30
0.0
 11
2.25
 21
5.4000000000000004
 31
0.0
  0
ENDBLK
  5
27E
100
AcDbEntity
  8
0
100
AcDbBlockEnd
  0
BLOCK
  5
27F
100
AcDbEntity
  8
0
100
AcDbBlockBegin
  2
CBDA63-12
 70
               0
 10
0.0
 20
0.0
 30
0.0
  3
CBDA63-12
  1

  0
CIRCLE
  5
280
100
AcDbEntity
  8
0
  6
CONTINUOUS
 62
               4
100
AcDbCircle
 10
19.117279052734375
 20
0.3181533813476563
 30
0.0
 40
0.25
  0
CIRCLE
  5
281
100
AcDbEntity
  8
0
  6
CONTINUOUS
 62
               4
100
AcDbCircle
 10
19.729156494140625
 20
-0.34100341796875
 30
0.0
 40
0.25
  0
CIRCLE
  5
282
100
AcDbEntity
  8
0
  6
CONTINUOUS
 62
               4
100
AcDbCircle
 10
19.117279052734375
 20
0.3181533813476563
 30
0.0
 40
0.449999988079071
  0
CIRCLE
  5
283
100
AcDbEntity
  8
0
  6
CONTINUOUS
 62
               4
100
AcDbCircle
 10
19.729156494140625
 20
-0.34100341796875
 30
0.0
 40
0.449999988079071
  0
CIRCLE
  5
284
100
AcDbEntity
  8
0
  6
CONTINUOUS
 62
               4
100
AcDbCircle
 10
19.4073486328125
 20
0.0
 30
0.0
 40
1.2999992370605469
  0
CIRCLE
  5
285
100
AcDbEntity
  8
0
  6
CONTINUOUS
 62
               4
100
AcDbCircle
 10
2.0
 20
0.0
 30
0.0
 40
1.3999996185302734
  0
CIRCLE
  5
286
100
AcDbEntity
  8
0
  6
CONTINUOUS
 62
               4
100
AcDbCircle
 10
2.0
 20
0.0
 30
0.0
 40
1.25
  0
ARC
  5
287
100
AcDbEntity
  8
0
  6
CONTINUOUS
 62
               4
100
AcDbCircle
 10
19.5
 20
0.0
 30
0.0
 40
3.3043758866085451
100
AcDbArc
 50
137.08479304051025
 51
222.91520695948975
  0
LINE
  5
288
100
AcDbEntity
  8
0
  6
CONTINUOUS
 62
               4
100
AcDbLine
 10
0.9300000000000001
 20
-0.64
 30
0.0
 11
2.6400000000000001
 21
1.0700000000000001
 31
0.0
  0
LINE
  5
289
100
AcDbEntity
  8
0
  6
CONTINUOUS
 62
               4
100
AcDbLine
 10
1.3500000000000001
 20
-1.0700000000000001
 30
0.0
 11
3.0699999999999998
 21
0.64
 31
0.0
  0
LINE
  5
28A
100
AcDbEntity
  8
0
  6
CONTINUOUS
 62
               4
100
AcDbLine
 10
22.0
 20
2.25
 30
0.0
 11
22.0
 21
-2.25
 31
0.0
  0
LINE
  5
28B
100
AcDbEntity
  8
0
  6
CONTINUOUS
 62
               4
100
AcDbLine
 10
17.079999999999998
 20
-2.25
 30
0.0
 11
22.0
 21
-2.25
 31
0.0
  0
LINE
  5
28C
100
AcDbEntity
  8
0
  6
CONTINUOUS
 62
               4
100
AcDbLine
 10
17.079999999999998
 20
2.25
 30
0.0
 11
22.0
 21
2.25
 31
0.0
  0
LINE
  5
28D
100
AcDbEntity
  8
0
  6
CENTER
 62
             200
100
AcDbLine
 10
2.0
 20
2.8300000000000001
 30
0.0
 11
2.0
 21
-2.75
 31
0.0
  0
LINE
  5
28E
100
AcDbEntity
  8
0
  6
CONTINUOUS
 62
               4
100
AcDbLine
 10
0.0
 20
2.0499999999999998
 30
0.0
 11
0.0
 21
-2.0499999999999998
 31
0.0
  0
LINE
  5
28F
100
AcDbEntity
  8
0
  6
CONTINUOUS
 62
               4
100
AcDbLine
 10
0.0
 20
2.0499999999999998
 30
0.0
 11
16.91
 21
2.0499999999999998
 31
0.0
  0
LINE
  5
290
100
AcDbEntity
  8
0
  6
CONTINUOUS
 62
               4
100
AcDbLine
 10
0.0
 20
-2.0499999999999998
 30
0.0
 11
16.91
 21
-2.0499999999999998
 31
0.0
  0
LINE
  5
291
100
AcDbEntity
  8
0
  6
CONTINUOUS
 62
               4
100
AcDbLine
 10
0.0
 20
1.5
 30
0.0
 11
16.559999999999999
 21
1.5
 31
0.0
  0
LINE
  5
292
100
AcDbEntity
  8
0
  6
CONTINUOUS
 62
               4
100
AcDbLine
 10
0.0
 20
-1.5
 30
0.0
 11
16.559999999999999
 21
-1.5
 31
0.0
  0
LINE
  5
293
100
AcDbEntity
  8
0
  6
CENTER
 62
             200
100
AcDbLine
 10
-1.3200000000000001
 20
0.0
 30
0.0
 11
23.579999999999998
 21
0.0
 31
0.0
  0
ENDBLK
  5
294
100
AcDbEntity
  8
0
100
AcDbBlockEnd
  0
BLOCK
  5
295
100
AcDbEntity
  8
0
100
AcDbBlockBegin
  2
CBDA63-13
 70
               0
 10
0.0
 20
0.0
 30
0.0
  3
CBDA63-13
  1

  0
LINE
  5
296
100
AcDbEntity
  8
0
  6
CONTINUOUS
 62
             200
100
AcDbLine
 10
27.730000004768343
 20
-0.3299995223464407
 30
0.0
 11
30.230000004768343
 21
-4.6599995223464532
 31
0.0
  0
LINE
  5
297
100
AcDbEntity
  8
0
  6
CONTINUOUS
 62
             200
100
AcDbLine
 10
26.230000004768343
 20
-0.3299995223464407
 30
0.0
 11
28.730000004768343
 21
-4.6599995223464532
 31
0.0
  0
LINE
  5
298
100
AcDbEntity
  8
0
  6
CONTINUOUS
 62
             200
100
AcDbLine
 10
18.750000004768381
 20
-0.3299995223464407
 30
0.0
 11
21.250000004768381
 21
-4.6599995223464532
 31
0.0
  0
LINE
  5
299
100
AcDbEntity
  8
0
  6
CONTINUOUS
 62
             200
100
AcDbLine
 10
17.250000004768381
 20
-0.3299995223464407
 30
0.0
 11
19.750000004768381
 21
-4.6599995223464532
 31
0.0
  0
LINE
  5
29A
100
AcDbEntity
  8
0
  6
CENTER
 62
             200
100
AcDbLine
 10
22.269999999999996
 20
-1.8499995223464509
 30
0.0
 11
34.200000000000003
 21
-1.8499995223464509
 31
0.0
  0
LINE
  5
29B
100
AcDbEntity
  8
0
  6
CENTER
 62
             200
100
AcDbLine
 10
22.320000000000007
 20
-3.1499995223464481
 30
0.0
 11
34.200000000000003
 21
-3.1499995223464481
 31
0.0
  0
LINE
  5
29C
100
AcDbEntity
  8
0
  6
CONTINUOUS
 62
               4
100
AcDbLine
 10
34.000000000000014
 20
-1.5599995146298227
 30
0.0
 11
34.000000000000014
 21
-2.1399995234853719
 31
0.0
  0
LINE
  5
29D
100
AcDbEntity
  8
0
  6
CONTINUOUS
 62
               4
100
AcDbLine
 10
31.000000000000014
 20
-1.5599995223464589
 30
0.0
 11
34.000000004980919
 21
-1.5599995223464589
 31
0.0
  0
LINE
  5
29E
100
AcDbEntity
  8
0
  6
CONTINUOUS
 62
               4
100
AcDbLine
 10
31.000000000000014
 20
-2.1399995223464572
 30
0.0
 11
34.000000004980919
 21
-2.1399995223464572
 31
0.0
  0
LINE
  5
29F
100
AcDbEntity
  8
0
  6
CONTINUOUS
 62
               4
100
AcDbLine
 10
31.000000000000014
 20
-2.3499995223464509
 30
0.0
 11
31.000000000000014
 21
-1.3499995223464509
 31
0.0
  0
LINE
  5
2A0
100
AcDbEntity
  8
0
  6
CONTINUOUS
 62
               4
100
AcDbLine
 10
28.89628175996468
 20
-2.3499995223464509
 30
0.0
 11
31.000000000000014
 21
-2.3499995223464509
 31
0.0
  0
LINE
  5
2A1
100
AcDbEntity
  8
0
  6
CONTINUOUS
 62
               4
100
AcDbLine
 10
28.318914554421966
 20
-1.3499995223464509
 30
0.0
 11
31.000000000000014
 21
-1.3499995223464509
 31
0.0
  0
LINE
  5
2A2
100
AcDbEntity
  8
0
  6
CONTINUOUS
 62
               4
100
AcDbLine
 10
24.000000000000014
 20
-2.3499995223464509
 30
0.0
 11
27.39628175996468
 21
-2.3499995223464509
 31
0.0
  0
LINE
  5
2A3
100
AcDbEntity
  8
0
  6
CONTINUOUS
 62
               4
100
AcDbLine
 10
24.000000000000014
 20
-1.3499995223464509
 30
0.0
 11
26.818914554421937
 21
-1.3499995223464509
 31
0.0
  0
LINE
  5
2A4
100
AcDbEntity
  8
0
  6
CONTINUOUS
 62
               4
100
AcDbLine
 10
31.000000000000014
 20
-3.4399995223464543
 30
0.0
 11
34.000000004980919
 21
-3.4399995223464543
 31
0.0
  0
LINE
  5
2A5
100
AcDbEntity
  8
0
  6
CONTINUOUS
 62
               4
100
AcDbLine
 10
31.000000000000014
 20
-2.859999522346456
 30
0.0
 11
34.000000004980919
 21
-2.859999522346456
 31
0.0
  0
LINE
  5
2A6
100
AcDbEntity
  8
0
  6
CONTINUOUS
 62
               4
100
AcDbLine
 10
34.000000000000014
 20
-3.4399995300630763
 30
0.0
 11
34.000000000000014
 21
-2.8599995212075271
 31
0.0
  0
LINE
  5
2A7
100
AcDbEntity
  8
0
  6
CONTINUOUS
 62
               4
100
AcDbLine
 10
29.06949192162746
 20
-2.6499995223464481
 30
0.0
 11
31.000000000000014
 21
-2.6499995223464481
 31
0.0
  0
LINE
  5
2A8
100
AcDbEntity
  8
0
  6
CONTINUOUS
 62
               4
100
AcDbLine
 10
29.646859127170231
 20
-3.6499995223464481
 30
0.0
 11
31.000000000000014
 21
-3.6499995223464481
 31
0.0
  0
LINE
  5
2A9
100
AcDbEntity
  8
0
  6
CONTINUOUS
 62
               4
100
AcDbLine
 10
31.000000000000014
 20
-2.6499995223464481
 30
0.0
 11
31.000000000000014
 21
-3.6499995223464481
 31
0.0
  0
LINE
  5
2AA
100
AcDbEntity
  8
0
  6
CONTINUOUS
 62
               4
100
AcDbLine
 10
24.000000000000014
 20
-2.6499995223464481
 30
0.0
 11
27.56949192162746
 21
-2.6499995223464481
 31
0.0
  0
LINE
  5
2AB
100
AcDbEntity
  8
0
  6
CONTINUOUS
 62
               4
100
AcDbLine
 10
24.000000000000014
 20
-3.6499995223464481
 30
0.0
 11
28.146859127170174
 21
-3.6499995223464481
 31
0.0
  0
LINE
  5
2AC
100
AcDbEntity
  8
0
  6
CONTINUOUS
 62
             200
100
AcDbLine
 10
0.9500000047683699
 20
0.6001359972752312
 30
0.0
 11
0.9500000047683699
 21
0.0
 31
0.0
  0
LINE
  5
2AD
100
AcDbEntity
  8
0
  6
CONTINUOUS
 62
             200
100
AcDbLine
 10
3.0500000047683926
 20
0.6001359972752312
 30
0.0
 11
3.0500000047683926
 21
0.0
 31
0.0
  0
LINE
  5
2AE
100
AcDbEntity
  8
0
  6
CONTINUOUS
 62
               4
100
AcDbLine
 10
0.7514285761969433
 20
0.4001359972752141
 30
0.0
 11
3.2514285761969433
 21
0.4001359972752141
 31
0.0
  0
LINE
  5
2AF
100
AcDbEntity
  8
0
  6
CONTINUOUS
 62
               4
100
AcDbLine
 10
3.0514285761969546
 20
0.6001359972752312
 30
0.0
 11
3.2514285761969433
 21
0.4001359972752141
 31
0.0
  0
LINE
  5
2B0
100
AcDbEntity
  8
0
  6
CONTINUOUS
 62
               4
100
AcDbLine
 10
0.7514285761969433
 20
0.4001359972752141
 30
0.0
 11
0.9514285761969461
 21
0.6001359972752312
 31
0.0
  0
LINE
  5
2B1
100
AcDbEntity
  8
0
  6
CONTINUOUS
 62
               4
100
AcDbLine
 10
3.2514285761969433
 20
0.4001359972752141
 30
0.0
 11
3.2514285761969433
 21
0.0
 31
0.0
  0
LINE
  5
2B2
100
AcDbEntity
  8
0
  6
CONTINUOUS
 62
               4
100
AcDbLine
 10
0.7514285761969433
 20
0.0
 30
0.0
 11
0.7514285761969433
 21
0.4001359972752141
 31
0.0
  0
LINE
  5
2B3
100
AcDbEntity
  8
0
  6
CONTINUOUS
 62
             200
100
AcDbLine
 10
0.9500000047683699
 20
-2.5998640027247859
 30
0.0
 11
0.9500000047683699
 21
-4.0984354312962097
 31
0.0
  0
LINE
  5
2B4
100
AcDbEntity
  8
0
  6
CONTINUOUS
 62
             200
100
AcDbLine
 10
3.0500000047683926
 20
-2.5998640027247859
 30
0.0
 11
3.0500000047683926
 21
-4.1012925741533479
 31
0.0
  0
LINE
  5
2B5
100
AcDbEntity
  8
0
  6
CONTINUOUS
 62
               4
100
AcDbLine
 10
0.9514285761969461
 20
0.6001359972752312
 30
0.0
 11
3.0514285761969546
 21
0.6001359972752312
 31
0.0
  0
LINE
  5
2B6
100
AcDbEntity
  8
0
  6
CENTER
 62
             200
100
AcDbLine
 10
6.0000000047683812
 20
-6.0904161991769143
 30
0.0
 11
6.0000000047683812
 21
-3.6810090657418471
 31
0.0
  0
LINE
  5
2B7
100
AcDbEntity
  8
0
  6
CONTINUOUS
 62
               4
100
AcDbLine
 10
0.000000004768367
 20
-1.7998640027247745
 30
0.0
 11
0.000000004768367
 21
0.0
 31
0.0
  0
LINE
  5
2B8
100
AcDbEntity
  8
0
  6
CENTER
 62
             200
100
AcDbLine
 10
2.000000004768367
 20
1.2864823084401849
 30
0.0
 11
2.000000004768367
 21
-5.0670362493540893
 31
0.0
  0
LINE
  5
2B9
100
AcDbEntity
  8
0
  6
CONTINUOUS
 62
               4
100
AcDbLine
 10
4.0000000047683812
 20
-1.8000000027247722
 30
0.0
 11
4.0000000047683812
 21
-2.6000000027247836
 31
0.0
  0
LINE
  5
2BA
100
AcDbEntity
  8
0
  6
CONTINUOUS
 62
               4
100
AcDbLine
 10
0.000000004768367
 20
-1.7998640027247745
 30
0.0
 11
0.000000004768367
 21
-2.6000000027247836
 31
0.0
  0
LINE
  5
2BB
100
AcDbEntity
  8
0
  6
CONTINUOUS
 62
               4
100
AcDbLine
 10
0.7514285761969433
 20
-2.5998640027247859
 30
0.0
 11
0.7514285761969433
 21
-3.8998640027247831
 31
0.0
  0
LINE
  5
2BC
100
AcDbEntity
  8
0
  6
CONTINUOUS
 62
             200
100
AcDbLine
 10
0.7514285761969433
 20
-3.8998640027247831
 30
0.0
 11
3.2514285761969433
 21
-3.8998640027247831
 31
0.0
  0
LINE
  5
2BD
100
AcDbEntity
  8
0
  6
CONTINUOUS
 62
               4
100
AcDbLine
 10
1.2514285761969433
 20
-4.3998640027247831
 30
0.0
 11
0.7514285761969433
 21
-3.8998640027247831
 31
0.0
  0
LINE
  5
2BE
100
AcDbEntity
  8
0
  6
CONTINUOUS
 62
               4
100
AcDbLine
 10
1.2514285761969433
 20
-4.3998640027247831
 30
0.0
 11
2.7514285761969433
 21
-4.3998640027247831
 31
0.0
  0
LINE
  5
2BF
100
AcDbEntity
  8
0
  6
CONTINUOUS
 62
               4
100
AcDbLine
 10
3.2514285761969433
 20
-3.8998640027247831
 30
0.0
 11
2.7514285761969433
 21
-4.3998640027247831
 31
0.0
  0
LINE
  5
2C0
100
AcDbEntity
  8
0
  6
CONTINUOUS
 62
               4
100
AcDbLine
 10
3.2514285761969433
 20
-2.5998640027247859
 30
0.0
 11
3.2514285761969433
 21
-3.8998640027247831
 31
0.0
  0
LINE
  5
2C1
100
AcDbEntity
  8
0
  6
CONTINUOUS
 62
               4
100
AcDbLine
 10
4.3000000047683926
 20
-1.8000000027247722
 30
0.0
 11
4.3000000047683926
 21
-4.5999995223464509
 31
0.0
  0
LINE
  5
2C2
100
AcDbEntity
  8
0
  6
CONTINUOUS
 62
               4
100
AcDbLine
 10
15.500000004768381
 20
-4.5999995223464509
 30
0.0
 11
15.500000004768381
 21
0.0
 31
0.0
  0
LINE
  5
2C3
100
AcDbEntity
  8
0
  6
CONTINUOUS
 62
               4
100
AcDbLine
 10
24.000000000000014
 20
-1.1999995223464452
 30
0.0
 11
24.000000000000014
 21
-3.7999995223464538
 31
0.0
  0
LINE
  5
2C4
100
AcDbEntity
  8
0
  6
CONTINUOUS
 62
               4
100
AcDbLine
 10
4.3000000034059696
 20
-4.5999995223464509
 30
0.0
 11
15.500000000000014
 21
-4.5999995223464509
 31
0.0
  0
LINE
  5
2C5
100
AcDbEntity
  8
0
  6
CONTINUOUS
 62
               4
100
AcDbLine
 10
0.0
 20
-1.8000000027247722
 30
0.0
 11
4.3000000034059696
 21
-1.8000000027247722
 31
0.0
  0
LINE
  5
2C6
100
AcDbEntity
  8
0
  6
CONTINUOUS
 62
               4
100
AcDbLine
 10
0.0
 20
-2.6000000027247836
 30
0.0
 11
4.0000000000000142
 21
-2.6000000027247836
 31
0.0
  0
LINE
  5
2C7
100
AcDbEntity
  8
0
  6
CONTINUOUS
 62
               4
100
AcDbLine
 10
0.0
 20
-1.1000000027247836
 30
0.0
 11
15.500000004768381
 21
-1.1000000027247836
 31
0.0
  0
LINE
  5
2C8
100
AcDbEntity
  8
0
  6
CONTINUOUS
 62
               4
100
AcDbLine
 10
0.0
 20
-0.5499999965940106
 30
0.0
 11
15.500000004768381
 21
-0.5499999965940106
 31
0.0
  0
LINE
  5
2C9
100
AcDbEntity
  8
0
  6
CONTINUOUS
 62
               4
100
AcDbLine
 10
0.0
 20
0.0
 30
0.0
 11
15.500000004768381
 21
0.0
 31
0.0
  0
LINE
  5
2CA
100
AcDbEntity
  8
0
  6
CONTINUOUS
 62
               4
100
AcDbLine
 10
15.500000004768381
 20
-1.1999995223464452
 30
0.0
 11
17.752309473590529
 21
-1.1999995223464452
 31
0.0
  0
LINE
  5
2CB
100
AcDbEntity
  8
0
  6
CONTINUOUS
 62
               4
100
AcDbLine
 10
15.500000004768381
 20
-3.7999995223464538
 30
0.0
 11
19.253464208001631
 21
-3.7999995223464538
 31
0.0
  0
LINE
  5
2CC
100
AcDbEntity
  8
0
  6
CONTINUOUS
 62
               4
100
AcDbLine
 10
19.252309473590529
 20
-1.1999995223464452
 30
0.0
 11
24.000000000000014
 21
-1.1999995223464452
 31
0.0
  0
LINE
  5
2CD
100
AcDbEntity
  8
0
  6
CONTINUOUS
 62
               4
100
AcDbLine
 10
20.753464208001631
 20
-3.7999995223464538
 30
0.0
 11
24.000000000000014
 21
-3.7999995223464538
 31
0.0
  0
LINE
  5
2CE
100
AcDbEntity
  8
0
  6
CENTER
 62
             200
100
AcDbLine
 10
14.651603613580974
 20
-2.4999995223464566
 30
0.0
 11
33.252631011319536
 21
-2.4999995223464566
 31
0.0
  0
ENDBLK
  5
2CF
100
AcDbEntity
  8
0
100
AcDbBlockEnd
  0
BLOCK
  5
2D0
100
AcDbEntity
  8
0
100
AcDbBlockBegin
  2
CBDA63-14
 70
               0
 10
0.0
 20
0.0
 30
0.0
  3
CBDA63-14
  1

  0
LINE
  5
2D1
100
AcDbEntity
  8
0
  6
CONTINUOUS
 62
             200
100
AcDbLine
 10
1.0500000000000114
 20
0.0
 30
0.0
 11
1.0500000000000114
 21
0.6001360000000062
 31
0.0
  0
LINE
  5
2D2
100
AcDbEntity
  8
0
  6
CONTINUOUS
 62
             200
100
AcDbLine
 10
-1.0499999999999829
 20
0.0
 30
0.0
 11
-1.0499999999999829
 21
0.6001360000000062
 31
0.0
  0
LINE
  5
2D3
100
AcDbEntity
  8
0
  6
CONTINUOUS
 62
             200
100
AcDbLine
 10
1.0500000000000114
 20
-4.0970068571428584
 30
0.0
 11
1.0500000000000114
 21
-2.6000000000000085
 31
0.0
  0
LINE
  5
2D4
100
AcDbEntity
  8
0
  6
CONTINUOUS
 62
             200
100
AcDbLine
 10
-1.0499999999999829
 20
-4.0970068571428584
 30
0.0
 11
-1.0499999999999829
 21
-2.6000000000000085
 31
0.0
  0
LINE
  5
2D5
100
AcDbEntity
  8
0
  6
CONTINUOUS
 62
               4
100
AcDbLine
 10
-1.25
 20
0.4001359999999892
 30
0.0
 11
-1.0499999999999829
 21
0.6001360000000062
 31
0.0
  0
LINE
  5
2D6
100
AcDbEntity
  8
0
  6
CONTINUOUS
 62
               4
100
AcDbLine
 10
-1.25
 20
0.0
 30
0.0
 11
-1.25
 21
0.4001359999999892
 31
0.0
  0
LINE
  5
2D7
100
AcDbEntity
  8
0
  6
CONTINUOUS
 62
               4
100
AcDbLine
 10
-2.0499999999999972
 20
-1.1000000000000085
 30
0.0
 11
-2.0499999999999972
 21
-2.5484354285714375
 31
0.0
  0
LINE
  5
2D8
100
AcDbEntity
  8
0
  6
CONTINUOUS
 62
               4
100
AcDbLine
 10
-2.0499999999999972
 20
-1.1000000000000085
 30
0.0
 11
-1.501428571428562
 21
-0.5485714285714352
 31
0.0
  0
LINE
  5
2D9
100
AcDbEntity
  8
0
  6
CONTINUOUS
 62
               4
100
AcDbLine
 10
-1.25
 20
-2.6000000000000085
 30
0.0
 11
-1.25
 21
-3.8970068571428556
 31
0.0
  0
LINE
  5
2DA
100
AcDbEntity
  8
0
  6
CONTINUOUS
 62
               4
100
AcDbLine
 10
-0.7471428571428476
 20
-4.399864000000008
 30
0.0
 11
-1.25
 21
-3.8970068571428556
 31
0.0
  0
LINE
  5
2DB
100
AcDbEntity
  8
0
  6
CONTINUOUS
 62
               4
100
AcDbLine
 10
-0.7471428571428476
 20
-4.399864000000008
 30
0.0
 11
0.747142857142876
 21
-4.399864000000008
 31
0.0
  0
LINE
  5
2DC
100
AcDbEntity
  8
0
  6
CENTER
 62
             200
100
AcDbLine
 10
0.0
 20
-5.0670362466293142
 30
0.0
 11
0.0
 21
1.2864823111649599
 31
0.0
  0
LINE
  5
2DD
100
AcDbEntity
  8
0
  6
CONTINUOUS
 62
               4
100
AcDbLine
 10
-1.5
 20
-0.5471354166666771
 30
0.0
 11
-1.5
 21
0.0000000027247751
 31
0.0
  0
LINE
  5
2DE
100
AcDbEntity
  8
0
  6
CONTINUOUS
 62
               4
100
AcDbLine
 10
1.0500000000000114
 20
0.6001360000000062
 30
0.0
 11
1.25
 21
0.4001359999999892
 31
0.0
  0
LINE
  5
2DF
100
AcDbEntity
  8
0
  6
CONTINUOUS
 62
               4
100
AcDbLine
 10
1.25
 20
0.4001359999999892
 30
0.0
 11
1.25
 21
0.0
 31
0.0
  0
LINE
  5
2E0
100
AcDbEntity
  8
0
  6
CONTINUOUS
 62
               4
100
AcDbLine
 10
2.0500000000000114
 20
-1.1000000000000085
 30
0.0
 11
2.0500000000000114
 21
-2.5484354285714375
 31
0.0
  0
LINE
  5
2E1
100
AcDbEntity
  8
0
  6
CONTINUOUS
 62
               4
100
AcDbLine
 10
1.25
 20
-2.5998640000000108
 30
0.0
 11
1.25
 21
-3.8970068571428556
 31
0.0
  0
LINE
  5
2E2
100
AcDbEntity
  8
0
  6
CONTINUOUS
 62
               4
100
AcDbLine
 10
1.5
 20
-0.5499999999999972
 30
0.0
 11
1.5
 21
0.0000000027247751
 31
0.0
  0
LINE
  5
2E3
100
AcDbEntity
  8
0
  6
CONTINUOUS
 62
               4
100
AcDbLine
 10
1.4999999938692525
 20
-0.5499999938692355
 30
0.0
 11
2.0500000000000114
 21
-1.1000000000000085
 31
0.0
  0
LINE
  5
2E4
100
AcDbEntity
  8
0
  6
CONTINUOUS
 62
               4
100
AcDbLine
 10
-2.0499999999999972
 20
-2.6000000000000085
 30
0.0
 11
2.0493907233260273
 21
-2.6000000000000085
 31
0.0
  0
LINE
  5
2E5
100
AcDbEntity
  8
0
  6
CONTINUOUS
 62
               4
100
AcDbLine
 10
-2.0499999999999972
 20
-1.7999999999999972
 30
0.0
 11
2.0500000000000114
 21
-1.7999999999999972
 31
0.0
  0
ARC
  5
2E6
100
AcDbEntity
  8
0
  6
CONTINUOUS
 62
               4
100
AcDbCircle
 10
0.0
 20
-2.5499989233983342
 30
0.0
 40
2.050000596223347
100
AcDbArc
 50
179.95630164031351
 51
0.0
  0
LINE
  5
2E7
100
AcDbEntity
  8
0
  6
CONTINUOUS
 62
               4
100
AcDbLine
 10
1.25
 20
-3.8970068571428556
 30
0.0
 11
0.747142857142876
 21
-4.399864000000008
 31
0.0
  0
LINE
  5
2E8
100
AcDbEntity
  8
0
  6
CONTINUOUS
 62
               4
100
AcDbLine
 10
-1.25
 20
-3.8970068571428556
 30
0.0
 11
1.25
 21
-3.8970068571428556
 31
0.0
  0
LINE
  5
2E9
100
AcDbEntity
  8
0
  6
CONTINUOUS
 62
               4
100
AcDbLine
 10
-1.501428571428562
 20
0.0
 30
0.0
 11
1.5
 21
0.0
 31
0.0
  0
LINE
  5
2EA
100
AcDbEntity
  8
0
  6
CONTINUOUS
 62
               4
100
AcDbLine
 10
-1.25
 20
0.4001359999999892
 30
0.0
 11
1.25
 21
0.4001359999999892
 31
0.0
  0
LINE
  5
2EB
100
AcDbEntity
  8
0
  6
CONTINUOUS
 62
               4
100
AcDbLine
 10
-1.0499999999999829
 20
0.6001360000000062
 30
0.0
 11
1.0500000000000114
 21
0.6001360000000062
 31
0.0
  0
ENDBLK
  5
2EC
100
AcDbEntity
  8
0
100
AcDbBlockEnd
  0
BLOCK
  5
2ED
100
AcDbEntity
  8
0
100
AcDbBlockBegin
  2
CBDA63-15
 70
               0
 10
0.0
 20
0.0
 30
0.0
  3
CBDA63-15
  1

  0
LINE
  5
2EE
100
AcDbEntity
  8
0
  6
CENTER
 62
             200
100
AcDbLine
 10
-1.4104017530168846
 20
0.0
 30
0.0
 11
21.50288684079608
 21
0.0
 31
0.0
  0
LINE
  5
2EF
100
AcDbEntity
  8
0
  6
CONTINUOUS
 62
             200
100
AcDbLine
 10
17.250000004768381
 20
2.1700000000000159
 30
0.0
 11
19.750000004768381
 21
-2.1599999999999966
 31
0.0
  0
LINE
  5
2F0
100
AcDbEntity
  8
0
  6
CONTINUOUS
 62
               4
100
AcDbLine
 10
15.500000004768381
 20
-1.2999999999999972
 30
0.0
 11
19.253464208001631
 21
-1.2999999999999972
 31
0.0
  0
LINE
  5
2F1
100
AcDbEntity
  8
0
  6
CONTINUOUS
 62
               4
100
AcDbLine
 10
15.500000004768381
 20
1.3000000000000114
 30
0.0
 11
17.752309473590529
 21
1.3000000000000114
 31
0.0
  0
LINE
  5
2F2
100
AcDbEntity
  8
0
  6
CENTER
 62
             200
100
AcDbLine
 10
2.000000004768367
 20
2.9428571428571502
 30
0.0
 11
2.000000004768367
 21
-3.2999846734234666
 31
0.0
  0
LINE
  5
2F3
100
AcDbEntity
  8
0
  6
CONTINUOUS
 62
               4
100
AcDbLine
 10
3.9000000047683585
 20
-1.5
 30
0.0
 11
3.9000000047683585
 21
1.5
 31
0.0
  0
LINE
  5
2F4
100
AcDbEntity
  8
0
  6
CONTINUOUS
 62
               4
100
AcDbLine
 10
10.400000004768359
 20
-1.5
 30
0.0
 11
10.400000004768359
 21
1.5
 31
0.0
  0
LINE
  5
2F5
100
AcDbEntity
  8
0
  6
CONTINUOUS
 62
               4
100
AcDbLine
 10
8.0000000047683812
 20
-0.5999999999999943
 30
0.0
 11
8.0000000047683812
 21
0.9000000000000057
 31
0.0
  0
LINE
  5
2F6
100
AcDbEntity
  8
0
  6
CONTINUOUS
 62
               4
100
AcDbLine
 10
9.6000000047683756
 20
-0.5999999999999943
 30
0.0
 11
9.6000000047683756
 21
0.9000000000000057
 31
0.0
  0
LINE
  5
2F7
100
AcDbEntity
  8
0
  6
CONTINUOUS
 62
               4
100
AcDbLine
 10
0.0
 20
-2.0499999999999972
 30
0.0
 11
0.0
 21
2.0500000000000114
 31
0.0
  0
LINE
  5
2F8
100
AcDbEntity
  8
0
  6
CONTINUOUS
 62
               4
100
AcDbLine
 10
15.500000004768381
 20
-2.0499999999999972
 30
0.0
 11
15.500000004768381
 21
2.0500000000000114
 31
0.0
  0
LINE
  5
2F9
100
AcDbEntity
  8
0
  6
CONTINUOUS
 62
               4
100
AcDbLine
 10
0.0
 20
1.5
 30
0.0
 11
15.500000004768381
 21
1.5
 31
0.0
  0
LINE
  5
2FA
100
AcDbEntity
  8
0
  6
CONTINUOUS
 62
               4
100
AcDbLine
 10
0.0
 20
-1.5
 30
0.0
 11
15.500000004768381
 21
-1.5
 31
0.0
  0
CIRCLE
  5
2FB
100
AcDbEntity
  8
0
  6
CONTINUOUS
 62
               4
100
AcDbCircle
 10
2.000000004768367
 20
0.0
 30
0.0
 40
1.3999999999999997
  0
CIRCLE
  5
2FC
100
AcDbEntity
  8
0
  6
CONTINUOUS
 62
               4
100
AcDbCircle
 10
2.000000004768367
 20
0.0
 30
0.0
 40
1.25
  0
CIRCLE
  5
2FD
100
AcDbEntity
  8
0
  6
CONTINUOUS
 62
             200
100
AcDbCircle
 10
2.000000004768367
 20
0.0
 30
0.0
 40
1.05
  0
LINE
  5
2FE
100
AcDbEntity
  8
0
  6
CONTINUOUS
 62
               4
100
AcDbLine
 10
0.9571978986753322
 20
-0.6892486978790089
 30
0.0
 11
2.6892487026473901
 21
1.0428021060930348
 31
0.0
  0
LINE
  5
2FF
100
AcDbEntity
  8
0
  6
CONTINUOUS
 62
               4
100
AcDbLine
 10
1.3107513189315796
 20
-1.0428020722525559
 30
0.0
 11
3.0428021124431126
 21
0.6892487212589913
 31
0.0
  0
LINE
  5
300
100
AcDbEntity
  8
0
  6
CONTINUOUS
 62
               4
100
AcDbLine
 10
8.0000000047683812
 20
0.9000000000000057
 30
0.0
 11
9.6000000047683756
 21
0.9000000000000057
 31
0.0
  0
LINE
  5
301
100
AcDbEntity
  8
0
  6
CONTINUOUS
 62
               4
100
AcDbLine
 10
8.0000000047683812
 20
-0.5999999999999943
 30
0.0
 11
9.6000000047683756
 21
-0.5999999999999943
 31
0.0
  0
LINE
  5
302
100
AcDbEntity
  8
0
  6
CONTINUOUS
 62
               4
100
AcDbLine
 10
0.0
 20
2.0500000000000114
 30
0.0
 11
15.500000004768381
 21
2.0500000000000114
 31
0.0
  0
LINE
  5
303
100
AcDbEntity
  8
0
  6
CONTINUOUS
 62
               4
100
AcDbLine
 10
0.0
 20
-2.0499999999999972
 30
0.0
 11
15.500000004768381
 21
-2.0499999999999972
 31
0.0
  0
ENDBLK
  5
304
100
AcDbEntity
  8
0
100
AcDbBlockEnd
  0
BLOCK
  5
305
100
AcDbEntity
  8
0
100
AcDbBlockBegin
  2
CBDA63-16
 70
               0
 10
0.0
 20
0.0
 30
0.0
  3
CBDA63-16
  1

  0
LINE
  5
306
100
AcDbEntity
  8
0
  6
CONTINUOUS
 62
               4
100
AcDbLine
 10
11.200000004768356
 20
9.6445121127279805
 30
0.0
 11
11.200000004768356
 21
14.397976315961245
 31
0.0
  0
LINE
  5
307
100
AcDbEntity
  8
0
  6
CONTINUOUS
 62
               4
100
AcDbLine
 10
13.800000004768378
 20
11.145666847139083
 30
0.0
 11
13.800000004768378
 21
14.397976315961245
 31
0.0
  0
LINE
  5
308
100
AcDbEntity
  8
0
  6
CONTINUOUS
 62
             200
100
AcDbLine
 10
10.34000000476837
 20
16.627976315961234
 30
0.0
 11
14.670000004768355
 21
19.127976315961234
 31
0.0
  0
LINE
  5
309
100
AcDbEntity
  8
0
  6
CONTINUOUS
 62
             200
100
AcDbLine
 10
10.34000000476837
 20
18.127976315961234
 30
0.0
 11
14.670000004768355
 21
20.627976315961234
 31
0.0
  0
LINE
  5
30A
100
AcDbEntity
  8
0
  6
CONTINUOUS
 62
             200
100
AcDbLine
 10
10.34000000476837
 20
7.6479763159612446
 30
0.0
 11
14.670000004768355
 21
10.147976315961245
 31
0.0
  0
LINE
  5
30B
100
AcDbEntity
  8
0
  6
CONTINUOUS
 62
             200
100
AcDbLine
 10
10.34000000476837
 20
9.1479763159612446
 30
0.0
 11
14.670000004768355
 21
11.647976315961245
 31
0.0
  0
LINE
  5
30C
100
AcDbEntity
  8
0
  6
CONTINUOUS
 62
               4
100
AcDbLine
 10
10.400000010217923
 20
0.9479762348989311
 30
0.0
 11
12.050955668063693
 21
1.4979762296661931
 31
0.0
  0
LINE
  5
30D
100
AcDbEntity
  8
0
  6
CONTINUOUS
 62
               4
100
AcDbLine
 10
12.050955668063693
 20
1.4979762296661931
 30
0.0
 11
12.050955668063693
 21
5.8979763159612446
 31
0.0
  0
LINE
  5
30E
100
AcDbEntity
  8
0
  6
CONTINUOUS
 62
               4
100
AcDbLine
 10
12.949044341473041
 20
4.8979763118740749
 30
0.0
 11
12.949044341473041
 21
5.8979763118740749
 31
0.0
  0
LINE
  5
30F
100
AcDbEntity
  8
0
  6
CONTINUOUS
 62
               4
100
AcDbLine
 10
12.949044341473041
 20
4.8979763159612446
 30
0.0
 11
15.000000004768367
 21
4.8979763159612446
 31
0.0
  0
LINE
  5
310
100
AcDbEntity
  8
0
  6
CONTINUOUS
 62
               4
100
AcDbLine
 10
14.60000000476839
 20
4.8979763159612446
 30
0.0
 11
14.60000000476839
 21
5.8979763159612446
 31
0.0
  0
LINE
  5
311
100
AcDbEntity
  8
0
  6
CONTINUOUS
 62
               4
100
AcDbLine
 10
10.400000004768373
 20
-0.0020236840387469
 30
0.0
 11
10.400000004768373
 21
5.8979763159612446
 31
0.0
  0
LINE
  5
312
100
AcDbEntity
  8
0
  6
CONTINUOUS
 62
               4
100
AcDbLine
 10
10.400000004768373
 20
5.8979763159612446
 30
0.0
 11
14.60000000476839
 21
5.8979763159612446
 31
0.0
  0
LINE
  5
313
100
AcDbEntity
  8
0
  6
CONTINUOUS
 62
               4
100
AcDbLine
 10
15.000000004768367
 20
3.8979763159612446
 30
0.0
 11
10.400000004768373
 21
3.8979763159612446
 31
0.0
  0
LINE
  5
314
100
AcDbEntity
  8
0
  6
CENTER
 62
             200
100
AcDbLine
 10
12.500000004768367
 20
5.393395200374826
 30
0.0
 11
12.500000004768367
 21
17.186465534727617
 31
0.0
  0
LINE
  5
315
100
AcDbEntity
  8
0
  6
CONTINUOUS
 62
             200
100
AcDbLine
 10
0.9500000047683557
 20
0.5979763159612475
 30
0.0
 11
0.9500000047683557
 21
-0.0020236840387469
 31
0.0
  0
LINE
  5
316
100
AcDbEntity
  8
0
  6
CONTINUOUS
 62
             200
100
AcDbLine
 10
3.0500000047683784
 20
0.5979763159612475
 30
0.0
 11
3.0500000047683784
 21
-0.0020236840387469
 31
0.0
  0
LINE
  5
317
100
AcDbEntity
  8
0
  6
CONTINUOUS
 62
               4
100
AcDbLine
 10
0.751428576196929
 20
0.3979763159612446
 30
0.0
 11
3.251428576196929
 21
0.3979763159612446
 31
0.0
  0
LINE
  5
318
100
AcDbEntity
  8
0
  6
CONTINUOUS
 62
               4
100
AcDbLine
 10
3.0514285761969404
 20
0.5979763159612475
 30
0.0
 11
3.251428576196929
 21
0.3979763159612446
 31
0.0
  0
LINE
  5
319
100
AcDbEntity
  8
0
  6
CONTINUOUS
 62
               4
100
AcDbLine
 10
0.751428576196929
 20
0.3979763159612446
 30
0.0
 11
0.9514285761969461
 21
0.5979763159612475
 31
0.0
  0
LINE
  5
31A
100
AcDbEntity
  8
0
  6
CONTINUOUS
 62
               4
100
AcDbLine
 10
3.251428576196929
 20
0.3979763159612446
 30
0.0
 11
3.251428576196929
 21
-0.0020236840387469
 31
0.0
  0
LINE
  5
31B
100
AcDbEntity
  8
0
  6
CONTINUOUS
 62
               4
100
AcDbLine
 10
0.751428576196929
 20
-0.0020236840387469
 30
0.0
 11
0.751428576196929
 21
0.3979763159612446
 31
0.0
  0
LINE
  5
31C
100
AcDbEntity
  8
0
  6
CONTINUOUS
 62
             200
100
AcDbLine
 10
0.9500000047683557
 20
-2.6020236840387554
 30
0.0
 11
0.9500000047683557
 21
-4.1005951126101792
 31
0.0
  0
LINE
  5
31D
100
AcDbEntity
  8
0
  6
CONTINUOUS
 62
             200
100
AcDbLine
 10
3.0500000047683784
 20
-2.6020236840387554
 30
0.0
 11
3.0500000047683784
 21
-4.1034522554673174
 31
0.0
  0
LINE
  5
31E
100
AcDbEntity
  8
0
  6
CONTINUOUS
 62
               4
100
AcDbLine
 10
0.9514285761969461
 20
0.5979763159612475
 30
0.0
 11
3.0514285761969404
 21
0.5979763159612475
 31
0.0
  0
LINE
  5
31F
100
AcDbEntity
  8
0
  6
CENTER
 62
             200
100
AcDbLine
 10
6.000000004768367
 20
-6.0925758804908838
 30
0.0
 11
6.000000004768367
 21
-3.6831687470558165
 31
0.0
  0
LINE
  5
320
100
AcDbEntity
  8
0
  6
CONTINUOUS
 62
               4
100
AcDbLine
 10
0.000000004768367
 20
-1.8020236840387582
 30
0.0
 11
0.000000004768367
 21
0.0
 31
0.0
  0
LINE
  5
321
100
AcDbEntity
  8
0
  6
CENTER
 62
             200
100
AcDbLine
 10
2.000000004768367
 20
1.2843226271262154
 30
0.0
 11
2.000000004768367
 21
-5.0691959306680587
 31
0.0
  0
LINE
  5
322
100
AcDbEntity
  8
0
  6
CONTINUOUS
 62
               4
100
AcDbLine
 10
4.000000004768367
 20
-1.8020236840387582
 30
0.0
 11
4.000000004768367
 21
-2.6020236840387554
 31
0.0
  0
LINE
  5
323
100
AcDbEntity
  8
0
  6
CONTINUOUS
 62
               4
100
AcDbLine
 10
0.000000004768367
 20
-1.8020236840387582
 30
0.0
 11
0.000000004768367
 21
-2.6020236840387554
 31
0.0
  0
LINE
  5
324
100
AcDbEntity
  8
0
  6
CONTINUOUS
 62
               4
100
AcDbLine
 10
0.751428576196929
 20
-2.6020236840387554
 30
0.0
 11
0.751428576196929
 21
-3.9020236840387525
 31
0.0
  0
LINE
  5
325
100
AcDbEntity
  8
0
  6
CONTINUOUS
 62
             200
100
AcDbLine
 10
0.751428576196929
 20
-3.9020236840387525
 30
0.0
 11
3.251428576196929
 21
-3.9020236840387525
 31
0.0
  0
LINE
  5
326
100
AcDbEntity
  8
0
  6
CONTINUOUS
 62
               4
100
AcDbLine
 10
1.251428576196929
 20
-4.4020236840387525
 30
0.0
 11
0.751428576196929
 21
-3.9020236840387525
 31
0.0
  0
LINE
  5
327
100
AcDbEntity
  8
0
  6
CONTINUOUS
 62
               4
100
AcDbLine
 10
1.251428576196929
 20
-4.4020236840387525
 30
0.0
 11
2.751428576196929
 21
-4.4020236840387525
 31
0.0
  0
LINE
  5
328
100
AcDbEntity
  8
0
  6
CONTINUOUS
 62
               4
100
AcDbLine
 10
3.251428576196929
 20
-3.9020236840387525
 30
0.0
 11
2.751428576196929
 21
-4.4020236840387525
 31
0.0
  0
LINE
  5
329
100
AcDbEntity
  8
0
  6
CONTINUOUS
 62
               4
100
AcDbLine
 10
3.251428576196929
 20
-2.6020236840387554
 30
0.0
 11
3.251428576196929
 21
-3.9020236840387525
 31
0.0
  0
LINE
  5
32A
100
AcDbEntity
  8
0
  6
CONTINUOUS
 62
               4
100
AcDbLine
 10
4.3000000047683784
 20
-1.8000000000000114
 30
0.0
 11
4.3000000047683784
 21
-4.6000000000000085
 31
0.0
  0
LINE
  5
32B
100
AcDbEntity
  8
0
  6
CONTINUOUS
 62
               4
100
AcDbLine
 10
15.000000004768367
 20
-4.6000000000000085
 30
0.0
 11
15.000000004768367
 21
4.8979763159612446
 31
0.0
  0
LINE
  5
32C
100
AcDbEntity
  8
0
  6
CONTINUOUS
 62
               4
100
AcDbLine
 10
11.200000004768356
 20
14.397976315961245
 30
0.0
 11
13.800000004768378
 21
14.397976315961245
 31
0.0
  0
LINE
  5
32D
100
AcDbEntity
  8
0
  6
CONTINUOUS
 62
               4
100
AcDbLine
 10
11.200000004768356
 20
5.8979763159612446
 30
0.0
 11
11.200000004768356
 21
8.1445121127279805
 31
0.0
  0
LINE
  5
32E
100
AcDbEntity
  8
0
  6
CONTINUOUS
 62
               4
100
AcDbLine
 10
13.800000004768378
 20
5.8979763159612446
 30
0.0
 11
13.800000004768378
 21
9.6456668471390827
 31
0.0
  0
LINE
  5
32F
100
AcDbEntity
  8
0
  6
CONTINUOUS
 62
               4
100
AcDbLine
 10
4.3000000034059838
 20
-4.6000000000000085
 30
0.0
 11
15.0
 21
-4.6000000000000085
 31
0.0
  0
LINE
  5
330
100
AcDbEntity
  8
0
  6
CONTINUOUS
 62
               4
100
AcDbLine
 10
0.0
 20
0.0
 30
0.0
 11
15.0
 21
0.0
 31
0.0
  0
LINE
  5
331
100
AcDbEntity
  8
0
  6
CONTINUOUS
 62
               4
100
AcDbLine
 10
0.000000004768367
 20
-1.8000000000000114
 30
0.0
 11
4.3000000047683784
 21
-1.8000000000000114
 31
0.0
  0
LINE
  5
332
100
AcDbEntity
  8
0
  6
CONTINUOUS
 62
               4
100
AcDbLine
 10
0.0
 20
-2.6000000000000085
 30
0.0
 11
4.0
 21
-2.6000000000000085
 31
0.0
  0
LINE
  5
333
100
AcDbEntity
  8
0
  6
CONTINUOUS
 62
               4
100
AcDbLine
 10
0.0
 20
-1.1000000082564156
 30
0.0
 11
15.0
 21
-1.1000000082564156
 31
0.0
  0
LINE
  5
334
100
AcDbEntity
  8
0
  6
CONTINUOUS
 62
               4
100
AcDbLine
 10
0.0
 20
-0.5500000000000114
 30
0.0
 11
15.000000004768367
 21
-0.5500000000000114
 31
0.0
  0
LINE
  5
335
100
AcDbEntity
  8
0
  6
CONTINUOUS
 62
               4
100
AcDbLine
 10
10.399999993188032
 20
0.9479762301305641
 30
0.0
 11
15.0
 21
0.9479762301305641
 31
0.0
  0
LINE
  5
336
100
AcDbEntity
  8
0
  6
CONTINUOUS
 62
               4
100
AcDbLine
 10
10.400000010217923
 20
1.4979762335365336
 30
0.0
 11
15.000000004768367
 21
1.4979762335365336
 31
0.0
  0
LINE
  5
337
100
AcDbEntity
  8
0
  6
CONTINUOUS
 62
               4
100
AcDbLine
 10
12.350000004768361
 20
14.397976315961245
 30
0.0
 11
12.350000004768361
 21
17.788484399102117
 31
0.0
  0
LINE
  5
338
100
AcDbEntity
  8
0
  6
CONTINUOUS
 62
               4
100
AcDbLine
 10
12.650000004768373
 20
14.397976315961245
 30
0.0
 11
12.650000004768373
 21
17.96169456076494
 31
0.0
  0
LINE
  5
339
100
AcDbEntity
  8
0
  6
CONTINUOUS
 62
               4
100
AcDbLine
 10
13.650000004768373
 20
14.397976315961245
 30
0.0
 11
13.650000004768373
 21
18.539061766307668
 31
0.0
  0
LINE
  5
33A
100
AcDbEntity
  8
0
  6
CONTINUOUS
 62
               4
100
AcDbLine
 10
11.350000004768361
 20
14.397976315961245
 30
0.0
 11
11.350000004768361
 21
17.211117193559389
 31
0.0
  0
LINE
  5
33B
100
AcDbEntity
  8
0
  6
CONTINUOUS
 62
               4
100
AcDbLine
 10
11.350000006811968
 20
21.397976315961238
 30
0.0
 11
12.350000004768361
 21
21.397976315961238
 31
0.0
  0
LINE
  5
33C
100
AcDbEntity
  8
0
  6
CONTINUOUS
 62
               4
100
AcDbLine
 10
12.650000004768373
 20
21.397976315961238
 30
0.0
 11
13.650000010217923
 21
21.397976315961238
 31
0.0
  0
LINE
  5
33D
100
AcDbEntity
  8
0
  6
CONTINUOUS
 62
               4
100
AcDbLine
 10
12.650000004768373
 20
19.46169456076494
 30
0.0
 11
12.650000004768373
 21
21.397976315961238
 31
0.0
  0
LINE
  5
33E
100
AcDbEntity
  8
0
  6
CONTINUOUS
 62
               4
100
AcDbLine
 10
13.650000004768373
 20
20.039061766307668
 30
0.0
 11
13.650000004768373
 21
21.397976315961238
 31
0.0
  0
LINE
  5
33F
100
AcDbEntity
  8
0
  6
CONTINUOUS
 62
               4
100
AcDbLine
 10
11.350000004768361
 20
18.711117193559389
 30
0.0
 11
11.350000004768361
 21
21.397976315961238
 31
0.0
  0
LINE
  5
340
100
AcDbEntity
  8
0
  6
CONTINUOUS
 62
               4
100
AcDbLine
 10
12.350000004768361
 20
19.288484399102117
 30
0.0
 11
12.350000004768361
 21
21.397976315961238
 31
0.0
  0
LINE
  5
341
100
AcDbEntity
  8
0
  6
CENTER
 62
             200
100
AcDbLine
 10
11.8500000020436
 20
12.667976315961241
 30
0.0
 11
11.8500000020436
 21
24.59797631596124
 31
0.0
  0
LINE
  5
342
100
AcDbEntity
  8
0
  6
CENTER
 62
             200
100
AcDbLine
 10
13.150000007493162
 20
12.667976315961241
 30
0.0
 11
13.150000007493162
 21
24.647976315961238
 31
0.0
  0
LINE
  5
343
100
AcDbEntity
  8
0
  6
CONTINUOUS
 62
               4
100
AcDbLine
 10
12.86000000749317
 20
21.397976315961238
 30
0.0
 11
12.86000000749317
 21
24.397976315961238
 31
0.0
  0
LINE
  5
344
100
AcDbEntity
  8
0
  6
CONTINUOUS
 62
               4
100
AcDbLine
 10
13.440000007493154
 20
21.397976315961238
 30
0.0
 11
13.440000007493154
 21
24.397976315961238
 31
0.0
  0
LINE
  5
345
100
AcDbEntity
  8
0
  6
CONTINUOUS
 62
               4
100
AcDbLine
 10
12.860000014305115
 20
24.397976315961238
 30
0.0
 11
13.440000006130759
 21
24.397976315961238
 31
0.0
  0
LINE
  5
346
100
AcDbEntity
  8
0
  6
CONTINUOUS
 62
               4
100
AcDbLine
 10
12.139999995231619
 20
24.397976315961238
 30
0.0
 11
11.560000003405975
 21
24.397976315961238
 31
0.0
  0
LINE
  5
347
100
AcDbEntity
  8
0
  6
CONTINUOUS
 62
               4
100
AcDbLine
 10
12.140000002043564
 20
21.397976315961238
 30
0.0
 11
12.140000002043564
 21
24.397976315961238
 31
0.0
  0
LINE
  5
348
100
AcDbEntity
  8
0
  6
CONTINUOUS
 62
               4
100
AcDbLine
 10
11.56000000204358
 20
21.397976315961238
 30
0.0
 11
11.56000000204358
 21
24.397976315961238
 31
0.0
  0
ENDBLK
  5
349
100
AcDbEntity
  8
0
100
AcDbBlockEnd
  0
BLOCK
  5
34A
100
AcDbEntity
  8
0
100
AcDbBlockBegin
  2
CBDA63-17
 70
               0
 10
0.0
 20
0.0
 30
0.0
  3
CBDA63-17
  1

  0
LINE
  5
34B
100
AcDbEntity
  8
0
  6
CONTINUOUS
 62
             200
100
AcDbLine
 10
-2.1599999999999966
 20
7.6479762296661846
 30
0.0
 11
2.1699999999999875
 21
10.147976229666185
 31
0.0
  0
LINE
  5
34C
100
AcDbEntity
  8
0
  6
CONTINUOUS
 62
               4
100
AcDbLine
 10
-2.0500000000000114
 20
5.8979762296661846
 30
0.0
 11
2.0499999999999829
 21
5.8979762296661846
 31
0.0
  0
LINE
  5
34D
100
AcDbEntity
  8
0
  6
CONTINUOUS
 62
               4
100
AcDbLine
 10
-2.0500000000000114
 20
3.8979762296661846
 30
0.0
 11
2.0499999999999829
 21
3.8979762296661846
 31
0.0
  0
LINE
  5
34E
100
AcDbEntity
  8
0
  6
CONTINUOUS
 62
               4
100
AcDbLine
 10
-1.0500000000000114
 20
0.5979763159612475
 30
0.0
 11
1.0499999999999829
 21
0.5979763159612475
 31
0.0
  0
LINE
  5
34F
100
AcDbEntity
  8
0
  6
CONTINUOUS
 62
               4
100
AcDbLine
 10
-1.25
 20
0.3979763159612446
 30
0.0
 11
-1.0500000000000114
 21
0.5979763159612475
 31
0.0
  0
LINE
  5
350
100
AcDbEntity
  8
0
  6
CONTINUOUS
 62
               4
100
AcDbLine
 10
1.0499999999999829
 20
0.5979763159612475
 30
0.0
 11
1.25
 21
0.3979763159612446
 31
0.0
  0
LINE
  5
351
100
AcDbEntity
  8
0
  6
CONTINUOUS
 62
               4
100
AcDbLine
 10
-1.25
 20
0.3979763159612446
 30
0.0
 11
1.25
 21
0.3979763159612446
 31
0.0
  0
LINE
  5
352
100
AcDbEntity
  8
0
  6
CONTINUOUS
 62
               4
100
AcDbLine
 10
1.25
 20
0.3979763159612446
 30
0.0
 11
1.25
 21
0.0
 31
0.0
  0
LINE
  5
353
100
AcDbEntity
  8
0
  6
CONTINUOUS
 62
               4
100
AcDbLine
 10
-1.25
 20
0.0
 30
0.0
 11
-1.25
 21
0.3979763159612446
 31
0.0
  0
LINE
  5
354
100
AcDbEntity
  8
0
  6
CONTINUOUS
 62
               4
100
AcDbLine
 10
-2.0479763159612503
 20
-1.1020236840387554
 30
0.0
 11
-1.5
 21
-0.5511933247651939
 31
0.0
  0
LINE
  5
355
100
AcDbEntity
  8
0
  6
CONTINUOUS
 62
               4
100
AcDbLine
 10
2.0499999999999829
 20
-1.1000000000000085
 30
0.0
 11
1.5
 21
-0.5500000000000114
 31
0.0
  0
LINE
  5
356
100
AcDbEntity
  8
0
  6
CONTINUOUS
 62
               4
100
AcDbLine
 10
1.25
 20
-2.6000000000000085
 30
0.0
 11
1.25
 21
-3.8991665411816143
 31
0.0
  0
LINE
  5
357
100
AcDbEntity
  8
0
  6
CONTINUOUS
 62
               4
100
AcDbLine
 10
-1.25
 20
-2.6000000000000085
 30
0.0
 11
-1.25
 21
-3.8991665411816143
 31
0.0
  0
LINE
  5
358
100
AcDbEntity
  8
0
  6
CONTINUOUS
 62
               4
100
AcDbLine
 10
-1.25
 20
-3.8991665411816143
 30
0.0
 11
1.25
 21
-3.8991665411816143
 31
0.0
  0
LINE
  5
359
100
AcDbEntity
  8
0
  6
CONTINUOUS
 62
               4
100
AcDbLine
 10
1.25
 20
-3.8991665411816143
 30
0.0
 11
0.7471428571428476
 21
-4.4020236840387525
 31
0.0
  0
LINE
  5
35A
100
AcDbEntity
  8
0
  6
CONTINUOUS
 62
               4
100
AcDbLine
 10
-0.7471428571428476
 20
-4.4020236840387525
 30
0.0
 11
-1.25
 21
-3.8991665411816143
 31
0.0
  0
LINE
  5
35B
100
AcDbEntity
  8
0
  6
CONTINUOUS
 62
               4
100
AcDbLine
 10
2.0005951126101706
 20
-1.8000000000000114
 30
0.0
 11
2.0005951126101706
 21
-2.6020236840387554
 31
0.0
  0
LINE
  5
35C
100
AcDbEntity
  8
0
  6
CONTINUOUS
 62
               4
100
AcDbLine
 10
-1.9994048873898294
 20
-1.8000000000000114
 30
0.0
 11
-1.9994048873898294
 21
-2.6020236840387554
 31
0.0
  0
LINE
  5
35D
100
AcDbEntity
  8
0
  6
CONTINUOUS
 62
               4
100
AcDbLine
 10
-0.7471428571428476
 20
-4.4020236840387525
 30
0.0
 11
0.7471428571428476
 21
-4.4020236840387525
 31
0.0
  0
LINE
  5
35E
100
AcDbEntity
  8
0
  6
CONTINUOUS
 62
               4
100
AcDbLine
 10
-2.0500000000000114
 20
-2.550595112610182
 30
0.0
 11
-2.0500000000000114
 21
-1.1020236840387554
 31
0.0
  0
LINE
  5
35F
100
AcDbEntity
  8
0
  6
CONTINUOUS
 62
               4
100
AcDbLine
 10
2.0499999999999829
 20
-2.6411128569469895
 30
0.0
 11
2.0499999999999829
 21
-1.1000000082564156
 31
0.0
  0
ARC
  5
360
100
AcDbEntity
  8
0
  6
CONTINUOUS
 62
               4
100
AcDbCircle
 10
0.0
 20
-2.5500000000000114
 30
0.0
 40
2.0499999999999994
100
AcDbArc
 50
180.0
 51
0.0
  0
LINE
  5
361
100
AcDbEntity
  8
0
  6
CONTINUOUS
 62
               4
100
AcDbLine
 10
-2.0500000000000114
 20
1.4979762281690228
 30
0.0
 11
-2.0500000000000114
 21
5.8979762296661846
 31
0.0
  0
LINE
  5
362
100
AcDbEntity
  8
0
  6
CONTINUOUS
 62
               4
100
AcDbLine
 10
2.0499999999999829
 20
1.4979762320920855
 30
0.0
 11
2.0499999999999829
 21
5.8979762296661846
 31
0.0
  0
LINE
  5
363
100
AcDbEntity
  8
0
  6
CONTINUOUS
 62
               4
100
AcDbLine
 10
1.5
 20
0.9479762320920884
 30
0.0
 11
2.0500000014444595
 21
1.4979762335365336
 31
0.0
  0
LINE
  5
364
100
AcDbEntity
  8
0
  6
CONTINUOUS
 62
               4
100
AcDbLine
 10
-2.050000005367508
 20
1.4979762335365336
 30
0.0
 11
-1.5
 21
0.9479762281690256
 31
0.0
  0
LINE
  5
365
100
AcDbEntity
  8
0
  6
CONTINUOUS
 62
               4
100
AcDbLine
 10
-1.5
 20
-0.5511933238986302
 30
0.0
 11
-1.5
 21
0.9479762301305641
 31
0.0
  0
LINE
  5
366
100
AcDbEntity
  8
0
  6
CONTINUOUS
 62
               4
100
AcDbLine
 10
1.5
 20
-0.5500000048504319
 30
0.0
 11
1.5
 21
0.9479762301305641
 31
0.0
  0
LINE
  5
367
100
AcDbEntity
  8
0
  6
CONTINUOUS
 62
               4
100
AcDbLine
 10
-1.5000000019615243
 20
0.0
 30
0.0
 11
1.4999999980384757
 21
0.0
 31
0.0
  0
LINE
  5
368
100
AcDbEntity
  8
0
  6
CONTINUOUS
 62
               4
100
AcDbLine
 10
-2.0500000000000114
 20
-1.8000000000000114
 30
0.0
 11
2.0499999999999829
 21
-1.8000000000000114
 31
0.0
  0
LINE
  5
369
100
AcDbEntity
  8
0
  6
CONTINUOUS
 62
               4
100
AcDbLine
 10
-1.9994048873898294
 20
-2.6000000000000085
 30
0.0
 11
2.0005951126101706
 21
-2.6000000000000085
 31
0.0
  0
LINE
  5
36A
100
AcDbEntity
  8
0
  6
CONTINUOUS
 62
               4
100
AcDbLine
 10
-1.3000000000000114
 20
5.8979762296661846
 30
0.0
 11
-1.3000000000000114
 21
8.1445120264329205
 31
0.0
  0
LINE
  5
36B
100
AcDbEntity
  8
0
  6
CONTINUOUS
 62
               4
100
AcDbLine
 10
1.2999999999999829
 20
5.8979762296661846
 30
0.0
 11
1.2999999999999829
 21
9.6456667608440085
 31
0.0
  0
LINE
  5
36C
100
AcDbEntity
  8
0
  6
CENTER
 62
             200
100
AcDbLine
 10
0.0
 20
-5.5464060491292599
 30
0.0
 11
0.0
 21
9.6693480170655448
 31
0.0
  0
LINE
  5
36D
100
AcDbEntity
  8
0
  6
CONTINUOUS
 62
             200
100
AcDbLine
 10
-1.0250000000000057
 20
-4.1241665411816086
 30
0.0
 11
-1.0250000000000057
 21
-2.6000000000000085
 31
0.0
  0
LINE
  5
36E
100
AcDbEntity
  8
0
  6
CONTINUOUS
 62
             200
100
AcDbLine
 10
1.0250000000000057
 20
-4.1241665411816086
 30
0.0
 11
1.0250000000000057
 21
-2.6000000000000085
 31
0.0
  0
LINE
  5
36F
100
AcDbEntity
  8
0
  6
CONTINUOUS
 62
             200
100
AcDbLine
 10
1.0250000000000057
 20
-0.0000000014444481
 30
0.0
 11
1.0250000000000057
 21
0.5979763159612475
 31
0.0
  0
LINE
  5
370
100
AcDbEntity
  8
0
  6
CONTINUOUS
 62
             200
100
AcDbLine
 10
-1.0250000000000057
 20
-0.0000000014444481
 30
0.0
 11
-1.0250000000000057
 21
0.5979763159612475
 31
0.0
  0
ENDBLK
  5
371
100
AcDbEntity
  8
0
100
AcDbBlockEnd
  0
BLOCK
  5
372
100
AcDbEntity
  8
0
100
AcDbBlockBegin
  2
CBDA63-18
 70
               0
 10
0.0
 20
0.0
 30
0.0
  3
CBDA63-18
  1

  0
CIRCLE
  5
373
100
AcDbEntity
  8
0
  6
CONTINUOUS
 62
               4
100
AcDbCircle
 10
12.5
 20
0.0
 30
0.0
 40
1.3
  0
LINE
  5
374
100
AcDbEntity
  8
0
  6
CENTER
 62
             200
100
AcDbLine
 10
12.5
 20
-2.442956204414358
 30
0.0
 11
12.5
 21
2.4456261784689701
 31
0.0
  0
ARC
  5
375
100
AcDbEntity
  8
0
  6
CONTINUOUS
 62
               4
100
AcDbCircle
 10
12.5
 20
0.0
 30
0.0
 40
2.1000000000000001
100
AcDbArc
 50
282.34693236741282
 51
77.293658161570477
  0
ARC
  5
376
100
AcDbEntity
  8
0
  6
CONTINUOUS
 62
               4
100
AcDbCircle
 10
12.5
 20
0.0
 30
0.0
 40
2.1000000000000001
100
AcDbArc
 50
102.70634183842952
 51
257.65306763258718
  0
LINE
  5
377
100
AcDbEntity
  8
0
  6
CENTER
 62
             200
100
AcDbLine
 10
-1.3247205773654969
 20
0.0
 30
0.0
 11
16.237619114850219
 21
0.0
 31
0.0
  0
LINE
  5
378
100
AcDbEntity
  8
0
  6
CONTINUOUS
 62
               4
100
AcDbLine
 10
0.0
 20
1.5
 30
0.0
 11
11.030306154330106
 21
1.5
 31
0.0
  0
LINE
  5
379
100
AcDbEntity
  8
0
  6
CONTINUOUS
 62
               4
100
AcDbLine
 10
0.0
 20
2.0499999999999972
 30
0.0
 11
0.0
 21
-2.0499999999999972
 31
0.0
  0
LINE
  5
37A
100
AcDbEntity
  8
0
  6
CONTINUOUS
 62
               4
100
AcDbLine
 10
15.0
 20
2.0499999999999972
 30
0.0
 11
15.0
 21
-2.0499999999999972
 31
0.0
  0
LINE
  5
37B
100
AcDbEntity
  8
0
  6
CENTER
 62
             200
100
AcDbLine
 10
2.0
 20
2.8342857142857127
 30
0.0
 11
2.0
 21
-3.3514132448520257
 31
0.0
  0
LINE
  5
37C
100
AcDbEntity
  8
0
  6
CONTINUOUS
 62
               4
100
AcDbLine
 10
0.9571428571428555
 20
-0.7142857142857082
 30
0.0
 11
2.6885714285714357
 21
1.019999999999996
 31
0.0
  0
LINE
  5
37D
100
AcDbEntity
  8
0
  6
CONTINUOUS
 62
               4
100
AcDbLine
 10
1.3085714285714403
 20
-1.068571428571417
 30
0.0
 11
3.0519930369714814
 21
0.6748501798286242
 31
0.0
  0
LINE
  5
37E
100
AcDbEntity
  8
0
  6
CONTINUOUS
 62
               4
100
AcDbLine
 10
3.9000000000000057
 20
-1.5028571503502945
 30
0.0
 11
3.9000000000000057
 21
1.500000006811959
 31
0.0
  0
LINE
  5
37F
100
AcDbEntity
  8
0
  6
CONTINUOUS
 62
               4
100
AcDbLine
 10
10.400000000000006
 20
-1.5028571503502945
 30
0.0
 11
10.400000000000006
 21
1.500000006811959
 31
0.0
  0
LINE
  5
380
100
AcDbEntity
  8
0
  6
CONTINUOUS
 62
               4
100
AcDbLine
 10
8.0
 20
-0.7000000068119476
 30
0.0
 11
8.0
 21
0.9000000000000057
 31
0.0
  0
LINE
  5
381
100
AcDbEntity
  8
0
  6
CONTINUOUS
 62
               4
100
AcDbLine
 10
9.6000000000000227
 20
-0.7000000068119476
 30
0.0
 11
9.6000000000000227
 21
0.9000000000000057
 31
0.0
  0
LINE
  5
382
100
AcDbEntity
  8
0
  6
CONTINUOUS
 62
               4
100
AcDbLine
 10
8.0
 20
0.9000000000000057
 30
0.0
 11
9.6000000000000227
 21
0.9000000000000057
 31
0.0
  0
LINE
  5
383
100
AcDbEntity
  8
0
  6
CONTINUOUS
 62
               4
100
AcDbLine
 10
8.0
 20
-0.7000000000000028
 30
0.0
 11
9.6000000000000227
 21
-0.7000000000000028
 31
0.0
  0
LINE
  5
384
100
AcDbEntity
  8
0
  6
CONTINUOUS
 62
               4
100
AcDbLine
 10
0.0
 20
2.0499999999999972
 30
0.0
 11
15.0
 21
2.0499999999999972
 31
0.0
  0
LINE
  5
385
100
AcDbEntity
  8
0
  6
CONTINUOUS
 62
               4
100
AcDbLine
 10
0.0
 20
-2.0499999999999972
 30
0.0
 11
15.0
 21
-2.0499999999999972
 31
0.0
  0
LINE
  5
386
100
AcDbEntity
  8
0
  6
CONTINUOUS
 62
               4
100
AcDbLine
 10
0.0
 20
-1.5
 30
0.0
 11
11.030306154330106
 21
-1.5
 31
0.0
  0
CIRCLE
  5
387
100
AcDbEntity
  8
0
  6
CONTINUOUS
 62
               4
100
AcDbCircle
 10
2.0
 20
0.0
 30
0.0
 40
1.3999999999999997
  0
CIRCLE
  5
388
100
AcDbEntity
  8
0
  6
CONTINUOUS
 62
             200
100
AcDbCircle
 10
2.0
 20
0.0
 30
0.0
 40
1.05
  0
CIRCLE
  5
389
100
AcDbEntity
  8
0
  6
CONTINUOUS
 62
               4
100
AcDbCircle
 10
2.0
 20
0.0
 30
0.0
 40
1.25
  0
LINE
  5
38A
100
AcDbEntity
  8
0
  6
CENTER
 62
             200
100
AcDbLine
 10
11.849999997275233
 20
-0.8054622970305871
 30
0.0
 11
11.849999997275233
 21
0.8557856223879981
 31
0.0
  0
LINE
  5
38B
100
AcDbEntity
  8
0
  6
CENTER
 62
             200
100
AcDbLine
 10
13.150000002724795
 20
-0.8054622970305871
 30
0.0
 11
13.150000002724795
 21
0.8557856223879981
 31
0.0
  0
CIRCLE
  5
38C
100
AcDbEntity
  8
0
  6
CONTINUOUS
 62
               4
100
AcDbCircle
 10
13.150000002724795
 20
0.0
 30
0.0
 40
0.5
  0
CIRCLE
  5
38D
100
AcDbEntity
  8
0
  6
CONTINUOUS
 62
               4
100
AcDbCircle
 10
11.849999997275233
 20
0.0
 30
0.0
 40
0.5
  0
CIRCLE
  5
38E
100
AcDbEntity
  8
0
  6
CONTINUOUS
 62
               4
100
AcDbCircle
 10
13.150000002724795
 20
0.0
 30
0.0
 40
0.29
  0
CIRCLE
  5
38F
100
AcDbEntity
  8
0
  6
CONTINUOUS
 62
               4
100
AcDbCircle
 10
11.849999997275233
 20
0.0
 30
0.0
 40
0.29
  0
ENDBLK
  5
390
100
AcDbEntity
  8
0
100
AcDbBlockEnd
  0
ENDSEC
  0
SECTION
  2
ENTITIES
  0
MTEXT
  5
391
100
AcDbEntity
  8
0
  6
CONTINUOUS
 62
               7
100
AcDbMText
 10
86.730957684770672
 20
-44.465350273506708
 30
0.0
 40
6.3000001907348633
 41
0.0
 71
               1
 72
               1
  1
\W1.071;\A1;ZE135
  0
MTEXT
  5
392
100
AcDbEntity
  8
0
  6
CONTINUOUS
 62
               7
100
AcDbMText
 10
86.730957684770672
 20
-51.408412975054802
 30
0.0
 40
6.3000001907348633
 41
0.0
 71
               1
 72
               1
  1
\W1.071;\A1;ZE155
  0
MTEXT
  5
393
100
AcDbEntity
  8
0
  6
CONTINUOUS
 62
               7
100
AcDbMText
 10
218.69356918732458
 20
-51.408412975054802
 30
0.0
 40
6.3000001907348633
 41
0.0
 71
               1
 72
               1
  1
\A1;ZE255
  0
MTEXT
  5
394
100
AcDbEntity
  8
0
  6
CONTINUOUS
 62
               7
100
AcDbMText
 10
218.69356918732458
 20
-44.465350273506708
 30
0.0
 40
6.3000001907348633
 41
0.0
 71
               1
 72
               1
  1
\A1;ZE235
  0
MTEXT
  5
395
100
AcDbEntity
  8
0
  6
CONTINUOUS
 62
               7
100
AcDbMText
 10
-50.227375642511532
 20
-44.465350273506708
 30
0.0
 40
6.3000001907348633
 41
0.0
 71
               1
 72
               1
  1
\W1.111;\A1;ZE201
  0
MTEXT
  5
396
100
AcDbEntity
  8
0
  6
CONTINUOUS
 62
               7
100
AcDbMText
 10
-50.307835410597392
 20
-51.408412975054802
 30
0.0
 40
6.3000001907348633
 41
0.0
 71
               1
 72
               1
  1
\W1.034;\A1;ZE202
  0
MTEXT
  5
397
100
AcDbEntity
  8
0
  6
CONTINUOUS
 62
               7
100
AcDbMText
 10
-187.13404231236063
 20
-44.465350273506708
 30
0.0
 40
6.3000001907348633
 41
0.0
 71
               1
 72
               1
  1
\W1.200;\A1;ZE101
  0
MTEXT
  5
398
100
AcDbEntity
  8
0
  6
CONTINUOUS
 62
               7
100
AcDbMText
 10
-187.22737564251153
 20
-51.408412975054802
 30
0.0
 40
6.3000001907348633
 41
0.0
 71
               1
 72
               1
  1
\W1.111;\A1;ZE102
  0
INSERT
  5
399
100
AcDbEntity
  8
0
  6
ByBlock
100
AcDbBlockReference
  2
CBDA63-18
 10
218.95491941713072
 20
-68.709503173828125
 30
0.0
  0
INSERT
  5
39A
100
AcDbEntity
  8
0
  6
ByBlock
100
AcDbBlockReference
  2
CBDA63-17
 10
171.95432430452055
 20
-116.30952453613281
 30
0.0
  0
INSERT
  5
39B
100
AcDbEntity
  8
0
  6
ByBlock
100
AcDbBlockReference
  2
CBDA63-16
 10
218.95491941713072
 20
-116.30952453613281
 30
0.0
  0
INSERT
  5
39C
100
AcDbEntity
  8
0
  6
ByBlock
100
AcDbBlockReference
  2
CBDA63-15
 10
85.445959185610249
 20
-68.709503173828125
 30
0.0
  0
INSERT
  5
39D
100
AcDbEntity
  8
0
  6
ByBlock
100
AcDbBlockReference
  2
CBDA63-14
 10
38.447387761807178
 20
-116.30957079287833
 30
0.0
  0
INSERT
  5
39E
100
AcDbEntity
  8
0
  6
ByBlock
100
AcDbBlockReference
  2
CBDA63-13
 10
85.445959190378616
 20
-116.30952501378637
 30
0.0
  0
INSERT
  5
39F
100
AcDbEntity
  8
0
  6
ByBlock
100
AcDbBlockReference
  2
CBDA63-12
 10
-55.285452616151517
 20
-68.709503173828125
 30
0.0
  0
INSERT
  5
3A0
100
AcDbEntity
  8
0
  6
ByBlock
100
AcDbBlockReference
  2
CBDA63-11
 10
-98.328177225526517
 20
-116.30952453613281
 30
0.0
  0
INSERT
  5
3A1
100
AcDbEntity
  8
0
  6
ByBlock
100
AcDbBlockReference
  2
CBDA63-10
 10
-55.285452616151517
 20
-116.30952453613281
 30
0.0
  0
INSERT
  5
3A2
100
AcDbEntity
  8
0
  6
ByBlock
100
AcDbBlockReference
  2
CBDA63-9
 10
-193.09640502929687
 20
-68.709503173828125
 30
0.0
  0
INSERT
  5
3A3
100
AcDbEntity
  8
0
  6
ByBlock
100
AcDbBlockReference
  2
CBDA63-8
 10
-237.63912963867187
 20
-116.3095703125
 30
0.0
  0
INSERT
  5
3A4
100
AcDbEntity
  8
0
  6
ByBlock
100
AcDbBlockReference
  2
CBDA63-7
 10
-193.09640502929687
 20
-116.3095703125
 30
0.0
  0
INSERT
  5
3A5
100
AcDbEntity
  8
0
  6
ByBlock
100
AcDbBlockReference
  2
CBDA63-6
 10
209.66912841796875
 20
111.53857421875
 30
0.0
  0
INSERT
  5
3A6
100
AcDbEntity
  8
0
  6
ByBlock
100
AcDbBlockReference
  2
CBDA63-5
 10
128.94436645507812
 20
111.53857421875
 30
0.0
  0
INSERT
  5
3A7
100
AcDbEntity
  8
0
  6
ByBlock
100
AcDbBlockReference
  2
CBDA63-4
 10
-15.0
 20
130.0
 30
0.0
  0
INSERT
  5
3A8
100
AcDbEntity
  8
0
  6
ByBlock
100
AcDbBlockReference
  2
CBDA63-3
 10
120.0
 20
20.0
 30
0.0
  0
INSERT
  5
3A9
100
AcDbEntity
  8
0
  6
ByBlock
100
AcDbBlockReference
  2
CBDA63-2
 10
-125.00001525878906
 20
20.0
 30
0.0
  0
INSERT
  5
3AA
100
AcDbEntity
  8
0
  6
ByBlock
100
AcDbBlockReference
  2
CBDA63-1
 10
-15.0
 20
20.0
 30
0.0
  0
MTEXT
  5
3AB
100
AcDbEntity
  8
0
  6
CONTINUOUS
 62
               7
100
AcDbMText
 10
204.41920455296835
 20
141.53866577148437
 30
0.0
 40
6.3000001907348633
 41
0.0
 71
               4
 72
               1
  1
\A1;-G
  0
MTEXT
  5
3AC
100
AcDbEntity
  8
0
  6
CONTINUOUS
 62
               7
100
AcDbMText
 10
123.69438155492146
 20
141.53861999511719
 30
0.0
 40
6.3000001907348633
 41
0.0
 71
               4
 72
               1
  1
\A1;-B
  0
MTEXT
  5
3AD
100
AcDbEntity
  8
0
  6
CONTINUOUS
 62
               7
100
AcDbMText
 10
-147.85000001072885
 20
-173.0
 30
0.0
 40
4.5
 41
0.0
 71
               4
 72
               1
  1
\W1.200;\A1;15
  0
MTEXT
  5
3AE
100
AcDbEntity
  8
0
  6
CONTINUOUS
 62
               7
100
AcDbMText
 10
-125.93181817295138
 20
-173.0
 30
0.0
 40
4.5
 41
0.0
 71
               4
 72
               1
  1
\W1.091;\A1;20
  0
MTEXT
  5
3AF
100
AcDbEntity
  8
0
  6
CONTINUOUS
 62
               7
100
AcDbMText
 10
-104.0
 20
-173.0
 30
0.0
 40
4.5
 41
0.0
 71
               4
 72
               1
  1
\A1;25
  0
MTEXT
  5
3B0
100
AcDbEntity
  8
0
  6
CONTINUOUS
 62
               7
100
AcDbMText
 10
-81.931818172951381
 20
-173.0
 30
0.0
 40
4.5
 41
0.0
 71
               4
 72
               1
  1
\W1.091;\A1;30
  0
MTEXT
  5
3B1
100
AcDbEntity
  8
0
  6
CONTINUOUS
 62
               7
100
AcDbMText
 10
-60.0
 20
-173.0
 30
0.0
 40
4.5
 41
0.0
 71
               4
 72
               1
  1
\A1;35
  0
MTEXT
  5
3B2
100
AcDbEntity
  8
0
  6
CONTINUOUS
 62
               7
100
AcDbMText
 10
-37.931818172951374
 20
-173.0
 30
0.0
 40
4.5
 41
0.0
 71
               4
 72
               1
  1
\W1.091;\A1;40
  0
MTEXT
  5
3B3
100
AcDbEntity
  8
0
  6
CONTINUOUS
 62
               7
100
AcDbMText
 10
-16.0
 20
-173.0
 30
0.0
 40
4.5
 41
0.0
 71
               4
 72
               1
  1
\A1;65
  0
MTEXT
  5
3B4
100
AcDbEntity
  8
0
  6
CONTINUOUS
 62
               7
100
AcDbMText
 10
6.0681818270486252
 20
-173.0
 30
0.0
 40
4.5
 41
0.0
 71
               4
 72
               1
  1
\W1.091;\A1;90
  0
MTEXT
  5
3B5
100
AcDbEntity
  8
0
  6
CONTINUOUS
 62
               7
100
AcDbMText
 10
-169.75
 20
-173.0
 30
0.0
 40
4.5
 41
0.0
 71
               4
 72
               1
  1
\W1.333;\A1;10
  0
MTEXT
  5
3B6
100
AcDbEntity
  8
0
  6
CONTINUOUS
 62
               7
100
AcDbMText
 10
-189.75
 20
-173.0
 30
0.0
 40
4.5
 41
0.0
 71
               4
 72
               1
  1
\A1;5
  0
MTEXT
  5
3B7
100
AcDbEntity
  8
0
  6
CONTINUOUS
 62
               7
100
AcDbMText
 10
-211.59999997854231
 20
-173.0
 30
0.0
 40
4.5
 41
0.0
 71
               4
 72
               1
  1
\W1.200;\A1;0
  0
MTEXT
  5
3B8
100
AcDbEntity
  8
0
  6
CONTINUOUS
 62
               7
100
AcDbMText
 10
-38.0
 20
-181.0
 30
0.0
 40
4.5
 41
0.0
 71
               4
 72
               1
  1
\A1;45
  0
MTEXT
  5
3B9
100
AcDbEntity
  8
0
  6
CONTINUOUS
 62
               7
100
AcDbMText
 10
-15.931818172951376
 20
-181.0
 30
0.0
 40
4.5
 41
0.0
 71
               4
 72
               1
  1
\W1.091;\A1;70
  0
MTEXT
  5
3BA
100
AcDbEntity
  8
0
  6
CONTINUOUS
 62
               7
100
AcDbMText
 10
6.0
 20
-181.0
 30
0.0
 40
4.5
 41
0.0
 71
               4
 72
               1
  1
\A1;95
  0
MTEXT
  5
3BB
100
AcDbEntity
  8
0
  6
CONTINUOUS
 62
               7
100
AcDbMText
 10
-211.75
 20
-181.0
 30
0.0
 40
4.5
 41
0.0
 71
               4
 72
               1
  1
\A1;5
  0
MTEXT
  5
3BC
100
AcDbEntity
  8
0
  6
CONTINUOUS
 62
               7
100
AcDbMText
 10
-191.75
 20
-181.0
 30
0.0
 40
4.5
 41
0.0
 71
               4
 72
               1
  1
\W1.333;\A1;10
  0
MTEXT
  5
3BD
100
AcDbEntity
  8
0
  6
CONTINUOUS
 62
               7
100
AcDbMText
 10
-169.85000001072885
 20
-181.0
 30
0.0
 40
4.5
 41
0.0
 71
               4
 72
               1
  1
\W1.200;\A1;15
  0
MTEXT
  5
3BE
100
AcDbEntity
  8
0
  6
CONTINUOUS
 62
               7
100
AcDbMText
 10
-147.93181817295138
 20
-181.0
 30
0.0
 40
4.5
 41
0.0
 71
               4
 72
               1
  1
\W1.091;\A1;20
  0
MTEXT
  5
3BF
100
AcDbEntity
  8
0
  6
CONTINUOUS
 62
               7
100
AcDbMText
 10
-126.0
 20
-181.0
 30
0.0
 40
4.5
 41
0.0
 71
               4
 72
               1
  1
\A1;25
  0
MTEXT
  5
3C0
100
AcDbEntity
  8
0
  6
CONTINUOUS
 62
               7
100
AcDbMText
 10
-103.93181817295138
 20
-181.0
 30
0.0
 40
4.5
 41
0.0
 71
               4
 72
               1
  1
\W1.091;\A1;30
  0
MTEXT
  5
3C1
100
AcDbEntity
  8
0
  6
CONTINUOUS
 62
               7
100
AcDbMText
 10
-82.0
 20
-181.0
 30
0.0
 40
4.5
 41
0.0
 71
               4
 72
               1
  1
\A1;35
  0
MTEXT
  5
3C2
100
AcDbEntity
  8
0
  6
CONTINUOUS
 62
               7
100
AcDbMText
 10
-59.931818172951374
 20
-181.0
 30
0.0
 40
4.5
 41
0.0
 71
               4
 72
               1
  1
\W1.091;\A1;40
  0
MTEXT
  5
3C3
100
AcDbEntity
  8
0
  6
CONTINUOUS
 62
               7
100
AcDbMText
 10
1.3749999751647324
 20
-149.0
 30
0.0
 40
4.5
 41
0.0
 71
               4
 72
               1
  1
\W0.833;\A1;（ｍｍ）
  0
MTEXT
  5
3C4
100
AcDbEntity
  8
0
  6
CONTINUOUS
 62
               7
100
AcDbMText
 10
-230.54999701182047
 20
150.5
 30
0.0
 40
6.3000001907348633
 41
0.0
 71
               4
 72
               1
  1
\A1;CBDAS63*ST
  0
MTEXT
  5
3C5
100
AcDbEntity
  8
0
  6
CONTINUOUS
 62
               7
100
AcDbMText
 10
-268.23786414121577
 20
160.5
 30
0.0
 40
6.3000001907348633
 41
0.0
 71
               4
 72
               1
  1
\W1.107;\A1;MODEL:CBDA63*ST(10)
  0
MTEXT
  5
3C6
100
AcDbEntity
  8
0
  6
CONTINUOUS
 62
               3
100
AcDbMText
 10
-27.681657917256793
 20
179.3946533203125
 30
0.0
 40
6.3000001907348633
 41
0.0
 71
               4
 72
               1
  1
\W1.065;\A1;STRETCH LINE
  0
MTEXT
  5
3C7
100
AcDbEntity
  8
0
  6
CONTINUOUS
 62
               7
100
AcDbMText
 10
-151.45118343336134
 20
-148.0
 30
0.0
 40
4.5
 41
0.0
 71
               4
 72
               1
  1
\W1.065;\A1;STRETCH LIST
  0
MTEXT
  5
3C8
100
AcDbEntity
  8
0
  6
CONTINUOUS
 62
               7
100
AcDbMText
 10
-60.0
 20
-161.0
 30
0.0
 40
4.5
 41
0.0
 71
               4
 72
               1
  1
\A1;45
  0
MTEXT
  5
3C9
100
AcDbEntity
  8
0
  6
CONTINUOUS
 62
               7
100
AcDbMText
 10
-81.931818172951381
 20
-161.0
 30
0.0
 40
4.5
 41
0.0
 71
               4
 72
               1
  1
\W1.091;\A1;40
  0
MTEXT
  5
3CA
100
AcDbEntity
  8
0
  6
CONTINUOUS
 62
               7
100
AcDbMText
 10
-104.0
 20
-161.0
 30
0.0
 40
4.5
 41
0.0
 71
               4
 72
               1
  1
\A1;35
  0
MTEXT
  5
3CB
100
AcDbEntity
  8
0
  6
CONTINUOUS
 62
               7
100
AcDbMText
 10
-125.93181817295138
 20
-161.0
 30
0.0
 40
4.5
 41
0.0
 71
               4
 72
               1
  1
\W1.091;\A1;30
  0
MTEXT
  5
3CC
100
AcDbEntity
  8
0
  6
CONTINUOUS
 62
               7
100
AcDbMText
 10
-148.0
 20
-161.0
 30
0.0
 40
4.5
 41
0.0
 71
               4
 72
               1
  1
\A1;25
  0
MTEXT
  5
3CD
100
AcDbEntity
  8
0
  6
CONTINUOUS
 62
               7
100
AcDbMText
 10
-169.93181817295138
 20
-161.0
 30
0.0
 40
4.5
 41
0.0
 71
               4
 72
               1
  1
\W1.091;\A1;20
  0
MTEXT
  5
3CE
100
AcDbEntity
  8
0
  6
CONTINUOUS
 62
               7
100
AcDbMText
 10
-191.85000001072885
 20
-161.0
 30
0.0
 40
4.5
 41
0.0
 71
               4
 72
               1
  1
\W1.200;\A1;15
  0
MTEXT
  5
3CF
100
AcDbEntity
  8
0
  6
CONTINUOUS
 62
               7
100
AcDbMText
 10
-213.75
 20
-161.0
 30
0.0
 40
4.5
 41
0.0
 71
               4
 72
               1
  1
\W1.333;\A1;10
  0
MTEXT
  5
3D0
100
AcDbEntity
  8
0
  6
CONTINUOUS
 62
               7
100
AcDbMText
 10
-249.234375
 20
-157.0
 30
0.0
 40
4.5
 41
0.0
 71
               4
 72
               1
  1
\A1;STROKE
  0
MTEXT
  5
3D1
100
AcDbEntity
  8
0
  6
CONTINUOUS
 62
               7
100
AcDbMText
 10
-264.265625
 20
-165.0
 30
0.0
 40
4.5
 41
0.0
 71
               4
 72
               1
  1
\A1;TYPE
  0
MTEXT
  5
3D2
100
AcDbEntity
  8
0
  6
CONTINUOUS
 62
               7
100
AcDbMText
 10
3.9642857224965584
 20
-161.0
 30
0.0
 40
4.5
 41
0.0
 71
               4
 72
               1
  1
\W1.286;\A1;100
  0
MTEXT
  5
3D3
100
AcDbEntity
  8
0
  6
CONTINUOUS
 62
               7
100
AcDbMText
 10
-16.0
 20
-161.0
 30
0.0
 40
4.5
 41
0.0
 71
               4
 72
               1
  1
\A1;75
  0
MTEXT
  5
3D4
100
AcDbEntity
  8
0
  6
CONTINUOUS
 62
               7
100
AcDbMText
 10
-37.931818172951374
 20
-161.0
 30
0.0
 40
4.5
 41
0.0
 71
               4
 72
               1
  1
\W1.091;\A1;50
  0
MTEXT
  5
3D5
100
AcDbEntity
  8
0
  6
CONTINUOUS
 62
               7
100
AcDbMText
 10
-261.25
 20
-173.0
 30
0.0
 40
4.5
 41
0.0
 71
               4
 72
               1
  1
\A1;CBDA63
  0
MTEXT
  5
3D6
100
AcDbEntity
  8
0
  6
CONTINUOUS
 62
               7
100
AcDbMText
 10
-261.25
 20
-181.0
 30
0.0
 40
4.5
 41
0.0
 71
               4
 72
               1
  1
\A1;CBDAS63
  0
MTEXT
  5
3D7
100
AcDbEntity
  8
0
  6
CONTINUOUS
 62
               7
100
AcDbMText
 10
-257.89756208931686
 20
185.5
 30
0.0
 40
6.3000001907348633
 41
0.0
 71
               4
 72
               1
  1
\W1.098;\A1;JIG CYLINDER
  0
MTEXT
  5
3D8
100
AcDbEntity
  8
0
  6
CONTINUOUS
 62
               7
100
AcDbMText
 10
170.28101006437726
 20
-185.0
 30
0.0
 40
9.0
 41
0.0
 71
               4
 72
               1
  1
\W1.121;\A1;KOGANEI CORP.
  0
MTEXT
  5
3D9
100
AcDbEntity
  8
0
  6
CONTINUOUS
 62
               7
100
AcDbMText
 10
198.20567433632903
 20
185.5
 30
0.0
 40
6.3000001907348633
 41
0.0
 71
               4
 72
               1
  1
\W1.244;\A1;Ver. 2.0
  0
LINE
  5
3DA
100
AcDbEntity
  8
0
  6
CONTINUOUS
 62
               7
100
AcDbLine
 10
20.75
 20
-153.0
 30
0.0
 11
20.75
 21
-185.0
 31
0.0
  0
LINE
  5
3DB
100
AcDbEntity
  8
0
  6
CONTINUOUS
 62
               7
100
AcDbLine
 10
-1.25
 20
-153.0
 30
0.0
 11
-1.25
 21
-185.0
 31
0.0
  0
LINE
  5
3DC
100
AcDbEntity
  8
0
  6
CONTINUOUS
 62
               7
100
AcDbLine
 10
-23.25
 20
-153.0
 30
0.0
 11
-23.25
 21
-185.0
 31
0.0
  0
LINE
  5
3DD
100
AcDbEntity
  8
0
  6
CONTINUOUS
 62
               7
100
AcDbLine
 10
-45.25
 20
-153.0
 30
0.0
 11
-45.25
 21
-185.0
 31
0.0
  0
LINE
  5
3DE
100
AcDbEntity
  8
0
  6
CONTINUOUS
 62
               7
100
AcDbLine
 10
-67.25
 20
-153.0
 30
0.0
 11
-67.25
 21
-185.0
 31
0.0
  0
LINE
  5
3DF
100
AcDbEntity
  8
0
  6
CONTINUOUS
 62
               7
100
AcDbLine
 10
-89.25
 20
-153.0
 30
0.0
 11
-89.25
 21
-185.0
 31
0.0
  0
LINE
  5
3E0
100
AcDbEntity
  8
0
  6
CONTINUOUS
 62
               7
100
AcDbLine
 10
-111.25
 20
-153.0
 30
0.0
 11
-111.25
 21
-185.0
 31
0.0
  0
LINE
  5
3E1
100
AcDbEntity
  8
0
  6
CONTINUOUS
 62
               7
100
AcDbLine
 10
-133.25
 20
-153.0
 30
0.0
 11
-133.25
 21
-185.0
 31
0.0
  0
LINE
  5
3E2
100
AcDbEntity
  8
0
  6
CONTINUOUS
 62
               7
100
AcDbLine
 10
-155.25
 20
-153.0
 30
0.0
 11
-155.25
 21
-185.0
 31
0.0
  0
LINE
  5
3E3
100
AcDbEntity
  8
0
  6
CONTINUOUS
 62
               7
100
AcDbLine
 10
-177.25
 20
-153.0
 30
0.0
 11
-177.25
 21
-185.0
 31
0.0
  0
LINE
  5
3E4
100
AcDbEntity
  8
0
  6
CONTINUOUS
 62
               7
100
AcDbLine
 10
-199.25
 20
-153.0
 30
0.0
 11
-199.25
 21
-185.0
 31
0.0
  0
LINE
  5
3E5
100
AcDbEntity
  8
0
  6
CONTINUOUS
 62
               7
100
AcDbLine
 10
-221.25
 20
-169.0
 30
0.0
 11
-271.25
 21
-153.0
 31
0.0
  0
LINE
  5
3E6
100
AcDbEntity
  8
0
  6
CONTINUOUS
 62
               7
100
AcDbLine
 10
-221.25
 20
-153.0
 30
0.0
 11
-221.25
 21
-185.0
 31
0.0
  0
LINE
  5
3E7
100
AcDbEntity
  8
0
  6
CONTINUOUS
 62
               7
100
AcDbLine
 10
-271.25
 20
-153.0
 30
0.0
 11
20.75
 21
-153.0
 31
0.0
  0
LINE
  5
3E8
100
AcDbEntity
  8
0
  6
CONTINUOUS
 62
               7
100
AcDbLine
 10
-271.25
 20
-169.0
 30
0.0
 11
20.75
 21
-169.0
 31
0.0
  0
LINE
  5
3E9
100
AcDbEntity
  8
0
  6
CONTINUOUS
 62
               7
100
AcDbLine
 10
-271.25
 20
-177.0
 30
0.0
 11
20.75
 21
-177.0
 31
0.0
  0
LINE
  5
3EA
100
AcDbEntity
  8
0
  6
CONTINUOUS
 62
               7
100
AcDbLine
 10
-271.25
 20
-185.0
 30
0.0
 11
20.75
 21
-185.0
 31
0.0
  0
LINE
  5
3EB
100
AcDbEntity
  8
0
  6
CONTINUOUS
 62
               7
100
AcDbLine
 10
-271.25
 20
-153.0
 30
0.0
 11
-271.25
 21
-185.0
 31
0.0
  0
LINE
  5
3EC
100
AcDbEntity
  8
0
  6
CENTER
 62
               2
100
AcDbLine
 10
89.420000000000002
 20
111.53
 30
0.0
 11
135.06
 21
111.53
 31
0.0
  0
LINE
  5
3ED
100
AcDbEntity
  8
0
  6
CENTER
 62
               2
100
AcDbLine
 10
217.34
 20
111.53
 30
0.0
 11
197.31
 21
111.53
 31
0.0
  0
LINE
  5
3EE
100
AcDbEntity
  8
0
  6
CONTINUOUS
 62
               7
100
AcDbLine
 10
209.66999999999999
 20
132.38
 30
0.0
 11
209.66999999999999
 21
90.689999999999998
 31
0.0
  0
LINE
  5
3EF
100
AcDbEntity
  8
0
  6
CONTINUOUS
 62
               7
100
AcDbLine
 10
128.94
 20
126.53
 30
0.0
 11
128.94
 21
96.530000000000001
 31
0.0
  0
LINE
  5
3F0
100
AcDbEntity
  8
0
  6
CONTINUOUS
 62
               7
100
AcDbLine
 10
-161.25
 20
195.5
 30
0.0
 11
-161.25
 21
175.5
 31
0.0
  0
LINE
  5
3F1
100
AcDbEntity
  8
0
  6
CONTINUOUS
 62
               7
100
AcDbLine
 10
162.09999999999999
 20
195.5
 30
0.0
 11
162.09999999999999
 21
175.5
 31
0.0
  0
LINE
  5
3F2
100
AcDbEntity
  8
0
  6
CONTINUOUS
 62
               7
100
AcDbLine
 10
-281.25
 20
175.5
 30
0.0
 11
-161.25
 21
175.5
 31
0.0
  0
LINE
  5
3F3
100
AcDbEntity
  8
0
  6
CONTINUOUS
 62
               7
100
AcDbLine
 10
162.09999999999999
 20
175.5
 30
0.0
 11
282.10000000000002
 21
175.5
 31
0.0
  0
LINE
  5
3F4
100
AcDbEntity
  8
0
  6
CONTINUOUS
 62
               7
100
AcDbLine
 10
162.09999999999999
 20
-175.0
 30
0.0
 11
282.10000000000002
 21
-175.0
 31
0.0
  0
LINE
  5
3F5
100
AcDbEntity
  8
0
  6
CONTINUOUS
 62
               7
100
AcDbLine
 10
162.09999999999999
 20
-175.0
 30
0.0
 11
162.09999999999999
 21
-195.0
 31
0.0
  0
LINE
  5
3F6
100
AcDbEntity
  8
0
  6
CONTINUOUS
 62
               7
100
AcDbLine
 10
-281.25
 20
-195.0
 30
0.0
 11
282.10000000000002
 21
-195.0
 31
0.0
  0
LINE
  5
3F7
100
AcDbEntity
  8
0
  6
CONTINUOUS
 62
               7
100
AcDbLine
 10
282.10000000000002
 20
195.5
 30
0.0
 11
282.10000000000002
 21
-195.0
 31
0.0
  0
LINE
  5
3F8
100
AcDbEntity
  8
0
  6
CONTINUOUS
 62
               7
100
AcDbLine
 10
-281.25
 20
195.5
 30
0.0
 11
-281.25
 21
-195.0
 31
0.0
  0
LINE
  5
3F9
100
AcDbEntity
  8
0
  6
CONTINUOUS
 62
               7
100
AcDbLine
 10
-281.25
 20
195.5
 30
0.0
 11
282.10000000000002
 21
195.5
 31
0.0
  0
ENDSEC
  0
SECTION
  2
OBJECTS
  0
DICTIONARY
  5
19
100
AcDbDictionary
  3
ACAD_GROUP
350
1A
  3
ACAD_MLINESTYLE
350
1B
  0
DICTIONARY
  5
1A
102
{ACAD_REACTORS
330
19
102
}
100
AcDbDictionary
  0
DICTIONARY
  5
1B
102
{ACAD_REACTORS
330
19
102
}
100
AcDbDictionary
  3
STANDARD
350
1C
  0
MLINESTYLE
  5
1C
102
{ACAD_REACTORS
330
1B
102
}
100
AcDbMlineStyle
  2
Standard
 70
               0
  3

 62
               0
 51
90.0
 52
90.0
 71
               2
 49
0.5
 62
             256
  6
ByLayer
 49
-0.5
 62
             256
  6
ByLayer
  0
ENDSEC
  0
EOF
