  0
SECTION
  2
HEADER
  0
ENDSEC
  0
SECTION
  2
TABLES
  0
TABLE
  2
LTYPE
 70
     4
  0
LTYPE
  2
CONTINUOUS
 70
    64
  3
Solid line
 72
    65
 73
     0
 40
0.000000
  0
LTYPE
  2
DASHED
 70
    64
  3
__ __ __ __ __ __ __ __ __ __ __ __ __ __ __
 72
    65
 73
     2
 40
3.500000
 49
2.000000
 49
-1.500000
  0
LTYPE
  2
CENTER
 70
    64
  3
____ _ ____ _ ____ _ ____ _ ____ _ ____ _ ____
 72
    65
 73
     4
 40
17.500000
 49
13.000000
 49
-1.500000
 49
1.500000
 49
-1.500000
  0
LTYPE
  2
PHANTOM
 70
    64
  3
_____ _ _ _____ _ _ _____ _ _ _____ _ _ ____  
 72
    65
 73
     6
 40
15.500000
 49
8.000000
 49
-1.500000
 49
1.500000
 49
-1.500000
 49
1.500000
 49
-1.500000
  0
LTYPE
  2
DASHED1
 70
    64
  3
__ __ __ __ __ __ __ __ __ __ __ __ __ __ __
 72
    65
 73
     2
 40
1.500000
 49
1.000000
 49
-0.500000
  0
LTYPE
  2
DASHED2
 70
    64
  3
__ __ __ __ __ __ __ __ __ __ __ __ __ __ __
 72
    65
 73
     2
 40
3.500000
 49
2.500000
 49
-1.000000
  0
LTYPE
  2
DASHED3
 70
    64
  3
__ __ __ __ __ __ __ __ __ __ __ __ __ __ __
 72
    65
 73
     2
 40
6.000000
 49
4.000000
 49
-2.000000
  0
LTYPE
  2
DASHED4
 70
    64
  3
__ __ __ __ __ __ __ __ __ __ __ __ __ __ __
 72
    65
 73
     2
 40
12.000000
 49
10.000000
 49
-2.000000
  0
LTYPE
  2
DASHED5
 70
    64
  3
__ __ __ __ __ __ __ __ __ __ __ __ __ __ __
 72
    65
 73
     2
 40
17.000000
 49
15.000000
 49
-2.000000
  0
LTYPE
  2
DASHED6
 70
    64
  3
__ __ __ __ __ __ __ __ __ __ __ __ __ __ __
 72
    65
 73
     2
 40
29.000000
 49
27.000000
 49
-2.000000
  0
LTYPE
  2
PHANTOM1
 70
    64
  3
_____ _ _ _____ _ _ _____ _ _ _____ _ _ ____  
 72
    65
 73
     6
 40
31.000000
 49
25.000000
 49
-1.500000
 49
1.000000
 49
-1.000000
 49
1.000000
 49
-1.500000
  0
LTYPE
  2
PHANTOM2
 70
    64
  3
_____ _ _ _____ _ _ _____ _ _ _____ _ _ ____  
 72
    65
 73
     6
 40
36.000000
 49
27.000000
 49
-1.500000
 49
2.500000
 49
-1.000000
 49
2.500000
 49
-1.500000
  0
LTYPE
  2
PHANTOM3
 70
    64
  3
_____ _ _ _____ _ _ _____ _ _ _____ _ _ ____  
 72
    65
 73
     6
 40
78.000000
 49
64.000000
 49
-2.000000
 49
4.000000
 49
-2.000000
 49
4.000000
 49
-2.000000
  0
LTYPE
  2
CENTER1
 70
    64
  3
____ _ ____ _ ____ _ ____ _ ____ _ ____ _ ____
 72
    65
 73
     4
 40
19.000000
 49
14.000000
 49
-1.000000
 49
3.000000
 49
-1.000000
  0
LTYPE
  2
CENTER2
 70
    64
  3
____ _ ____ _ ____ _ ____ _ ____ _ ____ _ ____
 72
    65
 73
     4
 40
28.500000
 49
25.000000
 49
-1.000000
 49
1.500000
 49
-1.000000
  0
LTYPE
  2
CENTER3
 70
    64
  3
____ _ ____ _ ____ _ ____ _ ____ _ ____ _ ____
 72
    65
 73
     4
 40
31.500000
 49
27.000000
 49
-1.000000
 49
2.500000
 49
-1.000000
  0
LTYPE
  2
CENTER4
 70
    64
  3
____ _ ____ _ ____ _ ____ _ ____ _ ____ _ ____
 72
    65
 73
     4
 40
50.000000
 49
45.000000
 49
-1.000000
 49
3.000000
 49
-1.000000
  0
LTYPE
  2
CENTER5
 70
    64
  3
____ _ ____ _ ____ _ ____ _ ____ _ ____ _ ____
 72
    65
 73
     4
 40
100.000000
 49
92.000000
 49
-2.000000
 49
4.000000
 49
-2.000000
  0
LTYPE
  2
SBK1
 70
    64
  3
______ _ _ _ ______ _ _ _ ______ _ _ _ _____  
 72
    65
 73
     8
 40
60.500000
 49
45.000000
 49
-2.000000
 49
2.500000
 49
-2.000000
 49
2.500000
 49
-2.000000
 49
2.500000
 49
-2.000000
  0
LTYPE
  2
SBK2
 70
    64
  3
______ _ _ _ ______ _ _ _ ______ _ _ _ _____  
 72
    65
 73
     8
 40
84.000000
 49
64.000000
 49
-2.000000
 49
4.000000
 49
-2.000000
 49
4.000000
 49
-2.000000
 49
4.000000
 49
-2.000000
  0
LTYPE
  2
STCH
 70
    64
  3
__ __ __ __ __ __ __ __ __ __ __ __ __ __ __
 72
    65
 73
     2
 40
3.000000
 49
1.000000
 49
-2.000000
  0
LTYPE
  2
MTCH
 70
    64
  3
_____ _ _ _____ _ _ _____ _ _ _____ _ _ ____  
 72
    65
 73
     6
 40
80.000000
 49
66.000000
 49
-2.000000
 49
4.000000
 49
-2.000000
 49
4.000000
 49
-2.000000
  0
ENDTAB
  0
TABLE
  2
LAYER
 70
     1
  0
LAYER
  2
0
 70
     0
 62
     7
  6
CONTINUOUS
  0
ENDTAB
  0
TABLE
  2
STYLE
 70
     1
  0
STYLE
  2
STANDARD
 70
     0
 40
0.000000
 41
1.000000
 50
0.000000
 71
     0
 42
0.200000
  3
txt
  4
BIGFONT
  0
ENDTAB
  0
TABLE
  2
VIEW
 70
     0
  0
ENDTAB
  0
ENDSEC
  0
SECTION
  2
BLOCKS
  0
ENDSEC
  0
SECTION
  2
ENTITIES
  0
LINE
  8
0
 10
-141.686966
 20
151.483673
 11
-110.686966
 21
151.483673
  0
LINE
  8
0
 10
-53.686966
 20
151.483673
 11
-22.686966
 21
151.483673
  0
LINE
  8
0
 10
-133.186966
 20
86.483673
 11
-119.186966
 21
86.483673
  0
LINE
  8
0
 10
-141.686966
 20
84.483673
 11
-110.686966
 21
84.483673
  0
LINE
  8
0
 10
-141.686966
 20
84.483665
 11
-135.136978
 21
78.983681
  0
LINE
  8
0
 10
-117.246986
 20
78.983681
 11
-110.686981
 21
84.483681
  0
LINE
  8
0
 10
-135.136978
 20
78.983673
 11
-117.246979
 21
78.983673
  0
LINE
  8
0
 10
-133.186966
 20
126.483673
 11
-132.186966
 21
126.483673
  0
LINE
  8
0
 10
-140.686966
 20
143.483673
 11
-111.686966
 21
143.483673
  0
LINE
  8
0
 10
-141.686966
 20
144.483673
 11
-110.686966
 21
144.483673
  0
LINE
  8
0
 10
-140.686966
 20
143.483673
 11
-140.686966
 21
126.483673
  0
LINE
  8
0
 10
-111.686966
 20
143.483673
 11
-111.686966
 21
126.483673
  0
LINE
  8
0
 10
-120.186966
 20
126.483673
 11
-120.186966
 21
125.483673
  0
LINE
  8
0
 10
-132.186966
 20
126.483673
 11
-132.186966
 21
125.483673
  0
LINE
  8
0
 10
-120.186966
 20
126.483673
 11
-119.186966
 21
126.483673
  0
LINE
  8
0
 10
-140.686981
 20
143.483673
 11
-141.686981
 21
144.483688
  0
LINE
  8
0
 10
-111.686974
 20
143.483673
 11
-110.686974
 21
144.483673
  0
LINE
  8
0
 10
-138.686966
 20
144.483673
 11
-138.276978
 21
143.483673
  0
LINE
  8
0
 10
-113.686958
 20
144.483673
 11
-114.106956
 21
143.483658
  0
LINE
  8
0
 10
-140.686966
 20
133.943665
 11
-111.686966
 21
133.943665
  0
LINE
  8
0
 10
-141.686981
 20
134.313675
 11
-140.686981
 21
133.943680
  0
LINE
  8
0
 10
-110.686981
 20
134.313660
 11
-111.686981
 21
133.943665
  0
LINE
  8
0
 10
-141.686966
 20
86.483673
 11
-141.686966
 21
84.483673
  0
LINE
  8
0
 10
-110.686966
 20
86.483673
 11
-110.686966
 21
84.483673
  0
LINE
  8
0
 10
-130.586975
 20
77.483673
 11
-121.786972
 21
77.483673
  0
LINE
  8
0
 10
-121.186966
 20
78.983673
 11
-121.186966
 21
78.083679
  0
LINE
  8
0
 10
-131.186966
 20
78.983673
 11
-131.186966
 21
78.083679
  0
LINE
  8
0
 10
-131.186981
 20
78.083672
 11
-130.586975
 21
77.483665
  0
LINE
  8
0
 10
-121.786972
 20
77.483673
 11
-121.186974
 21
78.083672
  0
LINE
  8
0
 10
-131.186966
 20
78.083679
 11
-121.186966
 21
78.083679
  0
LINE
  8
0
 10
-45.186966
 20
86.483673
 11
-31.186966
 21
86.483673
  0
LINE
  8
0
 10
-53.686966
 20
84.483673
 11
-22.686966
 21
84.483673
  0
LINE
  8
0
 10
-53.686970
 20
84.483673
 11
-47.136971
 21
78.983673
  0
LINE
  8
0
 10
-29.246973
 20
78.983673
 11
-22.686977
 21
84.483673
  0
LINE
  8
0
 10
-47.136978
 20
78.983673
 11
-29.246979
 21
78.983673
  0
LINE
  8
0
 10
-45.186966
 20
126.483673
 11
-44.186966
 21
126.483673
  0
LINE
  8
0
 10
-52.686966
 20
143.483673
 11
-23.686966
 21
143.483673
  0
LINE
  8
0
 10
-53.686966
 20
144.483673
 11
-22.686966
 21
144.483673
  0
LINE
  8
0
 10
-52.686966
 20
143.483673
 11
-52.686966
 21
126.483673
  0
LINE
  8
0
 10
-23.686966
 20
143.483673
 11
-23.686966
 21
126.483673
  0
LINE
  8
0
 10
-32.186966
 20
126.483673
 11
-32.186966
 21
125.483673
  0
LINE
  8
0
 10
-44.186966
 20
126.483673
 11
-44.186966
 21
125.483673
  0
LINE
  8
0
 10
-32.186966
 20
126.483673
 11
-31.186966
 21
126.483673
  0
LINE
  8
0
 10
-52.686974
 20
143.483673
 11
-53.686977
 21
144.483673
  0
LINE
  8
0
 10
-23.686977
 20
143.483673
 11
-22.686977
 21
144.483688
  0
LINE
  8
0
 10
-50.686977
 20
144.483673
 11
-50.276974
 21
143.483658
  0
LINE
  8
0
 10
-25.686979
 20
144.483658
 11
-26.106977
 21
143.483673
  0
LINE
  8
0
 10
-52.686966
 20
133.943665
 11
-23.686966
 21
133.943665
  0
LINE
  8
0
 10
-53.686974
 20
134.313675
 11
-52.686974
 21
133.943680
  0
LINE
  8
0
 10
-22.686977
 20
134.313660
 11
-23.686974
 21
133.943665
  0
LINE
  8
0
 10
-53.686966
 20
86.483673
 11
-53.686966
 21
84.483673
  0
LINE
  8
0
 10
-22.686966
 20
86.483673
 11
-22.686966
 21
84.483673
  0
LINE
  8
0
 10
-42.586975
 20
77.483673
 11
-33.786972
 21
77.483673
  0
LINE
  8
0
 10
-33.186966
 20
78.983673
 11
-33.186966
 21
78.083679
  0
LINE
  8
0
 10
-43.186966
 20
78.983673
 11
-43.186966
 21
78.083679
  0
LINE
  8
0
 10
-43.186974
 20
78.083672
 11
-42.586975
 21
77.483673
  0
LINE
  8
0
 10
-33.786972
 20
77.483665
 11
-33.186962
 21
78.083672
  0
LINE
  8
0
 10
-43.186966
 20
78.083679
 11
-33.186966
 21
78.083679
  0
LINE
  8
0
 10
-212.186966
 20
125.483673
 11
-212.186966
 21
87.483673
  0
LINE
  8
0
 10
-211.186966
 20
126.483673
 11
-133.186966
 21
126.483673
  0
LINE
  8
0
 10
-211.186966
 20
86.483673
 11
-133.186966
 21
86.483673
  0
LINE
  8
0
 10
-212.186966
 20
125.483665
 11
-211.186966
 21
126.483673
  0
LINE
  8
0
 10
-212.186966
 20
87.483673
 11
-211.186966
 21
86.483673
  0
LINE
  8
0
 10
-133.186966
 20
86.483665
 11
-132.186966
 21
87.483665
  0
LINE
  8
0
 10
-133.186966
 20
126.483665
 11
-132.186981
 21
125.483673
  0
LINE
  8
0
 10
-212.186966
 20
125.483673
 11
-132.186966
 21
125.483673
  0
LINE
  8
0
 10
-212.186966
 20
87.483673
 11
-132.186966
 21
87.483673
  0
LINE
  8
0
 10
-211.186966
 20
126.483673
 11
-211.186966
 21
86.483673
  0
LINE
  8
0
 10
-133.186966
 20
86.483673
 11
-133.186966
 21
126.483673
  0
LINE
  8
0
  6
CENTER
 62
     2
 10
-82.186966
 20
140.803665
 11
-82.186966
 21
74.973679
  0
LINE
  8
0
  6
CENTER
 62
     2
 10
-217.499664
 20
106.483673
 11
54.246872
 21
106.483673
  0
LINE
  8
0
 10
-72.136978
 20
122.603676
 11
-71.166977
 21
123.163673
  0
LINE
  8
0
 10
-65.506981
 20
117.503677
 11
-66.066971
 21
116.533684
  0
LINE
  8
0
 10
-86.486977
 20
124.983681
 11
-86.186974
 21
126.073669
  0
LINE
  8
0
 10
-78.186981
 20
126.073669
 11
-77.896980
 21
124.983665
  0
LINE
  8
0
 10
-98.316978
 20
116.533676
 11
-98.876984
 21
117.503677
  0
LINE
  8
0
 10
-93.216980
 20
123.163673
 11
-92.246979
 21
122.603683
  0
LINE
  8
0
 10
-100.696968
 20
102.193672
 11
-101.786980
 21
102.483673
  0
LINE
  8
0
 10
-101.786972
 20
110.483665
 11
-100.696960
 21
110.773666
  0
LINE
  8
0
 10
-92.246979
 20
90.363670
 11
-93.216980
 21
89.803673
  0
LINE
  8
0
 10
-98.876976
 20
95.463676
 11
-98.316978
 21
96.433678
  0
LINE
  8
0
 10
-77.896980
 20
87.983673
 11
-78.186981
 21
86.893677
  0
LINE
  8
0
 10
-86.186974
 20
86.893677
 11
-86.486977
 21
87.983673
  0
LINE
  8
0
 10
-66.066971
 20
96.433670
 11
-65.506973
 21
95.463676
  0
LINE
  8
0
 10
-71.166977
 20
89.803680
 11
-72.136971
 21
90.363678
  0
LINE
  8
0
 10
-63.676975
 20
110.773666
 11
-62.596977
 21
110.483665
  0
LINE
  8
0
 10
-62.596981
 20
102.483681
 11
-63.676975
 21
102.193680
  0
LINE
  8
0
 10
-80.936966
 20
123.393661
 11
-80.936966
 21
121.373672
  0
LINE
  8
0
 10
-83.436966
 20
123.393661
 11
-83.436966
 21
121.373672
  0
LINE
  8
0
 10
-119.186966
 20
86.483673
 11
-45.186966
 21
86.483673
  0
LINE
  8
0
 10
-119.186966
 20
126.483673
 11
-45.186966
 21
126.483673
  0
LINE
  8
0
 10
-44.186966
 20
125.483673
 11
-44.186966
 21
87.483673
  0
LINE
  8
0
 10
-120.186974
 20
125.483673
 11
-119.186966
 21
126.483673
  0
LINE
  8
0
 10
-120.186974
 20
87.483673
 11
-119.186966
 21
86.483673
  0
LINE
  8
0
 10
-45.186985
 20
86.483673
 11
-44.186981
 21
87.483673
  0
LINE
  8
0
 10
-45.186981
 20
126.483673
 11
-44.186977
 21
125.483673
  0
LINE
  8
0
  6
CENTER
 62
     2
 10
-65.186966
 20
139.313660
 11
-65.186966
 21
120.393677
  0
LINE
  8
0
 10
-55.186966
 20
132.983673
 11
-55.186966
 21
127.483673
  0
LINE
  8
0
 10
-75.186966
 20
132.983673
 11
-75.186966
 21
127.483673
  0
LINE
  8
0
 10
-74.186966
 20
78.983673
 11
-56.186966
 21
78.983673
  0
LINE
  8
0
 10
-74.186966
 20
133.983673
 11
-56.186966
 21
133.983673
  0
LINE
  8
0
 10
-75.186981
 20
132.983673
 11
-74.186981
 21
133.983688
  0
LINE
  8
0
 10
-56.186970
 20
133.983673
 11
-55.186985
 21
132.983673
  0
LINE
  8
0
 10
-75.186981
 20
79.983665
 11
-74.186981
 21
78.983665
  0
LINE
  8
0
 10
-56.186970
 20
78.983673
 11
-55.186981
 21
79.983665
  0
LINE
  8
0
 10
-75.186966
 20
85.483673
 11
-75.186966
 21
79.983673
  0
LINE
  8
0
 10
-55.186966
 20
85.483673
 11
-55.186966
 21
79.983673
  0
LINE
  8
0
 10
-120.186966
 20
125.483673
 11
-88.436966
 21
125.483673
  0
LINE
  8
0
 10
-44.186966
 20
125.483673
 11
-75.946976
 21
125.483673
  0
LINE
  8
0
 10
-120.186966
 20
87.483673
 11
-88.436966
 21
87.483673
  0
LINE
  8
0
 10
-44.186966
 20
87.483673
 11
-75.946976
 21
87.483673
  0
LINE
  8
0
 10
-75.186966
 20
79.983673
 11
-55.186966
 21
79.983673
  0
LINE
  8
0
 10
-75.186966
 20
132.983673
 11
-55.186966
 21
132.983673
  0
LINE
  8
0
 10
-119.186966
 20
126.483673
 11
-119.186966
 21
86.483673
  0
LINE
  8
0
 10
-45.186966
 20
86.483673
 11
-45.186966
 21
126.483673
  0
LINE
  8
0
 10
-115.186966
 20
109.483673
 11
-115.186966
 21
103.483673
  0
LINE
  8
0
 10
-115.186981
 20
109.483665
 11
-106.946976
 21
106.483665
  0
LINE
  8
0
 10
-115.186981
 20
103.483681
 11
-106.946976
 21
106.483681
  0
LINE
  8
0
 10
-91.436966
 20
42.483673
 11
-38.936966
 21
42.483673
  0
LINE
  8
0
 10
-91.436966
 20
42.483673
 11
-91.436966
 21
45.483673
  0
LINE
  8
0
 10
-38.936966
 20
42.483673
 11
-38.936966
 21
45.483673
  0
LINE
  8
0
 10
-91.436966
 20
45.483673
 11
-38.936966
 21
45.483673
  0
LINE
  8
0
 10
-86.186966
 20
69.983673
 11
-44.186966
 21
69.983673
  0
LINE
  8
0
 10
-91.186966
 20
45.483673
 11
-91.186966
 21
64.983673
  0
LINE
  8
0
 10
-39.186966
 20
45.483673
 11
-39.186966
 21
64.983673
  0
LINE
  8
0
 10
-72.186966
 20
76.483673
 11
-58.186966
 21
76.483673
  0
LINE
  8
0
 10
-72.186966
 20
69.983673
 11
-72.186966
 21
76.483673
  0
LINE
  8
0
 10
-58.186966
 20
69.983673
 11
-58.186966
 21
76.483673
  0
LINE
  8
0
 10
-71.006966
 20
78.983673
 11
-71.016968
 21
78.483688
  0
LINE
  8
0
 10
-71.866974
 20
78.983681
 11
-71.926971
 21
76.483681
  0
LINE
  8
0
 10
-58.516975
 20
78.983673
 11
-58.446976
 21
76.483681
  0
LINE
  8
0
 10
-71.876968
 20
78.483673
 11
-58.506973
 21
78.483673
  0
LINE
  8
0
 10
-71.016975
 20
78.483673
 11
-71.916969
 21
76.933678
  0
LINE
  8
0
 10
-59.356979
 20
78.483681
 11
-58.466980
 21
76.933685
  0
LINE
  8
0
 10
-72.186974
 20
69.983681
 11
-58.186977
 21
76.483681
  0
LINE
  8
0
 10
-58.186970
 20
69.983665
 11
-72.186966
 21
76.483665
  0
LINE
  8
0
 10
-59.376968
 20
78.983673
 11
-59.356968
 21
78.483681
  0
LINE
  8
0
 10
-99.096970
 20
105.233673
 11
-97.086975
 21
105.233673
  0
LINE
  8
0
 10
-99.096970
 20
107.733673
 11
-97.086975
 21
107.733673
  0
LINE
  8
0
 10
-80.936966
 20
89.573685
 11
-80.936966
 21
91.593674
  0
LINE
  8
0
 10
-83.436966
 20
89.573685
 11
-83.436966
 21
91.593674
  0
LINE
  8
0
 10
-65.276978
 20
107.733673
 11
-67.296967
 21
107.733673
  0
LINE
  8
0
 10
-65.276978
 20
105.233673
 11
-67.296967
 21
105.233673
  0
LINE
  8
0
 10
-70.586975
 20
135.653671
 11
-59.796967
 21
135.653671
  0
LINE
  8
0
 10
-71.796982
 20
134.953674
 11
-70.586983
 21
135.653671
  0
LINE
  8
0
 10
-59.796986
 20
135.653671
 11
-58.586990
 21
134.953674
  0
LINE
  8
0
 10
-71.796974
 20
134.953659
 11
-71.766975
 21
133.983673
  0
LINE
  8
0
 10
-70.956963
 20
135.433670
 11
-70.916969
 21
133.983673
  0
LINE
  8
0
 10
-59.426979
 20
135.433655
 11
-59.466976
 21
133.983658
  0
LINE
  8
0
 10
-58.586979
 20
134.953674
 11
-58.616978
 21
133.983673
  0
LINE
  8
0
 10
-58.586975
 20
134.953659
 11
-71.796967
 21
134.953659
  0
LINE
  8
0
 10
-120.186966
 20
87.483673
 11
-120.186966
 21
86.483673
  0
LINE
  8
0
 10
-132.186966
 20
87.483673
 11
-132.186966
 21
86.483673
  0
LINE
  8
0
 10
-132.186966
 20
125.483673
 11
-132.186966
 21
87.483673
  0
LINE
  8
0
 10
-120.186966
 20
87.483673
 11
-120.186966
 21
125.483673
  0
LINE
  8
0
 10
-44.186966
 20
87.483673
 11
-44.186966
 21
86.483673
  0
LINE
  8
0
 10
-32.186966
 20
87.483673
 11
-14.126968
 21
87.483673
  0
LINE
  8
0
 10
-31.186966
 20
86.483673
 11
-14.186966
 21
86.483673
  0
LINE
  8
0
 10
-32.186966
 20
125.483673
 11
47.813034
 21
125.483673
  0
LINE
  8
0
 10
-31.186966
 20
126.483673
 11
46.813034
 21
126.483673
  0
LINE
  8
0
 10
-31.186966
 20
126.483673
 11
-31.186966
 21
86.483673
  0
LINE
  8
0
 10
-32.186966
 20
125.483673
 11
-32.186966
 21
87.483673
  0
LINE
  8
0
 10
46.813034
 20
126.483673
 11
46.813034
 21
86.483673
  0
LINE
  8
0
 10
47.813034
 20
125.483673
 11
47.813034
 21
87.483673
  0
LINE
  8
0
 10
-32.186977
 20
125.483688
 11
-31.186989
 21
126.483673
  0
LINE
  8
0
 10
47.813023
 20
125.483688
 11
46.813034
 21
126.483681
  0
LINE
  8
0
 10
46.813034
 20
86.483673
 11
47.813023
 21
87.483665
  0
LINE
  8
0
 10
-31.186985
 20
86.483673
 11
-32.186974
 21
87.483665
  0
LINE
  8
0
 10
1.813034
 20
86.483673
 11
46.813034
 21
86.483673
  0
LINE
  8
0
 10
1.743027
 20
87.483673
 11
47.813034
 21
87.483673
  0
LINE
  8
0
  6
CENTER
 62
     2
 10
13.313034
 20
130.483673
 11
13.313034
 21
90.483673
  0
LINE
  8
0
  6
CENTER
 62
     2
 10
-6.186966
 20
98.983673
 11
-6.186966
 21
73.983673
  0
LINE
  8
0
  6
CENTER
 62
     2
 10
-18.686966
 20
86.483673
 11
6.313034
 21
86.483673
  0
LINE
  8
0
  6
CENTER
 62
     2
 10
-6.686966
 20
110.483673
 11
33.313034
 21
110.483673
  0
LINE
  8
0
 10
-32.186966
 20
86.483673
 11
-32.186966
 21
87.483673
  0
LINE
  8
0
 10
-207.186966
 20
109.483673
 11
-198.946960
 21
106.483673
  0
LINE
  8
0
 10
-207.186966
 20
103.483681
 11
-198.946960
 21
106.483681
  0
LINE
  8
0
 10
-207.186966
 20
109.483673
 11
-207.186966
 21
103.483673
  0
LINE
  8
0
  6
CENTER
 62
     2
 10
7.813034
 20
151.483673
 11
7.813034
 21
61.483673
  0
LINE
  8
0
  6
CENTER
 62
     2
 10
-65.186966
 20
90.003677
 11
-65.186966
 21
39.263687
  0
LINE
  8
0
  6
CENTER
 62
     2
 10
-172.186966
 20
150.483673
 11
-172.186966
 21
62.483673
  0
LINE
  8
0
 10
-50.686966
 20
151.483673
 11
-50.686966
 21
144.483673
  0
LINE
  8
0
 10
-25.686966
 20
151.483673
 11
-25.686966
 21
144.483673
  0
LINE
  8
0
 10
-22.686966
 20
151.483673
 11
-22.686966
 21
126.483673
  0
LINE
  8
0
 10
-53.686966
 20
151.483673
 11
-53.686966
 21
126.483673
  0
LINE
  8
0
  6
CENTER
 62
     2
 10
-38.186966
 20
154.023666
 11
-38.186966
 21
71.033676
  0
LINE
  8
0
 10
-138.686966
 20
151.483673
 11
-138.686966
 21
144.483673
  0
LINE
  8
0
 10
-113.686966
 20
151.483673
 11
-113.686966
 21
144.483673
  0
LINE
  8
0
 10
-110.686966
 20
151.483673
 11
-110.686966
 21
126.483673
  0
LINE
  8
0
 10
-141.686966
 20
151.483673
 11
-141.686966
 21
126.483673
  0
LINE
  8
0
  6
CENTER
 62
     2
 10
-126.186966
 20
154.023666
 11
-126.186966
 21
71.033676
  0
LINE
  8
0
 10
198.550491
 20
-129.140564
 11
205.460495
 21
-129.140564
  0
LINE
  8
0
 10
198.550491
 20
-93.150581
 11
205.460495
 21
-93.150581
  0
LINE
  8
0
 10
198.550491
 20
-87.150581
 11
205.460495
 21
-87.150581
  0
LINE
  8
0
 10
198.550491
 20
-93.650581
 11
203.620499
 21
-93.650581
  0
LINE
  8
0
 10
198.550491
 20
-128.640564
 11
203.620499
 21
-128.640564
  0
LINE
  8
0
 10
206.460495
 20
-94.150581
 11
206.460495
 21
-128.140564
  0
LINE
  8
0
 10
204.620499
 20
-94.650581
 11
204.620499
 21
-127.640572
  0
LINE
  8
0
 10
197.550491
 20
-94.150581
 11
197.550491
 21
-128.140564
  0
LINE
  8
0
 10
198.170486
 20
-129.640564
 11
205.710495
 21
-129.640564
  0
LINE
  8
0
 10
198.170486
 20
-130.140564
 11
206.310486
 21
-130.140564
  0
LINE
  8
0
 10
158.640503
 20
-129.140564
 11
151.730515
 21
-129.140564
  0
LINE
  8
0
 10
158.640503
 20
-93.150581
 11
151.730515
 21
-93.150581
  0
LINE
  8
0
 10
158.640503
 20
-87.150581
 11
151.730515
 21
-87.150581
  0
LINE
  8
0
 10
158.640503
 20
-93.650581
 11
153.570511
 21
-93.650581
  0
LINE
  8
0
 10
158.640503
 20
-128.640564
 11
153.570511
 21
-128.640564
  0
LINE
  8
0
 10
150.730515
 20
-94.150581
 11
150.730515
 21
-128.140564
  0
LINE
  8
0
 10
152.570511
 20
-94.650581
 11
152.570511
 21
-127.640572
  0
LINE
  8
0
 10
159.640503
 20
-94.150581
 11
159.640503
 21
-128.140564
  0
LINE
  8
0
 10
159.020508
 20
-129.640564
 11
151.470505
 21
-129.640564
  0
LINE
  8
0
 10
159.020508
 20
-130.140564
 11
150.880508
 21
-130.140564
  0
LINE
  8
0
 10
171.020508
 20
-148.140564
 11
186.170502
 21
-148.140564
  0
LINE
  8
0
 10
170.520508
 20
-147.640564
 11
170.520508
 21
-146.640564
  0
LINE
  8
0
 10
186.670502
 20
-147.640564
 11
186.670502
 21
-146.640564
  0
LINE
  8
0
 10
186.170471
 20
-148.140579
 11
186.670486
 21
-147.640579
  0
LINE
  8
0
 10
171.020493
 20
-148.140579
 11
170.520493
 21
-147.640579
  0
LINE
  8
0
 10
185.340500
 20
-162.930573
 11
171.840500
 21
-162.930573
  0
LINE
  8
0
 10
186.340500
 20
-149.930573
 11
186.340500
 21
-161.930573
  0
LINE
  8
0
 10
170.840500
 20
-149.930573
 11
170.840500
 21
-161.930573
  0
LINE
  8
0
 10
186.340500
 20
-161.930573
 11
185.340500
 21
-162.930573
  0
LINE
  8
0
 10
171.840500
 20
-162.930573
 11
170.840500
 21
-161.930573
  0
LINE
  8
0
 10
185.840500
 20
-149.430573
 11
171.340500
 21
-149.430573
  0
LINE
  8
0
 10
185.840500
 20
-149.430573
 11
186.340500
 21
-149.930573
  0
LINE
  8
0
 10
171.340500
 20
-149.430573
 11
170.840500
 21
-149.930573
  0
LINE
  8
0
 10
184.590500
 20
-148.140564
 11
184.590500
 21
-149.430573
  0
LINE
  8
0
 10
172.590500
 20
-148.140564
 11
172.590500
 21
-149.430573
  0
LINE
  8
0
 62
     2
 10
173.340500
 20
-148.140564
 11
173.340500
 21
-149.430573
  0
LINE
  8
0
 62
     2
 10
183.840500
 20
-148.140564
 11
183.840500
 21
-149.430573
  0
LINE
  8
0
 10
177.090500
 20
-152.430573
 11
177.090500
 21
-161.930573
  0
LINE
  8
0
 10
180.090500
 20
-152.430573
 11
180.090500
 21
-161.930573
  0
LINE
  8
0
 10
180.440506
 20
-152.720581
 11
180.440506
 21
-162.430573
  0
LINE
  8
0
 10
176.750504
 20
-152.720581
 11
176.750504
 21
-162.430573
  0
LINE
  8
0
 10
174.940506
 20
-152.720581
 11
174.940506
 21
-162.430573
  0
LINE
  8
0
 10
174.280502
 20
-152.430573
 11
174.280502
 21
-161.930573
  0
LINE
  8
0
 10
172.160507
 20
-152.430573
 11
172.160507
 21
-161.930573
  0
LINE
  8
0
 10
171.580505
 20
-152.720581
 11
171.580505
 21
-162.430573
  0
LINE
  8
0
 10
170.990494
 20
-152.430573
 11
170.990494
 21
-161.930573
  0
LINE
  8
0
 10
182.250504
 20
-152.720581
 11
182.250504
 21
-162.430573
  0
LINE
  8
0
 10
182.910492
 20
-152.430573
 11
182.910492
 21
-161.930573
  0
LINE
  8
0
 10
185.030502
 20
-152.430573
 11
185.030502
 21
-161.930573
  0
LINE
  8
0
 10
185.610504
 20
-152.720581
 11
185.610504
 21
-162.430573
  0
LINE
  8
0
 10
186.200500
 20
-152.430573
 11
186.200500
 21
-161.930573
  0
LINE
  8
0
 10
186.200500
 20
-152.430573
 11
185.030502
 21
-152.430573
  0
LINE
  8
0
 10
185.610504
 20
-152.720581
 11
185.030502
 21
-152.720581
  0
LINE
  8
0
 10
186.340500
 20
-161.930573
 11
186.200500
 21
-161.930573
  0
LINE
  8
0
 10
177.090500
 20
-152.430573
 11
174.280502
 21
-152.430573
  0
LINE
  8
0
 10
176.750504
 20
-152.720581
 11
174.940506
 21
-152.720581
  0
LINE
  8
0
 10
182.910492
 20
-152.430573
 11
180.090500
 21
-152.430573
  0
LINE
  8
0
 10
182.250504
 20
-152.720581
 11
180.440506
 21
-152.720581
  0
LINE
  8
0
 10
172.160507
 20
-152.430573
 11
170.990494
 21
-152.430573
  0
LINE
  8
0
 10
172.160507
 20
-152.720581
 11
171.580505
 21
-152.720581
  0
LINE
  8
0
 10
180.090500
 20
-161.930573
 11
177.090500
 21
-161.930573
  0
LINE
  8
0
 10
174.280502
 20
-161.930573
 11
172.160507
 21
-161.930573
  0
LINE
  8
0
 10
170.990494
 20
-161.930573
 11
170.840500
 21
-161.930573
  0
LINE
  8
0
 10
185.030502
 20
-161.930573
 11
182.910492
 21
-161.930573
  0
LINE
  8
0
 10
182.250504
 20
-162.430573
 11
180.440506
 21
-162.430573
  0
LINE
  8
0
 10
185.610489
 20
-162.430573
 11
186.200500
 21
-161.930573
  0
LINE
  8
0
 10
182.250488
 20
-162.430573
 11
182.910492
 21
-161.930557
  0
LINE
  8
0
 10
180.440491
 20
-162.430573
 11
180.090500
 21
-161.930573
  0
LINE
  8
0
 10
177.090500
 20
-161.930573
 11
176.750504
 21
-162.430573
  0
LINE
  8
0
 10
174.940506
 20
-162.430573
 11
174.280518
 21
-161.930573
  0
LINE
  8
0
 10
171.580505
 20
-162.430573
 11
170.990509
 21
-161.930573
  0
LINE
  8
0
 10
171.580505
 20
-152.720581
 11
170.990494
 21
-152.430573
  0
LINE
  8
0
 10
174.940491
 20
-152.720581
 11
174.280502
 21
-152.430573
  0
LINE
  8
0
 10
176.750488
 20
-152.720551
 11
177.090500
 21
-152.430557
  0
LINE
  8
0
 10
180.440521
 20
-152.720566
 11
180.090500
 21
-152.430573
  0
LINE
  8
0
 10
182.250504
 20
-152.720566
 11
182.910507
 21
-152.430557
  0
LINE
  8
0
 10
185.610504
 20
-152.720581
 11
186.200500
 21
-152.430573
  0
LINE
  8
0
 10
185.030502
 20
-161.930573
 11
184.850510
 21
-162.430573
  0
LINE
  8
0
 10
172.160507
 20
-161.930588
 11
172.330505
 21
-162.430573
  0
LINE
  8
0
 10
176.750504
 20
-162.430573
 11
174.940506
 21
-162.430573
  0
LINE
  8
0
 10
185.610504
 20
-162.430573
 11
184.850494
 21
-162.430573
  0
LINE
  8
0
 10
172.330505
 20
-162.430573
 11
171.580505
 21
-162.430573
  0
LINE
  8
0
 10
186.340500
 20
-149.930573
 11
170.840500
 21
-149.930573
  0
LINE
  8
0
 10
184.590500
 20
-164.430573
 11
172.590500
 21
-164.430573
  0
LINE
  8
0
 10
185.090500
 20
-163.930573
 11
185.090500
 21
-162.930573
  0
LINE
  8
0
 10
172.090500
 20
-163.930573
 11
172.090500
 21
-162.930573
  0
LINE
  8
0
 10
172.090500
 20
-163.930573
 11
172.590500
 21
-164.430573
  0
LINE
  8
0
 10
184.590500
 20
-164.430573
 11
185.090500
 21
-163.930573
  0
LINE
  8
0
 10
181.420502
 20
-171.530579
 11
175.770508
 21
-171.530579
  0
LINE
  8
0
 10
175.340500
 20
-169.130585
 11
175.340500
 21
-168.930573
  0
LINE
  8
0
 10
181.840500
 20
-169.130585
 11
181.840500
 21
-168.930573
  0
LINE
  8
0
 10
181.840500
 20
-168.930573
 11
175.340500
 21
-168.930573
  0
LINE
  8
0
 10
181.840500
 20
-166.330566
 11
175.340500
 21
-166.330566
  0
LINE
  8
0
 10
181.840500
 20
-166.530579
 11
175.340500
 21
-166.530579
  0
LINE
  8
0
 10
181.840500
 20
-169.130585
 11
175.340500
 21
-169.130585
  0
LINE
  8
0
 10
175.340500
 20
-166.530579
 11
175.340500
 21
-166.330566
  0
LINE
  8
0
 10
181.840500
 20
-166.530579
 11
181.840500
 21
-166.330566
  0
LINE
  8
0
 10
175.340500
 20
-166.530579
 11
175.770493
 21
-168.930588
  0
LINE
  8
0
 10
175.340500
 20
-169.130569
 11
175.770508
 21
-171.530579
  0
LINE
  8
0
 10
181.840500
 20
-169.130569
 11
181.420502
 21
-171.530579
  0
LINE
  8
0
 10
181.840485
 20
-166.530579
 11
181.420486
 21
-168.930573
  0
LINE
  8
0
 10
181.440506
 20
-166.330566
 11
181.440506
 21
-164.430573
  0
LINE
  8
0
 10
175.740494
 20
-166.330566
 11
175.740494
 21
-164.430573
  0
LINE
  8
0
 10
172.090500
 20
-163.930573
 11
185.090500
 21
-163.930573
  0
LINE
  8
0
 10
197.010498
 20
-146.640564
 11
160.180511
 21
-146.640564
  0
LINE
  8
0
 10
170.520508
 20
-147.640564
 11
186.670502
 21
-147.640564
  0
LINE
  8
0
 10
205.460495
 20
-53.150581
 11
198.550491
 21
-53.150581
  0
LINE
  8
0
 10
203.620499
 20
-53.650581
 11
198.550491
 21
-53.650581
  0
LINE
  8
0
 10
198.550491
 20
-86.650581
 11
203.620499
 21
-86.650581
  0
LINE
  8
0
 10
205.710495
 20
-52.650581
 11
198.170486
 21
-52.650581
  0
LINE
  8
0
 10
206.310486
 20
-52.150581
 11
198.170486
 21
-52.150581
  0
LINE
  8
0
 10
197.550491
 20
-54.150581
 11
197.550491
 21
-86.150581
  0
LINE
  8
0
 10
204.620499
 20
-54.650581
 11
204.620499
 21
-85.650581
  0
LINE
  8
0
 10
206.460495
 20
-54.150581
 11
206.460495
 21
-86.150581
  0
LINE
  8
0
 10
151.730515
 20
-53.150581
 11
158.640503
 21
-53.150581
  0
LINE
  8
0
 10
153.570511
 20
-53.650581
 11
158.640503
 21
-53.650581
  0
LINE
  8
0
 10
158.640503
 20
-86.650581
 11
153.570511
 21
-86.650581
  0
LINE
  8
0
 10
151.470505
 20
-52.650581
 11
159.020508
 21
-52.650581
  0
LINE
  8
0
 10
150.880508
 20
-52.150581
 11
159.020508
 21
-52.150581
  0
LINE
  8
0
 10
159.640503
 20
-54.150581
 11
159.640503
 21
-86.150581
  0
LINE
  8
0
 10
152.570511
 20
-54.650581
 11
152.570511
 21
-85.650581
  0
LINE
  8
0
 10
150.730515
 20
-54.150581
 11
150.730515
 21
-86.150581
  0
LINE
  8
0
 10
150.590500
 20
4.549416
 11
197.590500
 21
4.549416
  0
LINE
  8
0
 10
139.090500
 20
-27.450584
 11
218.090500
 21
-27.450584
  0
LINE
  8
0
 10
198.590500
 20
3.549416
 11
198.590500
 21
-27.450584
  0
LINE
  8
0
 10
158.590500
 20
3.549416
 11
158.590500
 21
-25.450584
  0
LINE
  8
0
 10
139.760498
 20
-46.450584
 11
139.090500
 21
-27.440584
  0
LINE
  8
0
 10
140.830505
 20
-47.450584
 11
216.350494
 21
-47.450584
  0
LINE
  8
0
 10
217.420502
 20
-46.450573
 11
218.090500
 21
-27.410583
  0
LINE
  8
0
 10
158.590500
 20
3.549416
 11
198.590500
 21
3.549416
  0
LINE
  8
0
 10
159.590500
 20
4.549416
 11
159.590500
 21
-27.450584
  0
LINE
  8
0
 10
197.590500
 20
4.549416
 11
197.590500
 21
-27.450584
  0
LINE
  8
0
 10
140.030502
 20
-26.450584
 11
157.590500
 21
-26.450584
  0
LINE
  8
0
 10
199.590500
 20
-26.450584
 11
217.120499
 21
-26.450584
  0
LINE
  8
0
 10
139.090500
 20
-27.440575
 11
140.030502
 21
-26.450575
  0
LINE
  8
0
 10
217.120499
 20
-26.450584
 11
218.090485
 21
-27.410578
  0
LINE
  8
0
 10
139.760498
 20
-46.450573
 11
140.830505
 21
-47.450573
  0
LINE
  8
0
 10
217.420502
 20
-46.450584
 11
216.350494
 21
-47.450584
  0
LINE
  8
0
 10
139.760513
 20
-46.450584
 11
217.420486
 21
-46.450584
  0
LINE
  8
0
 10
155.590500
 20
-24.450584
 11
155.590500
 21
-26.450584
  0
LINE
  8
0
 10
156.590500
 20
-23.450584
 11
157.590500
 21
-23.450584
  0
LINE
  8
0
 10
155.590500
 20
-24.450584
 11
157.590500
 21
-24.450584
  0
LINE
  8
0
 10
156.590500
 20
-23.450577
 11
155.590500
 21
-24.450579
  0
LINE
  8
0
 10
200.590500
 20
-23.450584
 11
199.590500
 21
-23.450584
  0
LINE
  8
0
 10
200.590500
 20
-23.450588
 11
201.590515
 21
-24.450590
  0
LINE
  8
0
 10
201.590500
 20
-24.450584
 11
201.590500
 21
-26.450584
  0
LINE
  8
0
 10
201.590500
 20
-24.450584
 11
199.590500
 21
-24.450584
  0
LINE
  8
0
 10
158.590500
 20
3.549413
 11
159.590500
 21
4.549415
  0
LINE
  8
0
 10
197.590500
 20
4.549418
 11
198.590500
 21
3.549417
  0
LINE
  8
0
 10
149.590500
 20
3.549416
 11
149.590500
 21
-26.450584
  0
LINE
  8
0
  6
CENTER
 62
     2
 10
182.590500
 20
32.469414
 11
182.590500
 21
2.019415
  0
LINE
  8
0
 10
196.090500
 20
7.649406
 11
196.090500
 21
4.549416
  0
LINE
  8
0
 10
169.090500
 20
7.649406
 11
169.090500
 21
4.549416
  0
LINE
  8
0
 10
168.590500
 20
8.349403
 11
196.590500
 21
8.349403
  0
LINE
  8
0
  6
CENTER
 62
     2
 10
158.590500
 20
14.329414
 11
158.590500
 21
2.229415
  0
LINE
  8
0
 10
151.090500
 20
6.549413
 11
150.590500
 21
6.049412
  0
LINE
  8
0
 10
166.590500
 20
12.049416
 11
166.590500
 21
4.549416
  0
LINE
  8
0
 10
151.090500
 20
12.549416
 11
151.090500
 21
6.549416
  0
LINE
  8
0
 10
151.090500
 20
12.549416
 11
166.090500
 21
12.549416
  0
LINE
  8
0
 10
158.590500
 20
12.049416
 11
160.090500
 21
12.049416
  0
LINE
  8
0
 10
150.590500
 20
12.049416
 11
150.590500
 21
4.549416
  0
LINE
  8
0
 10
160.090500
 20
12.049416
 11
160.090500
 21
6.049416
  0
LINE
  8
0
 10
160.090500
 20
6.049416
 11
163.090500
 21
6.049416
  0
LINE
  8
0
 10
160.590500
 20
12.549416
 11
160.590500
 21
6.549416
  0
LINE
  8
0
 10
160.590500
 20
6.549416
 11
162.590500
 21
6.549416
  0
LINE
  8
0
 10
163.090500
 20
12.049416
 11
163.090500
 21
6.049416
  0
LINE
  8
0
 10
165.210495
 20
12.049416
 11
165.210495
 21
6.049416
  0
LINE
  8
0
 10
160.090515
 20
12.049408
 11
160.590515
 21
12.549408
  0
LINE
  8
0
 10
160.090500
 20
6.049412
 11
160.590500
 21
6.549412
  0
LINE
  8
0
 10
162.590500
 20
12.549416
 11
162.590500
 21
6.549416
  0
LINE
  8
0
 10
163.090500
 20
12.049416
 11
165.210495
 21
12.049416
  0
LINE
  8
0
 10
162.590500
 20
12.549413
 11
163.090500
 21
12.049412
  0
LINE
  8
0
 10
162.590500
 20
6.549413
 11
163.090500
 21
6.049412
  0
LINE
  8
0
 10
164.710495
 20
12.549414
 11
165.210495
 21
12.049413
  0
LINE
  8
0
 10
165.210495
 20
6.049416
 11
166.590500
 21
6.049416
  0
LINE
  8
0
 10
165.210495
 20
6.549416
 11
166.090500
 21
6.549416
  0
LINE
  8
0
 10
166.090500
 20
12.549416
 11
166.090500
 21
6.549416
  0
LINE
  8
0
 10
150.590515
 20
12.049408
 11
151.090515
 21
12.549408
  0
LINE
  8
0
 10
166.090500
 20
12.549410
 11
166.590500
 21
12.049408
  0
LINE
  8
0
 10
166.090515
 20
6.549404
 11
166.590500
 21
6.049417
  0
LINE
  8
0
 10
158.590500
 20
12.049416
 11
157.090500
 21
12.049416
  0
LINE
  8
0
 10
157.090515
 20
12.049409
 11
156.590500
 21
12.549413
  0
LINE
  8
0
 10
156.590500
 20
12.549416
 11
156.590500
 21
6.549416
  0
LINE
  8
0
 10
157.090500
 20
12.049416
 11
157.090500
 21
6.049416
  0
LINE
  8
0
 10
156.590500
 20
6.549416
 11
154.600510
 21
6.549416
  0
LINE
  8
0
 10
157.090500
 20
6.049420
 11
156.590500
 21
6.549416
  0
LINE
  8
0
 10
157.090500
 20
6.049416
 11
154.100510
 21
6.049416
  0
LINE
  8
0
 10
154.600510
 20
12.549416
 11
154.600510
 21
6.549416
  0
LINE
  8
0
 10
154.600510
 20
6.549412
 11
154.100510
 21
6.049412
  0
LINE
  8
0
 10
154.100510
 20
12.049416
 11
154.100510
 21
6.049416
  0
LINE
  8
0
 10
154.600494
 20
12.549414
 11
154.100494
 21
12.049413
  0
LINE
  8
0
 10
154.100510
 20
12.049416
 11
151.980515
 21
12.049416
  0
LINE
  8
0
 10
152.480499
 20
12.549414
 11
151.980499
 21
12.049413
  0
LINE
  8
0
 10
151.980515
 20
12.049416
 11
151.980515
 21
6.049416
  0
LINE
  8
0
 10
151.980515
 20
6.549416
 11
151.090500
 21
6.549416
  0
LINE
  8
0
 10
151.980515
 20
6.049416
 11
150.590500
 21
6.049416
  0
LINE
  8
0
 10
169.590500
 20
16.349403
 11
195.590500
 21
16.349403
  0
LINE
  8
0
 10
168.590500
 20
15.349403
 11
168.590500
 21
8.349403
  0
LINE
  8
0
 10
196.590500
 20
15.349403
 11
196.590500
 21
8.349403
  0
LINE
  8
0
 10
168.590515
 20
15.349410
 11
169.590515
 21
16.349411
  0
LINE
  8
0
 10
195.590500
 20
16.349411
 11
196.590500
 21
15.349416
  0
LINE
  8
0
 10
184.090500
 20
15.349403
 11
184.090500
 21
9.849403
  0
LINE
  8
0
 10
188.250504
 20
15.349403
 11
188.250504
 21
9.849403
  0
LINE
  8
0
 10
190.840500
 20
15.349403
 11
190.840500
 21
9.849403
  0
LINE
  8
0
 10
193.890503
 20
15.349403
 11
193.890503
 21
9.849403
  0
LINE
  8
0
 10
195.390488
 20
15.349403
 11
195.390488
 21
9.849403
  0
LINE
  8
0
 10
184.090500
 20
9.849403
 11
188.250504
 21
9.849403
  0
LINE
  8
0
 10
184.590500
 20
10.349403
 11
187.750504
 21
10.349403
  0
LINE
  8
0
 10
184.590500
 20
15.849403
 11
184.590500
 21
10.349403
  0
LINE
  8
0
 10
190.840500
 20
9.849403
 11
193.890503
 21
9.849403
  0
LINE
  8
0
 10
187.750504
 20
15.849403
 11
187.750504
 21
10.349403
  0
LINE
  8
0
 10
182.590500
 20
15.349403
 11
184.090500
 21
15.349403
  0
LINE
  8
0
 10
184.090500
 20
15.349410
 11
184.590500
 21
15.849410
  0
LINE
  8
0
 10
184.590500
 20
15.849403
 11
187.750504
 21
15.849403
  0
LINE
  8
0
 10
187.750504
 20
15.849416
 11
188.250504
 21
15.349421
  0
LINE
  8
0
 10
187.750473
 20
10.349404
 11
188.250473
 21
9.849404
  0
LINE
  8
0
 10
184.090500
 20
9.849416
 11
184.590500
 21
10.349417
  0
LINE
  8
0
 10
188.250504
 20
15.349403
 11
190.840500
 21
15.349403
  0
LINE
  8
0
 10
190.340500
 20
15.849403
 11
193.390503
 21
15.849403
  0
LINE
  8
0
 10
190.840500
 20
10.349403
 11
193.390503
 21
10.349403
  0
LINE
  8
0
 10
193.390503
 20
15.849403
 11
193.390503
 21
10.349403
  0
LINE
  8
0
 10
193.890503
 20
15.349403
 11
195.390488
 21
15.349403
  0
LINE
  8
0
 10
190.340515
 20
15.849418
 11
190.840500
 21
15.349422
  0
LINE
  8
0
 10
193.390488
 20
15.849401
 11
193.890488
 21
15.349401
  0
LINE
  8
0
 10
194.890488
 20
15.849403
 11
196.090500
 21
15.849403
  0
LINE
  8
0
 10
194.890503
 20
15.849410
 11
195.390503
 21
15.349416
  0
LINE
  8
0
 10
195.390488
 20
9.849403
 11
196.590500
 21
9.849403
  0
LINE
  8
0
 10
193.390488
 20
10.349400
 11
193.890488
 21
9.849399
  0
LINE
  8
0
 10
196.090500
 20
15.849403
 11
196.090500
 21
10.349403
  0
LINE
  8
0
 10
195.390488
 20
10.349403
 11
196.090500
 21
10.349403
  0
LINE
  8
0
 10
196.090500
 20
10.349421
 11
196.590500
 21
9.849421
  0
LINE
  8
0
 10
182.590500
 20
15.349403
 11
181.090500
 21
15.349403
  0
LINE
  8
0
 10
181.090485
 20
15.349397
 11
180.590485
 21
15.849398
  0
LINE
  8
0
 10
181.090500
 20
15.349403
 11
181.090500
 21
9.849403
  0
LINE
  8
0
 10
180.590500
 20
15.849403
 11
180.590500
 21
10.349403
  0
LINE
  8
0
 10
181.090500
 20
9.849409
 11
180.590500
 21
10.349410
  0
LINE
  8
0
 10
180.590500
 20
10.349403
 11
177.430496
 21
10.349403
  0
LINE
  8
0
 10
181.090500
 20
9.849403
 11
176.930496
 21
9.849403
  0
LINE
  8
0
 10
180.590500
 20
15.849403
 11
177.430496
 21
15.849403
  0
LINE
  8
0
 10
177.430496
 20
15.849405
 11
176.930496
 21
15.349404
  0
LINE
  8
0
 10
177.430496
 20
15.849403
 11
177.430496
 21
10.349403
  0
LINE
  8
0
 10
176.930496
 20
15.349403
 11
176.930496
 21
9.849403
  0
LINE
  8
0
 10
176.930496
 20
15.349403
 11
174.340500
 21
15.349403
  0
LINE
  8
0
 10
177.430481
 20
10.349410
 11
176.930481
 21
9.849409
  0
LINE
  8
0
 10
174.840500
 20
15.849416
 11
174.340500
 21
15.349418
  0
LINE
  8
0
 10
174.840500
 20
15.849403
 11
171.790497
 21
15.849403
  0
LINE
  8
0
 10
174.340500
 20
15.349403
 11
174.340500
 21
9.849403
  0
LINE
  8
0
 10
174.340500
 20
10.349403
 11
171.790497
 21
10.349403
  0
LINE
  8
0
 10
174.340500
 20
9.849403
 11
171.290497
 21
9.849403
  0
LINE
  8
0
 10
171.790497
 20
15.849403
 11
171.790497
 21
10.349403
  0
LINE
  8
0
 10
171.790497
 20
10.349415
 11
171.290497
 21
9.849414
  0
LINE
  8
0
 10
171.290497
 20
15.349403
 11
171.290497
 21
9.849403
  0
LINE
  8
0
 10
171.790497
 20
15.849416
 11
171.290497
 21
15.349416
  0
LINE
  8
0
 10
171.290497
 20
15.349403
 11
169.790497
 21
15.349403
  0
LINE
  8
0
 10
170.290512
 20
15.849410
 11
169.790512
 21
15.349410
  0
LINE
  8
0
 10
169.090500
 20
15.849403
 11
169.090500
 21
10.349403
  0
LINE
  8
0
 10
169.790497
 20
15.349403
 11
169.790497
 21
9.849403
  0
LINE
  8
0
 10
169.790497
 20
10.349403
 11
169.090500
 21
10.349403
  0
LINE
  8
0
 10
169.790497
 20
9.849403
 11
168.590500
 21
9.849403
  0
LINE
  8
0
 10
169.090500
 20
10.349410
 11
168.590500
 21
9.849409
  0
LINE
  8
0
 10
175.640503
 20
23.399406
 11
175.640503
 21
17.349403
  0
LINE
  8
0
 10
189.540497
 20
23.399406
 11
189.540497
 21
17.349403
  0
LINE
  8
0
 10
175.390503
 20
17.349403
 11
189.790497
 21
17.349403
  0
LINE
  8
0
 10
175.390503
 20
17.349403
 11
175.390503
 21
16.349403
  0
LINE
  8
0
 10
189.790497
 20
17.349403
 11
189.790497
 21
16.349403
  0
LINE
  8
0
 10
169.090500
 20
15.849403
 11
170.290497
 21
15.849403
  0
LINE
  8
0
 10
166.590500
 20
10.549416
 11
168.590500
 21
10.549416
  0
LINE
  8
0
 10
198.340500
 20
10.549416
 11
198.340500
 21
3.799416
  0
LINE
  8
0
 10
159.590500
 20
20.549416
 11
175.640503
 21
20.549416
  0
LINE
  8
0
 10
158.590500
 20
19.549416
 11
158.590500
 21
12.549416
  0
LINE
  8
0
 10
158.590500
 20
19.549410
 11
159.590500
 21
20.549412
  0
LINE
  8
0
 10
158.590500
 20
19.549416
 11
159.000504
 21
19.549416
  0
LINE
  8
0
 10
160.090500
 20
13.549416
 11
161.910507
 21
13.549416
  0
LINE
  8
0
 10
159.000504
 20
12.969414
 11
161.910507
 21
12.969414
  0
LINE
  8
0
 10
174.590500
 20
19.549416
 11
174.590500
 21
16.349403
  0
LINE
  8
0
 10
174.300507
 20
20.549416
 11
174.300507
 21
16.349403
  0
LINE
  8
0
 10
168.540497
 20
20.549416
 11
168.540497
 21
13.549416
  0
LINE
  8
0
 10
167.570496
 20
19.549416
 11
167.570496
 21
12.969414
  0
LINE
  8
0
 10
161.910507
 20
19.549416
 11
161.910507
 21
12.969414
  0
LINE
  8
0
 10
160.090500
 20
20.549416
 11
160.090500
 21
13.549416
  0
LINE
  8
0
 10
159.000504
 20
19.549416
 11
159.000504
 21
12.969414
  0
LINE
  8
0
 10
168.540497
 20
13.549416
 11
168.590500
 21
13.549416
  0
LINE
  8
0
 10
167.570496
 20
12.969414
 11
168.590500
 21
12.969414
  0
LINE
  8
0
 10
174.590500
 20
19.549416
 11
175.640503
 21
19.549416
  0
LINE
  8
0
 10
161.910507
 20
19.549416
 11
167.570496
 21
19.549416
  0
LINE
  8
0
 10
167.570496
 20
12.969413
 11
168.540497
 21
13.549410
  0
LINE
  8
0
 10
167.570511
 20
19.549417
 11
168.540512
 21
20.549414
  0
LINE
  8
0
 10
174.300507
 20
20.549402
 11
174.590500
 21
19.549404
  0
LINE
  8
0
 10
160.090500
 20
20.549421
 11
159.000504
 21
19.549423
  0
LINE
  8
0
 10
160.090500
 20
13.549417
 11
159.000504
 21
12.969414
  0
LINE
  8
0
 10
161.910507
 20
19.549414
 11
162.470505
 21
20.549410
  0
LINE
  8
0
 10
198.590500
 20
19.549416
 11
198.590500
 21
10.549416
  0
LINE
  8
0
 10
198.590500
 20
19.549416
 11
197.590500
 21
20.549412
  0
LINE
  8
0
 10
198.590500
 20
19.549416
 11
198.180496
 21
19.549416
  0
LINE
  8
0
 10
197.090500
 20
13.549416
 11
196.590500
 21
13.549416
  0
LINE
  8
0
 10
198.180496
 20
12.969414
 11
196.590500
 21
12.969414
  0
LINE
  8
0
 10
189.610504
 20
19.549416
 11
189.610504
 21
17.349403
  0
LINE
  8
0
 10
195.270493
 20
19.549416
 11
195.270493
 21
16.349403
  0
LINE
  8
0
 10
197.090500
 20
20.549416
 11
197.090500
 21
13.549416
  0
LINE
  8
0
 10
198.180496
 20
19.549416
 11
198.180496
 21
12.969414
  0
LINE
  8
0
 10
195.270493
 20
19.549412
 11
194.710495
 21
20.549408
  0
LINE
  8
0
 10
189.610504
 20
19.549406
 11
189.540497
 21
19.629398
  0
LINE
  8
0
 10
197.090500
 20
20.549408
 11
198.180496
 21
19.549400
  0
LINE
  8
0
 10
197.090500
 20
13.549411
 11
198.180481
 21
12.969415
  0
LINE
  8
0
 10
189.610504
 20
19.549416
 11
195.270493
 21
19.549416
  0
LINE
  8
0
 10
114.590500
 20
14.799416
 11
114.590500
 21
-37.700584
  0
LINE
  8
0
 10
114.590500
 20
14.799416
 11
117.590500
 21
14.799416
  0
LINE
  8
0
 10
114.590500
 20
-37.700584
 11
117.590500
 21
-37.700584
  0
LINE
  8
0
 10
117.590500
 20
14.799416
 11
117.590500
 21
-37.700584
  0
LINE
  8
0
 10
142.090500
 20
9.549416
 11
142.090500
 21
-26.450584
  0
LINE
  8
0
 10
117.590500
 20
14.549416
 11
137.090500
 21
14.549416
  0
LINE
  8
0
 10
117.590500
 20
-37.450584
 11
137.090500
 21
-37.450584
  0
LINE
  8
0
 10
148.590500
 20
-4.450584
 11
148.590500
 21
-18.450584
  0
LINE
  8
0
 10
142.090500
 20
-4.450584
 11
148.590500
 21
-4.450584
  0
LINE
  8
0
 10
142.090500
 20
-18.450584
 11
148.590500
 21
-18.450584
  0
LINE
  8
0
 10
149.590500
 20
-4.740585
 11
148.590500
 21
-4.720585
  0
LINE
  8
0
 10
149.590500
 20
-18.160583
 11
148.590485
 21
-18.180584
  0
LINE
  8
0
 10
149.590515
 20
-5.050592
 11
149.040512
 21
-4.730589
  0
LINE
  8
0
 10
149.590515
 20
-17.850574
 11
149.040512
 21
-18.170576
  0
LINE
  8
0
 10
142.090515
 20
-4.450583
 11
148.590515
 21
-18.450577
  0
LINE
  8
0
 10
142.090515
 20
-18.450583
 11
148.590515
 21
-4.450588
  0
LINE
  8
0
 10
198.590500
 20
3.549416
 11
206.050491
 21
3.549416
  0
LINE
  8
0
 10
216.590500
 20
33.549416
 11
223.590500
 21
33.549416
  0
LINE
  8
0
 10
216.590500
 20
-56.450584
 11
223.590500
 21
-56.450584
  0
LINE
  8
0
 10
223.590500
 20
33.549416
 11
223.590500
 21
-56.450584
  0
LINE
  8
0
 10
215.590500
 20
32.549416
 11
215.590500
 21
11.549416
  0
LINE
  8
0
 10
215.590500
 20
-47.450584
 11
215.590500
 21
-55.450584
  0
LINE
  8
0
 10
215.590485
 20
-55.450573
 11
216.590485
 21
-56.450577
  0
LINE
  8
0
 10
215.590485
 20
32.549408
 11
216.590485
 21
33.549412
  0
LINE
  8
0
 10
216.590500
 20
30.549416
 11
223.590500
 21
30.549416
  0
LINE
  8
0
 10
216.590500
 20
-53.450584
 11
223.590500
 21
-53.450584
  0
LINE
  8
0
 10
206.050507
 20
3.549425
 11
215.590500
 21
11.549416
  0
LINE
  8
0
 10
216.590500
 20
33.549416
 11
216.590500
 21
11.079414
  0
LINE
  8
0
 10
206.420486
 20
2.549406
 11
216.590485
 21
11.079397
  0
LINE
  8
0
 10
198.590500
 20
2.549416
 11
206.420486
 21
2.549416
  0
LINE
  8
0
 10
201.590500
 20
-25.450584
 11
206.420486
 21
-25.450584
  0
LINE
  8
0
 10
206.420502
 20
-25.450588
 11
207.610504
 21
-26.450588
  0
LINE
  8
0
 10
216.590500
 20
-47.450584
 11
216.590500
 21
-56.450584
  0
LINE
  8
0
 10
206.420502
 20
-25.450577
 11
206.050491
 21
-26.450579
  0
LINE
  8
0
 10
206.420502
 20
2.549417
 11
206.050491
 21
3.549419
  0
LINE
  8
0
 10
216.590485
 20
11.079397
 11
215.590485
 21
11.549402
  0
LINE
  8
0
 10
216.590469
 20
30.549402
 11
215.590500
 21
30.129410
  0
LINE
  8
0
 10
216.590485
 20
-53.450569
 11
215.590500
 21
-53.030579
  0
LINE
  8
0
  6
CENTER
 62
     2
 10
213.420486
 20
23.549416
 11
227.090500
 21
23.549416
  0
LINE
  8
0
  6
CENTER
 62
     2
 10
213.090500
 20
-46.450584
 11
227.420486
 21
-46.450584
  0
LINE
  8
0
 10
189.540497
 20
20.549416
 11
197.590500
 21
20.549416
  0
LINE
  8
0
 10
196.590500
 20
10.549416
 11
198.590500
 21
10.549416
  0
LINE
  8
0
  6
CENTER
 62
     2
 10
107.070511
 20
-11.450584
 11
232.750488
 21
-11.450584
  0
LINE
  8
0
 10
145.180511
 20
-131.770569
 11
144.440506
 21
-47.450577
  0
LINE
  8
0
 10
212.010498
 20
-131.770584
 11
212.750504
 21
-47.450573
  0
LINE
  8
0
 10
149.880508
 20
-53.150581
 11
149.880508
 21
-129.140564
  0
LINE
  8
0
 10
150.470505
 20
-53.650581
 11
150.470505
 21
-128.640564
  0
LINE
  8
0
 10
160.020508
 20
-53.150581
 11
160.020508
 21
-129.140564
  0
LINE
  8
0
 10
207.310486
 20
-53.150581
 11
207.310486
 21
-129.140564
  0
LINE
  8
0
 10
206.710495
 20
-53.650581
 11
206.710495
 21
-128.640564
  0
LINE
  8
0
 10
197.170486
 20
-53.150581
 11
197.170486
 21
-129.140564
  0
LINE
  8
0
  6
CENTER
 62
     2
 10
178.590500
 20
8.489403
 11
178.590500
 21
-173.850586
  0
LINE
  8
0
  6
CENTER
 62
     2
 10
7.813034
 20
21.419418
 11
7.813034
 21
-148.930573
  0
LINE
  8
0
 10
-29.106968
 20
-49.450573
 11
-28.026968
 21
-49.430573
  0
LINE
  8
0
 10
-29.586977
 20
-49.970562
 11
-29.106976
 21
-49.450562
  0
LINE
  8
0
 10
-28.076971
 20
-47.450565
 11
-28.026972
 21
-49.430569
  0
LINE
  8
0
 10
-28.646978
 20
-47.450577
 11
-28.606977
 21
-49.440578
  0
LINE
  8
0
 10
-12.146973
 20
-129.140564
 11
-19.046967
 21
-129.140564
  0
LINE
  8
0
 10
-12.146973
 20
-93.150574
 11
-19.046967
 21
-93.150574
  0
LINE
  8
0
 10
-12.146973
 20
-87.150574
 11
-19.046967
 21
-87.150574
  0
LINE
  8
0
 10
-19.046967
 20
-53.150574
 11
-12.146973
 21
-53.150574
  0
LINE
  8
0
 10
-25.596977
 20
-131.770554
 11
-26.076979
 21
-77.350563
  0
LINE
  8
0
 10
-17.216980
 20
-53.650574
 11
-12.146973
 21
-53.650574
  0
LINE
  8
0
 10
-12.146973
 20
-93.650574
 11
-17.216980
 21
-93.650574
  0
LINE
  8
0
 10
-12.146973
 20
-86.650574
 11
-17.216980
 21
-86.650574
  0
LINE
  8
0
 10
-12.146973
 20
-128.640564
 11
-17.216980
 21
-128.640564
  0
LINE
  8
0
 10
-20.046967
 20
-94.150574
 11
-20.046967
 21
-128.140564
  0
LINE
  8
0
 10
-18.216980
 20
-94.650574
 11
-18.216980
 21
-127.640564
  0
LINE
  8
0
 10
-11.146973
 20
-94.150574
 11
-11.146973
 21
-128.140564
  0
LINE
  8
0
 10
-11.756973
 20
-129.640564
 11
-19.306976
 21
-129.640564
  0
LINE
  8
0
 10
-11.756973
 20
-130.140564
 11
-19.906967
 21
-130.140564
  0
LINE
  8
0
 10
-19.306976
 20
-52.650574
 11
-11.756973
 21
-52.650574
  0
LINE
  8
0
 10
-19.906967
 20
-52.150574
 11
-11.756973
 21
-52.150574
  0
LINE
  8
0
 10
-10.756973
 20
-53.150574
 11
-10.756973
 21
-129.140564
  0
LINE
  8
0
 10
-11.146973
 20
-54.150574
 11
-11.146973
 21
-86.150574
  0
LINE
  8
0
 10
-18.216980
 20
-54.650574
 11
-18.216980
 21
-85.650574
  0
LINE
  8
0
 10
-20.046967
 20
-54.150574
 11
-20.046967
 21
-86.150574
  0
LINE
  8
0
 10
-20.306976
 20
-53.650574
 11
-20.306976
 21
-128.640564
  0
LINE
  8
0
 10
-20.906967
 20
-53.150574
 11
-20.906967
 21
-129.140564
  0
LINE
  8
0
 10
27.773026
 20
-129.140564
 11
34.673019
 21
-129.140564
  0
LINE
  8
0
 10
27.773026
 20
-93.150574
 11
34.673019
 21
-93.150574
  0
LINE
  8
0
 10
27.773026
 20
-87.150574
 11
34.673019
 21
-87.150574
  0
LINE
  8
0
 10
34.673019
 20
-53.150574
 11
27.773026
 21
-53.150574
  0
LINE
  8
0
 10
32.843033
 20
-53.650574
 11
27.773026
 21
-53.650574
  0
LINE
  8
0
 10
27.773026
 20
-93.650574
 11
32.843033
 21
-93.650574
  0
LINE
  8
0
 10
27.773026
 20
-86.650574
 11
32.843033
 21
-86.650574
  0
LINE
  8
0
 10
27.773026
 20
-128.640564
 11
32.843033
 21
-128.640564
  0
LINE
  8
0
 10
35.673019
 20
-94.150574
 11
35.673019
 21
-128.140564
  0
LINE
  8
0
 10
33.843033
 20
-94.650574
 11
33.843033
 21
-127.640564
  0
LINE
  8
0
 10
26.773026
 20
-94.150574
 11
26.773026
 21
-128.140564
  0
LINE
  8
0
 10
27.383026
 20
-129.640564
 11
34.933029
 21
-129.640564
  0
LINE
  8
0
 10
27.383026
 20
-130.140564
 11
35.533020
 21
-130.140564
  0
LINE
  8
0
 10
34.933029
 20
-52.650574
 11
27.383026
 21
-52.650574
  0
LINE
  8
0
 10
35.533020
 20
-52.150574
 11
27.383026
 21
-52.150574
  0
LINE
  8
0
 10
26.383026
 20
-53.150574
 11
26.383026
 21
-129.140564
  0
LINE
  8
0
 10
26.773026
 20
-54.150574
 11
26.773026
 21
-86.150574
  0
LINE
  8
0
 10
33.843033
 20
-54.650574
 11
33.843033
 21
-85.650574
  0
LINE
  8
0
 10
35.673019
 20
-54.150574
 11
35.673019
 21
-86.150574
  0
LINE
  8
0
 10
35.933029
 20
-53.650574
 11
35.933029
 21
-128.640564
  0
LINE
  8
0
 10
36.533020
 20
-53.150574
 11
36.533020
 21
-129.140564
  0
LINE
  8
0
 10
-26.076971
 20
-77.350578
 11
-28.856977
 21
-73.370567
  0
LINE
  8
0
 10
-28.916981
 20
-73.200577
 11
-28.996981
 21
-63.850574
  0
LINE
  8
0
 10
-26.226974
 20
-59.520580
 11
-28.996971
 21
-63.850574
  0
LINE
  8
0
 10
-29.046978
 20
-71.960579
 11
-28.926977
 21
-72.080582
  0
LINE
  8
0
 10
-29.106972
 20
-49.450573
 11
-28.756973
 21
-63.480572
  0
LINE
  8
0
 10
-29.586979
 20
-49.970577
 11
-29.046980
 21
-71.960571
  0
LINE
  8
0
 10
-26.226971
 20
-59.520576
 11
-26.336969
 21
-47.450565
  0
LINE
  8
0
 10
41.233032
 20
-131.770569
 11
41.963032
 21
-47.450562
  0
LINE
  8
0
 10
-209.106964
 20
-49.450569
 11
-208.026962
 21
-49.430569
  0
LINE
  8
0
 10
-209.586975
 20
-49.970566
 11
-209.106964
 21
-49.450558
  0
LINE
  8
0
 10
-208.076981
 20
-47.450565
 11
-208.026978
 21
-49.430573
  0
LINE
  8
0
 10
-208.646973
 20
-47.450565
 11
-208.606964
 21
-49.440559
  0
LINE
  8
0
 10
-192.146973
 20
-129.140564
 11
-199.046967
 21
-129.140564
  0
LINE
  8
0
 10
-192.146973
 20
-93.150574
 11
-199.046967
 21
-93.150574
  0
LINE
  8
0
 10
-192.146973
 20
-87.150574
 11
-199.046967
 21
-87.150574
  0
LINE
  8
0
 10
-199.046967
 20
-53.150574
 11
-192.146973
 21
-53.150574
  0
LINE
  8
0
 10
-205.596970
 20
-131.770569
 11
-206.076965
 21
-77.350578
  0
LINE
  8
0
 10
-197.216965
 20
-53.650574
 11
-192.146973
 21
-53.650574
  0
LINE
  8
0
 10
-192.146973
 20
-93.650574
 11
-197.216965
 21
-93.650574
  0
LINE
  8
0
 10
-192.146973
 20
-86.650574
 11
-197.216965
 21
-86.650574
  0
LINE
  8
0
 10
-192.146973
 20
-128.640564
 11
-197.216965
 21
-128.640564
  0
LINE
  8
0
 10
-200.046967
 20
-94.150574
 11
-200.046967
 21
-128.140564
  0
LINE
  8
0
 10
-198.216965
 20
-94.650574
 11
-198.216965
 21
-127.640564
  0
LINE
  8
0
 10
-191.146973
 20
-94.150574
 11
-191.146973
 21
-128.140564
  0
LINE
  8
0
 10
-191.756973
 20
-129.640564
 11
-199.306961
 21
-129.640564
  0
LINE
  8
0
 10
-191.756973
 20
-130.140564
 11
-199.906967
 21
-130.140564
  0
LINE
  8
0
 10
-199.306961
 20
-52.650574
 11
-191.756973
 21
-52.650574
  0
LINE
  8
0
 10
-199.906967
 20
-52.150574
 11
-191.756973
 21
-52.150574
  0
LINE
  8
0
 10
-190.756973
 20
-53.150574
 11
-190.756973
 21
-129.140564
  0
LINE
  8
0
 10
-191.146973
 20
-54.150574
 11
-191.146973
 21
-86.150574
  0
LINE
  8
0
 10
-198.216965
 20
-54.650574
 11
-198.216965
 21
-85.650574
  0
LINE
  8
0
 10
-200.046967
 20
-54.150574
 11
-200.046967
 21
-86.150574
  0
LINE
  8
0
 10
-200.306961
 20
-53.650574
 11
-200.306961
 21
-128.640564
  0
LINE
  8
0
 10
-200.906967
 20
-53.150574
 11
-200.906967
 21
-129.140564
  0
LINE
  8
0
 10
-152.226974
 20
-129.140564
 11
-145.326981
 21
-129.140564
  0
LINE
  8
0
 10
-152.226974
 20
-93.150574
 11
-145.326981
 21
-93.150574
  0
LINE
  8
0
 10
-152.226974
 20
-87.150574
 11
-145.326981
 21
-87.150574
  0
LINE
  8
0
 10
-145.326981
 20
-53.150574
 11
-152.226974
 21
-53.150574
  0
LINE
  8
0
 10
-147.156967
 20
-53.650574
 11
-152.226974
 21
-53.650574
  0
LINE
  8
0
 10
-152.226974
 20
-93.650574
 11
-147.156967
 21
-93.650574
  0
LINE
  8
0
 10
-152.226974
 20
-86.650574
 11
-147.156967
 21
-86.650574
  0
LINE
  8
0
 10
-152.226974
 20
-128.640564
 11
-147.156967
 21
-128.640564
  0
LINE
  8
0
 10
-144.326981
 20
-94.150574
 11
-144.326981
 21
-128.140564
  0
LINE
  8
0
 10
-146.156967
 20
-94.650574
 11
-146.156967
 21
-127.640564
  0
LINE
  8
0
 10
-153.226974
 20
-94.150574
 11
-153.226974
 21
-128.140564
  0
LINE
  8
0
 10
-152.616974
 20
-129.640564
 11
-145.066971
 21
-129.640564
  0
LINE
  8
0
 10
-152.616974
 20
-130.140564
 11
-144.466980
 21
-130.140564
  0
LINE
  8
0
 10
-145.066971
 20
-52.650574
 11
-152.616974
 21
-52.650574
  0
LINE
  8
0
 10
-144.466980
 20
-52.150574
 11
-152.616974
 21
-52.150574
  0
LINE
  8
0
 10
-153.616974
 20
-53.150574
 11
-153.616974
 21
-129.140564
  0
LINE
  8
0
 10
-153.226974
 20
-54.150574
 11
-153.226974
 21
-86.150574
  0
LINE
  8
0
 10
-146.156967
 20
-54.650574
 11
-146.156967
 21
-85.650574
  0
LINE
  8
0
 10
-144.326981
 20
-54.150574
 11
-144.326981
 21
-86.150574
  0
LINE
  8
0
 10
-144.066971
 20
-53.650574
 11
-144.066971
 21
-128.640564
  0
LINE
  8
0
 10
-143.466980
 20
-53.150574
 11
-143.466980
 21
-129.140564
  0
LINE
  8
0
 10
-206.076965
 20
-77.350578
 11
-208.856964
 21
-73.370583
  0
LINE
  8
0
 10
-208.916962
 20
-73.200577
 11
-208.996964
 21
-63.850571
  0
LINE
  8
0
 10
-206.226959
 20
-59.520565
 11
-208.996964
 21
-63.850563
  0
LINE
  8
0
 10
-209.046967
 20
-71.960571
 11
-208.926971
 21
-72.080574
  0
LINE
  8
0
 10
-209.106949
 20
-49.450573
 11
-208.756958
 21
-63.480568
  0
LINE
  8
0
 10
-209.586960
 20
-49.970562
 11
-209.046967
 21
-71.960579
  0
LINE
  8
0
 10
-206.226959
 20
-59.520569
 11
-206.336960
 21
-47.450565
  0
LINE
  8
0
 10
-138.766968
 20
-131.770569
 11
-138.036972
 21
-47.450573
  0
LINE
  8
0
 10
-53.686966
 20
-26.450577
 11
-22.686966
 21
-26.450577
  0
LINE
  8
0
 10
-53.686966
 20
3.549423
 11
-22.686966
 21
3.549423
  0
LINE
  8
0
 10
-53.686966
 20
30.549423
 11
-53.686966
 21
4.549423
  0
LINE
  8
0
 10
-22.686966
 20
30.549423
 11
-22.686966
 21
5.249420
  0
LINE
  8
0
 10
-47.136978
 20
-1.950577
 11
-47.136978
 21
-20.950577
  0
LINE
  8
0
 10
-29.246979
 20
-1.950577
 11
-29.246979
 21
-20.950577
  0
LINE
  8
0
 10
-47.136978
 20
-1.950577
 11
-29.246979
 21
-1.950577
  0
LINE
  8
0
 10
-47.136978
 20
-20.950577
 11
-29.246979
 21
-20.950577
  0
LINE
  8
0
 10
-53.686985
 20
3.549419
 11
-47.136978
 21
-1.950587
  0
LINE
  8
0
 10
-53.686985
 20
-26.450571
 11
-47.136978
 21
-20.950563
  0
LINE
  8
0
 10
-29.246977
 20
-20.950569
 11
-22.686972
 21
-26.450575
  0
LINE
  8
0
 10
-29.246977
 20
-1.950587
 11
-22.686972
 21
3.549419
  0
LINE
  8
0
 10
-50.686966
 20
-56.450577
 11
-29.427841
 21
-56.450577
  0
LINE
  8
0
 10
-50.686966
 20
33.549423
 11
-25.686966
 21
33.549423
  0
LINE
  8
0
 10
-53.686974
 20
30.549425
 11
-50.686970
 21
33.549427
  0
LINE
  8
0
 10
-25.686981
 20
33.549419
 11
-22.686975
 21
30.549414
  0
LINE
  8
0
 10
-53.686977
 20
-53.450581
 11
-50.686974
 21
-56.450581
  0
LINE
  8
0
 10
-52.686966
 20
30.129410
 11
-52.686966
 21
4.549423
  0
LINE
  8
0
 10
-23.686966
 20
30.129410
 11
-23.686966
 21
5.249420
  0
LINE
  8
0
 10
-50.276978
 20
-55.450577
 11
-29.452408
 21
-55.450577
  0
LINE
  8
0
 10
-52.686981
 20
-53.030579
 11
-50.276985
 21
-55.450577
  0
LINE
  8
0
 10
-52.686977
 20
30.129419
 11
-50.276981
 21
32.549419
  0
LINE
  8
0
 10
-50.276978
 20
32.549423
 11
-26.106979
 21
32.549423
  0
LINE
  8
0
 10
-26.106976
 20
32.549416
 11
-23.686979
 21
30.129417
  0
LINE
  8
0
 10
-52.686966
 20
-27.450577
 11
-52.686966
 21
-53.030563
  0
LINE
  8
0
 10
-52.686966
 20
11.549423
 11
-23.686966
 21
11.549423
  0
LINE
  8
0
 10
-52.686966
 20
-34.450577
 11
-31.446976
 21
-34.450577
  0
LINE
  8
0
  6
CENTER
 62
     2
 10
-50.686966
 20
23.549423
 11
-25.686966
 21
23.549423
  0
LINE
  8
0
  6
CENTER
 62
     2
 10
-50.686966
 20
-46.450577
 11
-25.686966
 21
-46.450577
  0
LINE
  8
0
 10
-40.186966
 20
-41.950577
 11
-36.186966
 21
-41.950577
  0
LINE
  8
0
 10
-40.186966
 20
-50.950577
 11
-36.186966
 21
-50.950577
  0
LINE
  8
0
 10
-40.186966
 20
28.049423
 11
-36.186966
 21
28.049423
  0
LINE
  8
0
 10
-40.186966
 20
19.049423
 11
-36.186966
 21
19.049423
  0
LINE
  8
0
  6
CENTER
 62
     2
 10
-38.186966
 20
37.089417
 11
-38.186966
 21
-62.240570
  0
LINE
  8
0
 10
-52.686970
 20
11.549416
 11
-53.686974
 21
11.079413
  0
LINE
  8
0
 10
-23.686974
 20
11.549420
 11
-22.686981
 21
11.079425
  0
LINE
  8
0
 10
-52.686970
 20
-34.450565
 11
-53.686970
 21
-33.980564
  0
LINE
  8
0
 10
-40.686966
 20
-10.010577
 11
-40.686966
 21
-12.890576
  0
LINE
  8
0
 10
-35.686966
 20
-10.010577
 11
-35.686966
 21
-12.890576
  0
LINE
  8
0
 10
-40.686977
 20
-10.010561
 11
-38.186985
 21
-8.570566
  0
LINE
  8
0
 10
-38.186977
 20
-14.330568
 11
-35.686974
 21
-12.890566
  0
LINE
  8
0
 10
-40.686977
 20
-12.890591
 11
-38.186985
 21
-14.330587
  0
LINE
  8
0
 10
-38.186977
 20
-8.570585
 11
-35.686974
 21
-10.010589
  0
LINE
  8
0
 10
-141.686966
 20
-26.450577
 11
-110.686966
 21
-26.450577
  0
LINE
  8
0
 10
-141.686966
 20
3.549423
 11
-110.686966
 21
3.549423
  0
LINE
  8
0
 10
-141.686966
 20
30.549423
 11
-141.686966
 21
4.549423
  0
LINE
  8
0
 10
-110.686966
 20
30.549423
 11
-110.686966
 21
5.249420
  0
LINE
  8
0
 10
-135.136978
 20
-1.950577
 11
-135.136978
 21
-20.950577
  0
LINE
  8
0
 10
-117.246979
 20
-1.950577
 11
-117.246979
 21
-20.950577
  0
LINE
  8
0
 10
-135.136978
 20
-1.950577
 11
-117.246979
 21
-1.950577
  0
LINE
  8
0
 10
-135.136978
 20
-20.950577
 11
-117.246979
 21
-20.950577
  0
LINE
  8
0
 10
-141.686981
 20
3.549410
 11
-135.136978
 21
-1.950587
  0
LINE
  8
0
 10
-141.686981
 20
-26.450571
 11
-135.136978
 21
-20.950573
  0
LINE
  8
0
 10
-117.246979
 20
-20.950575
 11
-110.686974
 21
-26.450583
  0
LINE
  8
0
 10
-117.246979
 20
-1.950577
 11
-110.686974
 21
3.549429
  0
LINE
  8
0
 10
-138.114883
 20
-56.450577
 11
-113.686966
 21
-56.450577
  0
LINE
  8
0
 10
-138.686966
 20
33.549423
 11
-113.686966
 21
33.549423
  0
LINE
  8
0
 10
-141.686981
 20
30.549417
 11
-138.686966
 21
33.549419
  0
LINE
  8
0
 10
-113.686981
 20
33.549423
 11
-110.686981
 21
30.549423
  0
LINE
  8
0
 10
-113.686981
 20
-56.450577
 11
-110.686974
 21
-53.450581
  0
LINE
  8
0
 10
-140.686966
 20
30.129410
 11
-140.686966
 21
4.549423
  0
LINE
  8
0
 10
-111.686966
 20
30.129410
 11
-111.686966
 21
5.249420
  0
LINE
  8
0
 10
-114.106972
 20
-55.450577
 11
-111.686974
 21
-53.030579
  0
LINE
  8
0
 10
-138.106232
 20
-55.450577
 11
-114.106979
 21
-55.450577
  0
LINE
  8
0
 10
-140.686981
 20
30.129421
 11
-138.276978
 21
32.549427
  0
LINE
  8
0
 10
-138.276978
 20
32.549423
 11
-114.106979
 21
32.549423
  0
LINE
  8
0
 10
-114.106972
 20
32.549431
 11
-111.686974
 21
30.129431
  0
LINE
  8
0
 10
-111.686966
 20
-28.150574
 11
-111.686966
 21
-53.030563
  0
LINE
  8
0
 10
-140.686966
 20
11.549423
 11
-111.686966
 21
11.549423
  0
LINE
  8
0
 10
-132.686966
 20
-34.450577
 11
-111.686966
 21
-34.450577
  0
LINE
  8
0
  6
CENTER
 62
     2
 10
-138.686966
 20
23.549423
 11
-113.686966
 21
23.549423
  0
LINE
  8
0
  6
CENTER
 62
     2
 10
-138.686966
 20
-46.450577
 11
-113.686966
 21
-46.450577
  0
LINE
  8
0
 10
-128.186966
 20
-41.950577
 11
-124.186966
 21
-41.950577
  0
LINE
  8
0
 10
-128.186966
 20
-50.950577
 11
-124.186966
 21
-50.950577
  0
LINE
  8
0
 10
-128.186966
 20
28.049423
 11
-124.186966
 21
28.049423
  0
LINE
  8
0
 10
-128.186966
 20
19.049423
 11
-124.186966
 21
19.049423
  0
LINE
  8
0
  6
CENTER
 62
     2
 10
-126.186966
 20
37.089417
 11
-126.186966
 21
-62.240570
  0
LINE
  8
0
 10
-140.686966
 20
11.549419
 11
-141.686981
 21
11.079417
  0
LINE
  8
0
 10
-111.686974
 20
11.549420
 11
-110.686981
 21
11.079425
  0
LINE
  8
0
 10
-111.686974
 20
-34.450577
 11
-110.686981
 21
-33.980579
  0
LINE
  8
0
 10
-128.686966
 20
-10.010577
 11
-128.686966
 21
-12.890576
  0
LINE
  8
0
 10
-123.686966
 20
-10.010577
 11
-123.686966
 21
-12.890576
  0
LINE
  8
0
 10
-128.686981
 20
-10.010577
 11
-126.186974
 21
-8.570572
  0
LINE
  8
0
 10
-126.186974
 20
-14.330573
 11
-123.686981
 21
-12.890577
  0
LINE
  8
0
 10
-128.686981
 20
-12.890575
 11
-126.186974
 21
-14.330577
  0
LINE
  8
0
 10
-126.186966
 20
-8.570585
 11
-123.686974
 21
-10.010580
  0
LINE
  8
0
  6
CENTER
 62
     2
 10
-226.054138
 20
-11.450577
 11
59.129684
 21
-11.450577
  0
LINE
  8
0
 10
-119.186966
 20
-27.450577
 11
-101.786972
 21
-27.450577
  0
LINE
  8
0
 10
-119.186966
 20
4.549423
 11
-45.186966
 21
4.549423
  0
LINE
  8
0
 10
-120.186966
 20
3.549419
 11
-119.186974
 21
4.549416
  0
LINE
  8
0
 10
-120.186981
 20
-26.450571
 11
-119.186981
 21
-27.450575
  0
LINE
  8
0
 10
-45.186981
 20
-27.450573
 11
-44.186981
 21
-26.450573
  0
LINE
  8
0
 10
-45.186981
 20
4.549419
 11
-44.186977
 21
3.549416
  0
LINE
  8
0
 62
     2
 10
-65.186966
 20
18.879410
 11
-65.186966
 21
-42.450577
  0
LINE
  8
0
 10
-115.186966
 20
5.249420
 11
-106.946976
 21
5.249420
  0
LINE
  8
0
 10
-115.186966
 20
5.249420
 11
-115.186966
 21
4.549423
  0
LINE
  8
0
 10
-106.946976
 20
5.249420
 11
-106.946976
 21
4.549423
  0
LINE
  8
0
 10
-119.186966
 20
4.549423
 11
-119.186966
 21
3.549423
  0
LINE
  8
0
 10
-45.186966
 20
4.549423
 11
-45.186966
 21
3.549423
  0
LINE
  8
0
 10
-110.686966
 20
3.549423
 11
-53.686966
 21
3.549423
  0
LINE
  8
0
 10
-110.686966
 20
-26.450577
 11
-101.786972
 21
-26.450577
  0
LINE
  8
0
 10
-102.186966
 20
10.549423
 11
-62.186966
 21
10.549423
  0
LINE
  8
0
 10
-62.436966
 20
10.549423
 11
-62.436966
 21
4.549423
  0
LINE
  8
0
 10
-101.936966
 20
10.549423
 11
-101.936966
 21
4.549423
  0
LINE
  8
0
 10
-100.786972
 20
-22.450577
 11
-63.596970
 21
-22.450577
  0
LINE
  8
0
 10
-110.186966
 20
-27.450577
 11
-110.186966
 21
-39.450577
  0
LINE
  8
0
 10
-54.186966
 20
-27.450577
 11
-54.186966
 21
-39.450577
  0
LINE
  8
0
 10
-110.186981
 20
-39.450577
 11
-109.186981
 21
-40.450581
  0
LINE
  8
0
 10
-55.186981
 20
-40.450577
 11
-54.186977
 21
-39.450573
  0
LINE
  8
0
 10
-101.786972
 20
-23.450577
 11
-101.786972
 21
-27.450577
  0
LINE
  8
0
 10
-62.596970
 20
-23.450577
 11
-62.596970
 21
-27.450577
  0
LINE
  8
0
 10
-101.786972
 20
-23.450577
 11
-100.786972
 21
-22.450575
  0
LINE
  8
0
 10
-63.596977
 20
-22.450579
 11
-62.596973
 21
-23.450581
  0
LINE
  8
0
 10
-101.786972
 20
-23.450577
 11
-62.596970
 21
-23.450577
  0
LINE
  8
0
 10
-110.186966
 20
-39.450577
 11
-54.186966
 21
-39.450577
  0
LINE
  8
0
 10
-62.596970
 20
-26.450577
 11
-53.686966
 21
-26.450577
  0
LINE
  8
0
 10
-62.596970
 20
-27.450577
 11
-45.186966
 21
-27.450577
  0
LINE
  8
0
 10
-109.686966
 20
-53.650574
 11
-54.686966
 21
-53.650574
  0
LINE
  8
0
 10
-110.686966
 20
-43.650574
 11
-110.686966
 21
-52.650574
  0
LINE
  8
0
 10
-110.686974
 20
-52.650570
 11
-109.686974
 21
-53.650570
  0
LINE
  8
0
 10
-92.676971
 20
-43.650574
 11
-92.676971
 21
-52.650574
  0
LINE
  8
0
 10
-108.436966
 20
-52.650574
 11
-104.936966
 21
-52.650574
  0
LINE
  8
0
 10
-103.886978
 20
-46.650574
 11
-99.366974
 21
-46.650574
  0
LINE
  8
0
 10
-110.476974
 20
-45.650574
 11
-108.436966
 21
-45.650574
  0
LINE
  8
0
 10
-99.366974
 20
-45.650574
 11
-99.366974
 21
-52.650574
  0
LINE
  8
0
 10
-99.366974
 20
-52.650581
 11
-99.086983
 21
-53.650574
  0
LINE
  8
0
 10
-103.886978
 20
-46.650574
 11
-103.886978
 21
-53.650574
  0
LINE
  8
0
 10
-104.936966
 20
-45.650574
 11
-104.936966
 21
-52.650574
  0
LINE
  8
0
 10
-104.936981
 20
-52.650570
 11
-103.886978
 21
-53.650570
  0
LINE
  8
0
 10
-99.366974
 20
-52.650574
 11
-92.676971
 21
-52.650574
  0
LINE
  8
0
 10
-104.936981
 20
-45.650566
 11
-103.886971
 21
-46.650574
  0
LINE
  8
0
 10
-108.436966
 20
-45.650574
 11
-108.436966
 21
-52.650574
  0
LINE
  8
0
 10
-107.666969
 20
-53.650574
 11
-108.436966
 21
-52.650578
  0
LINE
  8
0
 10
-104.936966
 20
-45.650574
 11
-99.366974
 21
-45.650574
  0
LINE
  8
0
 10
-109.426971
 20
-46.650574
 11
-109.426971
 21
-53.650574
  0
LINE
  8
0
 10
-110.476974
 20
-45.650574
 11
-110.476974
 21
-52.650574
  0
LINE
  8
0
 10
-109.426971
 20
-46.650574
 11
-108.436966
 21
-46.650574
  0
LINE
  8
0
 10
-110.686966
 20
-52.650574
 11
-110.476974
 21
-52.650574
  0
LINE
  8
0
 10
-110.476974
 20
-52.650581
 11
-109.426979
 21
-53.650578
  0
LINE
  8
0
 10
-110.476974
 20
-45.650574
 11
-109.426979
 21
-46.650574
  0
LINE
  8
0
 10
-53.686966
 20
-43.650574
 11
-53.686966
 21
-52.650574
  0
LINE
  8
0
 10
-53.686977
 20
-52.650574
 11
-54.686985
 21
-53.650578
  0
LINE
  8
0
 10
-71.706970
 20
-43.650574
 11
-71.706970
 21
-52.650574
  0
LINE
  8
0
 10
-55.946976
 20
-52.650574
 11
-59.446976
 21
-52.650574
  0
LINE
  8
0
 10
-60.486969
 20
-46.650574
 11
-65.016968
 21
-46.650574
  0
LINE
  8
0
 10
-53.906967
 20
-45.650574
 11
-55.946976
 21
-45.650574
  0
LINE
  8
0
 10
-65.016968
 20
-45.650574
 11
-65.016968
 21
-52.650574
  0
LINE
  8
0
 10
-65.016968
 20
-52.650570
 11
-65.296967
 21
-53.650570
  0
LINE
  8
0
 10
-60.486969
 20
-46.650574
 11
-60.486969
 21
-53.650574
  0
LINE
  8
0
 10
-59.446976
 20
-45.650574
 11
-59.446976
 21
-52.650574
  0
LINE
  8
0
 10
-59.446976
 20
-52.650574
 11
-60.486977
 21
-53.650574
  0
LINE
  8
0
 10
-65.016968
 20
-52.650574
 11
-71.706970
 21
-52.650574
  0
LINE
  8
0
 10
-59.446972
 20
-45.650581
 11
-60.486969
 21
-46.650581
  0
LINE
  8
0
 10
-55.946976
 20
-45.650574
 11
-55.946976
 21
-52.650574
  0
LINE
  8
0
 10
-56.706974
 20
-53.650570
 11
-55.946976
 21
-52.650578
  0
LINE
  8
0
 10
-59.446976
 20
-45.650574
 11
-65.016968
 21
-45.650574
  0
LINE
  8
0
 10
-54.956970
 20
-46.650574
 11
-54.956970
 21
-53.650574
  0
LINE
  8
0
 10
-53.906967
 20
-45.650574
 11
-53.906967
 21
-52.650574
  0
LINE
  8
0
 10
-54.956970
 20
-46.650574
 11
-55.946976
 21
-46.650574
  0
LINE
  8
0
 10
-53.686966
 20
-52.650574
 11
-53.906967
 21
-52.650574
  0
LINE
  8
0
 10
-53.906979
 20
-52.650589
 11
-54.956974
 21
-53.650589
  0
LINE
  8
0
 10
-53.906979
 20
-45.650581
 11
-54.956974
 21
-46.650581
  0
LINE
  8
0
 10
-100.226974
 20
-101.650574
 11
-64.156967
 21
-101.650574
  0
LINE
  8
0
 10
-101.256973
 20
-99.650574
 11
-101.226974
 21
-100.680565
  0
LINE
  8
0
 10
-102.976974
 20
-69.650574
 11
-61.416977
 21
-69.650574
  0
LINE
  8
0
 10
-86.556976
 20
-99.650574
 11
-77.826981
 21
-99.650574
  0
LINE
  8
0
 10
-102.876968
 20
-73.650574
 11
-100.266968
 21
-73.650574
  0
LINE
  8
0
 10
-102.436966
 20
-98.960556
 11
-101.256958
 21
-99.650558
  0
LINE
  8
0
 10
-103.446968
 20
-70.150566
 11
-102.436974
 21
-98.960571
  0
LINE
  8
0
 10
-103.446976
 20
-70.150566
 11
-102.976982
 21
-69.650574
  0
LINE
  8
0
 10
-61.416973
 20
-69.650581
 11
-60.936977
 21
-70.130577
  0
LINE
  8
0
 10
-86.186966
 20
-98.960571
 11
-78.186966
 21
-98.960571
  0
LINE
  8
0
 10
-87.076981
 20
-73.650566
 11
-86.186981
 21
-98.960571
  0
LINE
  8
0
 10
-78.186974
 20
-98.960564
 11
-77.306976
 21
-73.650566
  0
LINE
  8
0
 10
-87.436974
 20
-74.300568
 11
-86.556976
 21
-99.650558
  0
LINE
  8
0
 10
-77.826981
 20
-99.650566
 11
-76.936981
 21
-74.300568
  0
LINE
  8
0
 10
-101.486969
 20
-74.300568
 11
-100.236969
 21
-74.300568
  0
LINE
  8
0
 10
-93.396965
 20
-98.960564
 11
-92.176964
 21
-99.650566
  0
LINE
  8
0
 10
-92.176979
 20
-99.650566
 11
-92.126984
 21
-74.300568
  0
LINE
  8
0
 10
-93.396973
 20
-98.960564
 11
-93.356972
 21
-73.650566
  0
LINE
  8
0
 10
-92.126968
 20
-74.300568
 11
-87.436966
 21
-74.300568
  0
LINE
  8
0
 10
-93.356979
 20
-73.650574
 11
-87.076981
 21
-73.650574
  0
LINE
  8
0
 10
-99.056976
 20
-98.960571
 11
-93.396973
 21
-98.960571
  0
LINE
  8
0
 10
-98.356979
 20
-99.650574
 11
-92.176971
 21
-99.650574
  0
LINE
  8
0
 10
-98.356972
 20
-99.650581
 11
-99.056976
 21
-98.960579
  0
LINE
  8
0
 10
-99.056969
 20
-98.960571
 11
-100.266968
 21
-73.650558
  0
LINE
  8
0
 10
-102.436966
 20
-98.960571
 11
-102.036972
 21
-98.960571
  0
LINE
  8
0
 10
-102.036964
 20
-98.960571
 11
-100.686966
 21
-99.650566
  0
LINE
  8
0
 10
-100.686966
 20
-99.650574
 11
-101.256973
 21
-99.650574
  0
LINE
  8
0
 10
-100.686981
 20
-99.650574
 11
-101.486977
 21
-74.300568
  0
LINE
  8
0
 10
-102.046974
 20
-98.960564
 11
-102.876968
 21
-73.650574
  0
LINE
  8
0
 10
-101.486977
 20
-74.300560
 11
-102.876976
 21
-73.650558
  0
LINE
  8
0
 10
-93.356964
 20
-73.650574
 11
-92.126976
 21
-74.300568
  0
LINE
  8
0
 10
-87.436974
 20
-74.300575
 11
-87.076973
 21
-73.650574
  0
LINE
  8
0
 10
-77.306992
 20
-73.650574
 11
-76.936974
 21
-74.300583
  0
LINE
  8
0
 10
-63.116978
 20
-99.650558
 11
-63.156979
 21
-100.680565
  0
LINE
  8
0
 10
-61.506973
 20
-73.650574
 11
-64.116974
 21
-73.650574
  0
LINE
  8
0
 10
-61.936981
 20
-98.960571
 11
-63.116978
 21
-99.650574
  0
LINE
  8
0
 10
-60.936977
 20
-70.150566
 11
-61.936977
 21
-98.960564
  0
LINE
  8
0
 10
-62.896973
 20
-74.300568
 11
-64.146973
 21
-74.300568
  0
LINE
  8
0
 10
-70.986992
 20
-98.960579
 11
-72.196976
 21
-99.650574
  0
LINE
  8
0
 10
-72.196976
 20
-99.650566
 11
-72.256981
 21
-74.300575
  0
LINE
  8
0
 10
-70.986977
 20
-98.960564
 11
-71.016983
 21
-73.650574
  0
LINE
  8
0
 10
-72.256973
 20
-74.300568
 11
-76.936966
 21
-74.300568
  0
LINE
  8
0
 10
-71.016968
 20
-73.650574
 11
-77.306976
 21
-73.650574
  0
LINE
  8
0
 10
-65.326981
 20
-98.960571
 11
-70.986969
 21
-98.960571
  0
LINE
  8
0
 10
-66.026978
 20
-99.650574
 11
-72.196976
 21
-99.650574
  0
LINE
  8
0
 10
-66.026978
 20
-99.650581
 11
-65.326973
 21
-98.960579
  0
LINE
  8
0
 10
-65.326965
 20
-98.960556
 11
-64.116966
 21
-73.650566
  0
LINE
  8
0
 10
-61.936966
 20
-98.960571
 11
-62.336975
 21
-98.960571
  0
LINE
  8
0
 10
-62.336971
 20
-98.960571
 11
-63.696976
 21
-99.650574
  0
LINE
  8
0
 10
-63.696976
 20
-99.650574
 11
-63.116974
 21
-99.650574
  0
LINE
  8
0
 10
-63.696976
 20
-99.650574
 11
-62.896976
 21
-74.300568
  0
LINE
  8
0
 10
-62.336967
 20
-98.960564
 11
-61.506966
 21
-73.650566
  0
LINE
  8
0
 10
-62.896976
 20
-74.300583
 11
-61.506977
 21
-73.650581
  0
LINE
  8
0
 10
-71.016960
 20
-73.650574
 11
-72.256966
 21
-74.300575
  0
LINE
  8
0
 10
-101.316978
 20
-53.650570
 11
-100.756973
 21
-69.650566
  0
LINE
  8
0
 10
-63.616970
 20
-69.650566
 11
-63.056973
 21
-53.650562
  0
LINE
  8
0
 10
-97.816971
 20
-53.650566
 11
-97.256966
 21
-69.650566
  0
LINE
  8
0
 10
-87.366974
 20
-53.650566
 11
-86.806969
 21
-69.650566
  0
LINE
  8
0
 10
-77.576973
 20
-69.650574
 11
-77.016975
 21
-53.650574
  0
LINE
  8
0
 10
-67.126968
 20
-69.650558
 11
-66.566971
 21
-53.650562
  0
LINE
  8
0
 10
-103.446976
 20
-70.150574
 11
-60.936966
 21
-70.150574
  0
LINE
  8
0
 10
-110.686966
 20
-43.650574
 11
-53.686966
 21
-43.650574
  0
LINE
  8
0
 10
-109.186966
 20
-40.450577
 11
-55.186966
 21
-40.450577
  0
LINE
  8
0
 10
-105.186966
 20
-1.450577
 11
-105.186966
 21
-21.450577
  0
LINE
  8
0
 10
-110.686966
 20
-1.450577
 11
-105.186966
 21
-1.450577
  0
LINE
  8
0
 10
-110.686966
 20
-21.450577
 11
-105.186966
 21
-21.450577
  0
LINE
  8
0
 10
-110.686966
 20
-1.820578
 11
-105.716980
 21
-1.820578
  0
LINE
  8
0
 10
-110.686966
 20
-21.080576
 11
-105.716980
 21
-21.080576
  0
LINE
  8
0
 10
-105.716980
 20
-1.820578
 11
-105.716980
 21
-21.080576
  0
LINE
  8
0
 10
-105.716980
 20
-21.080582
 11
-105.186974
 21
-21.450583
  0
LINE
  8
0
 10
-105.716980
 20
-1.820568
 11
-105.186981
 21
-1.450568
  0
LINE
  8
0
 10
-58.556976
 20
-21.450577
 11
-53.686966
 21
-21.450577
  0
LINE
  8
0
 10
-58.556976
 20
-1.450577
 11
-53.686966
 21
-1.450577
  0
LINE
  8
0
 10
-57.176971
 20
-1.820578
 11
-53.686966
 21
-1.820578
  0
LINE
  8
0
 10
-57.176971
 20
-21.080576
 11
-53.686966
 21
-21.080576
  0
LINE
  8
0
 10
-57.176968
 20
-1.820582
 11
-58.556969
 21
-1.450582
  0
LINE
  8
0
 10
-57.176968
 20
-21.080572
 11
-58.556969
 21
-21.450571
  0
LINE
  8
0
 10
-117.186966
 20
-27.450577
 11
-117.186966
 21
-28.150574
  0
LINE
  8
0
 10
-117.186966
 20
-28.150574
 11
-110.326981
 21
-28.150574
  0
LINE
  8
0
 10
-110.326981
 20
-27.450577
 11
-110.326981
 21
-28.150574
  0
LINE
  8
0
 10
-101.186966
 20
20.549423
 11
-63.186966
 21
20.549423
  0
LINE
  8
0
 10
-102.186966
 20
19.549423
 11
-102.186966
 21
10.549423
  0
LINE
  8
0
 10
-102.186974
 20
19.549416
 11
-101.186974
 21
20.549414
  0
LINE
  8
0
 10
-102.186966
 20
19.549423
 11
-101.786972
 21
19.549423
  0
LINE
  8
0
 10
-100.696976
 20
13.549423
 11
-98.876968
 21
13.549423
  0
LINE
  8
0
 10
-101.786972
 20
12.969421
 11
-98.876968
 21
12.969421
  0
LINE
  8
0
 10
-86.186966
 20
19.549423
 11
-86.186966
 21
12.969421
  0
LINE
  8
0
 10
-86.486969
 20
20.549423
 11
-86.486969
 21
13.549423
  0
LINE
  8
0
 10
-92.246979
 20
20.549423
 11
-92.246979
 21
13.549423
  0
LINE
  8
0
 10
-93.216980
 20
19.549423
 11
-93.216980
 21
12.969421
  0
LINE
  8
0
 10
-98.876968
 20
19.549423
 11
-98.876968
 21
12.969421
  0
LINE
  8
0
 10
-100.696976
 20
20.549423
 11
-100.696976
 21
13.549423
  0
LINE
  8
0
 10
-101.786972
 20
19.549423
 11
-101.786972
 21
12.969421
  0
LINE
  8
0
 10
-92.246979
 20
13.549423
 11
-86.486969
 21
13.549423
  0
LINE
  8
0
 10
-93.216980
 20
12.969421
 11
-86.186966
 21
12.969421
  0
LINE
  8
0
 10
-86.186966
 20
19.549423
 11
-78.186966
 21
19.549423
  0
LINE
  8
0
 10
-98.876968
 20
19.549423
 11
-93.216980
 21
19.549423
  0
LINE
  8
0
 10
-86.486977
 20
13.549429
 11
-86.186974
 21
12.969422
  0
LINE
  8
0
 10
-93.216980
 20
12.969429
 11
-92.246986
 21
13.549428
  0
LINE
  8
0
 10
-93.216965
 20
19.549423
 11
-92.246971
 21
20.549423
  0
LINE
  8
0
 10
-86.486977
 20
20.549416
 11
-86.186974
 21
19.549414
  0
LINE
  8
0
 10
-100.696968
 20
20.549421
 11
-101.786972
 21
19.549416
  0
LINE
  8
0
 10
-100.696983
 20
13.549418
 11
-101.786964
 21
12.969426
  0
LINE
  8
0
 10
-98.876968
 20
19.549423
 11
-98.316971
 21
20.549417
  0
LINE
  8
0
 10
-62.186966
 20
19.549423
 11
-62.186966
 21
10.549423
  0
LINE
  8
0
 10
-62.186977
 20
19.549414
 11
-63.186977
 21
20.549414
  0
LINE
  8
0
 10
-62.186966
 20
19.549423
 11
-62.596970
 21
19.549423
  0
LINE
  8
0
 10
-63.676971
 20
13.549423
 11
-65.506973
 21
13.549423
  0
LINE
  8
0
 10
-62.596970
 20
12.969421
 11
-65.506973
 21
12.969421
  0
LINE
  8
0
 10
-78.186966
 20
19.549423
 11
-78.186966
 21
12.969421
  0
LINE
  8
0
 10
-77.896973
 20
20.549423
 11
-77.896973
 21
13.549423
  0
LINE
  8
0
 10
-72.136978
 20
20.549423
 11
-72.136978
 21
13.549423
  0
LINE
  8
0
 10
-71.166977
 20
19.549423
 11
-71.166977
 21
12.969421
  0
LINE
  8
0
 10
-65.506973
 20
19.549423
 11
-65.506973
 21
12.969421
  0
LINE
  8
0
 10
-63.676971
 20
20.549423
 11
-63.676971
 21
13.549423
  0
LINE
  8
0
 10
-62.596970
 20
19.549423
 11
-62.596970
 21
12.969421
  0
LINE
  8
0
 10
-72.136978
 20
13.549423
 11
-77.896973
 21
13.549423
  0
LINE
  8
0
 10
-71.166977
 20
12.969421
 11
-78.186966
 21
12.969421
  0
LINE
  8
0
 10
-65.506973
 20
19.549429
 11
-66.066978
 21
20.549437
  0
LINE
  8
0
 10
-77.896973
 20
13.549427
 11
-78.186981
 21
12.969419
  0
LINE
  8
0
 10
-71.166977
 20
12.969417
 11
-72.136978
 21
13.549417
  0
LINE
  8
0
 10
-71.166977
 20
19.549425
 11
-72.136971
 21
20.549425
  0
LINE
  8
0
 10
-77.896980
 20
20.549433
 11
-78.186981
 21
19.549419
  0
LINE
  8
0
 10
-63.676971
 20
20.549425
 11
-62.596973
 21
19.549429
  0
LINE
  8
0
 10
-63.676968
 20
13.549423
 11
-62.596977
 21
12.969429
  0
LINE
  8
0
 10
-71.166977
 20
19.549423
 11
-65.506973
 21
19.549423
  0
LINE
  8
0
 10
-104.686966
 20
-40.450577
 11
-104.686966
 21
-43.650574
  0
LINE
  8
0
 62
     2
 10
-103.686966
 20
-40.450577
 11
-103.686966
 21
-43.650574
  0
LINE
  8
0
 10
-59.686966
 20
-40.450577
 11
-59.686966
 21
-43.650574
  0
LINE
  8
0
 62
     2
 10
-60.686966
 20
-40.450577
 11
-60.686966
 21
-43.650574
  0
LINE
  8
0
 10
-92.676979
 20
-52.650574
 11
-89.536980
 21
-53.650570
  0
LINE
  8
0
 10
-71.706978
 20
-52.650578
 11
-74.846970
 21
-53.650574
  0
LINE
  8
0
 62
     2
 10
-92.676987
 20
-43.650578
 11
-71.706985
 21
-52.650581
  0
LINE
  8
0
 62
     2
 10
-71.706978
 20
-43.650578
 11
-92.676971
 21
-52.650578
  0
LINE
  8
0
  6
CENTER
 62
     2
 10
-82.186966
 20
24.029419
 11
-82.186966
 21
-106.130569
  0
LINE
  8
0
 10
-210.686966
 20
-47.450577
 11
-133.686966
 21
-47.450577
  0
LINE
  8
0
 10
-211.686966
 20
-27.450577
 11
-211.686966
 21
-46.450577
  0
LINE
  8
0
 10
-132.686966
 20
-27.450577
 11
-132.686966
 21
-46.450577
  0
LINE
  8
0
 10
-211.686966
 20
-46.450558
 11
-210.686966
 21
-47.450558
  0
LINE
  8
0
 10
-132.686981
 20
-46.450573
 11
-133.686981
 21
-47.450569
  0
LINE
  8
0
 10
-211.686966
 20
-46.450577
 11
-132.686966
 21
-46.450577
  0
LINE
  8
0
 10
-205.256973
 20
-26.450577
 11
-141.686966
 21
-26.450577
  0
LINE
  8
0
 10
-206.256973
 20
-27.450575
 11
-205.256973
 21
-26.450575
  0
LINE
  8
0
 10
-138.126984
 20
-27.450573
 11
-139.126968
 21
-26.450581
  0
LINE
  8
0
 10
-212.186966
 20
-27.450577
 11
-132.186966
 21
-27.450577
  0
LINE
  8
0
 10
-211.186966
 20
4.549423
 11
-133.186966
 21
4.549423
  0
LINE
  8
0
 10
-212.186966
 20
3.549423
 11
-212.186966
 21
-27.450577
  0
LINE
  8
0
 10
-132.186966
 20
-26.450577
 11
-132.186966
 21
-27.450577
  0
LINE
  8
0
 10
-192.496979
 20
0.549423
 11
-192.496979
 21
-26.450577
  0
LINE
  8
0
 10
-151.886978
 20
0.549423
 11
-151.886978
 21
-26.450577
  0
LINE
  8
0
 10
-191.496979
 20
1.549423
 11
-152.886978
 21
1.549423
  0
LINE
  8
0
 10
-211.186966
 20
4.549423
 11
-211.186966
 21
-27.450577
  0
LINE
  8
0
 10
-133.186966
 20
4.549423
 11
-133.186966
 21
3.549423
  0
LINE
  8
0
 10
-212.186966
 20
3.549423
 11
-141.686966
 21
3.549423
  0
LINE
  8
0
 10
-211.186966
 20
4.549431
 11
-212.186966
 21
3.549431
  0
LINE
  8
0
 10
-133.186981
 20
4.549429
 11
-132.186981
 21
3.549428
  0
LINE
  8
0
 10
-192.496979
 20
0.549423
 11
-151.886978
 21
0.549423
  0
LINE
  8
0
 10
-152.886978
 20
1.549426
 11
-151.886978
 21
0.549425
  0
LINE
  8
0
 10
-192.496994
 20
0.549409
 11
-191.496979
 21
1.549410
  0
LINE
  8
0
 10
-207.186966
 20
5.249420
 11
-207.186966
 21
4.549423
  0
LINE
  8
0
 10
-199.186966
 20
5.249420
 11
-199.186966
 21
4.549423
  0
LINE
  8
0
 10
-207.186966
 20
5.249420
 11
-199.186966
 21
5.249420
  0
LINE
  8
0
 10
-147.186966
 20
-1.450577
 11
-147.186966
 21
-21.450577
  0
LINE
  8
0
 10
-147.186966
 20
-1.450577
 11
-141.686966
 21
-1.450577
  0
LINE
  8
0
 10
-147.186966
 20
-21.450577
 11
-141.686966
 21
-21.450577
  0
LINE
  8
0
 10
-146.486969
 20
-2.160577
 11
-141.686966
 21
-2.160577
  0
LINE
  8
0
 10
-146.486969
 20
-2.160577
 11
-146.486969
 21
-20.740578
  0
LINE
  8
0
 10
-146.486969
 20
-20.740578
 11
-141.686966
 21
-20.740578
  0
LINE
  8
0
 10
-147.186981
 20
-1.450580
 11
-146.486984
 21
-2.160576
  0
LINE
  8
0
 10
-147.186981
 20
-21.450575
 11
-146.486984
 21
-20.740580
  0
LINE
  8
0
 10
-207.186966
 20
-1.450577
 11
-207.186966
 21
-21.450577
  0
LINE
  8
0
 10
-197.186966
 20
-1.450577
 11
-197.186966
 21
-21.450577
  0
LINE
  8
0
 10
-197.186966
 20
-1.450577
 11
-207.186966
 21
-1.450577
  0
LINE
  8
0
 10
-197.186966
 20
-21.450577
 11
-207.186966
 21
-21.450577
  0
LINE
  8
0
 10
-206.486969
 20
-2.160577
 11
-206.486969
 21
-20.740578
  0
LINE
  8
0
 10
-197.896973
 20
-2.160577
 11
-206.486969
 21
-2.160577
  0
LINE
  8
0
 10
-197.896973
 20
-2.160577
 11
-197.896973
 21
-20.740578
  0
LINE
  8
0
 10
-197.896973
 20
-20.740578
 11
-206.486969
 21
-20.740578
  0
LINE
  8
0
 10
-197.186966
 20
-1.450589
 11
-197.896957
 21
-2.160591
  0
LINE
  8
0
 10
-207.186966
 20
-1.450576
 11
-206.486954
 21
-2.160584
  0
LINE
  8
0
 10
-207.186966
 20
-21.450565
 11
-206.486969
 21
-20.740568
  0
LINE
  8
0
 10
-197.186981
 20
-21.450567
 11
-197.896973
 21
-20.740570
  0
LINE
  8
0
 10
-31.186966
 20
4.549423
 11
46.813034
 21
4.549423
  0
LINE
  8
0
 10
-32.186966
 20
-27.450577
 11
47.813034
 21
-27.450577
  0
LINE
  8
0
 10
-29.956970
 20
-47.450577
 11
45.572800
 21
-47.450577
  0
LINE
  8
0
 10
47.813034
 20
3.549423
 11
47.813034
 21
-27.450577
  0
LINE
  8
0
 10
-32.186966
 20
-26.450577
 11
-32.186966
 21
-27.450577
  0
LINE
  8
0
 10
-31.026972
 20
-46.450562
 11
-31.686972
 21
-27.450562
  0
LINE
  8
0
 10
-31.186966
 20
4.549423
 11
-31.186966
 21
3.549423
  0
LINE
  8
0
 10
-22.686966
 20
-26.450577
 11
40.813034
 21
-26.450577
  0
LINE
  8
0
 10
46.813034
 20
4.549423
 11
46.813034
 21
-27.450577
  0
LINE
  8
0
 10
-22.686966
 20
3.549423
 11
-15.186966
 21
3.549423
  0
LINE
  8
0
 10
-32.186977
 20
3.549428
 11
-31.186975
 21
4.549429
  0
LINE
  8
0
 10
46.813023
 20
4.549430
 11
47.813023
 21
3.549428
  0
LINE
  8
0
 10
-26.726969
 20
-27.450573
 11
-25.186977
 21
-26.450579
  0
LINE
  8
0
 10
42.353031
 20
-27.450579
 11
40.813026
 21
-26.450575
  0
LINE
  8
0
 10
46.642960
 20
-46.450558
 11
47.312958
 21
-27.450573
  0
LINE
  8
0
 10
-30.996979
 20
-46.450577
 11
46.642868
 21
-46.450577
  0
LINE
  8
0
 10
-31.026976
 20
-46.450577
 11
-29.956972
 21
-47.450581
  0
LINE
  8
0
 10
46.643024
 20
-46.450581
 11
45.573029
 21
-47.450573
  0
LINE
  8
0
 10
2.813034
 20
-23.450577
 11
17.813034
 21
-23.450577
  0
LINE
  8
0
 10
18.813034
 20
-24.450577
 11
18.813034
 21
-26.450577
  0
LINE
  8
0
 10
2.813034
 20
-24.450577
 11
18.813034
 21
-24.450577
  0
LINE
  8
0
 10
17.813023
 20
-23.450567
 11
18.813025
 21
-24.450569
  0
LINE
  8
0
  6
CENTER
 62
     2
 10
-6.186966
 20
14.749420
 11
-6.186966
 21
-29.530563
  0
LINE
  8
0
 10
-15.186966
 20
3.549423
 11
-15.186966
 21
-26.450577
  0
LINE
  8
0
 10
2.813034
 20
3.549423
 11
2.813034
 21
-26.450577
  0
LINE
  8
0
 10
2.813034
 20
3.549423
 11
47.813034
 21
3.549423
  0
LINE
  8
0
  6
CENTER
 62
     2
 10
13.313034
 20
32.059418
 11
13.313034
 21
1.399423
  0
LINE
  8
0
 10
1.813034
 20
8.349411
 11
27.313034
 21
8.349411
  0
LINE
  8
0
 10
26.813034
 20
7.649414
 11
26.813034
 21
5.549423
  0
LINE
  8
0
 10
0.313034
 20
16.349411
 11
26.313034
 21
16.349411
  0
LINE
  8
0
 10
-0.686966
 20
15.349411
 11
-0.686966
 21
12.549423
  0
LINE
  8
0
 10
27.313034
 20
15.349411
 11
27.313034
 21
8.349411
  0
LINE
  8
0
 10
-0.686975
 20
15.349425
 11
0.313026
 21
16.349424
  0
LINE
  8
0
 10
26.313021
 20
16.349415
 11
27.313023
 21
15.349412
  0
LINE
  8
0
 10
14.813034
 20
15.349411
 11
14.813034
 21
9.849411
  0
LINE
  8
0
 10
18.973022
 20
15.349411
 11
18.973022
 21
9.849411
  0
LINE
  8
0
 10
21.563034
 20
15.349411
 11
21.563034
 21
9.849411
  0
LINE
  8
0
 10
24.613022
 20
15.349411
 11
24.613022
 21
9.849411
  0
LINE
  8
0
 10
26.113022
 20
15.349411
 11
26.113022
 21
9.849411
  0
LINE
  8
0
 10
14.813034
 20
9.849411
 11
18.973022
 21
9.849411
  0
LINE
  8
0
 10
15.313034
 20
10.349411
 11
18.473022
 21
10.349411
  0
LINE
  8
0
 10
15.313034
 20
15.849411
 11
15.313034
 21
10.349411
  0
LINE
  8
0
 10
21.563034
 20
9.849411
 11
24.613022
 21
9.849411
  0
LINE
  8
0
 10
18.473022
 20
15.849411
 11
18.473022
 21
10.349411
  0
LINE
  8
0
 10
13.313034
 20
15.349411
 11
14.813034
 21
15.349411
  0
LINE
  8
0
 10
14.813031
 20
15.349424
 11
15.313030
 21
15.849423
  0
LINE
  8
0
 10
15.313034
 20
15.849411
 11
18.473022
 21
15.849411
  0
LINE
  8
0
 10
18.473022
 20
15.849423
 11
18.973022
 21
15.349423
  0
LINE
  8
0
 10
18.473022
 20
10.349428
 11
18.973022
 21
9.849429
  0
LINE
  8
0
 10
14.813019
 20
9.849418
 11
15.313021
 21
10.349419
  0
LINE
  8
0
 10
18.973022
 20
15.349411
 11
21.563034
 21
15.349411
  0
LINE
  8
0
 10
21.063034
 20
15.849411
 11
24.113022
 21
15.849411
  0
LINE
  8
0
 10
21.563034
 20
10.349411
 11
24.113022
 21
10.349411
  0
LINE
  8
0
 10
24.113022
 20
15.849411
 11
24.113022
 21
10.349411
  0
LINE
  8
0
 10
24.613022
 20
15.349411
 11
26.113022
 21
15.349411
  0
LINE
  8
0
 10
21.063021
 20
15.849424
 11
21.563023
 21
15.349423
  0
LINE
  8
0
 10
24.113022
 20
15.849423
 11
24.613022
 21
15.349423
  0
LINE
  8
0
 10
25.613022
 20
15.849411
 11
26.813034
 21
15.849411
  0
LINE
  8
0
 10
25.613014
 20
15.849423
 11
26.113012
 21
15.349423
  0
LINE
  8
0
 10
26.113022
 20
9.849411
 11
27.313034
 21
9.849411
  0
LINE
  8
0
 10
24.113024
 20
10.349428
 11
24.613022
 21
9.849428
  0
LINE
  8
0
 10
26.813034
 20
15.849411
 11
26.813034
 21
10.349411
  0
LINE
  8
0
 10
26.113022
 20
10.349411
 11
26.813034
 21
10.349411
  0
LINE
  8
0
 10
26.813023
 20
10.349418
 11
27.313023
 21
9.849417
  0
LINE
  8
0
 10
13.313034
 20
15.349411
 11
11.813034
 21
15.349411
  0
LINE
  8
0
 10
11.813027
 20
15.349424
 11
11.313027
 21
15.849424
  0
LINE
  8
0
 10
11.813034
 20
15.349411
 11
11.813034
 21
9.849411
  0
LINE
  8
0
 10
11.313034
 20
15.849411
 11
11.313034
 21
10.349411
  0
LINE
  8
0
 10
11.813027
 20
9.849429
 11
11.313027
 21
10.349429
  0
LINE
  8
0
 10
11.313034
 20
10.349411
 11
8.153030
 21
10.349411
  0
LINE
  8
0
 10
11.813034
 20
9.849411
 11
7.653030
 21
9.849411
  0
LINE
  8
0
 10
11.313034
 20
15.849411
 11
8.153030
 21
15.849411
  0
LINE
  8
0
 10
8.153014
 20
15.849425
 11
7.653013
 21
15.349424
  0
LINE
  8
0
 10
8.153030
 20
15.849411
 11
8.153030
 21
10.349411
  0
LINE
  8
0
 10
7.653030
 20
15.349411
 11
7.653030
 21
9.849411
  0
LINE
  8
0
 10
7.653030
 20
15.349411
 11
5.053024
 21
15.349411
  0
LINE
  8
0
 10
8.153026
 20
10.349419
 11
7.653024
 21
9.849418
  0
LINE
  8
0
 10
5.553024
 20
15.849424
 11
5.053024
 21
15.349425
  0
LINE
  8
0
 10
5.553024
 20
15.849411
 11
2.503021
 21
15.849411
  0
LINE
  8
0
 10
5.053024
 20
15.349411
 11
5.053024
 21
9.849411
  0
LINE
  8
0
 10
5.053024
 20
10.349411
 11
2.503021
 21
10.349411
  0
LINE
  8
0
 10
5.053024
 20
9.849411
 11
2.003021
 21
9.849411
  0
LINE
  8
0
 10
2.503021
 20
15.849411
 11
2.503021
 21
10.349411
  0
LINE
  8
0
 10
2.503022
 20
10.349429
 11
2.003021
 21
9.849429
  0
LINE
  8
0
 10
2.003021
 20
15.349411
 11
2.003021
 21
9.849411
  0
LINE
  8
0
 10
2.503022
 20
15.849424
 11
2.003021
 21
15.349424
  0
LINE
  8
0
 10
2.003021
 20
15.349411
 11
0.503021
 21
15.349411
  0
LINE
  8
0
 10
1.003032
 20
15.849424
 11
0.503031
 21
15.349424
  0
LINE
  8
0
 10
-0.186966
 20
15.849411
 11
-0.186966
 21
12.549423
  0
LINE
  8
0
 10
0.503021
 20
15.349411
 11
0.503021
 21
12.549423
  0
LINE
  8
0
 10
6.363022
 20
23.399414
 11
6.363022
 21
17.349411
  0
LINE
  8
0
 10
20.263031
 20
23.399414
 11
20.263031
 21
17.349411
  0
LINE
  8
0
 10
6.113022
 20
17.349411
 11
20.513031
 21
17.349411
  0
LINE
  8
0
 10
6.113022
 20
17.349411
 11
6.113022
 21
16.349411
  0
LINE
  8
0
 10
20.513031
 20
17.349411
 11
20.513031
 21
16.349411
  0
LINE
  8
0
 10
-0.186966
 20
15.849411
 11
1.003021
 21
15.849411
  0
LINE
  8
0
 10
-13.686979
 20
6.549421
 11
-14.186980
 21
6.049420
  0
LINE
  8
0
 10
1.813034
 20
12.049423
 11
1.813034
 21
4.549423
  0
LINE
  8
0
 10
-13.686966
 20
12.549423
 11
-13.686966
 21
6.549423
  0
LINE
  8
0
 10
-13.686966
 20
12.549423
 11
1.313034
 21
12.549423
  0
LINE
  8
0
 10
-6.186966
 20
12.049423
 11
-4.686966
 21
12.049423
  0
LINE
  8
0
 10
-14.186966
 20
12.049423
 11
-14.186966
 21
4.549423
  0
LINE
  8
0
 10
-4.686966
 20
12.049423
 11
-4.686966
 21
6.049423
  0
LINE
  8
0
 10
-4.686966
 20
6.049423
 11
-1.696976
 21
6.049423
  0
LINE
  8
0
 10
-4.186966
 20
12.549423
 11
-4.186966
 21
6.549423
  0
LINE
  8
0
 10
-4.186966
 20
6.549423
 11
-2.196976
 21
6.549423
  0
LINE
  8
0
 10
-1.696976
 20
12.049423
 11
-1.696976
 21
6.049423
  0
LINE
  8
0
 10
0.423019
 20
12.049423
 11
0.423019
 21
6.049423
  0
LINE
  8
0
 10
-4.686979
 20
12.049427
 11
-4.186979
 21
12.549429
  0
LINE
  8
0
 10
-4.686979
 20
6.049420
 11
-4.186979
 21
6.549421
  0
LINE
  8
0
 10
-2.196976
 20
12.549423
 11
-2.196976
 21
6.549423
  0
LINE
  8
0
 10
-1.696976
 20
12.049423
 11
0.423019
 21
12.049423
  0
LINE
  8
0
 10
-2.196979
 20
12.549417
 11
-1.696978
 21
12.049417
  0
LINE
  8
0
 10
-2.196979
 20
6.549432
 11
-1.696978
 21
6.049431
  0
LINE
  8
0
 10
-0.076974
 20
12.549417
 11
0.423026
 21
12.049417
  0
LINE
  8
0
 10
0.423019
 20
6.049423
 11
1.813034
 21
6.049423
  0
LINE
  8
0
 10
0.423019
 20
6.549423
 11
1.313034
 21
6.549423
  0
LINE
  8
0
 10
1.313034
 20
12.549423
 11
1.313034
 21
6.549423
  0
LINE
  8
0
 10
-14.186979
 20
12.049427
 11
-13.686978
 21
12.549428
  0
LINE
  8
0
 10
1.313027
 20
12.549417
 11
1.813017
 21
12.049427
  0
LINE
  8
0
 10
1.313016
 20
6.549421
 11
1.813017
 21
6.049421
  0
LINE
  8
0
 10
-6.186966
 20
12.049423
 11
-7.686966
 21
12.049423
  0
LINE
  8
0
 10
-7.686983
 20
12.049427
 11
-8.186973
 21
12.549417
  0
LINE
  8
0
 10
-8.186966
 20
12.549423
 11
-8.186966
 21
6.549423
  0
LINE
  8
0
 10
-7.686966
 20
12.049423
 11
-7.686966
 21
6.049423
  0
LINE
  8
0
 10
-8.186966
 20
6.549423
 11
-10.186966
 21
6.549423
  0
LINE
  8
0
 10
-7.686982
 20
6.049420
 11
-8.186983
 21
6.549420
  0
LINE
  8
0
 10
-7.686966
 20
6.049423
 11
-10.686966
 21
6.049423
  0
LINE
  8
0
 10
-10.186966
 20
12.549423
 11
-10.186966
 21
6.549423
  0
LINE
  8
0
 10
-10.186975
 20
6.549432
 11
-10.686975
 21
6.049431
  0
LINE
  8
0
 10
-10.686966
 20
12.049423
 11
-10.686966
 21
6.049423
  0
LINE
  8
0
 10
-10.186975
 20
12.549417
 11
-10.686976
 21
12.049417
  0
LINE
  8
0
 10
-10.686966
 20
12.049423
 11
-12.806976
 21
12.049423
  0
LINE
  8
0
 10
-12.306979
 20
12.549417
 11
-12.806980
 21
12.049417
  0
LINE
  8
0
 10
-12.806976
 20
12.049423
 11
-12.806976
 21
6.049423
  0
LINE
  8
0
 10
-12.806976
 20
6.549423
 11
-13.686966
 21
6.549423
  0
LINE
  8
0
 10
-12.806976
 20
6.049423
 11
-14.186966
 21
6.049423
  0
LINE
  8
0
 10
-28.766968
 20
5.249420
 11
-20.006973
 21
5.249420
  0
LINE
  8
0
 10
-28.766968
 20
5.249420
 11
-28.766968
 21
4.549423
  0
LINE
  8
0
 10
-20.006973
 20
5.249420
 11
-20.006973
 21
4.549423
  0
LINE
  8
0
 10
-17.186966
 20
-1.450577
 11
-17.186966
 21
-21.450577
  0
LINE
  8
0
 10
-22.686966
 20
-1.450577
 11
-17.186966
 21
-1.450577
  0
LINE
  8
0
 10
-22.686966
 20
-21.450577
 11
-17.186966
 21
-21.450577
  0
LINE
  8
0
 10
-22.686966
 20
-2.450577
 11
-18.186966
 21
-2.450577
  0
LINE
  8
0
 10
-18.186966
 20
-2.450577
 11
-18.186966
 21
-20.450577
  0
LINE
  8
0
 10
-22.686966
 20
-20.450577
 11
-18.186966
 21
-20.450577
  0
LINE
  8
0
 10
42.813034
 20
-1.450577
 11
32.813034
 21
-1.450577
  0
LINE
  8
0
 10
42.813034
 20
-1.450577
 11
42.813034
 21
-21.450577
  0
LINE
  8
0
 10
41.813034
 20
-2.450577
 11
33.813034
 21
-2.450577
  0
LINE
  8
0
 10
32.813034
 20
-1.450577
 11
32.813034
 21
-21.450577
  0
LINE
  8
0
 10
33.813034
 20
-2.450577
 11
33.813034
 21
-20.450577
  0
LINE
  8
0
 10
41.813034
 20
-2.450577
 11
41.813034
 21
-20.450577
  0
LINE
  8
0
 10
41.813034
 20
-20.450577
 11
33.813034
 21
-20.450577
  0
LINE
  8
0
 10
42.813034
 20
-21.450577
 11
32.813034
 21
-21.450577
  0
LINE
  8
0
 10
-133.186966
 20
-26.450577
 11
-133.186966
 21
-27.450577
  0
LINE
  8
0
 10
-141.686966
 20
3.549423
 11
-141.686966
 21
-26.450577
  0
LINE
  8
0
 10
-119.186966
 20
-26.450577
 11
-119.186966
 21
-27.450577
  0
LINE
  8
0
 10
-110.686966
 20
3.549423
 11
-110.686966
 21
-26.450577
  0
LINE
  8
0
 10
-110.686966
 20
-28.150574
 11
-110.686966
 21
-53.450577
  0
LINE
  8
0
 10
-45.186966
 20
-26.450577
 11
-45.186966
 21
-27.450577
  0
LINE
  8
0
 10
-53.686966
 20
3.549423
 11
-53.686966
 21
-43.650574
  0
LINE
  8
0
 10
-22.686966
 20
3.549423
 11
-22.686966
 21
-26.450577
  0
LINE
  8
0
 10
-31.186966
 20
-26.450577
 11
-31.186966
 21
-27.450577
  0
LINE
  8
0
 10
-53.686966
 20
-52.650574
 11
-53.686966
 21
-53.450577
  0
LINE
  8
0
 10
-175.036972
 20
-166.330566
 11
-175.036972
 21
-164.430573
  0
LINE
  8
0
 10
-169.336975
 20
-166.330566
 11
-169.336975
 21
-164.430573
  0
LINE
  8
0
 10
-190.596970
 20
-146.640564
 11
-153.766968
 21
-146.640564
  0
LINE
  8
0
 10
-179.756973
 20
-148.140564
 11
-164.606979
 21
-148.140564
  0
LINE
  8
0
 10
-180.256973
 20
-147.640564
 11
-180.256973
 21
-146.640564
  0
LINE
  8
0
 10
-164.106979
 20
-147.640564
 11
-164.106979
 21
-146.640564
  0
LINE
  8
0
 10
-164.606979
 20
-148.140564
 11
-164.106979
 21
-147.640564
  0
LINE
  8
0
 10
-179.756973
 20
-148.140564
 11
-180.256973
 21
-147.640564
  0
LINE
  8
0
 10
-165.436966
 20
-162.930573
 11
-178.936966
 21
-162.930573
  0
LINE
  8
0
 10
-164.436966
 20
-149.930573
 11
-164.436966
 21
-161.930573
  0
LINE
  8
0
 10
-179.936966
 20
-149.930573
 11
-179.936966
 21
-161.930573
  0
LINE
  8
0
 10
-164.436966
 20
-161.930557
 11
-165.436966
 21
-162.930557
  0
LINE
  8
0
 10
-178.936966
 20
-162.930557
 11
-179.936966
 21
-161.930557
  0
LINE
  8
0
 10
-164.936966
 20
-149.430573
 11
-179.436966
 21
-149.430573
  0
LINE
  8
0
 10
-164.936966
 20
-149.430573
 11
-164.436966
 21
-149.930573
  0
LINE
  8
0
 10
-179.436966
 20
-149.430573
 11
-179.936966
 21
-149.930573
  0
LINE
  8
0
 10
-166.186966
 20
-148.140564
 11
-166.186966
 21
-149.430573
  0
LINE
  8
0
 10
-178.186966
 20
-148.140564
 11
-178.186966
 21
-149.430573
  0
LINE
  8
0
 62
     2
 10
-177.436966
 20
-148.140564
 11
-177.436966
 21
-149.430573
  0
LINE
  8
0
 62
     2
 10
-166.936966
 20
-148.140564
 11
-166.936966
 21
-149.430573
  0
LINE
  8
0
 10
-173.686966
 20
-152.430573
 11
-173.686966
 21
-161.930573
  0
LINE
  8
0
 10
-170.686966
 20
-152.430573
 11
-170.686966
 21
-161.930573
  0
LINE
  8
0
 10
-170.346970
 20
-152.720566
 11
-170.346970
 21
-162.430573
  0
LINE
  8
0
 10
-174.026978
 20
-152.720566
 11
-174.026978
 21
-162.430573
  0
LINE
  8
0
 10
-175.846970
 20
-152.720566
 11
-175.846970
 21
-162.430573
  0
LINE
  8
0
 10
-176.496979
 20
-152.430573
 11
-176.496979
 21
-161.930573
  0
LINE
  8
0
 10
-178.626968
 20
-152.430573
 11
-178.626968
 21
-161.930573
  0
LINE
  8
0
 10
-179.196976
 20
-152.720566
 11
-179.196976
 21
-162.430573
  0
LINE
  8
0
 10
-179.786972
 20
-152.430573
 11
-179.786972
 21
-161.930573
  0
LINE
  8
0
 10
-168.526978
 20
-152.720566
 11
-168.526978
 21
-162.430573
  0
LINE
  8
0
 10
-167.866974
 20
-152.430573
 11
-167.866974
 21
-161.930573
  0
LINE
  8
0
 10
-165.746979
 20
-152.430573
 11
-165.746979
 21
-161.930573
  0
LINE
  8
0
 10
-165.176971
 20
-152.720566
 11
-165.176971
 21
-162.430573
  0
LINE
  8
0
 10
-164.586975
 20
-152.430573
 11
-164.586975
 21
-161.930573
  0
LINE
  8
0
 10
-164.586975
 20
-152.430573
 11
-165.746979
 21
-152.430573
  0
LINE
  8
0
 10
-165.176971
 20
-152.720566
 11
-165.746979
 21
-152.720566
  0
LINE
  8
0
 10
-164.436966
 20
-161.930573
 11
-164.586975
 21
-161.930573
  0
LINE
  8
0
 10
-173.686966
 20
-152.430573
 11
-176.496979
 21
-152.430573
  0
LINE
  8
0
 10
-174.026978
 20
-152.720566
 11
-175.846970
 21
-152.720566
  0
LINE
  8
0
 10
-167.866974
 20
-152.430573
 11
-170.686966
 21
-152.430573
  0
LINE
  8
0
 10
-168.526978
 20
-152.720566
 11
-170.346970
 21
-152.720566
  0
LINE
  8
0
 10
-178.626968
 20
-152.430573
 11
-179.786972
 21
-152.430573
  0
LINE
  8
0
 10
-178.626968
 20
-152.720566
 11
-179.196976
 21
-152.720566
  0
LINE
  8
0
 10
-170.686966
 20
-161.930573
 11
-173.686966
 21
-161.930573
  0
LINE
  8
0
 10
-176.496979
 20
-161.930573
 11
-178.626968
 21
-161.930573
  0
LINE
  8
0
 10
-179.786972
 20
-161.930573
 11
-179.936966
 21
-161.930573
  0
LINE
  8
0
 10
-165.746979
 20
-161.930573
 11
-167.866974
 21
-161.930573
  0
LINE
  8
0
 10
-168.526978
 20
-162.430573
 11
-170.346970
 21
-162.430573
  0
LINE
  8
0
 10
-165.176971
 20
-162.430573
 11
-164.586960
 21
-161.930557
  0
LINE
  8
0
 10
-168.526978
 20
-162.430573
 11
-167.866974
 21
-161.930573
  0
LINE
  8
0
 10
-170.346970
 20
-162.430557
 11
-170.686966
 21
-161.930573
  0
LINE
  8
0
 10
-173.686951
 20
-161.930573
 11
-174.026962
 21
-162.430557
  0
LINE
  8
0
 10
-175.846970
 20
-162.430588
 11
-176.496964
 21
-161.930588
  0
LINE
  8
0
 10
-179.196960
 20
-162.430573
 11
-179.786972
 21
-161.930573
  0
LINE
  8
0
 10
-179.196960
 20
-152.720566
 11
-179.786972
 21
-152.430573
  0
LINE
  8
0
 10
-175.846970
 20
-152.720566
 11
-176.496979
 21
-152.430573
  0
LINE
  8
0
 10
-174.026962
 20
-152.720566
 11
-173.686966
 21
-152.430573
  0
LINE
  8
0
 10
-170.346954
 20
-152.720581
 11
-170.686966
 21
-152.430588
  0
LINE
  8
0
 10
-168.526978
 20
-152.720566
 11
-167.866974
 21
-152.430573
  0
LINE
  8
0
 10
-165.176987
 20
-152.720566
 11
-164.586960
 21
-152.430557
  0
LINE
  8
0
 10
-165.746964
 20
-161.930573
 11
-165.926956
 21
-162.430573
  0
LINE
  8
0
 10
-178.626968
 20
-161.930557
 11
-178.446976
 21
-162.430573
  0
LINE
  8
0
 10
-174.026978
 20
-162.430573
 11
-175.846970
 21
-162.430573
  0
LINE
  8
0
 10
-165.176971
 20
-162.430573
 11
-165.926971
 21
-162.430573
  0
LINE
  8
0
 10
-178.446976
 20
-162.430573
 11
-179.196976
 21
-162.430573
  0
LINE
  8
0
 10
-164.436966
 20
-149.930573
 11
-179.936966
 21
-149.930573
  0
LINE
  8
0
 10
-166.186966
 20
-164.430573
 11
-178.186966
 21
-164.430573
  0
LINE
  8
0
 10
-165.686966
 20
-163.930573
 11
-165.686966
 21
-162.930573
  0
LINE
  8
0
 10
-178.686966
 20
-163.930573
 11
-178.686966
 21
-162.930573
  0
LINE
  8
0
 10
-178.686966
 20
-163.930557
 11
-178.186966
 21
-164.430573
  0
LINE
  8
0
 10
-166.186966
 20
-164.430573
 11
-165.686966
 21
-163.930557
  0
LINE
  8
0
 10
-178.686966
 20
-163.930573
 11
-165.686966
 21
-163.930573
  0
LINE
  8
0
 10
-180.256973
 20
-147.640564
 11
-164.106979
 21
-147.640564
  0
LINE
  8
0
 10
-10.596970
 20
-146.640564
 11
26.233032
 21
-146.640564
  0
LINE
  8
0
 10
-175.436966
 20
-169.130569
 11
-175.436966
 21
-168.930573
  0
LINE
  8
0
 10
-168.936966
 20
-169.130569
 11
-168.936966
 21
-168.930573
  0
LINE
  8
0
 10
-168.936966
 20
-168.930573
 11
-175.436966
 21
-168.930573
  0
LINE
  8
0
 10
-168.936966
 20
-166.330566
 11
-175.436966
 21
-166.330566
  0
LINE
  8
0
 10
-168.936966
 20
-166.530563
 11
-175.436966
 21
-166.530563
  0
LINE
  8
0
 10
-168.936966
 20
-169.130569
 11
-175.436966
 21
-169.130569
  0
LINE
  8
0
 10
-175.436966
 20
-166.530563
 11
-175.436966
 21
-166.330566
  0
LINE
  8
0
 10
-168.936966
 20
-166.530563
 11
-168.936966
 21
-166.330566
  0
LINE
  8
0
 10
-175.436966
 20
-166.530563
 11
-175.016968
 21
-168.930573
  0
LINE
  8
0
 10
-175.436966
 20
-169.130569
 11
-175.016968
 21
-171.530579
  0
LINE
  8
0
 10
-168.936981
 20
-166.530563
 11
-169.356979
 21
-168.930573
  0
LINE
  8
0
 10
-168.936981
 20
-169.130569
 11
-169.356979
 21
-171.530563
  0
LINE
  8
0
 10
-169.356979
 20
-171.530563
 11
-175.016968
 21
-171.530563
  0
LINE
  8
0
  6
CENTER
 62
     2
 10
-172.186966
 20
9.549423
 11
-172.186966
 21
-174.000565
  0
LINE
  8
0
 10
-281.250000
 20
195.500000
 11
282.099854
 21
195.500000
  0
LINE
  8
0
 10
-281.250000
 20
195.500000
 11
-281.250000
 21
-195.000000
  0
LINE
  8
0
 10
282.099854
 20
195.500000
 11
282.099854
 21
-195.000000
  0
LINE
  8
0
 10
-281.250000
 20
-195.000000
 11
282.099854
 21
-195.000000
  0
LINE
  8
0
 10
162.099976
 20
-175.000000
 11
162.099976
 21
-195.000000
  0
LINE
  8
0
 10
162.099976
 20
-175.000000
 11
282.099854
 21
-175.000000
  0
LINE
  8
0
 10
162.099976
 20
175.500000
 11
282.099854
 21
175.500000
  0
LINE
  8
0
 10
-281.250000
 20
175.500000
 11
-161.250000
 21
175.500000
  0
LINE
  8
0
 10
162.099976
 20
195.500000
 11
162.099976
 21
175.500000
  0
LINE
  8
0
 10
-161.250000
 20
195.500000
 11
-161.250000
 21
175.500000
  0
ARC
  8
0
 10
-172.192978
 20
106.483963
 40
39.501476
 50
210.418869
 51
323.996613
  0
ARC
  8
0
 10
-172.189957
 20
106.483513
 40
38.499603
 50
37.599659
 51
148.701904
  0
ARC
  8
0
 10
-172.193298
 20
106.483925
 40
38.496796
 50
211.300766
 51
324.105896
  0
ARC
  8
0
 10
-172.191971
 20
106.483673
 40
28.500744
 50
44.566433
 51
135.433517
  0
ARC
  8
0
 10
-172.191971
 20
106.483673
 40
27.500278
 50
46.657604
 51
133.342346
  0
ARC
  8
0
 10
-172.191971
 20
106.483673
 40
28.500744
 50
224.566483
 51
315.433563
  0
ARC
  8
0
 10
-172.191971
 20
106.483673
 40
27.500278
 50
226.657654
 51
313.342407
  0
CIRCLE
  8
0
 10
-82.186966
 20
106.483673
 40
20.000000
  0
CIRCLE
  8
0
 10
-82.186966
 20
106.483673
 40
19.000000
  0
CIRCLE
  8
0
 10
-82.186966
 20
106.483673
 40
17.500000
  0
CIRCLE
  8
0
 10
-82.186966
 20
106.483673
 40
14.500000
  0
CIRCLE
  8
0
 10
-82.186966
 20
106.483673
 40
4.250000
  0
ARC
  8
0
 10
-76.186966
 20
85.483688
 40
0.999992
 50
359.999573
 51
90.000435
  0
ARC
  8
0
 10
-54.186966
 20
85.483673
 40
1.000008
 50
90.000435
 51
179.999557
  0
ARC
  8
0
 10
-54.186966
 20
127.483673
 40
1.000008
 50
180.000443
 51
269.999573
  0
ARC
  8
0
 10
-76.186966
 20
127.483658
 40
0.999992
 50
269.999573
 51
0.000437
  0
ARC
  8
0
 10
-82.191986
 20
106.482384
 40
28.000271
 50
74.495186
 51
134.412064
  0
ARC
  8
0
 10
-82.194763
 20
106.481789
 40
26.997248
 50
74.955147
 51
132.193054
  0
ARC
  8
0
 10
-82.191986
 20
106.484962
 40
28.000275
 50
225.587936
 51
285.504822
  0
ARC
  8
0
 10
-82.194763
 20
106.485558
 40
26.997252
 50
227.806946
 51
285.044861
  0
ARC
  8
0
 10
-44.186935
 20
64.983704
 40
4.999969
 50
359.999664
 51
90.000305
  0
ARC
  8
0
 10
-86.186951
 20
64.983658
 40
5.000015
 50
90.000175
 51
179.999832
  0
ARC
  8
0
 10
-83.933945
 20
123.390686
 40
0.496988
 50
0.343032
 51
97.284843
  0
ARC
  8
0
 10
-83.936981
 20
121.381233
 40
0.500066
 50
275.739655
 51
359.133698
  0
ARC
  8
0
 10
-80.436401
 20
121.380608
 40
0.500613
 50
180.793762
 51
263.050751
  0
ARC
  8
0
 10
-80.440552
 20
123.390137
 40
0.496430
 50
83.803825
 51
179.592300
  0
ARC
  8
0
 10
-99.097931
 20
104.732269
 40
0.501405
 50
89.891022
 51
185.562164
  0
ARC
  8
0
 10
-97.083878
 20
104.733093
 40
0.500589
 50
6.950526
 51
90.353661
  0
ARC
  8
0
 10
-99.097931
 20
108.235077
 40
0.501407
 50
174.437836
 51
270.108978
  0
ARC
  8
0
 10
-97.083878
 20
108.234253
 40
0.500589
 50
269.646332
 51
353.049469
  0
ARC
  8
0
 10
-80.440552
 20
89.577209
 40
0.496427
 50
180.407700
 51
276.196167
  0
ARC
  8
0
 10
-80.436401
 20
91.586739
 40
0.500618
 50
96.949234
 51
179.206238
  0
ARC
  8
0
 10
-83.933945
 20
89.576660
 40
0.496985
 50
262.715149
 51
359.656982
  0
ARC
  8
0
 10
-83.936981
 20
91.586113
 40
0.500065
 50
0.866317
 51
84.260353
  0
ARC
  8
0
 10
-65.280502
 20
108.230087
 40
0.496427
 50
270.407715
 51
6.196178
  0
ARC
  8
0
 10
-67.290039
 20
108.234238
 40
0.500618
 50
186.949234
 51
269.206238
  0
ARC
  8
0
 10
-65.280502
 20
104.737259
 40
0.496430
 50
353.803833
 51
89.592300
  0
ARC
  8
0
 10
-67.290039
 20
104.733109
 40
0.500613
 50
90.793762
 51
173.050766
  0
ARC
  8
0
 10
7.809357
 20
106.483879
 40
38.530750
 50
31.269260
 51
142.324036
  0
CIRCLE
  8
0
 10
13.313065
 20
110.483688
 40
6.949997
  0
CIRCLE
  8
0
 10
13.313049
 20
110.483658
 40
12.999985
  0
CIRCLE
  8
0
 10
13.313049
 20
110.483658
 40
13.999985
  0
CIRCLE
  8
0
 10
-6.186935
 20
86.483688
 40
7.500000
  0
CIRCLE
  8
0
 10
-6.186935
 20
86.483673
 40
8.000008
  0
ARC
  8
0
 10
7.808273
 20
106.483482
 40
38.531681
 50
215.892456
 51
328.731567
  0
ARC
  8
0
 10
7.809052
 20
106.483475
 40
39.501221
 50
216.002838
 51
329.581757
  0
ARC
  8
0
 10
7.811676
 20
106.483780
 40
39.499004
 50
30.420277
 51
140.546158
  0
ARC
  8
0
 10
-172.190857
 20
106.483368
 40
39.503307
 50
39.449459
 51
149.582672
  0
ARC
  8
0
 10
160.180908
 20
-131.639618
 40
15.000969
 50
180.500290
 51
269.998535
  0
ARC
  8
0
 10
197.013245
 20
-131.642792
 40
14.997787
 50
269.989502
 51
359.511780
  0
ARC
  8
0
 10
203.628052
 20
-94.643028
 40
0.992476
 50
359.563965
 51
90.436043
  0
ARC
  8
0
 10
198.548615
 20
-94.648705
 40
0.998133
 50
89.892265
 51
180.107300
  0
ARC
  8
0
 10
198.548615
 20
-94.148705
 40
0.998133
 50
89.892265
 51
180.107300
  0
ARC
  8
0
 10
198.552536
 20
-127.638527
 40
1.002047
 50
180.116913
 51
269.883087
  0
ARC
  8
0
 10
198.552536
 20
-128.138519
 40
1.002047
 50
180.116913
 51
269.883087
  0
ARC
  8
0
 10
198.170761
 20
-128.640320
 40
1.000259
 50
180.014862
 51
269.985138
  0
ARC
  8
0
 10
198.170761
 20
-129.140320
 40
1.000259
 50
180.014862
 51
269.985138
  0
ARC
  8
0
 10
203.624115
 20
-127.644188
 40
0.996383
 50
269.792053
 51
0.207952
  0
ARC
  8
0
 10
205.465271
 20
-94.145790
 40
0.995236
 50
359.724609
 51
90.274956
  0
ARC
  8
0
 10
205.461349
 20
-128.141449
 40
0.999146
 50
269.950989
 51
0.049001
  0
ARC
  8
0
 10
205.714890
 20
-128.644958
 40
0.995615
 50
269.747101
 51
0.252898
  0
ARC
  8
0
 10
206.313477
 20
-129.143555
 40
0.997029
 50
269.829010
 51
0.170990
  0
ARC
  8
0
 10
153.566025
 20
-94.646095
 40
0.995532
 50
89.741814
 51
180.257751
  0
ARC
  8
0
 10
158.645477
 20
-94.645607
 40
0.995038
 50
359.713562
 51
90.286430
  0
ARC
  8
0
 10
158.645477
 20
-94.145607
 40
0.995038
 50
359.713562
 51
90.286430
  0
ARC
  8
0
 10
158.641556
 20
-127.641624
 40
0.998955
 50
269.940491
 51
0.059949
  0
ARC
  8
0
 10
158.641556
 20
-128.141632
 40
0.998963
 50
269.940491
 51
0.059512
  0
ARC
  8
0
 10
159.023300
 20
-128.643372
 40
0.997212
 50
269.839569
 51
0.160438
  0
ARC
  8
0
 10
159.023300
 20
-129.143372
 40
0.997212
 50
269.839569
 51
0.160438
  0
ARC
  8
0
 10
153.569946
 20
-127.641136
 40
0.999451
 50
179.968079
 51
270.031494
  0
ARC
  8
0
 10
151.728912
 20
-94.148979
 40
0.998407
 50
89.908928
 51
180.091064
  0
ARC
  8
0
 10
151.732834
 20
-128.138245
 40
1.002322
 50
180.132584
 51
269.867432
  0
ARC
  8
0
 10
151.474274
 20
-128.636810
 40
1.003776
 50
180.215134
 51
269.784882
  0
ARC
  8
0
 10
150.880615
 20
-129.140472
 40
1.000107
 50
180.006119
 51
269.993866
  0
ARC
  8
0
 10
198.548630
 20
-54.648705
 40
0.998133
 50
89.892265
 51
180.107300
  0
ARC
  8
0
 10
198.548630
 20
-54.148705
 40
0.998133
 50
89.892265
 51
180.107300
  0
ARC
  8
0
 10
198.166840
 20
-53.646919
 40
0.996356
 50
89.790283
 51
180.209930
  0
ARC
  8
0
 10
198.166840
 20
-53.146919
 40
0.996356
 50
89.790283
 51
180.209930
  0
ARC
  8
0
 10
203.628036
 20
-54.643028
 40
0.992476
 50
359.563965
 51
90.436043
  0
ARC
  8
0
 10
205.465271
 20
-54.145790
 40
0.995236
 50
359.724823
 51
90.274956
  0
ARC
  8
0
 10
205.718826
 20
-53.642250
 40
0.991704
 50
359.518860
 51
90.481346
  0
ARC
  8
0
 10
206.317398
 20
-53.143669
 40
0.993112
 50
359.601196
 51
90.398788
  0
ARC
  8
0
 10
198.557526
 20
-85.643547
 40
1.007059
 50
180.400208
 51
269.599792
  0
ARC
  8
0
 10
203.619095
 20
-85.649178
 40
1.001405
 50
270.080322
 51
359.919678
  0
ARC
  8
0
 10
158.645477
 20
-54.645607
 40
0.995038
 50
359.714020
 51
90.286430
  0
ARC
  8
0
 10
158.645477
 20
-54.145607
 40
0.995038
 50
359.714020
 51
90.286430
  0
ARC
  8
0
 10
159.027237
 20
-53.643852
 40
0.993294
 50
359.612274
 51
90.388153
  0
ARC
  8
0
 10
159.027237
 20
-53.143852
 40
0.993294
 50
359.612274
 51
90.388153
  0
ARC
  8
0
 10
153.566025
 20
-54.646095
 40
0.995535
 50
89.742691
 51
180.257523
  0
ARC
  8
0
 10
151.728912
 20
-54.148994
 40
0.998414
 50
89.908936
 51
180.091064
  0
ARC
  8
0
 10
151.470383
 20
-53.650444
 40
0.999866
 50
89.992134
 51
180.007645
  0
ARC
  8
0
 10
150.876694
 20
-53.146767
 40
0.996189
 50
89.780594
 51
180.219620
  0
ARC
  8
0
 10
158.636551
 20
-85.646614
 40
1.003968
 50
270.226410
 51
359.774017
  0
ARC
  8
0
 10
153.574966
 20
-85.646126
 40
1.004465
 50
180.254150
 51
269.745850
  0
ARC
  8
0
 10
157.590500
 20
-25.450584
 40
1.000000
 50
270.000000
 51
0.000000
  0
ARC
  8
0
 10
199.590500
 20
-25.450584
 40
1.000000
 50
180.000000
 51
270.000000
  0
ARC
  8
0
 10
157.590500
 20
-22.450584
 40
1.000000
 50
270.000000
 51
0.000000
  0
ARC
  8
0
 10
157.590500
 20
-23.450584
 40
1.000000
 50
270.000000
 51
0.000000
  0
ARC
  8
0
 10
199.590500
 20
-22.450584
 40
1.000000
 50
180.000000
 51
270.000000
  0
ARC
  8
0
 10
199.590500
 20
-23.450584
 40
1.000000
 50
180.000000
 51
270.000000
  0
CIRCLE
  8
0
 10
178.590500
 20
-11.450584
 40
13.500000
  0
ARC
  8
0
 10
150.590500
 20
3.549416
 40
1.000000
 50
90.000000
 51
179.999954
  0
ARC
  8
0
 10
169.790497
 20
7.649406
 40
0.700003
 50
90.000000
 51
179.999725
  0
ARC
  8
0
 10
195.390488
 20
7.649406
 40
0.699997
 50
0.000234
 51
90.000000
  0
ARC
  8
0
 10
182.590500
 20
23.399406
 40
6.949997
 50
0.000000
 51
179.999969
  0
ARC
  8
0
 10
137.083496
 20
-32.452339
 40
4.998250
 50
270.080475
 51
297.876343
  0
ARC
  8
0
 10
137.090500
 20
9.549400
 40
5.000015
 50
0.000087
 51
89.999825
  0
CIRCLE
  8
0
 10
178.590500
 20
-11.450584
 40
7.474999
  0
CIRCLE
  8
0
 62
     2
 10
178.590500
 20
-11.450584
 40
8.331000
  0
ARC
  8
0
 10
151.737823
 20
-86.143257
 40
1.007336
 50
180.416168
 51
269.584290
  0
ARC
  8
0
 10
158.636551
 20
-86.146614
 40
1.003968
 50
270.226410
 51
359.774017
  0
ARC
  8
0
 10
205.456345
 20
-86.146431
 40
1.004159
 50
270.236816
 51
359.763184
  0
ARC
  8
0
 10
198.557526
 20
-86.143547
 40
1.007059
 50
180.400208
 51
269.599792
  0
ARC
  8
0
 10
-153.765808
 20
-131.641174
 40
14.999390
 50
269.995575
 51
359.505737
  0
ARC
  8
0
 10
-190.598160
 20
-131.641205
 40
14.999368
 50
180.494217
 51
270.004547
  0
ARC
  8
0
 10
26.234192
 20
-131.641174
 40
14.999390
 50
269.995605
 51
359.505737
  0
ARC
  8
0
 10
-10.598160
 20
-131.641205
 40
14.999370
 50
180.494217
 51
270.004547
  0
ARC
  8
0
 10
-17.218018
 20
-94.649521
 40
0.998955
 50
89.939835
 51
180.059952
  0
ARC
  8
0
 10
-12.138580
 20
-94.642181
 40
0.991645
 50
359.515106
 51
90.484741
  0
ARC
  8
0
 10
-12.138580
 20
-94.142181
 40
0.991645
 50
359.515106
 51
90.484741
  0
ARC
  8
0
 10
-12.142517
 20
-127.645020
 40
0.995554
 50
269.743958
 51
0.255985
  0
ARC
  8
0
 10
-12.142517
 20
-128.145020
 40
0.995554
 50
269.743958
 51
0.256424
  0
ARC
  8
0
 10
-11.755768
 20
-128.641769
 40
0.998795
 50
269.930908
 51
0.069150
  0
ARC
  8
0
 10
-11.755768
 20
-129.141769
 40
0.998795
 50
269.930908
 51
0.069150
  0
ARC
  8
0
 10
-17.214111
 20
-127.637711
 40
1.002867
 50
180.163895
 51
269.836334
  0
ARC
  8
0
 10
-19.050171
 20
-94.147385
 40
0.996816
 50
89.816582
 51
180.183304
  0
ARC
  8
0
 10
-19.046249
 20
-128.139847
 40
1.000729
 50
180.041931
 51
269.958282
  0
ARC
  8
0
 10
-19.304794
 20
-128.638397
 40
1.002179
 50
180.124741
 51
269.875580
  0
ARC
  8
0
 10
-19.903458
 20
-129.137054
 40
1.003527
 50
180.201248
 51
269.798981
  0
ARC
  8
0
 10
-12.138580
 20
-54.642181
 40
0.991649
 50
359.515320
 51
90.484573
  0
ARC
  8
0
 10
-12.138580
 20
-54.142181
 40
0.991649
 50
359.515320
 51
90.484573
  0
ARC
  8
0
 10
-11.751846
 20
-53.645447
 40
0.994884
 50
359.704529
 51
90.295372
  0
ARC
  8
0
 10
-11.751846
 20
-53.145447
 40
0.994884
 50
359.704529
 51
90.295372
  0
ARC
  8
0
 10
-17.218018
 20
-54.649521
 40
0.998955
 50
89.940048
 51
180.059952
  0
ARC
  8
0
 10
-19.050156
 20
-54.147385
 40
0.996816
 50
89.816696
 51
180.183304
  0
ARC
  8
0
 10
-19.308701
 20
-53.648834
 40
0.998266
 50
89.900383
 51
180.099625
  0
ARC
  8
0
 10
-19.907364
 20
-53.150192
 40
0.999615
 50
89.977913
 51
180.022079
  0
ARC
  8
0
 10
-12.147552
 20
-85.649994
 40
1.000572
 50
270.032990
 51
359.967224
  0
ARC
  8
0
 10
-12.147552
 20
-86.149994
 40
1.000572
 50
270.032990
 51
359.967224
  0
ARC
  8
0
 10
-17.209122
 20
-85.642715
 40
1.007883
 50
180.446289
 51
269.553589
  0
ARC
  8
0
 10
-19.041245
 20
-86.144836
 40
1.005742
 50
180.326416
 51
269.673798
  0
ARC
  8
0
 10
32.849091
 20
-94.644501
 40
0.993957
 50
359.650360
 51
90.349419
  0
ARC
  8
0
 10
27.769638
 20
-94.647186
 40
0.996618
 50
89.805252
 51
180.194748
  0
ARC
  8
0
 10
27.769638
 20
-94.147186
 40
0.996618
 50
89.805252
 51
180.194748
  0
ARC
  8
0
 10
27.773560
 20
-127.640030
 40
1.000532
 50
180.030579
 51
269.969513
  0
ARC
  8
0
 10
27.773560
 20
-128.140030
 40
1.000532
 50
180.030579
 51
269.969513
  0
ARC
  8
0
 10
27.386826
 20
-128.636780
 40
1.003801
 50
180.216873
 51
269.783447
  0
ARC
  8
0
 10
27.386826
 20
-129.136780
 40
1.003801
 50
180.216873
 51
269.783447
  0
ARC
  8
0
 10
32.845154
 20
-127.642700
 40
0.997866
 50
269.877777
 51
0.122220
  0
ARC
  8
0
 10
34.681229
 20
-94.142380
 40
0.991840
 50
359.526642
 51
90.473351
  0
ARC
  8
0
 10
34.677277
 20
-128.144821
 40
0.995752
 50
269.755249
 51
0.244961
  0
ARC
  8
0
 10
34.935837
 20
-128.643387
 40
0.997196
 50
269.838257
 51
0.161318
  0
ARC
  8
0
 10
35.534500
 20
-129.142044
 40
0.998521
 50
269.915283
 51
0.084929
  0
ARC
  8
0
 10
27.769638
 20
-54.647186
 40
0.996622
 50
89.805473
 51
180.194519
  0
ARC
  8
0
 10
27.769638
 20
-54.147186
 40
0.996622
 50
89.805473
 51
180.194519
  0
ARC
  8
0
 10
27.382919
 20
-53.650452
 40
0.999889
 50
89.993660
 51
180.006332
  0
ARC
  8
0
 10
27.382919
 20
-53.150452
 40
0.999889
 50
89.993660
 51
180.006332
  0
ARC
  8
0
 10
32.849091
 20
-54.644516
 40
0.993961
 50
359.650818
 51
90.349197
  0
ARC
  8
0
 10
34.681213
 20
-54.142380
 40
0.991844
 50
359.526886
 51
90.473129
  0
ARC
  8
0
 10
34.939774
 20
-53.643829
 40
0.993279
 50
359.610962
 51
90.389046
  0
ARC
  8
0
 10
35.538422
 20
-53.145172
 40
0.994613
 50
359.688843
 51
90.311165
  0
ARC
  8
0
 10
27.778564
 20
-85.645035
 40
1.005548
 50
180.315170
 51
269.684723
  0
ARC
  8
0
 10
27.778564
 20
-86.145035
 40
1.005548
 50
180.315170
 51
269.684723
  0
ARC
  8
0
 10
32.840149
 20
-85.647690
 40
1.002888
 50
270.164764
 51
359.835236
  0
ARC
  8
0
 10
34.672256
 20
-86.149796
 40
1.000771
 50
270.043884
 51
359.955872
  0
ARC
  8
0
 10
-28.609818
 20
-73.187744
 40
0.307419
 50
182.389557
 51
216.489883
  0
ARC
  8
0
 10
-197.218018
 20
-94.649521
 40
0.998955
 50
89.939613
 51
180.059952
  0
ARC
  8
0
 10
-192.138580
 20
-94.642181
 40
0.991643
 50
359.515106
 51
90.484901
  0
ARC
  8
0
 10
-192.138580
 20
-94.142181
 40
0.991643
 50
359.515106
 51
90.484901
  0
ARC
  8
0
 10
-192.142517
 20
-127.645020
 40
0.995554
 50
269.743561
 51
0.255987
  0
ARC
  8
0
 10
-192.142517
 20
-128.145020
 40
0.995554
 50
269.743561
 51
0.256426
  0
ARC
  8
0
 10
-191.755768
 20
-128.641769
 40
0.998795
 50
269.930847
 51
0.069150
  0
ARC
  8
0
 10
-191.755768
 20
-129.141769
 40
0.998795
 50
269.930847
 51
0.069150
  0
ARC
  8
0
 10
-197.214096
 20
-127.637711
 40
1.002873
 50
180.163895
 51
269.836121
  0
ARC
  8
0
 10
-199.050156
 20
-94.147385
 40
0.996816
 50
89.816696
 51
180.183304
  0
ARC
  8
0
 10
-199.046234
 20
-128.139847
 40
1.000733
 50
180.041931
 51
269.958069
  0
ARC
  8
0
 10
-199.304794
 20
-128.638397
 40
1.002184
 50
180.124741
 51
269.875244
  0
ARC
  8
0
 10
-199.903442
 20
-129.137054
 40
1.003531
 50
180.201248
 51
269.798767
  0
ARC
  8
0
 10
-192.138580
 20
-54.642181
 40
0.991643
 50
359.515320
 51
90.484901
  0
ARC
  8
0
 10
-192.138580
 20
-54.142181
 40
0.991643
 50
359.515320
 51
90.484901
  0
ARC
  8
0
 10
-191.751846
 20
-53.645447
 40
0.994886
 50
359.704529
 51
90.295265
  0
ARC
  8
0
 10
-191.751846
 20
-53.145447
 40
0.994886
 50
359.704529
 51
90.295265
  0
ARC
  8
0
 10
-197.218018
 20
-54.649521
 40
0.998955
 50
89.940491
 51
180.059952
  0
ARC
  8
0
 10
-199.050156
 20
-54.147385
 40
0.996816
 50
89.816696
 51
180.183304
  0
ARC
  8
0
 10
-199.308701
 20
-53.648834
 40
0.998266
 50
89.900162
 51
180.099625
  0
ARC
  8
0
 10
-199.907349
 20
-53.150192
 40
0.999615
 50
89.978134
 51
180.022079
  0
ARC
  8
0
 10
-192.147552
 20
-85.649994
 40
1.000572
 50
270.033203
 51
359.967224
  0
ARC
  8
0
 10
-192.147552
 20
-86.149994
 40
1.000572
 50
270.033203
 51
359.967224
  0
ARC
  8
0
 10
-197.209106
 20
-85.642715
 40
1.007889
 50
180.446289
 51
269.553284
  0
ARC
  8
0
 10
-199.041245
 20
-86.144836
 40
1.005738
 50
180.326416
 51
269.674011
  0
ARC
  8
0
 10
-147.150909
 20
-94.644501
 40
0.993961
 50
359.650360
 51
90.349197
  0
ARC
  8
0
 10
-152.230362
 20
-94.647186
 40
0.996618
 50
89.805252
 51
180.194748
  0
ARC
  8
0
 10
-152.230362
 20
-94.147186
 40
0.996618
 50
89.805252
 51
180.194748
  0
ARC
  8
0
 10
-152.226440
 20
-127.640030
 40
1.000534
 50
180.030579
 51
269.969421
  0
ARC
  8
0
 10
-152.226440
 20
-128.140030
 40
1.000534
 50
180.030579
 51
269.969421
  0
ARC
  8
0
 10
-152.613174
 20
-128.636780
 40
1.003807
 50
180.216873
 51
269.783142
  0
ARC
  8
0
 10
-152.613174
 20
-129.136780
 40
1.003807
 50
180.216873
 51
269.783142
  0
ARC
  8
0
 10
-147.154846
 20
-127.642700
 40
0.997866
 50
269.877350
 51
0.122221
  0
ARC
  8
0
 10
-145.318771
 20
-94.142380
 40
0.991840
 50
359.526642
 51
90.473351
  0
ARC
  8
0
 10
-145.322723
 20
-128.144821
 40
0.995752
 50
269.755035
 51
0.244961
  0
ARC
  8
0
 10
-145.064163
 20
-128.643387
 40
0.997196
 50
269.838684
 51
0.161317
  0
ARC
  8
0
 10
-144.465500
 20
-129.142044
 40
0.998521
 50
269.915070
 51
0.084929
  0
ARC
  8
0
 10
-152.230362
 20
-54.647186
 40
0.996622
 50
89.805252
 51
180.194519
  0
ARC
  8
0
 10
-152.230362
 20
-54.147186
 40
0.996622
 50
89.805252
 51
180.194519
  0
ARC
  8
0
 10
-152.617081
 20
-53.650452
 40
0.999889
 50
89.993881
 51
180.006332
  0
ARC
  8
0
 10
-152.617081
 20
-53.150452
 40
0.999889
 50
89.993881
 51
180.006332
  0
ARC
  8
0
 10
-147.150909
 20
-54.644516
 40
0.993961
 50
359.650818
 51
90.349197
  0
ARC
  8
0
 10
-145.318787
 20
-54.142380
 40
0.991840
 50
359.526886
 51
90.473343
  0
ARC
  8
0
 10
-145.060226
 20
-53.643829
 40
0.993279
 50
359.610962
 51
90.389046
  0
ARC
  8
0
 10
-144.461578
 20
-53.145172
 40
0.994613
 50
359.688843
 51
90.311165
  0
ARC
  8
0
 10
-152.221436
 20
-85.645035
 40
1.005554
 50
180.315170
 51
269.684387
  0
ARC
  8
0
 10
-152.221436
 20
-86.145035
 40
1.005554
 50
180.315170
 51
269.684387
  0
ARC
  8
0
 10
-147.159851
 20
-85.647690
 40
1.002888
 50
270.164764
 51
359.835236
  0
ARC
  8
0
 10
-145.327744
 20
-86.149796
 40
1.000771
 50
270.043671
 51
359.955872
  0
ARC
  8
0
 10
-208.609818
 20
-73.187744
 40
0.307427
 50
182.389496
 51
216.490509
  0
CIRCLE
  8
0
 10
-38.186966
 20
-11.450577
 40
5.500000
  0
ARC
  8
0
 10
-40.186966
 20
-46.450577
 40
4.500000
 50
90.000000
 51
269.999939
  0
ARC
  8
0
 10
-36.186966
 20
-46.450577
 40
4.500000
 50
270.000000
 51
90.000000
  0
ARC
  8
0
 10
-40.186966
 20
23.549423
 40
4.500000
 50
90.000000
 51
269.999939
  0
ARC
  8
0
 10
-36.186966
 20
23.549423
 40
4.500000
 50
270.000000
 51
90.000000
  0
CIRCLE
  8
0
 10
-38.186966
 20
-11.450577
 40
5.000000
  0
CIRCLE
  8
0
 10
-38.186966
 20
-11.450577
 40
2.886751
  0
CIRCLE
  8
0
 10
-126.186966
 20
-11.450577
 40
5.500000
  0
ARC
  8
0
 10
-128.186966
 20
-46.450577
 40
4.500000
 50
90.000000
 51
270.000000
  0
ARC
  8
0
 10
-124.186966
 20
-46.450577
 40
4.500000
 50
270.000000
 51
90.000000
  0
ARC
  8
0
 10
-128.186966
 20
23.549423
 40
4.500000
 50
90.000000
 51
270.000000
  0
ARC
  8
0
 10
-124.186966
 20
23.549423
 40
4.500000
 50
270.000000
 51
90.000000
  0
CIRCLE
  8
0
 10
-126.186966
 20
-11.450577
 40
5.000000
  0
CIRCLE
  8
0
 10
-126.186966
 20
-11.450577
 40
2.886751
  0
CIRCLE
  8
0
 10
-65.186966
 20
-11.450577
 40
10.000000
  0
CIRCLE
  8
0
 10
-65.186966
 20
-11.450577
 40
9.000000
  0
ARC
  8
0
 10
-100.224442
 20
-100.647491
 40
1.003079
 50
181.889923
 51
269.855316
  0
ARC
  8
0
 10
-64.154648
 20
-100.652496
 40
0.998072
 50
269.866852
 51
358.388489
  0
ARC
  8
0
 10
-65.187363
 20
-11.451093
 40
11.997986
 50
303.547272
 51
343.440857
  0
ARC
  8
0
 10
-65.184204
 20
-11.446871
 40
12.526928
 50
309.732269
 51
336.606659
  0
CIRCLE
  8
0
 62
     2
 10
-65.186966
 20
-11.450577
 40
6.578500
  0
CIRCLE
  8
0
 10
-65.186966
 20
-11.450577
 40
5.722500
  0
CIRCLE
  8
0
  6
PHANTOM
 62
     2
 10
-65.186966
 20
-11.450577
 40
26.250000
  0
ARC
  8
0
 10
-14.186966
 20
3.549423
 40
1.000000
 50
90.000000
 51
179.999954
  0
ARC
  8
0
 10
1.813034
 20
3.549423
 40
1.000000
 50
0.000000
 51
89.999977
  0
ARC
  8
0
 10
27.813034
 20
5.549423
 40
1.000000
 50
180.000031
 51
270.000000
  0
ARC
  8
0
 10
13.313034
 20
23.399414
 40
6.950001
 50
0.000000
 51
179.999969
  0
ARC
  8
0
 10
26.113037
 20
7.649414
 40
0.699995
 50
359.999603
 51
90.000313
  0
ARC
  8
0
 10
-65.184204
 20
-11.454283
 40
12.526930
 50
23.393328
 51
50.267735
  0
ARC
  8
0
 10
-65.187363
 20
-11.450061
 40
11.997985
 50
16.559139
 51
56.452740
  0
POLYLINE
  8
0
 66
     1
  0
VERTEX
  8
0
 10
-26.226974
 20
-59.520569
  0
VERTEX
  8
0
 10
-25.956030
 20
-60.461075
  0
VERTEX
  8
0
 10
-25.714344
 20
-61.389565
  0
VERTEX
  8
0
 10
-25.502066
 20
-62.317513
  0
VERTEX
  8
0
 10
-25.319344
 20
-63.256386
  0
VERTEX
  8
0
 10
-25.166327
 20
-64.217659
  0
VERTEX
  8
0
 10
-25.043159
 20
-65.212799
  0
VERTEX
  8
0
 10
-24.949995
 20
-66.253281
  0
VERTEX
  8
0
 10
-24.886978
 20
-67.350571
  0
VERTEX
  8
0
 10
-24.862202
 20
-68.269646
  0
VERTEX
  8
0
 10
-24.865440
 20
-69.189384
  0
VERTEX
  8
0
 10
-24.896221
 20
-70.108902
  0
VERTEX
  8
0
 10
-24.954067
 20
-71.027306
  0
VERTEX
  8
0
 10
-25.038506
 20
-71.943710
  0
VERTEX
  8
0
 10
-25.149061
 20
-72.857239
  0
VERTEX
  8
0
 10
-25.285259
 20
-73.766991
  0
VERTEX
  8
0
 10
-25.446625
 20
-74.672089
  0
VERTEX
  8
0
 10
-25.632683
 20
-75.571648
  0
VERTEX
  8
0
 10
-25.842960
 20
-76.464767
  0
VERTEX
  8
0
 10
-26.076981
 20
-77.350571
  0
SEQEND
  0
POLYLINE
  8
0
 66
     1
  0
VERTEX
  8
0
 10
-206.226959
 20
-59.520569
  0
VERTEX
  8
0
 10
-205.956009
 20
-60.461075
  0
VERTEX
  8
0
 10
-205.714325
 20
-61.389565
  0
VERTEX
  8
0
 10
-205.502045
 20
-62.317513
  0
VERTEX
  8
0
 10
-205.319336
 20
-63.256386
  0
VERTEX
  8
0
 10
-205.166306
 20
-64.217659
  0
VERTEX
  8
0
 10
-205.043152
 20
-65.212799
  0
VERTEX
  8
0
 10
-204.949982
 20
-66.253281
  0
VERTEX
  8
0
 10
-204.886963
 20
-67.350571
  0
VERTEX
  8
0
 10
-204.862183
 20
-68.269646
  0
VERTEX
  8
0
 10
-204.865417
 20
-69.189384
  0
VERTEX
  8
0
 10
-204.896210
 20
-70.108902
  0
VERTEX
  8
0
 10
-204.954056
 20
-71.027306
  0
VERTEX
  8
0
 10
-205.038498
 20
-71.943710
  0
VERTEX
  8
0
 10
-205.149048
 20
-72.857239
  0
VERTEX
  8
0
 10
-205.285248
 20
-73.766991
  0
VERTEX
  8
0
 10
-205.446609
 20
-74.672089
  0
VERTEX
  8
0
 10
-205.632675
 20
-75.571648
  0
VERTEX
  8
0
 10
-205.842941
 20
-76.464767
  0
VERTEX
  8
0
 10
-206.076965
 20
-77.350571
  0
SEQEND
  0
TEXT
  8
0
 10
-269.149719
 20
180.830002
 40
6.300000
  1
FRL COMBINATION
 50
0.000000
 41
1.052632
 51
0.000000
  7
STANDARD
  0
TEXT
  8
0
 10
59.137238
 20
-10.450671
 40
6.300000
  1
OUT
 50
0.000000
 41
1.052632
 51
0.000000
  7
STANDARD
  0
TEXT
  8
0
 10
-241.218842
 20
-10.450567
 40
6.300000
  1
IN
 50
0.000000
 41
1.052632
 51
0.000000
  7
STANDARD
  0
TEXT
  8
0
 10
-256.000000
 20
161.720001
 40
6.300000
  1
MODEL:C600-04-F1
 50
0.000000
 41
1.052632
 51
0.000000
  7
STANDARD
  0
TEXT
  8
0
 10
196.250259
 20
180.830002
 40
6.300000
  1
　Ｖｅｒ．２．０
 50
0.000000
 41
0.833333
 51
0.000000
  7
STANDARD
  0
TEXT
  8
0
 10
167.564667
 20
-192.100006
 40
9.000000
  1
KOGANEI CORP.
 50
0.000000
 41
1.052632
 51
0.000000
  7
STANDARD
  0
LINE
  8
0
 10
82.813034
 20
-11.450671
 11
57.813034
 21
-11.450671
  0
LINE
  8
0
 10
82.813034
 20
-11.450671
 11
79.915253
 21
-10.674214
  0
LINE
  8
0
 10
82.813034
 20
-11.450671
 11
79.915260
 21
-12.227128
  0
LINE
  8
0
 10
-222.186966
 20
-11.450577
 11
-247.186966
 21
-11.450577
  0
LINE
  8
0
 10
-222.186966
 20
-11.450577
 11
-225.084747
 21
-10.674120
  0
LINE
  8
0
 10
-222.186966
 20
-11.450577
 11
-225.084747
 21
-12.227034
  0
ENDSEC
  0
EOF
