  0
SECTION
  2
HEADER
  9
$ACADVER
  1
AC1003
  9
$EXTMIN
 10
-1.94250000E+02
 20
-1.33500000E+02
  9
$EXTMAX
 10
1.94800003E+02
 20
1.32600006E+02
  9
$LIMMIN
 10
-1.94251000E+02
 20
-1.33501000E+02
  9
$LIMMAX
 10
1.94801003E+02
 20
1.32601006E+02
  9
$SNAPUNIT
 10
1
 20
1
  9
$SNAPBASE
 10
0
 20
0
  9
$GRIDMODE
 70
0
  9
$GRIDUNIT
 10
0
 20
0
  9
$LTSCALE
 40
6.48416672E+00
  9
$TEXTSIZE
 40
3.2
  9
$DIMTAD
 70
0
  9
$LUNITS
 70
2
  9
$LUPREC
 70
4
  9
$FILLETRAD
 40
0
  9
$AUNITS
 70
0
  9
$AUPREC
 70
0
  0
ENDSEC
  0
SECTION
  2
TABLES
  0
TABLE
  2
LTYPE
 70
2
  0
LTYPE
  2
CONTINUOUS
 70
64
  3
Solid-Line
 72
65
 73
0
 40
0
  0
LTYPE
  2
DASHED
 70
64
  3
DASHED
 72
65
 73
2
 40
.75
 49
.5
 49
-.25
  0
LTYPE
  2
HIDDEN
 70
64
  3
HIDDEN
 72
65
 73
2
 40
.375
 49
.25
 49
-.125
  0
LTYPE
  2
CENTER
 70
64
  3
CENTER
 72
65
 73
4
 40
2
 49
1.25
 49
-.25
 49
.25
 49
-.25
  0
LTYPE
  2
PHANTOM
 70
64
  3
PHANTOM
 72
65
 73
6
 40
2.5
 49
1.25
 49
-.25
 49
.25
 49
-.25
 49
.25
 49
-.25
  0
ENDTAB
  0
TABLE
  2
LAYER
 70
1
  0
LAYER
  2
0
 70
0
 62
7
  6
CONTINUOUS
 0
ENDTAB
  0
TABLE
  2
STYLE
 70
2
  0
STYLE
  2
MONOTXT
 70
0
 40
0
 41
1
 50
0
 71
0
 42
.2
  3
monotxt
  0
STYLE
  2
BIGFONT
 70
0
 40
0
 41
1
 50
0
 71
0
 42
.2
  3
txt
  4
bigfont
  0
ENDTAB
  0
ENDSEC
  0
SECTION
  2
BLOCKS
  0
BLOCK
  8
0
  2
ARROW
 70
10
 10
0
 20
0
  0
POLYLINE
  8
0
  6
CONTINUOUS
 62
0
 66
1
  0
VERTEX
  8
0
  6
CONTINUOUS
 62
0
 10
3.19208129E+00
 20
8.55315605E-01
  0
VERTEX
  8
0
  6
CONTINUOUS
 62
0
 10
0.0
 20
0.0
  0
VERTEX
  8
0
  6
CONTINUOUS
 62
0
 10
3.19208129E+00
 20
-8.55315605E-01
  0
SEQEND
  8
0
  0
ENDBLK
  8
0
  0
ENDSEC
  0
SECTION
  2
ENTITIES
  0
LINE
  8
0
  6
PHANTOM
 10
-1.28667925E+01
 20
8.59577078E+00
 11
-1.28667925E+01
 21
5.63939526E+01
  0
ARC
  8
0
 62
7
 10
7.77939183E+00
 20
2.00954295E+01
 40
2.99592219E+00
 50
2.03396551E+02
 51
5.65722887E+01
  0
CIRCLE
  8
0
 62
4
 10
1.27979878E+00
 20
2.05957708E+01
 40
3.14999962E+00
  0
CIRCLE
  8
0
 62
4
 10
-2.47202012E+01
 20
3.55957708E+01
 40
3.14999962E+00
  0
ARC
  8
0
 62
7
 10
7.78038591E+00
 20
2.00964708E+01
 40
3.00067491E+00
 50
1.23600894E+02
 51
1.56442028E+02
  0
CIRCLE
  8
0
 62
7
 10
7.77979878E+00
 20
2.00957708E+01
 40
1.75000000E+00
  0
CIRCLE
  8
0
 62
7
 10
7.77979878E+00
 20
3.60957708E+01
 40
3.00000000E+00
  0
CIRCLE
  8
0
 62
7
 10
7.77979878E+00
 20
3.60957708E+01
 40
1.75000000E+00
  0
LINE
  8
0
 62
7
 10
5.02979878E+00
 20
1.60957708E+01
 11
6.17797988E+01
 21
1.60957708E+01
  0
LINE
  8
0
 62
7
 10
-2.09702012E+01
 20
4.00957708E+01
 11
6.17797988E+01
 21
4.00957708E+01
  0
LINE
  8
0
 62
4
 10
-1.09702012E+01
 20
2.25957708E+01
 11
-1.09702012E+01
 21
2.65957708E+01
  0
LINE
  8
0
 62
4
 10
-1.59702012E+01
 20
3.00957708E+01
 11
-1.50726322E+01
 21
3.00957708E+01
  0
LINE
  8
0
 62
4
 10
-1.59702012E+01
 20
3.30957708E+01
 11
-1.33405814E+01
 21
3.30957708E+01
  0
LINE
  8
0
 62
4
 10
4.27979878E+00
 20
2.15557708E+01
 11
4.27979878E+00
 21
2.65957708E+01
  0
LINE
  8
0
 62
4
 10
2.89979878E+00
 20
1.78957708E+01
 11
4.27979878E+00
 21
1.78957708E+01
  0
LINE
  8
0
 62
4
 10
-1.72020122E+00
 20
2.15557708E+01
 11
-1.72020122E+00
 21
2.65957708E+01
  0
LINE
  8
0
 62
4
 10
-2.47020122E+00
 20
2.73957708E+01
 11
5.02979878E+00
 21
2.73957708E+01
  0
LINE
  8
0
 62
4
 10
2.77979878E+00
 20
1.73957708E+01
 11
2.77979878E+00
 21
1.78257708E+01
  0
LINE
  8
0
 62
4
 10
-2.20201216E-01
 20
1.73957708E+01
 11
-2.20201216E-01
 21
1.78257708E+01
  0
LINE
  8
0
 62
4
 10
-2.20201216E-01
 20
1.73957708E+01
 11
2.77979878E+00
 21
1.73957708E+01
  0
LINE
  8
0
 62
4
 10
-1.72020122E+00
 20
1.78957708E+01
 11
-3.50201216E-01
 21
1.78957708E+01
  0
LINE
  8
0
 62
4
 10
-1.72020122E+00
 20
2.65957708E+01
 11
4.27979878E+00
 21
2.65957708E+01
  0
LINE
  8
0
 62
4
 10
-2.47020122E+00
 20
1.65957708E+01
 11
5.02979878E+00
 21
1.65957708E+01
  0
LINE
  8
0
 62
4
 10
-2.47020122E+00
 20
1.50957708E+01
 11
5.02979878E+00
 21
1.50957708E+01
  0
LINE
  8
0
 62
4
 10
5.02979878E+00
 20
2.25957708E+01
 11
1.00297988E+01
 21
2.25957708E+01
  0
LINE
  8
0
 62
4
 10
5.02979878E+00
 20
2.65957708E+01
 11
1.00297988E+01
 21
2.65957708E+01
  0
LINE
  8
0
 62
4
 10
4.27979878E+00
 20
1.78957708E+01
 11
4.27979878E+00
 21
1.96357708E+01
  0
LINE
  8
0
 62
4
 10
-1.72020122E+00
 20
1.78957708E+01
 11
-1.72020122E+00
 21
1.96357708E+01
  0
LINE
  8
0
 62
4
 10
-2.47020122E+00
 20
1.50957708E+01
 11
-2.47020122E+00
 21
2.73957708E+01
  0
LINE
  8
0
 62
4
 10
5.02979878E+00
 20
1.50957708E+01
 11
5.02979878E+00
 21
2.73957708E+01
  0
LINE
  8
0
 62
4
 10
1.00297988E+01
 20
2.60957708E+01
 11
1.66872204E+01
 21
2.60957708E+01
  0
LINE
  8
0
 62
4
 10
1.00297988E+01
 20
2.30957708E+01
 11
1.49551696E+01
 21
2.30957708E+01
  0
LINE
  8
0
 62
4
 10
1.00297988E+01
 20
2.25957708E+01
 11
1.00297988E+01
 21
2.65957708E+01
  0
LINE
  8
0
 62
4
 10
-1.19702012E+01
 20
2.25957708E+01
 11
-1.19702012E+01
 21
2.65957708E+01
  0
LINE
  8
0
 62
4
 10
-1.19702012E+01
 20
2.65957708E+01
 11
-2.47020122E+00
 21
2.65957708E+01
  0
LINE
  8
0
 62
4
 10
-1.19702012E+01
 20
2.25957708E+01
 11
-2.47020122E+00
 21
2.25957708E+01
  0
LINE
  8
0
 62
4
 10
-2.17202012E+01
 20
3.46357708E+01
 11
-2.17202012E+01
 21
2.95957708E+01
  0
LINE
  8
0
 62
4
 10
-2.31002012E+01
 20
3.82957708E+01
 11
-2.17202012E+01
 21
3.82957708E+01
  0
LINE
  8
0
 62
4
 10
-2.77202012E+01
 20
3.46357708E+01
 11
-2.77202012E+01
 21
2.95957708E+01
  0
LINE
  8
0
 62
4
 10
-2.84702012E+01
 20
2.87957708E+01
 11
-2.09702012E+01
 21
2.87957708E+01
  0
LINE
  8
0
 62
4
 10
-2.32202012E+01
 20
3.87957708E+01
 11
-2.32202012E+01
 21
3.83657708E+01
  0
LINE
  8
0
 62
4
 10
-2.62202012E+01
 20
3.87957708E+01
 11
-2.62202012E+01
 21
3.83657708E+01
  0
LINE
  8
0
 62
4
 10
-2.62202012E+01
 20
3.87957708E+01
 11
-2.32202012E+01
 21
3.87957708E+01
  0
LINE
  8
0
 62
4
 10
-2.77202012E+01
 20
3.82957708E+01
 11
-2.63502012E+01
 21
3.82957708E+01
  0
LINE
  8
0
 62
4
 10
-2.77202012E+01
 20
2.95957708E+01
 11
-2.17202012E+01
 21
2.95957708E+01
  0
LINE
  8
0
 62
4
 10
-2.84702012E+01
 20
3.95957708E+01
 11
-2.09702012E+01
 21
3.95957708E+01
  0
LINE
  8
0
 62
4
 10
-2.84702012E+01
 20
4.10957708E+01
 11
-2.09702012E+01
 21
4.10957708E+01
  0
LINE
  8
0
 62
4
 10
-2.09702012E+01
 20
3.35957708E+01
 11
-1.59702012E+01
 21
3.35957708E+01
  0
LINE
  8
0
 62
4
 10
-2.09702012E+01
 20
2.95957708E+01
 11
-1.59702012E+01
 21
2.95957708E+01
  0
LINE
  8
0
 62
4
 10
-2.17202012E+01
 20
3.82957708E+01
 11
-2.17202012E+01
 21
3.65557708E+01
  0
LINE
  8
0
 62
4
 10
-2.77202012E+01
 20
3.82957708E+01
 11
-2.77202012E+01
 21
3.65557708E+01
  0
LINE
  8
0
 62
4
 10
-2.84702012E+01
 20
4.10957708E+01
 11
-2.84702012E+01
 21
2.87957708E+01
  0
LINE
  8
0
 62
4
 10
-2.09702012E+01
 20
4.10957708E+01
 11
-2.09702012E+01
 21
2.87957708E+01
  0
LINE
  8
0
 62
4
 10
-1.59702012E+01
 20
3.35957708E+01
 11
-1.59702012E+01
 21
2.95957708E+01
  0
LINE
  8
0
  6
CENTER
 62
2
 10
7.77979878E+00
 20
1.55957708E+01
 11
7.77979878E+00
 21
2.45957708E+01
  0
LINE
  8
0
  6
CENTER
 62
2
 10
3.27979878E+00
 20
2.00957708E+01
 11
1.22797988E+01
 21
2.00957708E+01
  0
LINE
  8
0
  6
CENTER
 62
2
 10
7.77979878E+00
 20
4.05957708E+01
 11
7.77979878E+00
 21
3.15957708E+01
  0
LINE
  8
0
  6
CENTER
 62
2
 10
3.27979878E+00
 20
3.60957708E+01
 11
1.22797988E+01
 21
3.60957708E+01
  0
LINE
  8
0
 62
7
 10
6.17797988E+01
 20
4.00957708E+01
 11
6.17797988E+01
 21
1.60957708E+01
  0
LINE
  8
0
 62
4
 10
2.19138612E-01
 20
1.95351106E+01
 11
2.34045896E+00
 21
2.16564310E+01
  0
LINE
  8
0
 62
4
 10
-2.57808614E+01
 20
3.45351106E+01
 11
-2.36595410E+01
 21
3.66564310E+01
  0
LINE
  8
0
 62
4
 10
-2.57808614E+01
 20
3.66564310E+01
 11
-2.36595410E+01
 21
3.45351106E+01
  0
LINE
  8
0
 62
4
 10
2.19138612E-01
 20
2.16564310E+01
 11
2.34045896E+00
 21
1.95351106E+01
  0
LINE
  8
0
 62
6
 10
-1.50726322E+01
 20
3.00957708E+01
 11
-1.33405814E+01
 21
3.30957708E+01
  0
LINE
  8
0
 62
6
 10
1.49551696E+01
 20
2.30957708E+01
 11
1.66872204E+01
 21
2.60957708E+01
  0
LINE
  8
0
  6
CENTER
 62
2
 10
-6.72202012E+01
 20
2.80957708E+01
 11
6.47797988E+01
 21
2.80957708E+01
  0
LINE
  8
0
 62
7
 10
-4.12202012E+01
 20
4.00957708E+01
 11
-2.84702012E+01
 21
4.00957708E+01
  0
LINE
  8
0
 62
7
 10
-4.12202012E+01
 20
1.60957708E+01
 11
-2.47020122E+00
 21
1.60957708E+01
  0
LINE
  8
0
 62
4
 10
-3.79702012E+01
 20
3.35957708E+01
 11
-2.84702012E+01
 21
3.35957708E+01
  0
LINE
  8
0
 62
4
 10
-3.79702012E+01
 20
2.95957708E+01
 11
-2.84702012E+01
 21
2.95957708E+01
  0
LINE
  8
0
 62
7
 10
-4.12202012E+01
 20
4.00957708E+01
 11
-4.12202012E+01
 21
1.60957708E+01
  0
LINE
  8
0
 62
7
 10
-4.87202012E+01
 20
3.65957708E+01
 11
-4.27202012E+01
 21
3.65957708E+01
  0
LINE
  8
0
 62
7
 10
-4.87202012E+01
 20
1.65957708E+01
 11
-4.27202012E+01
 21
1.65957708E+01
  0
LINE
  8
0
 62
7
 10
-4.87202012E+01
 20
3.65957708E+01
 11
-4.87202012E+01
 21
1.65957708E+01
  0
LINE
  8
0
 62
7
 10
-4.27202012E+01
 20
3.65957708E+01
 11
-4.27202012E+01
 21
1.65957708E+01
  0
LINE
  8
0
 62
7
 10
-3.52202012E+01
 20
4.00957708E+01
 11
-3.52202012E+01
 21
3.35957708E+01
  0
LINE
  8
0
 62
7
 10
-3.80202012E+01
 20
2.25957708E+01
 11
-3.80202012E+01
 21
1.60957708E+01
  0
LINE
  8
0
 62
7
 10
-4.12202012E+01
 20
2.25957708E+01
 11
-3.80202012E+01
 21
2.25957708E+01
  0
LINE
  8
0
 62
7
 10
-4.10202012E+01
 20
2.18457708E+01
 11
-3.80202012E+01
 21
2.18457708E+01
  0
LINE
  8
0
 62
7
 10
-4.10202012E+01
 20
2.18457708E+01
 11
-4.10202012E+01
 21
1.63457708E+01
  0
LINE
  8
0
 62
7
 10
-4.10202012E+01
 20
1.63457708E+01
 11
-3.80202012E+01
 21
1.63457708E+01
  0
LINE
  8
0
 62
7
 10
-4.27202012E+01
 20
2.05957708E+01
 11
-4.12202012E+01
 21
2.05957708E+01
  0
LINE
  8
0
 62
7
 10
-4.27202012E+01
 20
1.75957708E+01
 11
-4.12202012E+01
 21
1.75957708E+01
  0
LINE
  8
0
 62
4
 10
-5.27202012E+01
 20
3.00957708E+01
 11
-5.27202012E+01
 21
2.60957708E+01
  0
LINE
  8
0
 62
4
 10
-5.22202012E+01
 20
2.95957708E+01
 11
-4.87202012E+01
 21
2.95957708E+01
  0
LINE
  8
0
 62
4
 10
-5.22202012E+01
 20
2.65957708E+01
 11
-4.87202012E+01
 21
2.65957708E+01
  0
LINE
  8
0
 62
4
 10
-5.22202012E+01
 20
2.55957708E+01
 11
-4.87202012E+01
 21
2.55957708E+01
  0
LINE
  8
0
 62
4
 10
-5.22202012E+01
 20
3.05957708E+01
 11
-4.87202012E+01
 21
3.05957708E+01
  0
LINE
  8
0
 62
4
 10
-5.27202012E+01
 20
3.00957708E+01
 11
-5.22202012E+01
 21
3.05957708E+01
  0
LINE
  8
0
 62
4
 10
-5.27202012E+01
 20
2.60957708E+01
 11
-5.22202012E+01
 21
2.55957708E+01
  0
LINE
  8
0
 62
4
 10
-5.22202012E+01
 20
3.05957708E+01
 11
-5.22202012E+01
 21
2.95957708E+01
  0
LINE
  8
0
 62
4
 10
-5.22202012E+01
 20
2.65957708E+01
 11
-5.22202012E+01
 21
2.55957708E+01
  0
LINE
  8
0
 62
7
 10
-4.27202012E+01
 20
3.05957708E+01
 11
-4.22202012E+01
 21
3.05957708E+01
  0
LINE
  8
0
 62
7
 10
-4.27202012E+01
 20
2.55957708E+01
 11
-4.22202012E+01
 21
2.55957708E+01
  0
LINE
  8
0
 62
6
 10
-5.22202012E+01
 20
2.95957708E+01
 11
-4.87202012E+01
 21
2.65957708E+01
  0
LINE
  8
0
 62
6
 10
-5.22202012E+01
 20
2.65957708E+01
 11
-4.87202012E+01
 21
2.95957708E+01
  0
LINE
  8
0
 62
4
 10
-6.42202012E+01
 20
2.95957708E+01
 11
-6.42202012E+01
 21
2.65957708E+01
  0
LINE
  8
0
 62
4
 10
-5.42202012E+01
 20
3.00957708E+01
 11
-5.42202012E+01
 21
2.60957708E+01
  0
LINE
  8
0
 62
4
 10
-6.37202012E+01
 20
2.60957708E+01
 11
-5.96202012E+01
 21
2.60957708E+01
  0
LINE
  8
0
 62
4
 10
-6.37202012E+01
 20
3.00957708E+01
 11
-5.96202012E+01
 21
3.00957708E+01
  0
LINE
  8
0
 62
4
 10
-6.42202012E+01
 20
2.95957708E+01
 11
-6.37202012E+01
 21
3.00957708E+01
  0
LINE
  8
0
 62
4
 10
-6.42202012E+01
 20
2.65957708E+01
 11
-6.37202012E+01
 21
2.60957708E+01
  0
LINE
  8
0
 62
4
 10
-6.37202012E+01
 20
3.00957708E+01
 11
-6.37202012E+01
 21
2.60957708E+01
  0
LINE
  8
0
 62
6
 10
-6.40702012E+01
 20
2.97457708E+01
 11
-5.96202012E+01
 21
2.97457708E+01
  0
LINE
  8
0
 62
6
 10
-6.40702012E+01
 20
2.64457708E+01
 11
-5.96202012E+01
 21
2.64457708E+01
  0
LINE
  8
0
 62
6
 10
-5.42202012E+01
 20
2.97457708E+01
 11
-5.36202012E+01
 21
3.00957708E+01
  0
LINE
  8
0
 62
6
 10
-5.42202012E+01
 20
2.64457708E+01
 11
-5.36202012E+01
 21
2.60957708E+01
  0
LINE
  8
0
 62
4
 10
-5.52202012E+01
 20
3.00957708E+01
 11
-5.27202012E+01
 21
3.00957708E+01
  0
LINE
  8
0
 62
6
 10
-5.52202012E+01
 20
2.97457708E+01
 11
-5.42202012E+01
 21
2.97457708E+01
  0
LINE
  8
0
 62
6
 10
-5.52202012E+01
 20
2.64457708E+01
 11
-5.42202012E+01
 21
2.64457708E+01
  0
LINE
  8
0
 62
4
 10
-5.52202012E+01
 20
2.60957708E+01
 11
-5.27202012E+01
 21
2.60957708E+01
  0
LINE
  8
0
 62
4
 10
-5.92702012E+01
 20
3.30957708E+01
 11
-5.92702012E+01
 21
2.30957708E+01
  0
LINE
  8
0
 62
4
 10
-5.79702012E+01
 20
3.30957708E+01
 11
-5.79702012E+01
 21
2.30957708E+01
  0
LINE
  8
0
 62
4
 10
-5.92702012E+01
 20
3.30957708E+01
 11
-5.79702012E+01
 21
3.30957708E+01
  0
LINE
  8
0
 62
4
 10
-5.92702012E+01
 20
2.30957708E+01
 11
-5.79702012E+01
 21
2.30957708E+01
  0
LINE
  8
0
 62
4
 10
-5.73102012E+01
 20
3.21457708E+01
 11
-5.55402012E+01
 21
3.21457708E+01
  0
LINE
  8
0
 62
4
 10
-5.76202012E+01
 20
3.15957708E+01
 11
-5.73102012E+01
 21
3.21457708E+01
  0
LINE
  8
0
 62
4
 10
-5.76202012E+01
 20
3.15957708E+01
 11
-5.76202012E+01
 21
2.45957708E+01
  0
LINE
  8
0
 62
4
 10
-5.73102012E+01
 20
3.01257708E+01
 11
-5.55402012E+01
 21
3.01257708E+01
  0
LINE
  8
0
 62
4
 10
-5.73102012E+01
 20
2.60757708E+01
 11
-5.55402012E+01
 21
2.60757708E+01
  0
LINE
  8
0
 62
4
 10
-5.73102012E+01
 20
2.40557708E+01
 11
-5.55402012E+01
 21
2.40557708E+01
  0
LINE
  8
0
 62
4
 10
-5.76202012E+01
 20
2.45957708E+01
 11
-5.73102012E+01
 21
2.40557708E+01
  0
LINE
  8
0
 62
4
 10
-5.52202012E+01
 20
2.45957708E+01
 11
-5.55402012E+01
 21
2.40557708E+01
  0
LINE
  8
0
 62
4
 10
-5.52202012E+01
 20
3.15957708E+01
 11
-5.55402012E+01
 21
3.21457708E+01
  0
LINE
  8
0
 62
4
 10
-5.52202012E+01
 20
3.15957708E+01
 11
-5.52202012E+01
 21
2.45957708E+01
  0
LINE
  8
0
 62
7
 10
-4.19202012E+01
 20
3.20957708E+01
 11
-4.22202012E+01
 21
3.20157708E+01
  0
LINE
  8
0
 62
7
 10
-4.19202012E+01
 20
2.40957708E+01
 11
-4.22202012E+01
 21
2.41757708E+01
  0
LINE
  8
0
 62
7
 10
-4.22202012E+01
 20
3.20157708E+01
 11
-4.22202012E+01
 21
2.41757708E+01
  0
LINE
  8
0
 62
7
 10
-4.19202012E+01
 20
2.40957708E+01
 11
-4.12202012E+01
 21
2.40957708E+01
  0
LINE
  8
0
 62
7
 10
-4.19202012E+01
 20
3.20957708E+01
 11
-4.12202012E+01
 21
3.20957708E+01
  0
LINE
  8
0
 62
4
 10
-3.79702012E+01
 20
3.35957708E+01
 11
-3.79702012E+01
 21
2.95957708E+01
  0
LINE
  8
0
 62
4
 10
-3.69702012E+01
 20
3.35957708E+01
 11
-3.69702012E+01
 21
2.95957708E+01
  0
LINE
  8
0
 62
7
 10
-3.52202012E+01
 20
2.95957708E+01
 11
-3.52202012E+01
 21
1.60957708E+01
  0
LINE
  8
0
  6
DASHED
 62
6
 10
-6.42202012E+01
 20
2.88457708E+01
 11
-5.92702012E+01
 21
2.88457708E+01
  0
LINE
  8
0
  6
DASHED
 62
6
 10
-6.42202012E+01
 20
2.73457708E+01
 11
-5.92702012E+01
 21
2.73457708E+01
  0
ARC
  8
0
 62
4
 10
-5.02202012E+01
 20
2.80957708E+01
 40
2.50000000E+00
 50
1.43130102E+02
 51
2.16869898E+02
  0
ARC
  8
0
 62
4
 10
-5.58319451E+01
 20
3.11375437E+01
 40
1.79134747E+00
 50
1.54605128E+02
 51
2.14389176E+02
  0
ARC
  8
0
 62
4
 10
-5.09328154E+01
 20
2.81007708E+01
 40
6.69116394E+00
 50
1.62383888E+02
 51
1.97616113E+02
  0
ARC
  8
0
 62
4
 10
-5.58311915E+01
 20
2.50639386E+01
 40
1.79200287E+00
 50
1.45622870E+02
 51
2.05382827E+02
  0
ARC
  8
0
 62
4
 10
-5.70092814E+01
 20
2.50647195E+01
 40
1.78337355E+00
 50
3.34457754E+02
 51
3.45365496E+01
  0
ARC
  8
0
 62
4
 10
-6.19076114E+01
 20
2.81007708E+01
 40
6.68165683E+00
 50
3.42357999E+02
 51
1.76420005E+01
  0
ARC
  8
0
 62
4
 10
-5.70085241E+01
 20
3.11367625E+01
 40
1.78271600E+00
 50
3.25451229E+02
 51
2.55544679E+01
  0
LINE
  8
0
 62
4
 10
-5.76202012E+01
 20
3.12457708E+01
 11
-5.76202012E+01
 21
2.49457708E+01
  0
LINE
  8
0
 62
4
 10
-5.79702012E+01
 20
3.15957708E+01
 11
-5.79702012E+01
 21
2.45957708E+01
  0
ARC
  8
0
 62
4
 10
-5.79702014E+01
 20
3.12457706E+01
 40
3.50000191E-01
 50
3.12237134E-05
 51
8.99999687E+01
  0
ARC
  8
0
 62
4
 10
-5.79702014E+01
 20
2.49457710E+01
 40
3.50000191E-01
 50
2.70000031E+02
 51
3.59999969E+02
  0
LINE
  8
0
 62
4
 10
-5.96202043E+01
 20
3.12457708E+01
 11
-5.96202043E+01
 21
2.49457708E+01
  0
LINE
  8
0
 62
4
 10
-5.92702043E+01
 20
3.15957708E+01
 11
-5.92702043E+01
 21
2.45957708E+01
  0
ARC
  8
0
 62
4
 10
-5.92702041E+01
 20
3.12457706E+01
 40
3.50000191E-01
 50
9.00000311E+01
 51
1.79999969E+02
  0
ARC
  8
0
 62
4
 10
-5.92702041E+01
 20
2.49457710E+01
 40
3.50000191E-01
 50
1.80000031E+02
 51
2.69999969E+02
  0
LINE
  8
0
  6
PHANTOM
 10
2.71332075E+01
 20
8.59577078E+00
 11
2.71332075E+01
 21
5.63939526E+01
  0
LINE
  8
0
  6
CENTER
 62
2
 10
-1.29220201E+02
 20
2.80957708E+01
 11
-1.09220201E+02
 21
2.80957708E+01
  0
LINE
  8
0
 62
7
 10
-1.12220201E+02
 20
4.00957708E+01
 11
-1.12220201E+02
 21
1.60957708E+01
  0
LINE
  8
0
 62
7
 10
-1.26220201E+02
 20
4.00957708E+01
 11
-1.26220201E+02
 21
1.60957708E+01
  0
LINE
  8
0
 62
7
 10
-1.26220201E+02
 20
4.00957708E+01
 11
-1.12220201E+02
 21
4.00957708E+01
  0
LINE
  8
0
 62
7
 10
-1.26220201E+02
 20
1.60957708E+01
 11
-1.12220201E+02
 21
1.60957708E+01
  0
LINE
  8
0
 62
7
 10
-1.12720201E+02
 20
3.65957708E+01
 11
-1.12720201E+02
 21
1.65957708E+01
  0
LINE
  8
0
 62
7
 10
-1.25720201E+02
 20
3.65957708E+01
 11
-1.25720201E+02
 21
1.65957708E+01
  0
LINE
  8
0
 62
7
 10
-1.25720201E+02
 20
1.65957708E+01
 11
-1.12720201E+02
 21
1.65957708E+01
  0
LINE
  8
0
  6
CENTER
 62
2
 10
-1.25720201E+02
 20
1.90957708E+01
 11
-1.20720201E+02
 21
1.90957708E+01
  0
LINE
  8
0
  6
CENTER
 62
2
 10
-1.23220201E+02
 20
2.15957708E+01
 11
-1.23220201E+02
 21
1.65957708E+01
  0
LINE
  8
0
 62
7
 10
-1.25720201E+02
 20
3.65957708E+01
 11
-1.12720201E+02
 21
3.65957708E+01
  0
LINE
  8
0
 62
7
 10
-1.18720201E+02
 20
1.60957708E+01
 11
-1.18720201E+02
 21
1.65957708E+01
  0
LINE
  8
0
 62
7
 10
-1.12220201E+02
 20
2.25957708E+01
 11
-1.12720201E+02
 21
2.25957708E+01
  0
LINE
  8
0
 62
7
 10
-1.26220201E+02
 20
3.35957708E+01
 11
-1.25720201E+02
 21
3.35957708E+01
  0
LINE
  8
0
 62
7
 10
-1.19720201E+02
 20
4.00957708E+01
 11
-1.19720201E+02
 21
3.70957708E+01
  0
LINE
  8
0
 62
7
 10
-1.24470201E+02
 20
3.78257708E+01
 11
-1.24470201E+02
 21
3.65957708E+01
  0
LINE
  8
0
 62
7
 10
-1.21970201E+02
 20
3.78257708E+01
 11
-1.21970201E+02
 21
3.65957708E+01
  0
LINE
  8
0
 62
7
 10
-1.24470201E+02
 20
3.78257708E+01
 11
-1.23220201E+02
 21
3.85457708E+01
  0
LINE
  8
0
 62
7
 10
-1.23220201E+02
 20
3.85457708E+01
 11
-1.21970201E+02
 21
3.78257708E+01
  0
LINE
  8
0
  6
CENTER
 62
2
 10
-1.23220201E+02
 20
4.15957708E+01
 11
-1.23220201E+02
 21
3.45957708E+01
  0
LINE
  8
0
  6
CENTER
 62
2
 10
-1.27720201E+02
 20
3.70957708E+01
 11
-1.18720201E+02
 21
3.70957708E+01
  0
LINE
  8
0
 62
4
 10
-1.14220201E+02
 20
4.10957708E+01
 11
-1.14220201E+02
 21
4.00957708E+01
  0
LINE
  8
0
 62
4
 10
-1.06720201E+02
 20
3.95957708E+01
 11
-1.06720201E+02
 21
2.87957708E+01
  0
LINE
  8
0
 62
4
 10
-1.14220201E+02
 20
4.10957708E+01
 11
-1.10840201E+02
 21
4.10957708E+01
  0
LINE
  8
0
 62
4
 10
-1.06720201E+02
 20
3.95957708E+01
 11
-1.10840201E+02
 21
4.10957708E+01
  0
LINE
  8
0
 62
4
 10
-1.11720201E+02
 20
2.87957708E+01
 11
-1.06720201E+02
 21
2.87957708E+01
  0
LINE
  8
0
 62
4
 10
-1.11720201E+02
 20
2.95957708E+01
 11
-1.11720201E+02
 21
2.87957708E+01
  0
LINE
  8
0
 62
4
 10
-1.12220201E+02
 20
3.35957708E+01
 11
-1.08220201E+02
 21
3.35957708E+01
  0
LINE
  8
0
 62
4
 10
-1.12220201E+02
 20
2.95957708E+01
 11
-1.08220201E+02
 21
2.95957708E+01
  0
LINE
  8
0
 62
4
 10
-1.08220201E+02
 20
3.35957708E+01
 11
-1.08220201E+02
 21
2.95957708E+01
  0
LINE
  8
0
 62
6
 10
-1.08220201E+02
 20
3.35957708E+01
 11
-1.12220201E+02
 21
2.95957708E+01
  0
LINE
  8
0
 62
6
 10
-1.12220201E+02
 20
3.35957708E+01
 11
-1.08220201E+02
 21
2.95957708E+01
  0
LINE
  8
0
 62
4
 10
-1.14220201E+02
 20
1.50957708E+01
 11
-1.14220201E+02
 21
1.60957708E+01
  0
LINE
  8
0
 62
4
 10
-1.06720201E+02
 20
1.65957708E+01
 11
-1.06720201E+02
 21
2.73957708E+01
  0
LINE
  8
0
 62
4
 10
-1.14220201E+02
 20
1.50957708E+01
 11
-1.10840201E+02
 21
1.50957708E+01
  0
LINE
  8
0
 62
4
 10
-1.06720201E+02
 20
1.65957708E+01
 11
-1.10840201E+02
 21
1.50957708E+01
  0
LINE
  8
0
 62
4
 10
-1.11720201E+02
 20
2.73957708E+01
 11
-1.06720201E+02
 21
2.73957708E+01
  0
LINE
  8
0
 62
4
 10
-1.11720201E+02
 20
2.65957708E+01
 11
-1.11720201E+02
 21
2.73957708E+01
  0
LINE
  8
0
 62
4
 10
-1.12220201E+02
 20
2.25957708E+01
 11
-1.08220201E+02
 21
2.25957708E+01
  0
LINE
  8
0
 62
4
 10
-1.12220201E+02
 20
2.65957708E+01
 11
-1.08220201E+02
 21
2.65957708E+01
  0
LINE
  8
0
 62
4
 10
-1.08220201E+02
 20
2.25957708E+01
 11
-1.08220201E+02
 21
2.65957708E+01
  0
LINE
  8
0
 62
6
 10
-1.08220201E+02
 20
2.25957708E+01
 11
-1.12220201E+02
 21
2.65957708E+01
  0
LINE
  8
0
 62
6
 10
-1.12220201E+02
 20
2.25957708E+01
 11
-1.08220201E+02
 21
2.65957708E+01
  0
LINE
  8
0
 62
4
 10
-1.06160201E+02
 20
3.24457708E+01
 11
-1.06720201E+02
 21
3.24457708E+01
  0
LINE
  8
0
 62
4
 10
-1.06160201E+02
 20
3.87457708E+01
 11
-1.06720201E+02
 21
3.87457708E+01
  0
LINE
  8
0
 62
4
 10
-1.06160201E+02
 20
1.74457708E+01
 11
-1.06720201E+02
 21
1.74457708E+01
  0
LINE
  8
0
 62
4
 10
-1.06160201E+02
 20
2.37457708E+01
 11
-1.06720201E+02
 21
2.37457708E+01
  0
CIRCLE
  8
0
 62
7
 10
-1.23220201E+02
 20
1.90957708E+01
 40
1.50000000E+00
  0
CIRCLE
  8
0
 62
4
 10
-1.19220201E+02
 20
2.80957708E+01
 40
2.00000000E+00
  0
CIRCLE
  8
0
 62
6
 10
-1.19220201E+02
 20
2.80957708E+01
 40
1.64999962E+00
  0
CIRCLE
  8
0
 62
4
 10
-1.19220201E+02
 20
2.80957708E+01
 40
1.00000000E+00
  0
CIRCLE
  8
0
 62
4
 10
-1.19220201E+02
 20
2.80957708E+01
 40
5.00000000E+00
  0
ARC
  8
0
 62
7
 10
-1.23222883E+02
 20
3.70550317E+01
 40
3.50291899E+00
 50
3.52466372E+02
 51
6.66367013E-01
  0
ARC
  8
0
 62
7
 10
-1.23215994E+02
 20
3.70962886E+01
 40
2.75169650E+00
 50
3.49519886E+02
 51
2.04486451E+02
  0
ARC
  8
0
 62
7
 10
-1.23215201E+02
 20
3.70957719E+01
 40
2.40749373E+00
 50
3.48013260E+02
 51
1.91986740E+02
  0
ARC
  8
0
 62
7
 10
-1.15215201E+02
 20
1.90957902E+01
 40
2.74974944E+00
 50
2.45392389E+02
 51
2.94607611E+02
  0
ARC
  8
0
 62
7
 10
-1.15220205E+02
 20
1.91007708E+01
 40
2.74973554E+00
 50
3.35392256E+02
 51
2.46077441E+01
  0
ARC
  8
0
 62
4
 10
-1.09720203E+02
 20
3.56007708E+01
 40
5.00182385E+00
 50
3.25054915E+02
 51
3.49450853E+01
  0
ARC
  8
0
 62
4
 10
-1.06170058E+02
 20
3.31118827E+01
 40
6.66184865E-01
 50
2.70847740E+02
 51
3.25627151E+02
  0
ARC
  8
0
 62
4
 10
-1.06164511E+02
 20
3.80767451E+01
 40
6.69039514E-01
 50
3.55539199E+01
 51
8.96309294E+01
  0
ARC
  8
0
 62
4
 10
-1.09720203E+02
 20
2.06007708E+01
 40
5.00182385E+00
 50
3.25054915E+02
 51
3.49450853E+01
  0
ARC
  8
0
 62
4
 10
-1.06170062E+02
 20
1.81118916E+01
 40
6.66193824E-01
 50
2.70848139E+02
 51
3.25626752E+02
  0
ARC
  8
0
 62
4
 10
-1.06164509E+02
 20
2.30767481E+01
 40
6.69036508E-01
 50
3.55537885E+01
 51
8.96310606E+01
  0
CIRCLE
  8
0
 62
4
 10
-1.19220201E+02
 20
2.80957708E+01
 40
3.50000000E+00
  0
CIRCLE
  8
0
 62
4
 10
-1.19220201E+02
 20
2.80957708E+01
 40
2.00000000E+00
  0
LINE
  8
0
  6
CENTER
 62
2
 10
-1.19220201E+02
 20
4.30957708E+01
 11
-1.19220201E+02
 21
1.30957708E+01
  0
LINE
  8
0
  6
CENTER
 62
2
 10
1.15779799E+02
 20
4.30957708E+01
 11
1.15779799E+02
 21
1.30957708E+01
  0
LINE
  8
0
 62
7
 10
1.08779799E+02
 20
4.00957708E+01
 11
1.08779799E+02
 21
1.60957708E+01
  0
LINE
  8
0
 62
7
 10
1.08779799E+02
 20
1.60957708E+01
 11
1.22779799E+02
 21
1.60957708E+01
  0
LINE
  8
0
 62
7
 10
1.10779799E+02
 20
4.10957708E+01
 11
1.10779799E+02
 21
4.00957708E+01
  0
LINE
  8
0
 62
7
 10
1.03279799E+02
 20
3.95957708E+01
 11
1.03279799E+02
 21
2.87957708E+01
  0
LINE
  8
0
 62
7
 10
1.10779799E+02
 20
4.10957708E+01
 11
1.07399799E+02
 21
4.10957708E+01
  0
LINE
  8
0
 62
7
 10
1.03279799E+02
 20
3.95957708E+01
 11
1.07399799E+02
 21
4.10957708E+01
  0
LINE
  8
0
 62
7
 10
1.08279799E+02
 20
2.87957708E+01
 11
1.03279799E+02
 21
2.87957708E+01
  0
LINE
  8
0
 62
7
 10
1.08279799E+02
 20
2.95957708E+01
 11
1.08279799E+02
 21
2.87957708E+01
  0
LINE
  8
0
 62
7
 10
1.08779799E+02
 20
3.35957708E+01
 11
1.04779799E+02
 21
3.35957708E+01
  0
LINE
  8
0
 62
7
 10
1.08779799E+02
 20
2.95957708E+01
 11
1.04779799E+02
 21
2.95957708E+01
  0
LINE
  8
0
 62
7
 10
1.04779799E+02
 20
3.35957708E+01
 11
1.04779799E+02
 21
2.95957708E+01
  0
LINE
  8
0
 62
7
 10
1.03279799E+02
 20
1.65957708E+01
 11
1.03279799E+02
 21
2.73957708E+01
  0
LINE
  8
0
 62
7
 10
1.10779799E+02
 20
1.50957708E+01
 11
1.07399799E+02
 21
1.50957708E+01
  0
LINE
  8
0
 62
7
 10
1.03279799E+02
 20
1.65957708E+01
 11
1.07399799E+02
 21
1.50957708E+01
  0
LINE
  8
0
 62
7
 10
1.08279799E+02
 20
2.73957708E+01
 11
1.03279799E+02
 21
2.73957708E+01
  0
LINE
  8
0
 62
7
 10
1.08279799E+02
 20
2.65957708E+01
 11
1.08279799E+02
 21
2.73957708E+01
  0
LINE
  8
0
 62
7
 10
1.08779799E+02
 20
2.25957708E+01
 11
1.04779799E+02
 21
2.25957708E+01
  0
LINE
  8
0
 62
7
 10
1.08779799E+02
 20
2.65957708E+01
 11
1.04779799E+02
 21
2.65957708E+01
  0
LINE
  8
0
 62
7
 10
1.04779799E+02
 20
2.25957708E+01
 11
1.04779799E+02
 21
2.65957708E+01
  0
LINE
  8
0
 62
7
 10
1.02719799E+02
 20
3.24457708E+01
 11
1.03279799E+02
 21
3.24457708E+01
  0
LINE
  8
0
 62
7
 10
1.02719799E+02
 20
3.87457708E+01
 11
1.03279799E+02
 21
3.87457708E+01
  0
LINE
  8
0
 62
7
 10
1.02719799E+02
 20
1.74457708E+01
 11
1.03279799E+02
 21
1.74457708E+01
  0
LINE
  8
0
 62
7
 10
1.02719799E+02
 20
2.37457708E+01
 11
1.03279799E+02
 21
2.37457708E+01
  0
LINE
  8
0
 62
7
 10
1.10779799E+02
 20
1.50957708E+01
 11
1.10779799E+02
 21
1.60957708E+01
  0
LINE
  8
0
  6
CENTER
 62
2
 10
1.22779799E+02
 20
1.90957708E+01
 11
1.16779799E+02
 21
1.90957708E+01
  0
LINE
  8
0
  6
CENTER
 62
2
 10
1.19779799E+02
 20
1.60957708E+01
 11
1.19779799E+02
 21
2.20957708E+01
  0
LINE
  8
0
  6
CENTER
 62
2
 10
1.08779799E+02
 20
3.70957708E+01
 11
1.14779799E+02
 21
3.70957708E+01
  0
LINE
  8
0
  6
CENTER
 62
2
 10
1.11779799E+02
 20
4.00957708E+01
 11
1.11779799E+02
 21
3.40957708E+01
  0
ARC
  8
0
 62
7
 10
1.02724107E+02
 20
2.30767481E+01
 40
6.69036508E-01
 50
9.03689392E+01
 51
1.44446211E+02
  0
ARC
  8
0
 62
7
 10
1.06279801E+02
 20
2.06007708E+01
 40
5.00182385E+00
 50
1.45054915E+02
 51
2.14945085E+02
  0
ARC
  8
0
 62
7
 10
1.02729660E+02
 20
1.81118916E+01
 40
6.66193824E-01
 50
2.14373248E+02
 51
2.69151861E+02
  0
ARC
  8
0
 62
7
 10
1.02729655E+02
 20
3.31118827E+01
 40
6.66184865E-01
 50
2.14372849E+02
 51
2.69152260E+02
  0
ARC
  8
0
 62
7
 10
1.02724108E+02
 20
3.80767451E+01
 40
6.69039514E-01
 50
9.03690709E+01
 51
1.44446080E+02
  0
ARC
  8
0
 62
7
 10
1.06279801E+02
 20
3.56007708E+01
 40
5.00182385E+00
 50
1.45054915E+02
 51
2.14945085E+02
  0
CIRCLE
  8
0
 62
7
 10
1.06779799E+02
 20
3.15957698E+01
 40
1.50000000E+00
  0
CIRCLE
  8
0
 62
7
 10
1.06779799E+02
 20
2.45957708E+01
 40
1.50000000E+00
  0
CIRCLE
  8
0
 62
2
 10
1.19779799E+02
 20
1.90957708E+01
 40
1.50000000E+00
  0
CIRCLE
  8
0
 62
7
 10
1.19779799E+02
 20
1.90957708E+01
 40
1.25000000E+00
  0
CIRCLE
  8
0
 62
7
 10
1.11779799E+02
 20
3.70957708E+01
 40
1.25000000E+00
  0
CIRCLE
  8
0
 62
2
 10
1.11779799E+02
 20
3.70957708E+01
 40
1.50000000E+00
  0
LINE
  8
0
 62
7
 10
1.08779799E+02
 20
4.00957708E+01
 11
1.22779799E+02
 21
4.00957708E+01
  0
LINE
  8
0
 62
7
 10
1.22779799E+02
 20
4.00957708E+01
 11
1.22779799E+02
 21
1.60957708E+01
  0
LINE
  8
0
  6
CENTER
 62
2
 10
1.05779799E+02
 20
2.80957708E+01
 11
1.25779799E+02
 21
2.80957708E+01
  0
LINE
  8
0
  6
PHANTOM
 10
-1.28667925E+01
 20
4.63939526E+01
 11
-1.28667925E+01
 21
9.69603700E+01
  0
LINE
  8
0
 62
4
 10
-2.47020122E+00
 20
6.97157708E+01
 11
5.02979878E+00
 21
6.97157708E+01
  0
LINE
  8
0
 62
7
 10
-2.09702012E+01
 20
7.10957708E+01
 11
6.17797988E+01
 21
7.10957708E+01
  0
ARC
  8
0
 62
4
 10
-2.22363221E+01
 20
6.50456320E+01
 40
6.66193824E-01
 50
3.04373248E+02
 51
3.59151860E+02
  0
ARC
  8
0
 62
4
 10
-2.72011786E+01
 20
6.50400788E+01
 40
6.69036508E-01
 50
1.80368939E+02
 51
2.34446212E+02
  0
ARC
  8
0
 62
4
 10
-2.47252012E+01
 20
6.85957728E+01
 40
5.00182385E+00
 50
2.35054914E+02
 51
3.04945086E+02
  0
ARC
  8
0
 62
4
 10
3.76367795E+00
 20
6.50456320E+01
 40
6.66193824E-01
 50
3.04373248E+02
 51
3.59151860E+02
  0
ARC
  8
0
 62
4
 10
-1.20117858E+00
 20
6.50400788E+01
 40
6.69036508E-01
 50
1.80368939E+02
 51
2.34446212E+02
  0
ARC
  8
0
 62
4
 10
1.27479878E+00
 20
6.85957728E+01
 40
5.00182385E+00
 50
2.35054914E+02
 51
3.04945086E+02
  0
CIRCLE
  8
0
 62
7
 10
4.17797988E+01
 20
7.80957708E+01
 40
2.09999943E+00
  0
CIRCLE
  8
0
 62
2
 10
4.17797988E+01
 20
7.80957708E+01
 40
2.50000000E+00
  0
CIRCLE
  8
0
 62
7
 10
-2.97202012E+01
 20
7.72957677E+01
 40
2.09999943E+00
  0
CIRCLE
  8
0
 62
7
 10
1.37797988E+01
 20
7.80957708E+01
 40
2.09999943E+00
  0
CIRCLE
  8
0
 62
2
 10
1.37797988E+01
 20
7.80957708E+01
 40
2.50000000E+00
  0
LINE
  8
0
 62
4
 10
-2.15702012E+01
 20
6.50357708E+01
 11
-2.15702012E+01
 21
6.55957708E+01
  0
LINE
  8
0
 62
4
 10
-2.78702012E+01
 20
6.50357708E+01
 11
-2.78702012E+01
 21
6.55957708E+01
  0
LINE
  8
0
 62
4
 10
-2.84702012E+01
 20
6.97157708E+01
 11
-2.09702012E+01
 21
6.97157708E+01
  0
LINE
  8
0
 62
4
 10
-2.84702012E+01
 20
6.55957708E+01
 11
-2.09702012E+01
 21
6.55957708E+01
  0
LINE
  8
0
 62
4
 10
-2.09702012E+01
 20
6.70957708E+01
 11
-1.59702012E+01
 21
6.70957708E+01
  0
LINE
  8
0
 62
4
 10
-2.84702012E+01
 20
7.30957708E+01
 11
-2.09702012E+01
 21
7.30957708E+01
  0
LINE
  8
0
 62
4
 10
-1.59702012E+01
 20
7.10957708E+01
 11
-1.59702012E+01
 21
6.70957708E+01
  0
LINE
  8
0
 62
4
 10
-2.09702012E+01
 20
7.30957708E+01
 11
-2.09702012E+01
 21
6.55957708E+01
  0
LINE
  8
0
 62
4
 10
-2.84702012E+01
 20
7.30957708E+01
 11
-2.84702012E+01
 21
6.55957708E+01
  0
LINE
  8
0
 62
4
 10
-1.59702012E+01
 20
6.75957708E+01
 11
-1.33405814E+01
 21
6.75957708E+01
  0
LINE
  8
0
 62
4
 10
-1.59702012E+01
 20
7.05957708E+01
 11
-1.50726322E+01
 21
7.05957708E+01
  0
LINE
  8
0
 62
4
 10
4.42979878E+00
 20
6.50357708E+01
 11
4.42979878E+00
 21
6.55957708E+01
  0
LINE
  8
0
 62
4
 10
-1.87020122E+00
 20
6.50357708E+01
 11
-1.87020122E+00
 21
6.55957708E+01
  0
LINE
  8
0
 62
4
 10
-2.47020122E+00
 20
6.55957708E+01
 11
5.02979878E+00
 21
6.55957708E+01
  0
LINE
  8
0
 62
4
 10
5.02979878E+00
 20
6.70957708E+01
 11
1.00297988E+01
 21
6.70957708E+01
  0
LINE
  8
0
 62
4
 10
1.00297988E+01
 20
6.70957708E+01
 11
1.00297988E+01
 21
7.10957708E+01
  0
LINE
  8
0
 62
4
 10
5.02979878E+00
 20
6.55957708E+01
 11
5.02979878E+00
 21
7.10957708E+01
  0
LINE
  8
0
 62
4
 10
-2.47020122E+00
 20
7.10957708E+01
 11
-2.47020122E+00
 21
6.55957708E+01
  0
LINE
  8
0
  6
CENTER
 62
2
 10
4.17797988E+01
 20
8.20957708E+01
 11
4.17797988E+01
 21
7.40957708E+01
  0
LINE
  8
0
  6
CENTER
 62
2
 10
-2.97202012E+01
 20
8.12957708E+01
 11
-2.97202012E+01
 21
7.32957708E+01
  0
LINE
  8
0
  6
CENTER
 62
2
 10
1.37797988E+01
 20
8.20957708E+01
 11
1.37797988E+01
 21
7.40957708E+01
  0
LINE
  8
0
 62
7
 10
6.17797988E+01
 20
8.50957708E+01
 11
6.17797988E+01
 21
7.10957708E+01
  0
LINE
  8
0
 62
6
 10
1.66872204E+01
 20
6.75957708E+01
 11
1.49551696E+01
 21
7.05957708E+01
  0
LINE
  8
0
 62
6
 10
-1.33405814E+01
 20
6.75957708E+01
 11
-1.50726322E+01
 21
7.05957708E+01
  0
LINE
  8
0
 62
4
 10
1.00297988E+01
 20
7.05957708E+01
 11
1.49551696E+01
 21
7.05957708E+01
  0
LINE
  8
0
 62
4
 10
1.00297988E+01
 20
6.75957708E+01
 11
1.66872204E+01
 21
6.75957708E+01
  0
LINE
  8
0
 62
4
 10
-1.19702012E+01
 20
6.70957708E+01
 11
-2.47020122E+00
 21
6.70957708E+01
  0
LINE
  8
0
 62
4
 10
-1.09702012E+01
 20
7.10957708E+01
 11
-1.09702012E+01
 21
6.70957708E+01
  0
LINE
  8
0
 62
4
 10
-1.19702012E+01
 20
6.70957708E+01
 11
-1.19702012E+01
 21
7.10957708E+01
  0
LINE
  8
0
 62
7
 10
-4.12202012E+01
 20
7.10957708E+01
 11
-2.84702012E+01
 21
7.10957708E+01
  0
LINE
  8
0
  6
CENTER
 62
2
 10
-3.37202012E+01
 20
7.72957708E+01
 11
-2.57202012E+01
 21
7.72957708E+01
  0
LINE
  8
0
 62
4
 10
-3.79702012E+01
 20
6.70957708E+01
 11
-2.84702012E+01
 21
6.70957708E+01
  0
CIRCLE
  8
0
 62
2
 10
-2.97202012E+01
 20
7.72957677E+01
 40
2.50000000E+00
  0
LINE
  8
0
 62
7
 10
-4.12202012E+01
 20
8.50957708E+01
 11
6.17797988E+01
 21
8.50957708E+01
  0
LINE
  8
0
  6
CENTER
 62
2
 10
-6.72202012E+01
 20
7.80957708E+01
 11
6.47797988E+01
 21
7.80957708E+01
  0
LINE
  8
0
 62
4
 10
-6.42202012E+01
 20
7.95957708E+01
 11
-6.42202012E+01
 21
7.65957708E+01
  0
LINE
  8
0
 62
7
 10
-4.22202012E+01
 20
8.20157708E+01
 11
-4.22202012E+01
 21
7.41757708E+01
  0
LINE
  8
0
 62
7
 10
-4.19202012E+01
 20
7.40957708E+01
 11
-4.12202012E+01
 21
7.40957708E+01
  0
LINE
  8
0
 62
7
 10
-4.19202012E+01
 20
8.20957708E+01
 11
-4.12202012E+01
 21
8.20957708E+01
  0
LINE
  8
0
 62
7
 10
-4.19202012E+01
 20
8.20957708E+01
 11
-4.22202012E+01
 21
8.20157708E+01
  0
LINE
  8
0
 62
7
 10
-4.19202012E+01
 20
7.40957708E+01
 11
-4.22202012E+01
 21
7.41757708E+01
  0
LINE
  8
0
 62
4
 10
-5.42202012E+01
 20
8.00957708E+01
 11
-5.42202012E+01
 21
7.60957708E+01
  0
LINE
  8
0
 62
4
 10
-6.37202012E+01
 20
7.60957708E+01
 11
-5.96202012E+01
 21
7.60957708E+01
  0
LINE
  8
0
 62
4
 10
-6.37202012E+01
 20
8.00957708E+01
 11
-5.96202012E+01
 21
8.00957708E+01
  0
LINE
  8
0
 62
4
 10
-6.42202012E+01
 20
7.95957708E+01
 11
-6.37202012E+01
 21
8.00957708E+01
  0
LINE
  8
0
 62
4
 10
-6.42202012E+01
 20
7.65957708E+01
 11
-6.37202012E+01
 21
7.60957708E+01
  0
LINE
  8
0
 62
4
 10
-6.37202012E+01
 20
8.00957708E+01
 11
-6.37202012E+01
 21
7.60957708E+01
  0
LINE
  8
0
 62
6
 10
-6.40702012E+01
 20
7.97457708E+01
 11
-5.96202012E+01
 21
7.97457708E+01
  0
LINE
  8
0
 62
6
 10
-6.40702012E+01
 20
7.64457708E+01
 11
-5.96202012E+01
 21
7.64457708E+01
  0
LINE
  8
0
 62
6
 10
-5.42202012E+01
 20
7.97457708E+01
 11
-5.36202012E+01
 21
8.00957708E+01
  0
LINE
  8
0
 62
6
 10
-5.42202012E+01
 20
7.64457708E+01
 11
-5.36202012E+01
 21
7.60957708E+01
  0
LINE
  8
0
 62
4
 10
-5.52202012E+01
 20
8.00957708E+01
 11
-4.87202012E+01
 21
8.00957708E+01
  0
LINE
  8
0
 62
6
 10
-5.52202012E+01
 20
7.97457708E+01
 11
-5.42202012E+01
 21
7.97457708E+01
  0
LINE
  8
0
 62
6
 10
-5.52202012E+01
 20
7.64457708E+01
 11
-5.42202012E+01
 21
7.64457708E+01
  0
LINE
  8
0
 62
4
 10
-5.52202012E+01
 20
7.60957708E+01
 11
-4.87202012E+01
 21
7.60957708E+01
  0
LINE
  8
0
 62
4
 10
-5.92702012E+01
 20
8.30957708E+01
 11
-5.92702012E+01
 21
7.30957708E+01
  0
LINE
  8
0
 62
4
 10
-5.79702012E+01
 20
8.30957708E+01
 11
-5.79702012E+01
 21
7.30957708E+01
  0
LINE
  8
0
 62
4
 10
-5.92702012E+01
 20
8.30957708E+01
 11
-5.79702012E+01
 21
8.30957708E+01
  0
LINE
  8
0
 62
4
 10
-5.92702012E+01
 20
7.30957708E+01
 11
-5.79702012E+01
 21
7.30957708E+01
  0
LINE
  8
0
 62
4
 10
-5.76202012E+01
 20
8.15957708E+01
 11
-5.76202012E+01
 21
7.45957708E+01
  0
LINE
  8
0
 62
4
 10
-5.52202012E+01
 20
8.15957708E+01
 11
-5.52202012E+01
 21
7.45957708E+01
  0
LINE
  8
0
 62
7
 10
-4.87202012E+01
 20
8.45957708E+01
 11
-4.87202012E+01
 21
7.15957708E+01
  0
LINE
  8
0
 62
7
 10
-4.27202012E+01
 20
8.45957708E+01
 11
-4.27202012E+01
 21
7.15957708E+01
  0
LINE
  8
0
 62
7
 10
-4.12202012E+01
 20
8.50957708E+01
 11
-4.12202012E+01
 21
7.10957708E+01
  0
LINE
  8
0
 62
7
 10
-3.52202012E+01
 20
8.50957708E+01
 11
-3.52202012E+01
 21
7.10957708E+01
  0
LINE
  8
0
 62
7
 10
-3.80202012E+01
 20
8.50957708E+01
 11
-3.80202012E+01
 21
7.85957708E+01
  0
LINE
  8
0
 62
7
 10
-4.12202012E+01
 20
7.85957708E+01
 11
-3.80202012E+01
 21
7.85957708E+01
  0
LINE
  8
0
 62
7
 10
-4.10202012E+01
 20
8.48457708E+01
 11
-3.80202012E+01
 21
8.48457708E+01
  0
LINE
  8
0
 62
7
 10
-4.10202012E+01
 20
8.48457708E+01
 11
-4.10202012E+01
 21
7.93457708E+01
  0
LINE
  8
0
 62
7
 10
-4.10202012E+01
 20
7.93457708E+01
 11
-3.80202012E+01
 21
7.93457708E+01
  0
LINE
  8
0
 62
7
 10
-4.87202012E+01
 20
7.15957708E+01
 11
-4.27202012E+01
 21
7.15957708E+01
  0
LINE
  8
0
 62
7
 10
-4.87202012E+01
 20
8.45957708E+01
 11
-4.27202012E+01
 21
8.45957708E+01
  0
LINE
  8
0
  6
CENTER
 62
2
 10
-4.57202012E+01
 20
8.05957708E+01
 11
-4.57202012E+01
 21
7.55957708E+01
  0
LINE
  8
0
 62
7
 10
-4.64702012E+01
 20
7.76557708E+01
 11
-4.57202012E+01
 21
7.72257708E+01
  0
LINE
  8
0
 62
7
 10
-4.57202012E+01
 20
7.72257708E+01
 11
-4.49702012E+01
 21
7.76557708E+01
  0
LINE
  8
0
 62
7
 10
-4.49702012E+01
 20
7.76557708E+01
 11
-4.49702012E+01
 21
7.85257708E+01
  0
LINE
  8
0
 62
7
 10
-4.49702012E+01
 20
7.85257708E+01
 11
-4.57202012E+01
 21
7.89557708E+01
  0
LINE
  8
0
 62
7
 10
-4.57202012E+01
 20
7.89557708E+01
 11
-4.64702012E+01
 21
7.85257708E+01
  0
LINE
  8
0
 62
7
 10
-4.64702012E+01
 20
7.85257708E+01
 11
-4.64702012E+01
 21
7.76557708E+01
  0
LINE
  8
0
 62
4
 10
-5.27202012E+01
 20
8.00957708E+01
 11
-5.27202012E+01
 21
7.60957708E+01
  0
LINE
  8
0
 62
4
 10
-5.22202012E+01
 20
8.00957708E+01
 11
-5.22202012E+01
 21
7.60957708E+01
  0
LINE
  8
0
 62
7
 10
-4.27202012E+01
 20
8.05957708E+01
 11
-4.22202012E+01
 21
8.05957708E+01
  0
LINE
  8
0
 62
7
 10
-4.27202012E+01
 20
7.55957708E+01
 11
-4.22202012E+01
 21
7.55957708E+01
  0
LINE
  8
0
 62
7
 10
-4.27202012E+01
 20
8.35957708E+01
 11
-4.12202012E+01
 21
8.35957708E+01
  0
LINE
  8
0
 62
4
 10
-3.79702012E+01
 20
7.10957708E+01
 11
-3.79702012E+01
 21
6.70957708E+01
  0
LINE
  8
0
 62
4
 10
-3.69702012E+01
 20
7.10957708E+01
 11
-3.69702012E+01
 21
6.70957708E+01
  0
LINE
  8
0
 62
4
 10
-5.76202012E+01
 20
7.45957708E+01
 11
-5.52202012E+01
 21
7.45957708E+01
  0
LINE
  8
0
 62
4
 10
-5.76202012E+01
 20
8.15957708E+01
 11
-5.52202012E+01
 21
8.15957708E+01
  0
LINE
  8
0
 62
4
 10
-5.73102012E+01
 20
7.80957708E+01
 11
-5.55402012E+01
 21
7.80957708E+01
  0
CIRCLE
  8
0
 62
7
 10
-4.57202012E+01
 20
7.80957708E+01
 40
1.50000000E+00
  0
CIRCLE
  8
0
 62
7
 10
-4.57202012E+01
 20
7.80957708E+01
 40
1.25000000E+00
  0
ARC
  8
0
 62
4
 10
-5.25655839E+01
 20
7.98457708E+01
 40
5.05706371E+00
 50
1.59754058E+02
 51
2.00245942E+02
  0
ARC
  8
0
 62
4
 10
-6.02748429E+01
 20
7.98457708E+01
 40
5.04770564E+00
 50
3.39714874E+02
 51
2.02851261E+01
  0
ARC
  8
0
 62
4
 10
-5.25655839E+01
 20
7.63457708E+01
 40
5.05706371E+00
 50
1.59754058E+02
 51
2.00245942E+02
  0
ARC
  8
0
 62
4
 10
-6.02748429E+01
 20
7.63457708E+01
 40
5.04770564E+00
 50
3.39714874E+02
 51
2.02851261E+01
  0
LINE
  8
0
 62
4
 10
-5.96202043E+01
 20
8.12457708E+01
 11
-5.96202043E+01
 21
7.49457708E+01
  0
LINE
  8
0
 62
4
 10
-5.92702043E+01
 20
8.15957708E+01
 11
-5.92702043E+01
 21
7.45957708E+01
  0
ARC
  8
0
 62
4
 10
-5.92702041E+01
 20
8.12457706E+01
 40
3.50000191E-01
 50
9.00000311E+01
 51
1.79999969E+02
  0
ARC
  8
0
 62
4
 10
-5.92702041E+01
 20
7.49457710E+01
 40
3.50000191E-01
 50
1.80000031E+02
 51
2.69999969E+02
  0
LINE
  8
0
 62
4
 10
-5.76202012E+01
 20
8.12457708E+01
 11
-5.76202012E+01
 21
7.49457708E+01
  0
LINE
  8
0
 62
4
 10
-5.79702012E+01
 20
8.15957708E+01
 11
-5.79702012E+01
 21
7.45957708E+01
  0
ARC
  8
0
 62
4
 10
-5.79702014E+01
 20
8.12457706E+01
 40
3.50000191E-01
 50
3.12237134E-05
 51
8.99999687E+01
  0
ARC
  8
0
 62
4
 10
-5.79702014E+01
 20
7.49457710E+01
 40
3.50000191E-01
 50
2.70000031E+02
 51
3.59999969E+02
  0
LINE
  8
0
  6
PHANTOM
 10
2.71332075E+01
 20
4.63939526E+01
 11
2.71332075E+01
 21
9.69603700E+01
  0
LINE
  8
0
  6
CENTER
 62
6
 10
-1.74374524E+02
 20
-8.01707492E+01
 11
-1.36636380E+02
 21
-8.01707492E+01
  0
LINE
  8
0
 62
6
 10
-1.52574524E+02
 20
-8.16707492E+01
 11
-1.49074524E+02
 21
-7.86707492E+01
  0
LINE
  8
0
 62
6
 10
-1.52574524E+02
 20
-7.86707492E+01
 11
-1.49074524E+02
 21
-8.16707492E+01
  0
LINE
  8
0
 62
4
 10
-1.52574524E+02
 20
-7.76707492E+01
 11
-1.49074524E+02
 21
-7.76707492E+01
  0
LINE
  8
0
 62
4
 10
-1.52574524E+02
 20
-8.26707492E+01
 11
-1.49074524E+02
 21
-8.26707492E+01
  0
LINE
  8
0
 62
4
 10
-1.52574524E+02
 20
-8.16707492E+01
 11
-1.49074524E+02
 21
-8.16707492E+01
  0
LINE
  8
0
 62
4
 10
-1.52574524E+02
 20
-7.86707492E+01
 11
-1.49074524E+02
 21
-7.86707492E+01
  0
LINE
  8
0
 62
4
 10
-1.57974524E+02
 20
-7.51707492E+01
 11
-1.57974524E+02
 21
-8.51707492E+01
  0
ARC
  8
0
 62
4
 10
-1.59274523E+02
 20
-8.33207490E+01
 40
3.50000191E-01
 50
2.53398427E+02
 51
2.69999969E+02
  0
ARC
  8
0
 62
4
 10
-1.59274523E+02
 20
-7.70207494E+01
 40
3.50000191E-01
 50
9.00000311E+01
 51
1.06601573E+02
  0
LINE
  8
0
 62
4
 10
-1.59274524E+02
 20
-7.51707492E+01
 11
-1.59274524E+02
 21
-8.51707492E+01
  0
LINE
  8
0
 62
4
 10
-1.53074524E+02
 20
-7.81707492E+01
 11
-1.53074524E+02
 21
-8.21707492E+01
  0
LINE
  8
0
 62
4
 10
-1.53074524E+02
 20
-7.81707492E+01
 11
-1.52574524E+02
 21
-7.76707492E+01
  0
LINE
  8
0
 62
4
 10
-1.53074524E+02
 20
-8.21707492E+01
 11
-1.52574524E+02
 21
-8.26707492E+01
  0
LINE
  8
0
 62
4
 10
-1.52574524E+02
 20
-7.76707492E+01
 11
-1.52574524E+02
 21
-7.86707492E+01
  0
LINE
  8
0
 62
4
 10
-1.52574524E+02
 20
-8.16707492E+01
 11
-1.52574524E+02
 21
-8.26707492E+01
  0
LINE
  8
0
 62
4
 10
-1.54574524E+02
 20
-7.81707492E+01
 11
-1.54574524E+02
 21
-8.21707492E+01
  0
LINE
  8
0
 62
6
 10
-1.54574524E+02
 20
-7.85207492E+01
 11
-1.53964524E+02
 21
-7.81707492E+01
  0
LINE
  8
0
 62
6
 10
-1.54574524E+02
 20
-8.18207492E+01
 11
-1.53964524E+02
 21
-8.21707492E+01
  0
LINE
  8
0
 62
4
 10
-1.55574524E+02
 20
-7.81707492E+01
 11
-1.53074524E+02
 21
-7.81707492E+01
  0
LINE
  8
0
 62
6
 10
-1.55574524E+02
 20
-7.85207492E+01
 11
-1.54574524E+02
 21
-7.85207492E+01
  0
LINE
  8
0
 62
6
 10
-1.55574524E+02
 20
-8.18207492E+01
 11
-1.54574524E+02
 21
-8.18207492E+01
  0
LINE
  8
0
 62
4
 10
-1.55574524E+02
 20
-8.21707492E+01
 11
-1.53074524E+02
 21
-8.21707492E+01
  0
LINE
  8
0
 62
4
 10
-1.59374524E+02
 20
-7.66853390E+01
 11
-1.59374524E+02
 21
-8.36707492E+01
  0
LINE
  8
0
 62
4
 10
-1.59274524E+02
 20
-7.51707492E+01
 11
-1.57974524E+02
 21
-7.51707492E+01
  0
LINE
  8
0
 62
4
 10
-1.59274524E+02
 20
-8.51707492E+01
 11
-1.57974524E+02
 21
-8.51707492E+01
  0
LINE
  8
0
 62
4
 10
-1.57654524E+02
 20
-7.61307492E+01
 11
-1.55884524E+02
 21
-7.61307492E+01
  0
LINE
  8
0
 62
4
 10
-1.57874524E+02
 20
-7.66707492E+01
 11
-1.57654524E+02
 21
-7.61307492E+01
  0
LINE
  8
0
 62
4
 10
-1.57654524E+02
 20
-7.81507492E+01
 11
-1.55884524E+02
 21
-7.81507492E+01
  0
LINE
  8
0
 62
4
 10
-1.57654524E+02
 20
-8.21907492E+01
 11
-1.55884524E+02
 21
-8.21907492E+01
  0
LINE
  8
0
 62
4
 10
-1.57654524E+02
 20
-8.42207492E+01
 11
-1.55884524E+02
 21
-8.42207492E+01
  0
LINE
  8
0
 62
4
 10
-1.57874524E+02
 20
-8.36707492E+01
 11
-1.57654524E+02
 21
-8.42207492E+01
  0
LINE
  8
0
 62
4
 10
-1.55574524E+02
 20
-8.36707492E+01
 11
-1.55884524E+02
 21
-8.42207492E+01
  0
LINE
  8
0
 62
4
 10
-1.55574524E+02
 20
-7.66707492E+01
 11
-1.55884524E+02
 21
-7.61307492E+01
  0
LINE
  8
0
 62
4
 10
-1.55574524E+02
 20
-7.66707492E+01
 11
-1.55574524E+02
 21
-8.36707492E+01
  0
LINE
  8
0
 62
4
 10
-1.69274524E+02
 20
-7.66707492E+01
 11
-1.69274524E+02
 21
-8.36707492E+01
  0
LINE
  8
0
 62
4
 10
-1.72574524E+02
 20
-7.89207492E+01
 11
-1.72574524E+02
 21
-8.14207492E+01
  0
LINE
  8
0
 62
4
 10
-1.71274524E+02
 20
-7.84207492E+01
 11
-1.71274524E+02
 21
-8.19207492E+01
  0
LINE
  8
0
 62
4
 10
-1.69274524E+02
 20
-8.19207492E+01
 11
-1.71274524E+02
 21
-8.19207492E+01
  0
LINE
  8
0
 62
4
 10
-1.69274524E+02
 20
-7.84207492E+01
 11
-1.71274524E+02
 21
-7.84207492E+01
  0
LINE
  8
0
 62
4
 10
-1.72574524E+02
 20
-7.89207492E+01
 11
-1.71824524E+02
 21
-7.93607492E+01
  0
LINE
  8
0
 62
4
 10
-1.72574524E+02
 20
-8.14207492E+01
 11
-1.71824524E+02
 21
-8.09907492E+01
  0
LINE
  8
0
 62
4
 10
-1.71274524E+02
 20
-7.84207492E+01
 11
-1.71814524E+02
 21
-7.93607492E+01
  0
LINE
  8
0
 62
4
 10
-1.71274524E+02
 20
-8.19207492E+01
 11
-1.71814524E+02
 21
-8.09907492E+01
  0
LINE
  8
0
 62
4
 10
-1.71814524E+02
 20
-7.93607492E+01
 11
-1.71814524E+02
 21
-8.09907492E+01
  0
LINE
  8
0
 62
4
 10
-1.68954524E+02
 20
-7.81507492E+01
 11
-1.59684524E+02
 21
-7.81507492E+01
  0
LINE
  8
0
 62
4
 10
-1.68954524E+02
 20
-7.61307492E+01
 11
-1.59684524E+02
 21
-7.61307492E+01
  0
LINE
  8
0
 62
4
 10
-1.69274524E+02
 20
-7.66707492E+01
 11
-1.68954524E+02
 21
-7.61307492E+01
  0
LINE
  8
0
 62
4
 10
-1.68954524E+02
 20
-8.21907492E+01
 11
-1.59684524E+02
 21
-8.21907492E+01
  0
LINE
  8
0
 62
4
 10
-1.69274524E+02
 20
-8.36707492E+01
 11
-1.68954524E+02
 21
-8.42207492E+01
  0
LINE
  8
0
 62
4
 10
-1.68954524E+02
 20
-8.42207492E+01
 11
-1.59684524E+02
 21
-8.42207492E+01
  0
LINE
  8
0
 62
4
 10
-1.59374524E+02
 20
-8.36707492E+01
 11
-1.59684524E+02
 21
-8.42207492E+01
  0
LINE
  8
0
 62
4
 10
-1.59374524E+02
 20
-7.66707492E+01
 11
-1.59684524E+02
 21
-7.61307492E+01
  0
ARC
  8
0
 62
4
 10
-1.57363199E+02
 20
-8.32068746E+01
 40
1.79415492E+00
 50
3.34447945E+02
 51
3.44963155E+01
  0
ARC
  8
0
 62
4
 10
-1.50574508E+02
 20
-8.01707492E+01
 40
2.50001221E+00
 50
1.43130312E+02
 51
2.16869688E+02
  0
ARC
  8
0
 62
4
 10
-1.62261917E+02
 20
-8.01707492E+01
 40
6.68965947E+00
 50
3.42424723E+02
 51
1.75752774E+01
  0
ARC
  8
0
 62
4
 10
-1.57363527E+02
 20
-7.71389174E+01
 40
1.79199759E+00
 50
3.25622773E+02
 51
2.53829241E+01
  0
ARC
  8
0
 62
4
 10
-1.56185768E+02
 20
-8.32060988E+01
 40
1.78554702E+00
 50
1.45343927E+02
 51
2.05711813E+02
  0
ARC
  8
0
 62
4
 10
-1.56185437E+02
 20
-7.71396974E+01
 40
1.78337882E+00
 50
1.54457851E+02
 51
2.14536452E+02
  0
ARC
  8
0
 62
4
 10
-1.51287124E+02
 20
-8.01707492E+01
 40
6.68013276E+00
 50
1.62398839E+02
 51
1.97601161E+02
  0
ARC
  8
0
 62
4
 10
-1.67485458E+02
 20
-7.71407492E+01
 40
1.78276594E+00
 50
1.45491021E+02
 51
2.14508980E+02
  0
ARC
  8
0
 62
4
 10
-1.62587143E+02
 20
-8.01707492E+01
 40
6.68011531E+00
 50
1.62398792E+02
 51
1.97601208E+02
  0
ARC
  8
0
 62
4
 10
-1.67485454E+02
 20
-8.32057492E+01
 40
1.78560603E+00
 50
1.45358872E+02
 51
2.14641128E+02
  0
ARC
  8
0
 62
4
 10
-1.61163568E+02
 20
-7.71407492E+01
 40
1.79099764E+00
 50
3.25671874E+02
 51
3.43281262E+01
  0
ARC
  8
0
 62
4
 10
-1.66061883E+02
 20
-8.01707492E+01
 40
6.68962747E+00
 50
3.42424636E+02
 51
1.75753642E+01
  0
ARC
  8
0
 62
4
 10
-1.61163571E+02
 20
-8.32057492E+01
 40
1.79382470E+00
 50
3.25540045E+02
 51
3.44599544E+01
  0
LINE
  8
0
 62
4
 10
-1.49074524E+02
 20
-7.76707492E+01
 11
-1.49074524E+02
 21
-8.26707492E+01
  0
LINE
  8
0
 62
4
 10
-5.65745235E+01
 20
-7.86707492E+01
 11
-5.30745235E+01
 21
-7.86707492E+01
  0
LINE
  8
0
 62
4
 10
-5.65745235E+01
 20
-8.16707492E+01
 11
-5.30745235E+01
 21
-8.16707492E+01
  0
LINE
  8
0
 62
4
 10
-5.65745235E+01
 20
-8.26707492E+01
 11
-5.30745235E+01
 21
-8.26707492E+01
  0
LINE
  8
0
 62
4
 10
-5.65745235E+01
 20
-7.76707492E+01
 11
-5.30745235E+01
 21
-7.76707492E+01
  0
LINE
  8
0
 62
6
 10
-5.65745235E+01
 20
-7.86707492E+01
 11
-5.30745235E+01
 21
-8.16707492E+01
  0
LINE
  8
0
 62
6
 10
-5.65745235E+01
 20
-8.16707492E+01
 11
-5.30745235E+01
 21
-7.86707492E+01
  0
LINE
  8
0
  6
CENTER
 62
6
 10
-7.78745235E+01
 20
-8.01707492E+01
 11
-4.07921642E+01
 21
-8.01707492E+01
  0
ARC
  8
0
 62
4
 10
-6.30745233E+01
 20
-8.33207490E+01
 40
3.50000191E-01
 50
2.53398427E+02
 51
2.69999969E+02
  0
ARC
  8
0
 62
4
 10
-6.30745233E+01
 20
-7.70207494E+01
 40
3.50000191E-01
 50
9.00000311E+01
 51
1.06601573E+02
  0
LINE
  8
0
 62
4
 10
-7.65745235E+01
 20
-7.83207492E+01
 11
-7.65745235E+01
 21
-8.20207492E+01
  0
LINE
  8
0
 62
4
 10
-7.30745235E+01
 20
-8.19207492E+01
 11
-7.50745235E+01
 21
-8.19207492E+01
  0
LINE
  8
0
 62
4
 10
-7.30745235E+01
 20
-7.84207492E+01
 11
-7.50745235E+01
 21
-7.84207492E+01
  0
LINE
  8
0
 62
4
 10
-7.53745235E+01
 20
-8.11707492E+01
 11
-7.58745235E+01
 21
-8.11707492E+01
  0
LINE
  8
0
 62
4
 10
-7.53745235E+01
 20
-7.91707492E+01
 11
-7.58745235E+01
 21
-7.91707492E+01
  0
LINE
  8
0
 62
4
 10
-7.64795235E+01
 20
-7.82707492E+01
 11
-7.58745235E+01
 21
-7.91707492E+01
  0
LINE
  8
0
 62
4
 10
-7.58745235E+01
 20
-8.11707492E+01
 11
-7.64795235E+01
 21
-8.20707492E+01
  0
LINE
  8
0
 62
4
 10
-7.64795235E+01
 20
-7.82707492E+01
 11
-7.65745235E+01
 21
-7.83207492E+01
  0
LINE
  8
0
 62
4
 10
-7.64795235E+01
 20
-8.20707492E+01
 11
-7.65745235E+01
 21
-8.20207492E+01
  0
LINE
  8
0
 62
4
 10
-7.50745235E+01
 20
-7.84207492E+01
 11
-7.53745235E+01
 21
-7.91707492E+01
  0
LINE
  8
0
 62
4
 10
-7.53745235E+01
 20
-8.11707492E+01
 11
-7.50745235E+01
 21
-8.19207492E+01
  0
LINE
  8
0
 62
4
 10
-7.50745235E+01
 20
-7.84207492E+01
 11
-7.50745235E+01
 21
-8.19207492E+01
  0
LINE
  8
0
 62
4
 10
-7.58745235E+01
 20
-7.91707492E+01
 11
-7.58745235E+01
 21
-8.11707492E+01
  0
LINE
  8
0
 62
4
 10
-7.53745235E+01
 20
-7.91707492E+01
 11
-7.53745235E+01
 21
-8.11707492E+01
  0
LINE
  8
0
 62
4
 10
-6.31745235E+01
 20
-7.66707492E+01
 11
-6.31745235E+01
 21
-8.36707492E+01
  0
ARC
  8
0
 62
4
 10
-6.49635712E+01
 20
-8.32057492E+01
 40
1.79382470E+00
 50
3.25540045E+02
 51
3.44599544E+01
  0
ARC
  8
0
 62
4
 10
-6.98618831E+01
 20
-8.01707492E+01
 40
6.68962747E+00
 50
3.42424636E+02
 51
1.75753642E+01
  0
ARC
  8
0
 62
4
 10
-6.49635680E+01
 20
-7.71407492E+01
 40
1.79099764E+00
 50
3.25671874E+02
 51
3.43281262E+01
  0
ARC
  8
0
 62
4
 10
-7.12854544E+01
 20
-8.32057492E+01
 40
1.78560603E+00
 50
1.45358872E+02
 51
2.14641128E+02
  0
ARC
  8
0
 62
4
 10
-6.63871425E+01
 20
-8.01707492E+01
 40
6.68011531E+00
 50
1.62398792E+02
 51
1.97601208E+02
  0
ARC
  8
0
 62
4
 10
-7.12854577E+01
 20
-7.71407492E+01
 40
1.78276594E+00
 50
1.45491021E+02
 51
2.14508980E+02
  0
ARC
  8
0
 62
4
 10
-5.50871242E+01
 20
-8.01707492E+01
 40
6.68013276E+00
 50
1.62398839E+02
 51
1.97601161E+02
  0
ARC
  8
0
 62
4
 10
-5.99854372E+01
 20
-7.71396974E+01
 40
1.78337882E+00
 50
1.54457851E+02
 51
2.14536452E+02
  0
ARC
  8
0
 62
4
 10
-5.99857678E+01
 20
-8.32060988E+01
 40
1.78554702E+00
 50
1.45343927E+02
 51
2.05711813E+02
  0
ARC
  8
0
 62
4
 10
-6.11635272E+01
 20
-7.71389174E+01
 40
1.79199759E+00
 50
3.25622773E+02
 51
2.53829241E+01
  0
ARC
  8
0
 62
4
 10
-6.60619167E+01
 20
-8.01707492E+01
 40
6.68965947E+00
 50
3.42424723E+02
 51
1.75752774E+01
  0
ARC
  8
0
 62
4
 10
-5.45745082E+01
 20
-8.01707492E+01
 40
2.50001221E+00
 50
1.43130312E+02
 51
2.16869688E+02
  0
ARC
  8
0
 62
4
 10
-6.11631989E+01
 20
-8.32068746E+01
 40
1.79415492E+00
 50
3.34447945E+02
 51
3.44963155E+01
  0
LINE
  8
0
 62
4
 10
-6.31745235E+01
 20
-7.66707492E+01
 11
-6.34845235E+01
 21
-7.61307492E+01
  0
LINE
  8
0
 62
4
 10
-6.31745235E+01
 20
-8.36707492E+01
 11
-6.34845235E+01
 21
-8.42207492E+01
  0
LINE
  8
0
 62
4
 10
-7.27545235E+01
 20
-8.42207492E+01
 11
-6.34845235E+01
 21
-8.42207492E+01
  0
LINE
  8
0
 62
4
 10
-7.30745235E+01
 20
-8.36707492E+01
 11
-7.27545235E+01
 21
-8.42207492E+01
  0
LINE
  8
0
 62
4
 10
-7.27545235E+01
 20
-8.21907492E+01
 11
-6.33845235E+01
 21
-8.21907492E+01
  0
LINE
  8
0
 62
4
 10
-7.30745235E+01
 20
-7.66707492E+01
 11
-7.27545235E+01
 21
-7.61307492E+01
  0
LINE
  8
0
 62
4
 10
-7.27545235E+01
 20
-7.61307492E+01
 11
-6.34845235E+01
 21
-7.61307492E+01
  0
LINE
  8
0
 62
4
 10
-7.27545235E+01
 20
-7.81507492E+01
 11
-6.33845235E+01
 21
-7.81507492E+01
  0
LINE
  8
0
 62
4
 10
-7.30745235E+01
 20
-7.66707492E+01
 11
-7.30745235E+01
 21
-8.36707492E+01
  0
LINE
  8
0
 62
4
 10
-5.93745235E+01
 20
-7.66707492E+01
 11
-5.93745235E+01
 21
-8.36707492E+01
  0
LINE
  8
0
 62
4
 10
-5.93745235E+01
 20
-7.66707492E+01
 11
-5.96845235E+01
 21
-7.61307492E+01
  0
LINE
  8
0
 62
4
 10
-5.93745235E+01
 20
-8.36707492E+01
 11
-5.96845235E+01
 21
-8.42207492E+01
  0
LINE
  8
0
 62
4
 10
-6.17745235E+01
 20
-8.36707492E+01
 11
-6.14545235E+01
 21
-8.42207492E+01
  0
LINE
  8
0
 62
4
 10
-6.14545235E+01
 20
-8.42207492E+01
 11
-5.96845235E+01
 21
-8.42207492E+01
  0
LINE
  8
0
 62
4
 10
-6.14545235E+01
 20
-8.21907492E+01
 11
-5.96845235E+01
 21
-8.21907492E+01
  0
LINE
  8
0
 62
4
 10
-6.14545235E+01
 20
-7.81507492E+01
 11
-5.96845235E+01
 21
-7.81507492E+01
  0
LINE
  8
0
 62
4
 10
-6.17745235E+01
 20
-7.66707492E+01
 11
-6.14545235E+01
 21
-7.61307492E+01
  0
LINE
  8
0
 62
4
 10
-6.14545235E+01
 20
-7.61307492E+01
 11
-5.96845235E+01
 21
-7.61307492E+01
  0
LINE
  8
0
 62
4
 10
-6.30745235E+01
 20
-8.51707492E+01
 11
-6.17745235E+01
 21
-8.51707492E+01
  0
LINE
  8
0
 62
4
 10
-6.30745235E+01
 20
-7.51707492E+01
 11
-6.17745235E+01
 21
-7.51707492E+01
  0
LINE
  8
0
 62
4
 10
-6.17745235E+01
 20
-7.51707492E+01
 11
-6.17745235E+01
 21
-8.51707492E+01
  0
LINE
  8
0
 62
4
 10
-6.30745235E+01
 20
-7.51707492E+01
 11
-6.30745235E+01
 21
-8.51707492E+01
  0
LINE
  8
0
 62
4
 10
-5.93745235E+01
 20
-8.21707492E+01
 11
-5.70745235E+01
 21
-8.21707492E+01
  0
LINE
  8
0
 62
6
 10
-5.93745235E+01
 20
-8.18207492E+01
 11
-5.85745235E+01
 21
-8.18207492E+01
  0
LINE
  8
0
 62
6
 10
-5.93745235E+01
 20
-7.85207492E+01
 11
-5.85745235E+01
 21
-7.85207492E+01
  0
LINE
  8
0
 62
4
 10
-5.93745235E+01
 20
-7.81707492E+01
 11
-5.70745235E+01
 21
-7.81707492E+01
  0
LINE
  8
0
 62
6
 10
-5.85745235E+01
 20
-8.18207492E+01
 11
-5.79645235E+01
 21
-8.21707492E+01
  0
LINE
  8
0
 62
6
 10
-5.85745235E+01
 20
-7.85207492E+01
 11
-5.79645235E+01
 21
-7.81707492E+01
  0
LINE
  8
0
 62
4
 10
-5.85745235E+01
 20
-7.81707492E+01
 11
-5.85745235E+01
 21
-8.21707492E+01
  0
LINE
  8
0
 62
4
 10
-5.65745235E+01
 20
-8.16707492E+01
 11
-5.65745235E+01
 21
-8.26707492E+01
  0
LINE
  8
0
 62
4
 10
-5.65745235E+01
 20
-7.76707492E+01
 11
-5.65745235E+01
 21
-7.86707492E+01
  0
LINE
  8
0
 62
4
 10
-5.70745235E+01
 20
-8.21707492E+01
 11
-5.65745235E+01
 21
-8.26707492E+01
  0
LINE
  8
0
 62
4
 10
-5.70745235E+01
 20
-7.81707492E+01
 11
-5.65745235E+01
 21
-7.76707492E+01
  0
LINE
  8
0
 62
4
 10
-5.70745235E+01
 20
-7.81707492E+01
 11
-5.70745235E+01
 21
-8.21707492E+01
  0
LINE
  8
0
 62
4
 10
-5.30745235E+01
 20
-7.76707492E+01
 11
-5.30745235E+01
 21
-8.26707492E+01
  0
LINE
  8
0
 62
4
 10
4.24254765E+01
 20
-7.86707492E+01
 11
4.59254765E+01
 21
-7.86707492E+01
  0
LINE
  8
0
 62
4
 10
4.24254765E+01
 20
-8.16707492E+01
 11
4.59254765E+01
 21
-8.16707492E+01
  0
LINE
  8
0
 62
4
 10
4.24254765E+01
 20
-8.26707492E+01
 11
4.59254765E+01
 21
-8.26707492E+01
  0
LINE
  8
0
 62
4
 10
4.24254765E+01
 20
-7.76707492E+01
 11
4.59254765E+01
 21
-7.76707492E+01
  0
LINE
  8
0
 62
6
 10
4.24254765E+01
 20
-7.86707492E+01
 11
4.59254765E+01
 21
-8.16707492E+01
  0
LINE
  8
0
 62
6
 10
4.24254765E+01
 20
-8.16707492E+01
 11
4.59254765E+01
 21
-7.86707492E+01
  0
LINE
  8
0
  6
CENTER
 62
6
 10
1.85320255E+01
 20
-8.01707492E+01
 11
5.79212774E+01
 21
-8.01707492E+01
  0
LINE
  8
0
 62
4
 10
3.58277444E+01
 20
-7.66853390E+01
 11
3.58277444E+01
 21
-8.36561593E+01
  0
ARC
  8
0
 62
4
 10
3.59277445E+01
 20
-8.33207490E+01
 40
3.50000191E-01
 50
2.53398427E+02
 51
2.69999969E+02
  0
ARC
  8
0
 62
4
 10
3.59277445E+01
 20
-7.70207494E+01
 40
3.50000191E-01
 50
9.00000311E+01
 51
1.06601573E+02
  0
LINE
  8
0
 62
4
 10
2.59254765E+01
 20
-8.21707492E+01
 11
2.51254765E+01
 21
-8.26707492E+01
  0
LINE
  8
0
 62
4
 10
1.99254765E+01
 20
-8.31707492E+01
 11
2.11254765E+01
 21
-8.19707492E+01
  0
LINE
  8
0
 62
4
 10
2.29254765E+01
 20
-8.26707492E+01
 11
2.11254765E+01
 21
-8.19707492E+01
  0
LINE
  8
0
 62
4
 10
2.51254765E+01
 20
-8.26707492E+01
 11
2.29254765E+01
 21
-8.26707492E+01
  0
LINE
  8
0
 62
4
 10
2.51254765E+01
 20
-7.76707492E+01
 11
2.29254765E+01
 21
-7.76707492E+01
  0
LINE
  8
0
 62
4
 10
1.99254765E+01
 20
-7.71707492E+01
 11
2.11254765E+01
 21
-7.83707492E+01
  0
LINE
  8
0
 62
4
 10
2.29254765E+01
 20
-7.76707492E+01
 11
2.11254765E+01
 21
-7.83707492E+01
  0
LINE
  8
0
 62
4
 10
2.51254765E+01
 20
-7.76707492E+01
 11
2.51254765E+01
 21
-8.26707492E+01
  0
LINE
  8
0
 62
4
 10
2.29254765E+01
 20
-7.76707492E+01
 11
2.29254765E+01
 21
-8.26707492E+01
  0
LINE
  8
0
 62
4
 10
2.11254765E+01
 20
-7.83707492E+01
 11
2.11254765E+01
 21
-8.19707492E+01
  0
LINE
  8
0
 62
4
 10
2.51254765E+01
 20
-7.76707492E+01
 11
2.59254765E+01
 21
-7.81707492E+01
  0
LINE
  8
0
 62
4
 10
1.99254765E+01
 20
-7.71707492E+01
 11
1.99254765E+01
 21
-8.31707492E+01
  0
LINE
  8
0
 62
4
 10
2.59254765E+01
 20
-7.66707492E+01
 11
2.59254765E+01
 21
-8.36707492E+01
  0
LINE
  8
0
 62
4
 10
4.19254765E+01
 20
-7.81707492E+01
 11
4.19254765E+01
 21
-8.21707492E+01
  0
LINE
  8
0
 62
4
 10
4.19254765E+01
 20
-7.81707492E+01
 11
4.24254765E+01
 21
-7.76707492E+01
  0
LINE
  8
0
 62
4
 10
4.19254765E+01
 20
-8.21707492E+01
 11
4.24254765E+01
 21
-8.26707492E+01
  0
LINE
  8
0
 62
4
 10
4.24254765E+01
 20
-7.76707492E+01
 11
4.24254765E+01
 21
-7.86707492E+01
  0
LINE
  8
0
 62
4
 10
4.24254765E+01
 20
-8.16707492E+01
 11
4.24254765E+01
 21
-8.26707492E+01
  0
LINE
  8
0
 62
4
 10
4.04254765E+01
 20
-7.81707492E+01
 11
4.04254765E+01
 21
-8.21707492E+01
  0
LINE
  8
0
 62
6
 10
4.04254765E+01
 20
-7.85207492E+01
 11
4.10354765E+01
 21
-7.81707492E+01
  0
LINE
  8
0
 62
6
 10
4.04254765E+01
 20
-8.18207492E+01
 11
4.10354765E+01
 21
-8.21707492E+01
  0
LINE
  8
0
 62
4
 10
3.96254765E+01
 20
-7.81707492E+01
 11
4.19254765E+01
 21
-7.81707492E+01
  0
LINE
  8
0
 62
6
 10
3.96254765E+01
 20
-7.85207492E+01
 11
4.04254765E+01
 21
-7.85207492E+01
  0
LINE
  8
0
 62
6
 10
3.96254765E+01
 20
-8.18207492E+01
 11
4.04254765E+01
 21
-8.18207492E+01
  0
LINE
  8
0
 62
4
 10
3.96254765E+01
 20
-8.21707492E+01
 11
4.19254765E+01
 21
-8.21707492E+01
  0
LINE
  8
0
 62
4
 10
3.59254765E+01
 20
-7.51707492E+01
 11
3.59254765E+01
 21
-8.51707492E+01
  0
LINE
  8
0
 62
4
 10
3.72254765E+01
 20
-7.51707492E+01
 11
3.72254765E+01
 21
-8.51707492E+01
  0
LINE
  8
0
 62
4
 10
3.59254765E+01
 20
-7.51707492E+01
 11
3.72254765E+01
 21
-7.51707492E+01
  0
LINE
  8
0
 62
4
 10
3.59254765E+01
 20
-8.51707492E+01
 11
3.72254765E+01
 21
-8.51707492E+01
  0
LINE
  8
0
 62
4
 10
3.75454765E+01
 20
-7.61307492E+01
 11
3.93154765E+01
 21
-7.61307492E+01
  0
LINE
  8
0
 62
4
 10
3.72254765E+01
 20
-7.66707492E+01
 11
3.75454765E+01
 21
-7.61307492E+01
  0
LINE
  8
0
 62
4
 10
3.75454765E+01
 20
-7.81507492E+01
 11
3.93154765E+01
 21
-7.81507492E+01
  0
LINE
  8
0
 62
4
 10
3.75454765E+01
 20
-8.21907492E+01
 11
3.93154765E+01
 21
-8.21907492E+01
  0
LINE
  8
0
 62
4
 10
3.75454765E+01
 20
-8.42207492E+01
 11
3.93154765E+01
 21
-8.42207492E+01
  0
LINE
  8
0
 62
4
 10
3.72254765E+01
 20
-8.36707492E+01
 11
3.75454765E+01
 21
-8.42207492E+01
  0
LINE
  8
0
 62
4
 10
3.96254765E+01
 20
-8.36707492E+01
 11
3.93154765E+01
 21
-8.42207492E+01
  0
LINE
  8
0
 62
4
 10
3.96254765E+01
 20
-7.66707492E+01
 11
3.93154765E+01
 21
-7.61307492E+01
  0
LINE
  8
0
 62
4
 10
3.96254765E+01
 20
-7.66707492E+01
 11
3.96254765E+01
 21
-8.36707492E+01
  0
LINE
  8
0
 62
4
 10
2.62454765E+01
 20
-7.81507492E+01
 11
3.55154765E+01
 21
-7.81507492E+01
  0
LINE
  8
0
 62
4
 10
2.62454765E+01
 20
-7.61307492E+01
 11
3.55154765E+01
 21
-7.61307492E+01
  0
LINE
  8
0
 62
4
 10
2.62454765E+01
 20
-8.21907492E+01
 11
3.55154765E+01
 21
-8.21907492E+01
  0
LINE
  8
0
 62
4
 10
2.62454765E+01
 20
-8.42207492E+01
 11
3.55154765E+01
 21
-8.42207492E+01
  0
LINE
  8
0
 62
4
 10
3.58254765E+01
 20
-8.36707492E+01
 11
3.55154765E+01
 21
-8.42207492E+01
  0
LINE
  8
0
 62
4
 10
3.58254765E+01
 20
-7.66707492E+01
 11
3.55154765E+01
 21
-7.61307492E+01
  0
ARC
  8
0
 62
4
 10
3.78368011E+01
 20
-8.32068746E+01
 40
1.79415492E+00
 50
3.34447945E+02
 51
3.44963155E+01
  0
ARC
  8
0
 62
4
 10
4.44254918E+01
 20
-8.01707492E+01
 40
2.50001221E+00
 50
1.43130312E+02
 51
2.16869688E+02
  0
ARC
  8
0
 62
4
 10
3.29380833E+01
 20
-8.01707492E+01
 40
6.68965947E+00
 50
3.42424723E+02
 51
1.75752774E+01
  0
ARC
  8
0
 62
4
 10
3.78364728E+01
 20
-7.71389174E+01
 40
1.79199759E+00
 50
3.25622773E+02
 51
2.53829241E+01
  0
ARC
  8
0
 62
4
 10
3.90142322E+01
 20
-8.32060988E+01
 40
1.78554702E+00
 50
1.45343927E+02
 51
2.05711813E+02
  0
ARC
  8
0
 62
4
 10
3.90145628E+01
 20
-7.71396974E+01
 40
1.78337882E+00
 50
1.54457851E+02
 51
2.14536452E+02
  0
ARC
  8
0
 62
4
 10
4.39128758E+01
 20
-8.01707492E+01
 40
6.68013276E+00
 50
1.62398839E+02
 51
1.97601161E+02
  0
ARC
  8
0
 62
4
 10
3.40364320E+01
 20
-7.71407492E+01
 40
1.79099764E+00
 50
3.25671874E+02
 51
3.43281262E+01
  0
ARC
  8
0
 62
4
 10
2.91381169E+01
 20
-8.01707492E+01
 40
6.68962747E+00
 50
3.42424636E+02
 51
1.75753642E+01
  0
ARC
  8
0
 62
4
 10
3.40364288E+01
 20
-8.32057492E+01
 40
1.79382470E+00
 50
3.25540045E+02
 51
3.44599544E+01
  0
LINE
  8
0
 62
4
 10
3.59254765E+01
 20
-7.68449245E+01
 11
3.59254765E+01
 21
-8.38449245E+01
  0
ARC
  8
0
 62
4
 10
2.77145456E+01
 20
-8.32057492E+01
 40
1.78560603E+00
 50
1.45358872E+02
 51
2.14641128E+02
  0
ARC
  8
0
 62
4
 10
3.26128575E+01
 20
-8.01707492E+01
 40
6.68011531E+00
 50
1.62398792E+02
 51
1.97601208E+02
  0
ARC
  8
0
 62
4
 10
2.77145423E+01
 20
-7.71407492E+01
 40
1.78276594E+00
 50
1.45491021E+02
 51
2.14508980E+02
  0
LINE
  8
0
 62
4
 10
2.59254765E+01
 20
-8.36707492E+01
 11
2.62454765E+01
 21
-8.42207492E+01
  0
LINE
  8
0
 62
4
 10
2.59254765E+01
 20
-7.66707492E+01
 11
2.62454765E+01
 21
-7.61307492E+01
  0
LINE
  8
0
 62
4
 10
4.59254765E+01
 20
-7.76707492E+01
 11
4.59254765E+01
 21
-8.26707492E+01
  0
LINE
  8
0
 62
4
 10
1.38425476E+02
 20
-7.86707492E+01
 11
1.41925476E+02
 21
-7.86707492E+01
  0
LINE
  8
0
 62
4
 10
1.38425476E+02
 20
-8.16707492E+01
 11
1.41925476E+02
 21
-8.16707492E+01
  0
LINE
  8
0
 62
4
 10
1.38425476E+02
 20
-8.26707492E+01
 11
1.41925476E+02
 21
-8.26707492E+01
  0
LINE
  8
0
 62
4
 10
1.38425476E+02
 20
-7.76707492E+01
 11
1.41925476E+02
 21
-7.76707492E+01
  0
LINE
  8
0
 62
6
 10
1.38425476E+02
 20
-7.86707492E+01
 11
1.41925476E+02
 21
-8.16707492E+01
  0
LINE
  8
0
 62
6
 10
1.38425476E+02
 20
-8.16707492E+01
 11
1.41925476E+02
 21
-7.86707492E+01
  0
LINE
  8
0
  6
CENTER
 62
6
 10
1.14653650E+02
 20
-8.01707492E+01
 11
1.54349002E+02
 21
-8.01707492E+01
  0
LINE
  8
0
 62
4
 10
1.31827744E+02
 20
-7.66853390E+01
 11
1.31827744E+02
 21
-8.36561593E+01
  0
ARC
  8
0
 62
4
 10
1.31927745E+02
 20
-8.33207490E+01
 40
3.50000191E-01
 50
2.53398427E+02
 51
2.69999969E+02
  0
ARC
  8
0
 62
4
 10
1.31927745E+02
 20
-7.70207494E+01
 40
3.50000191E-01
 50
9.00000311E+01
 51
1.06601573E+02
  0
LINE
  8
0
 62
4
 10
1.21425476E+02
 20
-8.29207492E+01
 11
1.18925476E+02
 21
-8.29207492E+01
  0
LINE
  8
0
 62
4
 10
1.18510476E+02
 20
-8.25057492E+01
 11
1.18925476E+02
 21
-8.29207492E+01
  0
LINE
  8
0
 62
4
 10
1.16675476E+02
 20
-8.43407492E+01
 11
1.18510476E+02
 21
-8.25057492E+01
  0
LINE
  8
0
 62
4
 10
1.16675476E+02
 20
-8.43407492E+01
 11
1.16425476E+02
 21
-8.41707492E+01
  0
LINE
  8
0
 62
4
 10
1.21425476E+02
 20
-8.29207492E+01
 11
1.21925476E+02
 21
-8.24207492E+01
  0
LINE
  8
0
 62
4
 10
1.21425476E+02
 20
-7.74207492E+01
 11
1.18925476E+02
 21
-7.74207492E+01
  0
LINE
  8
0
 62
4
 10
1.18925476E+02
 20
-7.74207492E+01
 11
1.18510476E+02
 21
-7.78357492E+01
  0
LINE
  8
0
 62
4
 10
1.16675476E+02
 20
-7.60007492E+01
 11
1.18510476E+02
 21
-7.78357492E+01
  0
LINE
  8
0
 62
4
 10
1.16675476E+02
 20
-7.60007492E+01
 11
1.16425476E+02
 21
-7.61707492E+01
  0
LINE
  8
0
 62
4
 10
1.16675476E+02
 20
-7.60007492E+01
 11
1.16675476E+02
 21
-8.43407492E+01
  0
LINE
  8
0
 62
4
 10
1.18925476E+02
 20
-7.74207492E+01
 11
1.18925476E+02
 21
-8.29207492E+01
  0
LINE
  8
0
 62
4
 10
1.21425476E+02
 20
-7.74207492E+01
 11
1.21425476E+02
 21
-8.29207492E+01
  0
LINE
  8
0
 62
4
 10
1.18510476E+02
 20
-7.78357492E+01
 11
1.18510476E+02
 21
-8.25057492E+01
  0
LINE
  8
0
 62
4
 10
1.21425476E+02
 20
-7.74207492E+01
 11
1.21925476E+02
 21
-7.79207492E+01
  0
LINE
  8
0
 62
4
 10
1.16425476E+02
 20
-7.61707492E+01
 11
1.16425476E+02
 21
-8.41707492E+01
  0
LINE
  8
0
 62
4
 10
1.21925476E+02
 20
-7.66707492E+01
 11
1.21925476E+02
 21
-8.36707492E+01
  0
LINE
  8
0
 62
4
 10
1.37925476E+02
 20
-7.81707492E+01
 11
1.37925476E+02
 21
-8.21707492E+01
  0
LINE
  8
0
 62
4
 10
1.37925476E+02
 20
-7.81707492E+01
 11
1.38425476E+02
 21
-7.76707492E+01
  0
LINE
  8
0
 62
4
 10
1.37925476E+02
 20
-8.21707492E+01
 11
1.38425476E+02
 21
-8.26707492E+01
  0
LINE
  8
0
 62
4
 10
1.38425476E+02
 20
-7.76707492E+01
 11
1.38425476E+02
 21
-7.86707492E+01
  0
LINE
  8
0
 62
4
 10
1.38425476E+02
 20
-8.16707492E+01
 11
1.38425476E+02
 21
-8.26707492E+01
  0
LINE
  8
0
 62
4
 10
1.36425476E+02
 20
-7.81707492E+01
 11
1.36425476E+02
 21
-8.21707492E+01
  0
LINE
  8
0
 62
6
 10
1.36425476E+02
 20
-7.85207492E+01
 11
1.37035476E+02
 21
-7.81707492E+01
  0
LINE
  8
0
 62
6
 10
1.36425476E+02
 20
-8.18207492E+01
 11
1.37035476E+02
 21
-8.21707492E+01
  0
LINE
  8
0
 62
4
 10
1.35625476E+02
 20
-7.81707492E+01
 11
1.37925476E+02
 21
-7.81707492E+01
  0
LINE
  8
0
 62
6
 10
1.35625476E+02
 20
-7.85207492E+01
 11
1.36425476E+02
 21
-7.85207492E+01
  0
LINE
  8
0
 62
6
 10
1.35625476E+02
 20
-8.18207492E+01
 11
1.36425476E+02
 21
-8.18207492E+01
  0
LINE
  8
0
 62
4
 10
1.35625476E+02
 20
-8.21707492E+01
 11
1.37925476E+02
 21
-8.21707492E+01
  0
LINE
  8
0
 62
4
 10
1.31925476E+02
 20
-7.51707492E+01
 11
1.31925476E+02
 21
-8.51707492E+01
  0
LINE
  8
0
 62
4
 10
1.33225476E+02
 20
-7.51707492E+01
 11
1.33225476E+02
 21
-8.51707492E+01
  0
LINE
  8
0
 62
4
 10
1.31925476E+02
 20
-7.51707492E+01
 11
1.33225476E+02
 21
-7.51707492E+01
  0
LINE
  8
0
 62
4
 10
1.31925476E+02
 20
-8.51707492E+01
 11
1.33225476E+02
 21
-8.51707492E+01
  0
LINE
  8
0
 62
4
 10
1.33545476E+02
 20
-7.61307492E+01
 11
1.35315476E+02
 21
-7.61307492E+01
  0
LINE
  8
0
 62
4
 10
1.33225476E+02
 20
-7.66707492E+01
 11
1.33545476E+02
 21
-7.61307492E+01
  0
LINE
  8
0
 62
4
 10
1.33545476E+02
 20
-7.81507492E+01
 11
1.35315476E+02
 21
-7.81507492E+01
  0
LINE
  8
0
 62
4
 10
1.33545476E+02
 20
-8.21907492E+01
 11
1.35315476E+02
 21
-8.21907492E+01
  0
LINE
  8
0
 62
4
 10
1.33545476E+02
 20
-8.42207492E+01
 11
1.35315476E+02
 21
-8.42207492E+01
  0
LINE
  8
0
 62
4
 10
1.33225476E+02
 20
-8.36707492E+01
 11
1.33545476E+02
 21
-8.42207492E+01
  0
LINE
  8
0
 62
4
 10
1.35625476E+02
 20
-8.36707492E+01
 11
1.35315476E+02
 21
-8.42207492E+01
  0
LINE
  8
0
 62
4
 10
1.35625476E+02
 20
-7.66707492E+01
 11
1.35315476E+02
 21
-7.61307492E+01
  0
LINE
  8
0
 62
4
 10
1.35625476E+02
 20
-7.66707492E+01
 11
1.35625476E+02
 21
-8.36707492E+01
  0
LINE
  8
0
 62
4
 10
1.22245476E+02
 20
-7.81507492E+01
 11
1.31515476E+02
 21
-7.81507492E+01
  0
LINE
  8
0
 62
4
 10
1.22245476E+02
 20
-7.61307492E+01
 11
1.31515476E+02
 21
-7.61307492E+01
  0
LINE
  8
0
 62
4
 10
1.22245476E+02
 20
-8.21907492E+01
 11
1.31515476E+02
 21
-8.21907492E+01
  0
LINE
  8
0
 62
4
 10
1.22245476E+02
 20
-8.42207492E+01
 11
1.31515476E+02
 21
-8.42207492E+01
  0
LINE
  8
0
 62
4
 10
1.31825476E+02
 20
-8.36707492E+01
 11
1.31515476E+02
 21
-8.42207492E+01
  0
LINE
  8
0
 62
4
 10
1.31825476E+02
 20
-7.66707492E+01
 11
1.31515476E+02
 21
-7.61307492E+01
  0
ARC
  8
0
 62
4
 10
1.33836801E+02
 20
-8.32068746E+01
 40
1.79415492E+00
 50
3.34447945E+02
 51
3.44963155E+01
  0
ARC
  8
0
 62
4
 10
1.40425492E+02
 20
-8.01707492E+01
 40
2.50001221E+00
 50
1.43130312E+02
 51
2.16869688E+02
  0
ARC
  8
0
 62
4
 10
1.28938083E+02
 20
-8.01707492E+01
 40
6.68965947E+00
 50
3.42424723E+02
 51
1.75752774E+01
  0
ARC
  8
0
 62
4
 10
1.33836473E+02
 20
-7.71389174E+01
 40
1.79199759E+00
 50
3.25622773E+02
 51
2.53829241E+01
  0
ARC
  8
0
 62
4
 10
1.35014232E+02
 20
-8.32060988E+01
 40
1.78554702E+00
 50
1.45343927E+02
 51
2.05711813E+02
  0
ARC
  8
0
 62
4
 10
1.35014563E+02
 20
-7.71396974E+01
 40
1.78337882E+00
 50
1.54457851E+02
 51
2.14536452E+02
  0
ARC
  8
0
 62
4
 10
1.39912876E+02
 20
-8.01707492E+01
 40
6.68013276E+00
 50
1.62398839E+02
 51
1.97601161E+02
  0
ARC
  8
0
 62
4
 10
1.30036432E+02
 20
-7.71407492E+01
 40
1.79099764E+00
 50
3.25671874E+02
 51
3.43281262E+01
  0
ARC
  8
0
 62
4
 10
1.25138117E+02
 20
-8.01707492E+01
 40
6.68962747E+00
 50
3.42424636E+02
 51
1.75753642E+01
  0
ARC
  8
0
 62
4
 10
1.30036429E+02
 20
-8.32057492E+01
 40
1.79382470E+00
 50
3.25540045E+02
 51
3.44599544E+01
  0
LINE
  8
0
 62
4
 10
1.31925476E+02
 20
-7.68449245E+01
 11
1.31925476E+02
 21
-8.38449245E+01
  0
ARC
  8
0
 62
4
 10
1.23714546E+02
 20
-8.32057492E+01
 40
1.78560603E+00
 50
1.45358872E+02
 51
2.14641128E+02
  0
ARC
  8
0
 62
4
 10
1.28612857E+02
 20
-8.01707492E+01
 40
6.68011531E+00
 50
1.62398792E+02
 51
1.97601208E+02
  0
ARC
  8
0
 62
4
 10
1.23714542E+02
 20
-7.71407492E+01
 40
1.78276594E+00
 50
1.45491021E+02
 51
2.14508980E+02
  0
LINE
  8
0
 62
4
 10
1.21925476E+02
 20
-8.36707492E+01
 11
1.22245476E+02
 21
-8.42207492E+01
  0
LINE
  8
0
 62
4
 10
1.21925476E+02
 20
-7.66707492E+01
 11
1.22245476E+02
 21
-7.61307492E+01
  0
LINE
  8
0
 62
4
 10
1.41925476E+02
 20
-7.76707492E+01
 11
1.41925476E+02
 21
-8.26707492E+01
  0
TEXT
  8
0
 62
7
 10
-5.59000000E+01
 20
-2.75000000E+01
 40
3.20000005E+00
  1
0
 41
1.00000000E+00
  7
MONOTXT
  0
TEXT
  8
0
 62
7
 10
-7.49000000E+01
 20
-2.75000000E+01
 40
3.20000005E+00
  1
0
 41
1.00000000E+00
  7
MONOTXT
  0
TEXT
  8
0
 62
7
 10
-9.39000000E+01
 20
-2.75000000E+01
 40
3.20000005E+00
  1
0
 41
1.00000000E+00
  7
MONOTXT
  0
TEXT
  8
0
 62
7
 10
-1.14500000E+02
 20
-2.75000000E+01
 40
3.20000005E+00
  1
-5
 41
1.00000000E+00
  7
MONOTXT
  0
TEXT
  8
0
 62
7
 10
-1.35100000E+02
 20
-2.75000000E+01
 40
3.20000005E+00
  1
-10
 41
1.00000000E+00
  7
MONOTXT
  0
TEXT
  8
0
 62
7
 10
-1.54100000E+02
 20
-2.75000000E+01
 40
3.20000005E+00
  1
-12
 41
1.00000000E+00
  7
MONOTXT
  0
TEXT
  8
0
 62
7
 10
-1.75500000E+02
 20
-2.23000000E+01
 40
3.20000005E+00
  1
A
 41
1.00000000E+00
  7
MONOTXT
  0
TEXT
  8
0
 62
7
 10
-1.87587501E+02
 20
-1.15059304E+01
 40
3.20000005E+00
  1
STRETCH
 41
1.00000000E+00
  7
MONOTXT
  0
TEXT
  8
0
 62
7
 10
-1.87587501E+02
 20
-1.67059302E+01
 40
3.20000005E+00
  1
  PLACE
 41
1.20689655E+00
  7
MONOTXT
  0
LINE
  8
0
 62
7
 10
-1.65218991E+02
 20
-7.70000000E+00
 11
-1.59250000E+02
 21
-1.81000000E+01
  0
LINE
  8
0
 62
7
 10
-1.89250000E+02
 20
-7.70000000E+00
 11
-1.65218991E+02
 21
-7.70000000E+00
  0
LINE
  8
0
 62
7
 10
-1.89250000E+02
 20
-1.81000000E+01
 11
-4.52500000E+01
 21
-1.81000000E+01
  0
TEXT
  8
0
 62
6
 10
-1.27351094E+02
 20
-9.61167700E+01
 40
3.20000005E+00
  1
LEVER
 41
1.00000000E+00
  7
MONOTXT
  0
INSERT
  8
0
  2
ARROW
  6
BYBLOCK
 62
6
 10
-1.39074524E+02
 20
-8.01707492E+01
 41
1.00000000E+00
 42
1.00000000E+00
 50
3.00000000E+02
  0
POLYLINE
  8
0
 62
6
 66
1
  0
VERTEX
  8
0
 62
6
 10
-1.39074524E+02
 20
-8.01707492E+01
  0
VERTEX
  8
0
 62
6
 10
-1.28713384E+02
 20
-9.81167699E+01
  0
VERTEX
  8
0
 62
6
 10
-1.11701094E+02
 20
-9.81167699E+01
  0
SEQEND
  8
0
  0
LINE
  8
0
 62
7
 10
-1.49074524E+02
 20
-9.16707492E+01
 11
-1.46601063E+02
 21
-9.16707492E+01
  0
LINE
  8
0
 62
2
 10
-1.43074524E+02
 20
-7.16707492E+01
 11
-1.46601063E+02
 21
-9.16707492E+01
  0
LINE
  8
0
 62
7
 10
-1.49074524E+02
 20
-7.16707492E+01
 11
-1.43074524E+02
 21
-7.16707492E+01
  0
TEXT
  8
0
 62
6
 10
-3.13510943E+01
 20
-9.61167700E+01
 40
3.20000005E+00
  1
LEVER
 41
1.00000000E+00
  7
MONOTXT
  0
INSERT
  8
0
  2
ARROW
  6
BYBLOCK
 62
6
 10
-4.30745235E+01
 20
-8.01707492E+01
 41
1.00000000E+00
 42
1.00000000E+00
 50
3.00000000E+02
  0
POLYLINE
  8
0
 62
6
 66
1
  0
VERTEX
  8
0
 62
6
 10
-4.30745235E+01
 20
-8.01707492E+01
  0
VERTEX
  8
0
 62
6
 10
-3.27133836E+01
 20
-9.81167699E+01
  0
VERTEX
  8
0
 62
6
 10
-1.57010941E+01
 20
-9.81167699E+01
  0
SEQEND
  8
0
  0
LINE
  8
0
 62
7
 10
-5.30745235E+01
 20
-9.16707492E+01
 11
-5.06010631E+01
 21
-9.16707492E+01
  0
LINE
  8
0
 62
2
 10
-4.70745235E+01
 20
-7.16707492E+01
 11
-5.06010631E+01
 21
-9.16707492E+01
  0
LINE
  8
0
 62
7
 10
-5.30745235E+01
 20
-7.16707492E+01
 11
-4.70745235E+01
 21
-7.16707492E+01
  0
TEXT
  8
0
 62
6
 10
1.63648906E+02
 20
-9.61167700E+01
 40
3.20000005E+00
  1
LEVER
 41
1.00000000E+00
  7
MONOTXT
  0
INSERT
  8
0
  2
ARROW
  6
BYBLOCK
 62
6
 10
1.51925476E+02
 20
-8.01707492E+01
 41
1.00000000E+00
 42
1.00000000E+00
 50
3.00000000E+02
  0
POLYLINE
  8
0
 62
6
 66
1
  0
VERTEX
  8
0
 62
6
 10
1.51925476E+02
 20
-8.01707492E+01
  0
VERTEX
  8
0
 62
6
 10
1.62286616E+02
 20
-9.81167699E+01
  0
VERTEX
  8
0
 62
6
 10
1.79298906E+02
 20
-9.81167699E+01
  0
SEQEND
  8
0
  0
LINE
  8
0
 62
7
 10
1.41925476E+02
 20
-9.16707492E+01
 11
1.44398937E+02
 21
-9.16707492E+01
  0
LINE
  8
0
 62
2
 10
1.47925476E+02
 20
-7.16707492E+01
 11
1.44398937E+02
 21
-9.16707492E+01
  0
LINE
  8
0
 62
7
 10
1.41925476E+02
 20
-7.16707492E+01
 11
1.47925476E+02
 21
-7.16707492E+01
  0
TEXT
  8
0
 62
6
 10
6.76489057E+01
 20
-9.61167700E+01
 40
3.20000005E+00
  1
LEVER
 41
1.00000000E+00
  7
MONOTXT
  0
INSERT
  8
0
  2
ARROW
  6
BYBLOCK
 62
6
 10
5.59254765E+01
 20
-8.01707492E+01
 41
1.00000000E+00
 42
1.00000000E+00
 50
3.00000000E+02
  0
POLYLINE
  8
0
 62
6
 66
1
  0
VERTEX
  8
0
 62
6
 10
5.59254765E+01
 20
-8.01707492E+01
  0
VERTEX
  8
0
 62
6
 10
6.62866164E+01
 20
-9.81167699E+01
  0
VERTEX
  8
0
 62
6
 10
8.32989059E+01
 20
-9.81167699E+01
  0
SEQEND
  8
0
  0
LINE
  8
0
 62
2
 10
5.19254765E+01
 20
-7.16707492E+01
 11
4.83989369E+01
 21
-9.16707492E+01
  0
TEXT
  8
0
 10
1.30760787E+01
 20
1.03135674E+02
 40
3.20000005E+00
  1
STRETCH LINE B
 41
1.09375000E+00
  7
MONOTXT
  0
TEXT
  8
0
 62
7
 10
-1.87587502E+02
 20
-6.42692442E+00
 40
3.20000005E+00
  1
STROKE
 41
1.20000010E+00
  7
MONOTXT
  0
TEXT
  8
0
 62
7
 10
1.43738550E+02
 20
-1.08717720E+02
 40
4.50000000E+00
  1
D-8
 41
1.00000000E+00
  7
MONOTXT
  0
TEXT
  8
0
 62
7
 10
4.67385495E+01
 20
-1.08717720E+02
 40
4.50000000E+00
  1
D-7
 41
1.00000000E+00
  7
MONOTXT
  0
TEXT
  8
0
 62
7
 10
-5.22614505E+01
 20
-1.08717720E+02
 40
4.50000000E+00
  1
D-6
 41
1.00000000E+00
  7
MONOTXT
  0
TEXT
  8
0
 62
7
 10
-1.48261450E+02
 20
-1.08717720E+02
 40
4.50000000E+00
  1
D-5
 41
1.00000000E+00
  7
MONOTXT
  0
TEXT
  8
0
 10
-4.19239213E+01
 20
1.03135674E+02
 40
3.20000005E+00
  1
STRETCH LINE A
 41
1.09375000E+00
  7
MONOTXT
  0
TEXT
  8
0
 62
2
 10
7.67164746E+01
 20
5.80071287E+01
 40
3.20000005E+00
  1
LEVER
 41
1.00000000E+00
  7
MONOTXT
  0
INSERT
  8
0
  2
ARROW
  6
BYBLOCK
 62
2
 10
6.17797988E+01
 20
7.80957708E+01
 41
1.00000000E+00
 42
1.00000000E+00
 50
3.00000000E+02
  0
POLYLINE
  8
0
 62
2
 66
1
  0
VERTEX
  8
0
 62
2
 10
6.17797988E+01
 20
7.80957708E+01
  0
VERTEX
  8
0
 62
2
 10
7.45326822E+01
 20
5.60071288E+01
  0
VERTEX
  8
0
 62
2
 10
9.23664749E+01
 20
5.60071288E+01
  0
SEQEND
  8
0
  0
TEXT
  8
0
 62
2
 10
7.67164746E+01
 20
8.00712864E+00
 40
3.20000005E+00
  1
LEVER
 41
1.00000000E+00
  7
MONOTXT
  0
INSERT
  8
0
  2
ARROW
  6
BYBLOCK
 62
2
 10
6.17797988E+01
 20
2.80957708E+01
 41
1.00000000E+00
 42
1.00000000E+00
 50
3.00000000E+02
  0
POLYLINE
  8
0
 62
2
 66
1
  0
VERTEX
  8
0
 62
2
 10
6.17797988E+01
 20
2.80957708E+01
  0
VERTEX
  8
0
 62
2
 10
7.45326822E+01
 20
6.00712877E+00
  0
VERTEX
  8
0
 62
2
 10
9.23664749E+01
 20
6.00712877E+00
  0
SEQEND
  8
0
  0
TEXT
  8
0
 62
7
 10
-9.39083156E+00
 20
5.41044524E+01
 40
4.50000000E+00
  1
D-4
 41
1.00000000E+00
  7
MONOTXT
  0
TEXT
  8
0
 62
7
 10
1.08609168E+02
 20
6.10445239E+00
 40
4.50000000E+00
  1
D-3
 41
1.00000000E+00
  7
MONOTXT
  0
TEXT
  8
0
 62
7
 10
-1.24390832E+02
 20
6.10445239E+00
 40
4.50000000E+00
  1
D-2
 41
1.00000000E+00
  7
MONOTXT
  0
TEXT
  8
0
 62
7
 10
-9.39083156E+00
 20
6.10445239E+00
 40
4.50000000E+00
  1
D-1
 41
1.00000000E+00
  7
MONOTXT
  0
TEXT
  8
0
 62
6
 10
1.14502668E+02
 20
-5.90946491E+01
 40
3.20000005E+00
  1
PIVOT
 41
1.00000000E+00
  7
MONOTXT
  0
INSERT
  8
0
  2
ARROW
  6
BYBLOCK
 62
6
 10
1.41925476E+02
 20
-8.01707492E+01
 41
1.00000000E+00
 42
1.00000000E+00
 50
1.19999999E+02
  0
POLYLINE
  8
0
 62
6
 66
1
  0
VERTEX
  8
0
 62
6
 10
1.41925476E+02
 20
-8.01707492E+01
  0
VERTEX
  8
0
 62
6
 10
1.30911885E+02
 20
-6.10946490E+01
  0
VERTEX
  8
0
 62
6
 10
1.14152668E+02
 20
-6.10946490E+01
  0
SEQEND
  8
0
  0
TEXT
  8
0
 62
6
 10
1.85026677E+01
 20
-5.90946491E+01
 40
3.20000005E+00
  1
PIVOT
 41
1.00000000E+00
  7
MONOTXT
  0
INSERT
  8
0
  2
ARROW
  6
BYBLOCK
 62
6
 10
4.59254765E+01
 20
-8.01707492E+01
 41
1.00000000E+00
 42
1.00000000E+00
 50
1.20000000E+02
  0
POLYLINE
  8
0
 62
6
 66
1
  0
VERTEX
  8
0
 62
6
 10
4.59254765E+01
 20
-8.01707492E+01
  0
VERTEX
  8
0
 62
6
 10
3.49118849E+01
 20
-6.10946490E+01
  0
VERTEX
  8
0
 62
6
 10
1.81526677E+01
 20
-6.10946490E+01
  0
SEQEND
  8
0
  0
TEXT
  8
0
 62
6
 10
-8.04973323E+01
 20
-5.90946491E+01
 40
3.20000005E+00
  1
PIVOT
 41
1.00000000E+00
  7
MONOTXT
  0
INSERT
  8
0
  2
ARROW
  6
BYBLOCK
 62
6
 10
-5.30745235E+01
 20
-8.01707492E+01
 41
1.00000000E+00
 42
1.00000000E+00
 50
1.20000000E+02
  0
POLYLINE
  8
0
 62
6
 66
1
  0
VERTEX
  8
0
 62
6
 10
-5.30745235E+01
 20
-8.01707492E+01
  0
VERTEX
  8
0
 62
6
 10
-6.40881151E+01
 20
-6.10946490E+01
  0
VERTEX
  8
0
 62
6
 10
-8.08473323E+01
 20
-6.10946490E+01
  0
SEQEND
  8
0
  0
TEXT
  8
0
 62
6
 10
-1.76497332E+02
 20
-5.90946491E+01
 40
3.20000005E+00
  1
PIVOT
 41
1.00000000E+00
  7
MONOTXT
  0
INSERT
  8
0
  2
ARROW
  6
BYBLOCK
 62
6
 10
-1.49074524E+02
 20
-8.01707492E+01
 41
1.00000000E+00
 42
1.00000000E+00
 50
1.19999999E+02
  0
POLYLINE
  8
0
 62
6
 66
1
  0
VERTEX
  8
0
 62
6
 10
-1.49074524E+02
 20
-8.01707492E+01
  0
VERTEX
  8
0
 62
6
 10
-1.60088115E+02
 20
-6.10946490E+01
  0
VERTEX
  8
0
 62
6
 10
-1.76847332E+02
 20
-6.10946490E+01
  0
SEQEND
  8
0
  0
TEXT
  8
0
 62
2
 10
1.37716475E+02
 20
8.70712867E+00
 40
3.20000005E+00
  1
LEVER
 41
1.00000000E+00
  7
MONOTXT
  0
INSERT
  8
0
  2
ARROW
  6
BYBLOCK
 62
2
 10
1.22779799E+02
 20
2.87957708E+01
 41
1.00000000E+00
 42
1.00000000E+00
 50
2.99999999E+02
  0
POLYLINE
  8
0
 62
2
 66
1
  0
VERTEX
  8
0
 62
2
 10
1.22779799E+02
 20
2.87957708E+01
  0
VERTEX
  8
0
 62
2
 10
1.35532682E+02
 20
6.70712877E+00
  0
VERTEX
  8
0
 62
2
 10
1.53366475E+02
 20
6.70712877E+00
  0
SEQEND
  8
0
  0
TEXT
  8
0
 62
2
 10
1.31315940E+02
 20
5.47444676E+01
 40
3.20000005E+00
  1
PIVOT
 41
1.00000000E+00
  7
MONOTXT
  0
INSERT
  8
0
  2
ARROW
  6
BYBLOCK
 62
2
 10
1.15779799E+02
 20
2.80957708E+01
 41
1.00000000E+00
 42
1.00000000E+00
 50
5.99999996E+01
  0
POLYLINE
  8
0
 62
2
 66
1
  0
VERTEX
  8
0
 62
2
 10
1.15779799E+02
 20
2.80957708E+01
  0
VERTEX
  8
0
 62
2
 10
1.30010731E+02
 20
5.27444677E+01
  0
VERTEX
  8
0
 62
2
 10
1.46965941E+02
 20
5.27444677E+01
  0
SEQEND
  8
0
  0
TEXT
  8
0
 62
2
 10
-7.22002982E+01
 20
1.04744468E+02
 40
3.20000005E+00
  1
PIVOT
 41
1.00000000E+00
  7
MONOTXT
  0
INSERT
  8
0
  2
ARROW
  6
BYBLOCK
 62
2
 10
-4.12202012E+01
 20
7.80957708E+01
 41
1.00000000E+00
 42
1.00000000E+00
 50
1.20000000E+02
  0
POLYLINE
  8
0
 62
2
 66
1
  0
VERTEX
  8
0
 62
2
 10
-4.12202012E+01
 20
7.80957708E+01
  0
VERTEX
  8
0
 62
2
 10
-5.54511330E+01
 20
1.02744468E+02
  0
VERTEX
  8
0
 62
2
 10
-7.25502982E+01
 20
1.02744468E+02
  0
SEQEND
  8
0
  0
TEXT
  8
0
 62
2
 10
-7.22002982E+01
 20
5.47444676E+01
 40
3.20000005E+00
  1
PIVOT
 41
1.00000000E+00
  7
MONOTXT
  0
INSERT
  8
0
  2
ARROW
  6
BYBLOCK
 62
2
 10
-4.12202012E+01
 20
2.80957708E+01
 41
1.00000000E+00
 42
1.00000000E+00
 50
1.20000000E+02
  0
POLYLINE
  8
0
 62
2
 66
1
  0
VERTEX
  8
0
 62
2
 10
-4.12202012E+01
 20
2.80957708E+01
  0
VERTEX
  8
0
 62
2
 10
-5.54511330E+01
 20
5.27444677E+01
  0
VERTEX
  8
0
 62
2
 10
-7.25502982E+01
 20
5.27444677E+01
  0
SEQEND
  8
0
  0
TEXT
  8
0
 62
2
 10
-9.17835254E+01
 20
8.00712864E+00
 40
3.20000005E+00
  1
LEVER
 41
1.00000000E+00
  7
MONOTXT
  0
INSERT
  8
0
  2
ARROW
  6
BYBLOCK
 62
2
 10
-1.06720201E+02
 20
2.80957708E+01
 41
1.00000000E+00
 42
1.00000000E+00
 50
3.00000000E+02
  0
POLYLINE
  8
0
 62
2
 66
1
  0
VERTEX
  8
0
 62
2
 10
-1.06720201E+02
 20
2.80957708E+01
  0
VERTEX
  8
0
 62
2
 10
-9.39673178E+01
 20
6.00712877E+00
  0
VERTEX
  8
0
 62
2
 10
-7.61335251E+01
 20
6.00712877E+00
  0
SEQEND
  8
0
  0
TEXT
  8
0
 62
2
 10
-1.50200298E+02
 20
5.47444676E+01
 40
3.20000005E+00
  1
PIVOT
 41
1.00000000E+00
  7
MONOTXT
  0
INSERT
  8
0
  2
ARROW
  6
BYBLOCK
 62
2
 10
-1.19220201E+02
 20
2.80957708E+01
 41
1.00000000E+00
 42
1.00000000E+00
 50
1.20000000E+02
  0
POLYLINE
  8
0
 62
2
 66
1
  0
VERTEX
  8
0
 62
2
 10
-1.19220201E+02
 20
2.80957708E+01
  0
VERTEX
  8
0
 62
2
 10
-1.33451133E+02
 20
5.27444677E+01
  0
VERTEX
  8
0
 62
2
 10
-1.50550298E+02
 20
5.27444677E+01
  0
SEQEND
  8
0
  0
TEXT
  8
0
 62
7
 10
1.43318753E+02
 20
-3.76000000E+01
 40
3.20000005E+00
  1
P8
 41
1.00000000E+00
  7
MONOTXT
  0
TEXT
  8
0
 62
7
 10
4.60562519E+01
 20
-3.76000000E+01
 40
3.20000005E+00
  1
P6
 41
1.00000000E+00
  7
MONOTXT
  0
TEXT
  8
0
 62
7
 10
-5.44062490E+01
 20
-3.76000000E+01
 40
3.20000005E+00
  1
P3.5
 41
1.00000000E+00
  7
MONOTXT
  0
TEXT
  8
0
 62
7
 10
-1.48468750E+02
 20
-3.76000000E+01
 40
3.20000005E+00
  1
P2
 41
1.00000000E+00
  7
MONOTXT
  0
LINE
  8
0
 62
7
 10
4.59254765E+01
 20
-7.16707492E+01
 11
5.19254765E+01
 21
-7.16707492E+01
  0
LINE
  8
0
 62
7
 10
4.59254765E+01
 20
-9.16707492E+01
 11
4.83989369E+01
 21
-9.16707492E+01
  0
LINE
  8
0
 62
7
 10
1.41925476E+02
 20
-7.16707492E+01
 11
1.41925476E+02
 21
-9.16707492E+01
  0
LINE
  8
0
 62
7
 10
4.59254765E+01
 20
-7.16707492E+01
 11
4.59254765E+01
 21
-9.16707492E+01
  0
LINE
  8
0
 62
7
 10
-5.30745235E+01
 20
-7.16707492E+01
 11
-5.30745235E+01
 21
-9.16707492E+01
  0
LINE
  8
0
 62
7
 10
-1.49074524E+02
 20
-7.16707492E+01
 11
-1.49074524E+02
 21
-9.16707492E+01
  0
TEXT
  8
0
 62
7
 10
-1.75500000E+02
 20
-2.75000000E+01
 40
3.20000005E+00
  1
B
 41
1.00000000E+00
  7
MONOTXT
  0
TEXT
  8
0
 62
7
 10
-5.59000000E+01
 20
-2.23000000E+01
 40
3.20000005E+00
  1
0
 41
1.00000000E+00
  7
MONOTXT
  0
TEXT
  8
0
 62
7
 10
-5.75000000E+01
 20
-1.19000000E+01
 40
3.20000005E+00
  1
30
 41
1.00000000E+00
  7
MONOTXT
  0
TEXT
  8
0
 62
7
 10
-7.65000000E+01
 20
-2.23000000E+01
 40
3.20000005E+00
  1
-5
 41
1.00000000E+00
  7
MONOTXT
  0
TEXT
  8
0
 62
7
 10
-7.65000000E+01
 20
-1.19000000E+01
 40
3.20000005E+00
  1
25
 41
1.00000000E+00
  7
MONOTXT
  0
TEXT
  8
0
 62
7
 10
-9.71000001E+01
 20
-2.23000000E+01
 40
3.20000005E+00
  1
-10
 41
1.00000000E+00
  7
MONOTXT
  0
TEXT
  8
0
 62
7
 10
-9.55000000E+01
 20
-1.19000000E+01
 40
3.20000005E+00
  1
20
 41
1.00000000E+00
  7
MONOTXT
  0
LINE
  8
0
 62
7
 10
-6.42500000E+01
 20
-2.50000000E+00
 11
-6.42500000E+01
 21
-2.85000000E+01
  0
LINE
  8
0
 62
7
 10
-8.32500000E+01
 20
-2.50000000E+00
 11
-8.32500000E+01
 21
-2.85000000E+01
  0
LINE
  8
0
 62
7
 10
-1.02250000E+02
 20
-2.50000000E+00
 11
-1.02250000E+02
 21
-2.85000000E+01
  0
TEXT
  8
0
 62
7
 10
-1.14500000E+02
 20
-1.19000000E+01
 40
3.20000005E+00
  1
15
 41
1.00000000E+00
  7
MONOTXT
  0
TEXT
  8
0
 62
7
 10
-1.33500000E+02
 20
-1.19000000E+01
 40
3.20000005E+00
  1
10
 41
1.00000000E+00
  7
MONOTXT
  0
TEXT
  8
0
 62
7
 10
-1.50900000E+02
 20
-1.19000000E+01
 40
3.20000005E+00
  1
5
 41
1.00000000E+00
  7
MONOTXT
  0
LINE
  8
0
 62
7
 10
-4.52500000E+01
 20
-2.50000000E+00
 11
-4.52500000E+01
 21
-2.85000000E+01
  0
LINE
  8
0
 62
7
 10
-1.21250000E+02
 20
-2.50000000E+00
 11
-1.21250000E+02
 21
-2.85000000E+01
  0
LINE
  8
0
 62
7
 10
-1.40250000E+02
 20
-2.50000000E+00
 11
-1.40250000E+02
 21
-2.85000000E+01
  0
LINE
  8
0
 62
7
 10
-1.59250000E+02
 20
-2.50000000E+00
 11
-1.59250000E+02
 21
-2.85000000E+01
  0
LINE
  8
0
 62
7
 10
-1.89250000E+02
 20
-2.50000000E+00
 11
-1.89250000E+02
 21
-2.85000000E+01
  0
LINE
  8
0
 62
7
 10
-1.89250000E+02
 20
-2.33000000E+01
 11
-4.52500000E+01
 21
-2.33000000E+01
  0
LINE
  8
0
 62
7
 10
-1.89250000E+02
 20
-2.50000000E+00
 11
-4.52500000E+01
 21
-2.50000000E+00
  0
LINE
  8
0
 62
7
 10
-1.89250000E+02
 20
-2.85000000E+01
 11
-4.52500000E+01
 21
-2.85000000E+01
  0
TEXT
  8
0
 62
7
 10
-1.35100000E+02
 20
-2.23000000E+01
 40
3.20000005E+00
  1
-20
 41
1.00000000E+00
  7
MONOTXT
  0
TEXT
  8
0
 62
7
 10
-1.16100000E+02
 20
-2.23000000E+01
 40
3.20000005E+00
  1
-15
 41
1.00000000E+00
  7
MONOTXT
  0
TEXT
  8
0
 62
7
 10
-1.54100000E+02
 20
-2.23000000E+01
 40
3.20000005E+00
  1
-25
 41
1.00000000E+00
  7
MONOTXT
  0
TEXT
  8
0
 62
7
 10
-5.65000001E+01
 20
8.99999975E-01
 40
3.20000005E+00
  1
(mm)
 41
1.00000000E+00
  7
MONOTXT
  0
TEXT
  8
0
 62
7
 10
-1.36700000E+02
 20
8.99999975E-01
 40
3.20000005E+00
  1
STRETCH LIST
 41
1.05263158E+00
  7
MONOTXT
  0
LINE
  8
0
 62
7
 10
9.75375023E+01
 20
-3.35000000E+01
 11
9.75375023E+01
 21
-1.33500000E+02
  0
LINE
  8
0
 62
7
 10
-9.69874992E+01
 20
-3.35000000E+01
 11
-9.69874992E+01
 21
-1.33500000E+02
  0
LINE
  8
0
 62
7
 10
2.75001526E-01
 20
-3.35000000E+01
 11
2.75001526E-01
 21
-1.33500000E+02
  0
LINE
  8
0
 62
7
 10
-1.94250000E+02
 20
-3.85000000E+01
 11
1.94800003E+02
 21
-3.85000000E+01
  0
LINE
  8
0
 62
7
 10
-1.94250000E+02
 20
-3.35000000E+01
 11
1.94800003E+02
 21
-3.35000000E+01
  0
TEXT
  8
0
 62
7
 10
-1.85214688E+02
 20
1.05350006E+02
 40
4.50000000E+00
  1
MODEL:BDAVS10*ST(30)
 41
1.00000000E+00
  7
MONOTXT
  0
LINE
  8
0
 62
7
 10
-1.94250000E+02
 20
1.32600006E+02
 11
1.94800003E+02
 21
1.32600006E+02
  0
LINE
  8
0
 62
7
 10
1.94800003E+02
 20
1.32600006E+02
 11
1.94800003E+02
 21
-1.33500000E+02
  0
LINE
  8
0
 62
7
 10
-1.94250000E+02
 20
1.32600006E+02
 11
-1.94250000E+02
 21
-1.33500000E+02
  0
LINE
  8
0
 62
7
 10
-1.94250000E+02
 20
-1.33500000E+02
 11
1.94800003E+02
 21
-1.33500000E+02
  0
LINE
  8
0
 62
7
 10
1.09800003E+02
 20
-1.18500000E+02
 11
1.09800003E+02
 21
-1.33500000E+02
  0
LINE
  8
0
 62
7
 10
1.09800003E+02
 20
-1.18500000E+02
 11
1.94800003E+02
 21
-1.18500000E+02
  0
LINE
  8
0
 62
7
 10
1.09800003E+02
 20
1.32600006E+02
 11
1.09800003E+02
 21
1.17600006E+02
  0
LINE
  8
0
 62
7
 10
1.09800003E+02
 20
1.17600006E+02
 11
1.94800003E+02
 21
1.17600006E+02
  0
LINE
  8
0
 62
7
 10
-1.94250000E+02
 20
1.17600006E+02
 11
-1.09250000E+02
 21
1.17600006E+02
  0
LINE
  8
0
 62
7
 10
-1.09250000E+02
 20
1.32600006E+02
 11
-1.09250000E+02
 21
1.17600006E+02
  0
TEXT
  8
0
 62
7
 10
1.34942863E+02
 20
1.22850006E+02
 40
4.50000000E+00
  1
Ver. 1.0
 41
1.08108085E+00
  7
MONOTXT
  0
TEXT
  8
0
 62
7
 10
1.15249739E+02
 20
-1.29150000E+02
 40
6.29999924E+00
  1
KOGANEI CORP.
 41
1.04838678E+00
  7
MONOTXT
  0
TEXT
  8
0
 62
7
 10
-1.91178750E+02
 20
1.22850006E+02
 40
4.50000000E+00
  1
MULTI MOUNT CYLINDER
 41
9.45626478E-01
  7
MONOTXT
  0
ENDSEC
  0
EOF
