  0
SECTION
  2
HEADER
  0
ENDSEC
  0
SECTION
  2
TABLES
  0
TABLE
  2
LTYPE
 70
     4
  0
LTYPE
  2
CONTINUOUS
 70
    64
  3
Solid line
 72
    65
 73
     0
 40
0.000000
  0
LTYPE
  2
DASHED
 70
    64
  3
__ __ __ __ __ __ __ __ __ __ __ __ __ __ __
 72
    65
 73
     2
 40
3.500000
 49
2.000000
 49
-1.500000
  0
LTYPE
  2
CENTER
 70
    64
  3
____ _ ____ _ ____ _ ____ _ ____ _ ____ _ ____
 72
    65
 73
     4
 40
17.500000
 49
13.000000
 49
-1.500000
 49
1.500000
 49
-1.500000
  0
LTYPE
  2
PHANTOM
 70
    64
  3
_____ _ _ _____ _ _ _____ _ _ _____ _ _ ____  
 72
    65
 73
     6
 40
15.500000
 49
8.000000
 49
-1.500000
 49
1.500000
 49
-1.500000
 49
1.500000
 49
-1.500000
  0
LTYPE
  2
DASHED1
 70
    64
  3
__ __ __ __ __ __ __ __ __ __ __ __ __ __ __
 72
    65
 73
     2
 40
1.500000
 49
1.000000
 49
-0.500000
  0
LTYPE
  2
DASHED2
 70
    64
  3
__ __ __ __ __ __ __ __ __ __ __ __ __ __ __
 72
    65
 73
     2
 40
3.500000
 49
2.500000
 49
-1.000000
  0
LTYPE
  2
DASHED3
 70
    64
  3
__ __ __ __ __ __ __ __ __ __ __ __ __ __ __
 72
    65
 73
     2
 40
6.000000
 49
4.000000
 49
-2.000000
  0
LTYPE
  2
DASHED4
 70
    64
  3
__ __ __ __ __ __ __ __ __ __ __ __ __ __ __
 72
    65
 73
     2
 40
12.000000
 49
10.000000
 49
-2.000000
  0
LTYPE
  2
DASHED5
 70
    64
  3
__ __ __ __ __ __ __ __ __ __ __ __ __ __ __
 72
    65
 73
     2
 40
17.000000
 49
15.000000
 49
-2.000000
  0
LTYPE
  2
DASHED6
 70
    64
  3
__ __ __ __ __ __ __ __ __ __ __ __ __ __ __
 72
    65
 73
     2
 40
29.000000
 49
27.000000
 49
-2.000000
  0
LTYPE
  2
PHANTOM1
 70
    64
  3
_____ _ _ _____ _ _ _____ _ _ _____ _ _ ____  
 72
    65
 73
     6
 40
31.000000
 49
25.000000
 49
-1.500000
 49
1.000000
 49
-1.000000
 49
1.000000
 49
-1.500000
  0
LTYPE
  2
PHANTOM2
 70
    64
  3
_____ _ _ _____ _ _ _____ _ _ _____ _ _ ____  
 72
    65
 73
     6
 40
36.000000
 49
27.000000
 49
-1.500000
 49
2.500000
 49
-1.000000
 49
2.500000
 49
-1.500000
  0
LTYPE
  2
PHANTOM3
 70
    64
  3
_____ _ _ _____ _ _ _____ _ _ _____ _ _ ____  
 72
    65
 73
     6
 40
78.000000
 49
64.000000
 49
-2.000000
 49
4.000000
 49
-2.000000
 49
4.000000
 49
-2.000000
  0
LTYPE
  2
CENTER1
 70
    64
  3
____ _ ____ _ ____ _ ____ _ ____ _ ____ _ ____
 72
    65
 73
     4
 40
19.000000
 49
14.000000
 49
-1.000000
 49
3.000000
 49
-1.000000
  0
LTYPE
  2
CENTER2
 70
    64
  3
____ _ ____ _ ____ _ ____ _ ____ _ ____ _ ____
 72
    65
 73
     4
 40
28.500000
 49
25.000000
 49
-1.000000
 49
1.500000
 49
-1.000000
  0
LTYPE
  2
CENTER3
 70
    64
  3
____ _ ____ _ ____ _ ____ _ ____ _ ____ _ ____
 72
    65
 73
     4
 40
31.500000
 49
27.000000
 49
-1.000000
 49
2.500000
 49
-1.000000
  0
LTYPE
  2
CENTER4
 70
    64
  3
____ _ ____ _ ____ _ ____ _ ____ _ ____ _ ____
 72
    65
 73
     4
 40
50.000000
 49
45.000000
 49
-1.000000
 49
3.000000
 49
-1.000000
  0
LTYPE
  2
CENTER5
 70
    64
  3
____ _ ____ _ ____ _ ____ _ ____ _ ____ _ ____
 72
    65
 73
     4
 40
100.000000
 49
92.000000
 49
-2.000000
 49
4.000000
 49
-2.000000
  0
LTYPE
  2
SBK1
 70
    64
  3
______ _ _ _ ______ _ _ _ ______ _ _ _ _____  
 72
    65
 73
     8
 40
60.500000
 49
45.000000
 49
-2.000000
 49
2.500000
 49
-2.000000
 49
2.500000
 49
-2.000000
 49
2.500000
 49
-2.000000
  0
LTYPE
  2
SBK2
 70
    64
  3
______ _ _ _ ______ _ _ _ ______ _ _ _ _____  
 72
    65
 73
     8
 40
84.000000
 49
64.000000
 49
-2.000000
 49
4.000000
 49
-2.000000
 49
4.000000
 49
-2.000000
 49
4.000000
 49
-2.000000
  0
LTYPE
  2
STCH
 70
    64
  3
__ __ __ __ __ __ __ __ __ __ __ __ __ __ __
 72
    65
 73
     2
 40
3.000000
 49
1.000000
 49
-2.000000
  0
LTYPE
  2
MTCH
 70
    64
  3
_____ _ _ _____ _ _ _____ _ _ _____ _ _ ____  
 72
    65
 73
     6
 40
80.000000
 49
66.000000
 49
-2.000000
 49
4.000000
 49
-2.000000
 49
4.000000
 49
-2.000000
  0
ENDTAB
  0
TABLE
  2
LAYER
 70
     1
  0
LAYER
  2
0
 70
     0
 62
     7
  6
CONTINUOUS
  0
ENDTAB
  0
TABLE
  2
STYLE
 70
     1
  0
STYLE
  2
STANDARD
 70
     0
 40
0.000000
 41
1.000000
 50
0.000000
 71
     0
 42
0.200000
  3
txt
  4
BIGFONT
  0
ENDTAB
  0
TABLE
  2
VIEW
 70
     0
  0
ENDTAB
  0
ENDSEC
  0
SECTION
  2
BLOCKS
  0
ENDSEC
  0
SECTION
  2
ENTITIES
  0
LINE
  8
0
 10
2.289143
 20
0.564884
 11
3.589143
 21
0.564884
  0
LINE
  8
0
 10
2.289143
 20
10.764884
 11
3.589143
 21
10.764884
  0
LINE
  8
0
 10
1.939139
 20
8.814884
 11
1.939139
 21
2.514884
  0
LINE
  8
0
 10
1.939139
 20
108.814880
 11
1.939139
 21
102.514885
  0
LINE
  8
0
  6
CENTER
 62
     2
 10
-5.660858
 20
105.664886
 11
76.339142
 21
105.664886
  0
LINE
  8
0
 10
-2.660857
 20
107.164886
 11
-2.660857
 21
104.164886
  0
LINE
  8
0
  6
CENTER
 62
     2
 10
-5.660858
 20
5.664884
 11
76.339142
 21
5.664884
  0
LINE
  8
0
  6
CENTER
 62
     2
 10
107.339142
 20
5.664884
 11
127.339142
 21
5.664884
  0
LINE
  8
0
  6
CENTER
 62
     2
 10
117.339142
 20
20.664885
 11
117.339142
 21
-9.335116
  0
LINE
  8
0
 10
73.339142
 20
17.664885
 11
73.339142
 21
-6.335116
  0
LINE
  8
0
  6
CENTER
 62
     2
 10
-57.660858
 20
20.664885
 11
-57.660858
 21
-9.335116
  0
LINE
  8
0
  6
CENTER
 62
     2
 10
-67.660858
 20
5.664884
 11
-47.660858
 21
5.664884
  0
LINE
  8
0
 10
-50.660858
 20
17.664885
 11
-50.660858
 21
-6.335116
  0
LINE
  8
0
 10
-64.660858
 20
17.664885
 11
-64.660858
 21
-6.335116
  0
LINE
  8
0
 10
-64.660858
 20
17.664885
 11
-50.660858
 21
17.664885
  0
LINE
  8
0
 10
-64.660858
 20
-6.335116
 11
-50.660858
 21
-6.335116
  0
LINE
  8
0
 10
-51.160858
 20
14.164884
 11
-51.160858
 21
-5.835116
  0
LINE
  8
0
 10
-64.160858
 20
14.164884
 11
-64.160858
 21
-5.835116
  0
LINE
  8
0
 10
-64.160858
 20
-5.835116
 11
-51.160858
 21
-5.835116
  0
LINE
  8
0
  6
CENTER
 62
     2
 10
-64.160858
 20
-3.335116
 11
-59.160858
 21
-3.335116
  0
LINE
  8
0
  6
CENTER
 62
     2
 10
-61.660858
 20
-0.835116
 11
-61.660858
 21
-5.835116
  0
LINE
  8
0
 10
-64.160858
 20
14.164884
 11
-51.160858
 21
14.164884
  0
LINE
  8
0
 10
-57.160858
 20
-6.335116
 11
-57.160858
 21
-5.835116
  0
LINE
  8
0
 10
-50.660858
 20
0.164884
 11
-51.160858
 21
0.164884
  0
LINE
  8
0
 10
-64.660858
 20
11.164884
 11
-64.160858
 21
11.164884
  0
LINE
  8
0
 10
-58.160858
 20
17.664885
 11
-58.160858
 21
14.664884
  0
LINE
  8
0
 10
-62.910858
 20
15.394884
 11
-62.910858
 21
14.164884
  0
LINE
  8
0
 10
-60.410858
 20
15.394884
 11
-60.410858
 21
14.164884
  0
LINE
  8
0
 10
-62.910858
 20
15.394885
 11
-61.660858
 21
16.114883
  0
LINE
  8
0
 10
-61.660854
 20
16.114883
 11
-60.410858
 21
15.394884
  0
LINE
  8
0
  6
CENTER
 62
     2
 10
-61.660858
 20
19.164885
 11
-61.660858
 21
12.164884
  0
LINE
  8
0
  6
CENTER
 62
     2
 10
-66.160858
 20
14.664884
 11
-57.160858
 21
14.664884
  0
LINE
  8
0
 10
20.339142
 20
17.664885
 11
20.339142
 21
-6.335116
  0
LINE
  8
0
 10
12.839143
 20
14.164884
 11
18.839142
 21
14.164884
  0
LINE
  8
0
 10
12.839143
 20
-5.835116
 11
18.839142
 21
-5.835116
  0
LINE
  8
0
 10
12.839143
 20
14.164884
 11
12.839143
 21
-5.835116
  0
LINE
  8
0
 10
18.839142
 20
14.164884
 11
18.839142
 21
-5.835116
  0
LINE
  8
0
 10
19.339142
 20
109.584885
 11
19.339142
 21
101.744881
  0
LINE
  8
0
 10
19.639143
 20
101.664886
 11
20.339142
 21
101.664886
  0
LINE
  8
0
 10
19.639143
 20
109.664886
 11
20.339142
 21
109.664886
  0
LINE
  8
0
 10
19.639141
 20
109.664886
 11
19.339142
 21
109.584885
  0
LINE
  8
0
 10
19.639143
 20
101.664879
 11
19.339142
 21
101.744881
  0
LINE
  8
0
 10
23.539143
 20
0.164884
 11
23.539143
 21
-6.335116
  0
LINE
  8
0
 10
20.339142
 20
0.164884
 11
23.539143
 21
0.164884
  0
LINE
  8
0
 10
20.739143
 20
-0.585116
 11
23.539143
 21
-0.585116
  0
LINE
  8
0
 10
20.739141
 20
-0.585115
 11
20.539143
 21
-0.925115
  0
LINE
  8
0
 10
20.539143
 20
-0.925116
 11
20.539143
 21
-5.735116
  0
LINE
  8
0
 10
20.739143
 20
-0.585116
 11
20.739143
 21
-6.085116
  0
LINE
  8
0
 10
20.739143
 20
-6.085116
 11
20.539143
 21
-5.735116
  0
LINE
  8
0
 10
20.739143
 20
-6.085116
 11
23.539143
 21
-6.085116
  0
LINE
  8
0
 10
18.839142
 20
-1.835116
 11
20.339142
 21
-1.835116
  0
LINE
  8
0
 10
18.839142
 20
-4.835116
 11
20.339142
 21
-4.835116
  0
LINE
  8
0
 10
7.339142
 20
107.664886
 11
7.339142
 21
103.664886
  0
LINE
  8
0
 10
8.839143
 20
7.664884
 11
8.839143
 21
3.664884
  0
LINE
  8
0
 10
-2.160857
 20
103.664886
 11
1.939143
 21
103.664886
  0
LINE
  8
0
 10
-2.160857
 20
107.664886
 11
1.939143
 21
107.664886
  0
LINE
  8
0
 10
-2.660854
 20
107.164879
 11
-2.160853
 21
107.664879
  0
LINE
  8
0
 10
-2.660859
 20
104.164886
 11
-2.160859
 21
103.664886
  0
LINE
  8
0
 10
-2.160857
 20
107.664886
 11
-2.160857
 21
103.664886
  0
LINE
  8
0
 62
     2
 10
-2.510858
 20
107.314880
 11
1.939143
 21
107.314880
  0
LINE
  8
0
 62
     2
 10
-2.510858
 20
104.014885
 11
1.939143
 21
104.014885
  0
LINE
  8
0
 62
     2
 10
7.339142
 20
107.314880
 11
7.939142
 21
107.664886
  0
LINE
  8
0
 62
     2
 10
7.339144
 20
104.014885
 11
7.939144
 21
103.664886
  0
LINE
  8
0
 10
9.339143
 20
7.164884
 11
12.839143
 21
7.164884
  0
LINE
  8
0
 10
9.339143
 20
4.164884
 11
12.839143
 21
4.164884
  0
LINE
  8
0
 10
9.339143
 20
3.164884
 11
12.839143
 21
3.164884
  0
LINE
  8
0
 10
9.339143
 20
8.164884
 11
12.839143
 21
8.164884
  0
LINE
  8
0
 10
8.839142
 20
7.664884
 11
9.339143
 21
8.164885
  0
LINE
  8
0
 10
8.839143
 20
3.664884
 11
9.339143
 21
3.164884
  0
LINE
  8
0
 10
9.339143
 20
8.164884
 11
9.339143
 21
7.164884
  0
LINE
  8
0
 10
9.339143
 20
4.164884
 11
9.339143
 21
3.164884
  0
LINE
  8
0
 10
18.839142
 20
8.164884
 11
19.339142
 21
8.164884
  0
LINE
  8
0
 10
18.839142
 20
3.164884
 11
19.339142
 21
3.164884
  0
LINE
  8
0
 62
     2
 10
9.339142
 20
7.164884
 11
12.839142
 21
4.164884
  0
LINE
  8
0
 62
     2
 10
9.339143
 20
4.164884
 11
12.839143
 21
7.164884
  0
LINE
  8
0
 10
6.339142
 20
107.664886
 11
12.839143
 21
107.664886
  0
LINE
  8
0
 62
     2
 10
6.339142
 20
107.314880
 11
7.339142
 21
107.314880
  0
LINE
  8
0
 62
     2
 10
6.339142
 20
104.014885
 11
7.339142
 21
104.014885
  0
LINE
  8
0
 10
6.339142
 20
103.664886
 11
12.839143
 21
103.664886
  0
LINE
  8
0
 10
2.289143
 20
110.664886
 11
2.289143
 21
100.664886
  0
LINE
  8
0
 10
3.589143
 20
110.664886
 11
3.589143
 21
100.664886
  0
LINE
  8
0
 10
2.289143
 20
110.664886
 11
3.589143
 21
110.664886
  0
LINE
  8
0
 10
2.289143
 20
100.664886
 11
3.589143
 21
100.664886
  0
LINE
  8
0
 10
3.939142
 20
109.164886
 11
3.939142
 21
102.164886
  0
LINE
  8
0
 10
6.339142
 20
109.164886
 11
6.339142
 21
102.164886
  0
LINE
  8
0
  6
CENTER
 62
     2
 10
39.839142
 20
13.664884
 11
48.839142
 21
13.664884
  0
LINE
  8
0
  6
CENTER
 62
     2
 10
44.339142
 20
18.164885
 11
44.339142
 21
9.164884
  0
LINE
  8
0
  6
CENTER
 62
     2
 10
39.839142
 20
-2.335116
 11
48.839142
 21
-2.335116
  0
LINE
  8
0
  6
CENTER
 62
     2
 10
44.339142
 20
-6.835116
 11
44.339142
 21
2.164884
  0
LINE
  8
0
 10
110.339142
 20
17.664885
 11
110.339142
 21
-6.335116
  0
LINE
  8
0
 10
124.339142
 20
17.664885
 11
124.339142
 21
-6.335116
  0
LINE
  8
0
 10
110.339142
 20
-6.335116
 11
124.339142
 21
-6.335116
  0
LINE
  8
0
 10
110.339142
 20
17.664885
 11
124.339142
 21
17.664885
  0
LINE
  8
0
 10
-2.660857
 20
7.164884
 11
-2.660857
 21
4.164884
  0
LINE
  8
0
 10
7.339142
 20
7.664884
 11
7.339142
 21
3.664884
  0
LINE
  8
0
 10
-2.160857
 20
3.664884
 11
1.939143
 21
3.664884
  0
LINE
  8
0
 10
-2.160857
 20
7.664884
 11
1.939143
 21
7.664884
  0
LINE
  8
0
 10
-2.660857
 20
7.164884
 11
-2.160857
 21
7.664884
  0
LINE
  8
0
 10
-2.660857
 20
4.164884
 11
-2.160858
 21
3.664884
  0
LINE
  8
0
 10
-2.160857
 20
7.664884
 11
-2.160857
 21
3.664884
  0
LINE
  8
0
 62
     2
 10
-2.510858
 20
7.314884
 11
1.939143
 21
7.314884
  0
LINE
  8
0
 62
     2
 10
-2.510858
 20
4.014884
 11
1.939143
 21
4.014884
  0
LINE
  8
0
 62
     2
 10
7.339142
 20
7.314884
 11
7.939143
 21
7.664884
  0
LINE
  8
0
 62
     2
 10
7.339142
 20
4.014884
 11
7.939142
 21
3.664884
  0
LINE
  8
0
 10
6.339142
 20
7.664884
 11
8.839143
 21
7.664884
  0
LINE
  8
0
 62
     2
 10
6.339142
 20
7.314884
 11
7.339142
 21
7.314884
  0
LINE
  8
0
 62
     2
 10
6.339142
 20
4.014884
 11
7.339142
 21
4.014884
  0
LINE
  8
0
 10
6.339142
 20
3.664884
 11
8.839143
 21
3.664884
  0
LINE
  8
0
 10
2.289143
 20
10.764884
 11
2.289143
 21
0.564884
  0
LINE
  8
0
 10
3.589143
 20
10.764884
 11
3.589143
 21
0.564884
  0
LINE
  8
0
 10
4.249143
 20
9.714884
 11
6.019143
 21
9.714884
  0
LINE
  8
0
 10
3.939142
 20
9.164885
 11
4.249143
 21
9.714884
  0
LINE
  8
0
 10
3.939142
 20
9.164884
 11
3.939142
 21
2.164884
  0
LINE
  8
0
 10
4.249143
 20
7.694884
 11
6.019143
 21
7.694884
  0
LINE
  8
0
 10
4.249143
 20
3.644884
 11
6.019143
 21
3.644884
  0
LINE
  8
0
 10
4.249143
 20
1.624884
 11
6.019143
 21
1.624884
  0
LINE
  8
0
 10
3.939143
 20
2.164884
 11
4.249143
 21
1.624884
  0
LINE
  8
0
 10
6.339143
 20
2.164884
 11
6.019143
 21
1.624884
  0
LINE
  8
0
 10
6.339142
 20
9.164884
 11
6.019142
 21
9.714884
  0
LINE
  8
0
 10
6.339142
 20
9.164884
 11
6.339142
 21
2.164884
  0
LINE
  8
0
 10
12.839143
 20
112.164886
 11
12.839143
 21
99.164886
  0
LINE
  8
0
 10
18.839142
 20
112.164886
 11
18.839142
 21
99.164886
  0
LINE
  8
0
 10
20.339142
 20
112.664886
 11
20.339142
 21
98.664886
  0
LINE
  8
0
 10
20.339142
 20
112.664886
 11
73.339142
 21
112.664886
  0
LINE
  8
0
 10
26.339142
 20
112.664886
 11
26.339142
 21
98.664886
  0
LINE
  8
0
 10
23.539143
 20
112.664886
 11
23.539143
 21
106.164886
  0
LINE
  8
0
 10
20.339142
 20
106.164886
 11
23.539143
 21
106.164886
  0
LINE
  8
0
 10
20.739143
 20
112.414886
 11
23.539143
 21
112.414886
  0
LINE
  8
0
 10
20.739141
 20
112.414886
 11
20.539141
 21
112.064888
  0
LINE
  8
0
 10
20.539143
 20
112.064880
 11
20.539143
 21
107.254883
  0
LINE
  8
0
 10
20.739143
 20
112.414886
 11
20.739143
 21
106.914886
  0
LINE
  8
0
 10
20.739141
 20
106.914886
 11
20.539141
 21
107.254883
  0
LINE
  8
0
 10
20.739143
 20
106.914886
 11
23.539143
 21
106.914886
  0
LINE
  8
0
 10
12.839143
 20
99.164886
 11
18.839142
 21
99.164886
  0
LINE
  8
0
 10
12.839143
 20
112.164886
 11
18.839142
 21
112.164886
  0
LINE
  8
0
  6
CENTER
 62
     2
 10
15.839143
 20
108.164886
 11
15.839143
 21
103.164886
  0
LINE
  8
0
 10
15.089142
 20
105.224876
 11
15.839140
 21
104.794876
  0
LINE
  8
0
 10
15.839143
 20
104.794884
 11
16.589144
 21
105.224884
  0
LINE
  8
0
 10
16.589142
 20
105.224884
 11
16.589142
 21
106.094887
  0
LINE
  8
0
 10
16.589144
 20
106.094879
 11
15.839143
 21
106.524879
  0
LINE
  8
0
 10
15.839144
 20
106.524879
 11
15.089142
 21
106.094879
  0
LINE
  8
0
 10
15.089143
 20
106.094887
 11
15.089143
 21
105.224884
  0
LINE
  8
0
 10
19.639141
 20
9.664884
 11
19.339144
 21
9.584884
  0
LINE
  8
0
 10
19.639141
 20
1.664884
 11
19.339144
 21
1.744883
  0
LINE
  8
0
 10
19.339142
 20
9.584884
 11
19.339142
 21
1.744884
  0
LINE
  8
0
 10
19.639143
 20
1.664884
 11
20.339142
 21
1.664884
  0
LINE
  8
0
 10
19.639143
 20
9.664884
 11
20.339142
 21
9.664884
  0
LINE
  8
0
 10
8.839143
 20
107.664886
 11
8.839143
 21
103.664886
  0
LINE
  8
0
 10
9.339143
 20
107.664886
 11
9.339143
 21
103.664886
  0
LINE
  8
0
 10
18.839142
 20
108.164886
 11
19.339142
 21
108.164886
  0
LINE
  8
0
 10
18.839142
 20
103.164886
 11
19.339142
 21
103.164886
  0
LINE
  8
0
 10
18.839142
 20
111.164886
 11
20.339142
 21
111.164886
  0
LINE
  8
0
  6
CENTER
 62
     2
 10
50.339142
 20
109.664886
 11
50.339142
 21
101.664886
  0
LINE
  8
0
  6
CENTER
 62
     2
 10
31.839142
 20
108.864883
 11
31.839142
 21
100.864883
  0
LINE
  8
0
  6
CENTER
 62
     2
 10
27.839142
 20
104.864883
 11
35.839142
 21
104.864883
  0
LINE
  8
0
  6
CENTER
 62
     2
 10
66.339142
 20
109.664886
 11
66.339142
 21
101.664886
  0
LINE
  8
0
  6
CENTER
 62
     2
 10
41.339142
 20
-1.835116
 11
34.339142
 21
-1.835116
  0
LINE
  8
0
  6
CENTER
 62
     2
 10
37.839142
 20
-5.335116
 11
37.839142
 21
1.664884
  0
LINE
  8
0
 10
26.339142
 20
17.664885
 11
26.339142
 21
-6.335116
  0
LINE
  8
0
 10
20.339142
 20
17.664885
 11
73.339142
 21
17.664885
  0
LINE
  8
0
 10
20.339142
 20
-6.335116
 11
73.339142
 21
-6.335116
  0
LINE
  8
0
 10
20.339142
 20
98.664886
 11
73.339142
 21
98.664886
  0
LINE
  8
0
 10
3.939142
 20
102.164886
 11
6.339142
 21
102.164886
  0
LINE
  8
0
 10
3.939142
 20
109.164886
 11
6.339142
 21
109.164886
  0
LINE
  8
0
 10
4.249143
 20
105.664886
 11
6.019143
 21
105.664886
  0
LINE
  8
0
  6
DASHED
 62
     2
 10
-2.660857
 20
6.414884
 11
2.289143
 21
6.414884
  0
LINE
  8
0
  6
DASHED
 62
     2
 10
-2.660857
 20
4.914884
 11
2.289143
 21
4.914884
  0
LINE
  8
0
  6
CENTER
 62
     2
 10
124.339142
 20
-3.335116
 11
118.339142
 21
-3.335116
  0
LINE
  8
0
  6
CENTER
 62
     2
 10
121.339142
 20
-6.335116
 11
121.339142
 21
-0.335116
  0
LINE
  8
0
  6
CENTER
 62
     2
 10
110.339142
 20
14.664884
 11
116.339142
 21
14.664884
  0
LINE
  8
0
  6
CENTER
 62
     2
 10
113.339142
 20
17.664885
 11
113.339142
 21
11.664884
  0
LINE
  8
0
 10
73.339142
 20
112.664886
 11
73.339142
 21
98.664886
  0
LINE
  8
0
  6
CENTER
 62
     2
 10
33.339142
 20
13.164884
 11
40.339142
 21
13.164884
  0
LINE
  8
0
  6
CENTER
 62
     2
 10
36.839142
 20
16.664885
 11
36.839142
 21
9.664884
  0
LINE
  8
0
 10
-194.250000
 20
-53.500000
 11
194.800003
 21
-53.500000
  0
LINE
  8
0
 62
     2
 10
-142.750000
 20
12.500000
 11
-142.750000
 21
-43.500000
  0
LINE
  8
0
 10
-129.250000
 20
12.500000
 11
-129.250000
 21
-43.500000
  0
LINE
  8
0
 10
-174.250000
 20
12.500000
 11
-174.250000
 21
-43.500000
  0
LINE
  8
0
 10
-174.250000
 20
-43.500000
 11
-129.250000
 21
-43.500000
  0
LINE
  8
0
 62
     2
 10
-174.250000
 20
-19.500000
 11
-129.250000
 21
-19.500000
  0
LINE
  8
0
 62
     2
 10
-174.250000
 20
-11.500000
 11
-129.250000
 21
-11.500000
  0
LINE
  8
0
 62
     2
 10
-174.250000
 20
-3.500000
 11
-129.250000
 21
-3.500000
  0
LINE
  8
0
 62
     2
 10
-174.250000
 20
4.500000
 11
-129.250000
 21
4.500000
  0
LINE
  8
0
 10
-174.250000
 20
12.500000
 11
-129.250000
 21
12.500000
  0
LINE
  8
0
 62
     2
 10
33.069141
 20
-98.190491
 11
53.069141
 21
-63.549473
  0
LINE
  8
0
 10
-174.250000
 20
-73.500000
 11
-174.250000
 21
-113.500000
  0
LINE
  8
0
 62
     2
 10
-133.750000
 20
-73.500000
 11
-133.750000
 21
-113.500000
  0
LINE
  8
0
 10
-174.250000
 20
-73.500000
 11
-66.250000
 21
-73.500000
  0
LINE
  8
0
 62
     2
 10
-174.250000
 20
-81.500000
 11
-66.250000
 21
-81.500000
  0
LINE
  8
0
 62
     2
 10
-174.250000
 20
-89.500000
 11
-111.250000
 21
-89.500000
  0
LINE
  8
0
 62
     2
 10
-174.250000
 20
-97.500000
 11
-66.250000
 21
-97.500000
  0
LINE
  8
0
 62
     2
 10
-174.250000
 20
-105.500000
 11
-66.250000
 21
-105.500000
  0
LINE
  8
0
 10
-174.250000
 20
-113.500000
 11
-66.250000
 21
-113.500000
  0
LINE
  8
0
 62
     2
 10
-111.250000
 20
-73.500000
 11
-111.250000
 21
-113.500000
  0
LINE
  8
0
 62
     2
 10
-88.750000
 20
-73.500000
 11
-88.750000
 21
-113.500000
  0
LINE
  8
0
 10
-66.250000
 20
-73.500000
 11
-66.250000
 21
-113.500000
  0
LINE
  8
0
 62
     2
 10
-88.750000
 20
-89.500000
 11
-66.250000
 21
-89.500000
  0
LINE
  8
0
  6
CENTER
 62
     2
 10
-12.160857
 20
-80.869980
 11
43.069141
 21
-80.869980
  0
LINE
  8
0
 10
20.339142
 20
-68.869980
 11
20.339142
 21
-92.869980
  0
LINE
  8
0
 10
20.339142
 20
-68.869980
 11
49.997345
 21
-68.869980
  0
LINE
  8
0
 10
12.839143
 20
-72.369980
 11
18.839142
 21
-72.369980
  0
LINE
  8
0
 10
12.839143
 20
-92.369980
 11
18.839142
 21
-92.369980
  0
LINE
  8
0
 10
20.339142
 20
-92.869980
 11
36.140938
 21
-92.869980
  0
LINE
  8
0
 10
12.839143
 20
-72.369980
 11
12.839143
 21
-92.369980
  0
LINE
  8
0
 10
18.839142
 20
-72.369980
 11
18.839142
 21
-92.369980
  0
LINE
  8
0
 10
23.539143
 20
-86.369980
 11
23.539143
 21
-92.869980
  0
LINE
  8
0
 10
20.339142
 20
-86.369980
 11
23.539143
 21
-86.369980
  0
LINE
  8
0
 10
20.739143
 20
-87.119980
 11
23.539143
 21
-87.119980
  0
LINE
  8
0
 10
20.739143
 20
-87.119980
 11
20.539143
 21
-87.469978
  0
LINE
  8
0
 10
20.539143
 20
-87.469978
 11
20.539143
 21
-92.279984
  0
LINE
  8
0
 10
20.739143
 20
-87.119980
 11
20.739143
 21
-92.619980
  0
LINE
  8
0
 10
20.739143
 20
-92.619987
 11
20.539143
 21
-92.279984
  0
LINE
  8
0
 10
20.739143
 20
-92.619980
 11
23.539143
 21
-92.619980
  0
LINE
  8
0
 10
18.839142
 20
-88.369980
 11
20.339142
 21
-88.369980
  0
LINE
  8
0
 10
18.839142
 20
-91.369980
 11
20.339142
 21
-91.369980
  0
LINE
  8
0
 10
8.839143
 20
-78.869980
 11
8.839143
 21
-82.869980
  0
LINE
  8
0
 10
9.339143
 20
-79.369980
 11
12.839143
 21
-79.369980
  0
LINE
  8
0
 10
9.339143
 20
-82.369980
 11
12.839143
 21
-82.369980
  0
LINE
  8
0
 10
9.339143
 20
-83.369980
 11
12.839143
 21
-83.369980
  0
LINE
  8
0
 10
9.339143
 20
-78.369980
 11
12.839143
 21
-78.369980
  0
LINE
  8
0
 10
8.839142
 20
-78.869980
 11
9.339140
 21
-78.369980
  0
LINE
  8
0
 10
8.839142
 20
-82.869980
 11
9.339143
 21
-83.369980
  0
LINE
  8
0
 10
9.339143
 20
-78.369980
 11
9.339143
 21
-79.369980
  0
LINE
  8
0
 10
9.339143
 20
-82.369980
 11
9.339143
 21
-83.369980
  0
LINE
  8
0
 10
18.839142
 20
-78.369980
 11
19.339142
 21
-78.369980
  0
LINE
  8
0
 10
18.839142
 20
-83.369980
 11
19.339142
 21
-83.369980
  0
LINE
  8
0
 62
     2
 10
9.339145
 20
-79.369980
 11
12.839145
 21
-82.369980
  0
LINE
  8
0
 62
     2
 10
9.339140
 20
-82.369980
 11
12.839140
 21
-79.369980
  0
LINE
  8
0
 10
7.339142
 20
-78.869980
 11
7.339142
 21
-82.869980
  0
LINE
  8
0
 62
     2
 10
7.339145
 20
-79.219986
 11
7.949144
 21
-78.869987
  0
LINE
  8
0
 62
     2
 10
7.339144
 20
-82.519981
 11
7.949143
 21
-82.869980
  0
LINE
  8
0
 10
6.339142
 20
-78.869980
 11
8.839143
 21
-78.869980
  0
LINE
  8
0
 62
     2
 10
6.339142
 20
-79.219978
 11
7.339142
 21
-79.219978
  0
LINE
  8
0
 62
     2
 10
6.339142
 20
-82.519981
 11
7.339142
 21
-82.519981
  0
LINE
  8
0
 10
6.339142
 20
-82.869980
 11
8.839143
 21
-82.869980
  0
LINE
  8
0
 10
2.639143
 20
-75.869980
 11
2.639143
 21
-85.869980
  0
LINE
  8
0
 10
3.939142
 20
-75.869980
 11
3.939142
 21
-85.869980
  0
LINE
  8
0
 10
2.639143
 20
-75.869980
 11
3.939142
 21
-75.869980
  0
LINE
  8
0
 10
2.639143
 20
-85.869980
 11
3.939142
 21
-85.869980
  0
LINE
  8
0
 10
4.259142
 20
-76.829979
 11
6.029142
 21
-76.829979
  0
LINE
  8
0
 10
3.939139
 20
-77.369987
 11
4.259140
 21
-76.829979
  0
LINE
  8
0
 10
4.259142
 20
-78.849983
 11
6.029142
 21
-78.849983
  0
LINE
  8
0
 10
4.259142
 20
-82.889984
 11
6.029142
 21
-82.889984
  0
LINE
  8
0
 10
4.259142
 20
-84.919983
 11
6.029142
 21
-84.919983
  0
LINE
  8
0
 10
3.939141
 20
-84.369980
 11
4.259143
 21
-84.919983
  0
LINE
  8
0
 10
6.339145
 20
-84.369980
 11
6.029145
 21
-84.919975
  0
LINE
  8
0
 10
6.339144
 20
-77.369980
 11
6.029142
 21
-76.829979
  0
LINE
  8
0
 10
6.339142
 20
-77.369980
 11
6.339142
 21
-84.369980
  0
LINE
  8
0
 10
19.639141
 20
-76.869980
 11
19.339142
 21
-76.949974
  0
LINE
  8
0
 10
19.639141
 20
-84.869980
 11
19.339142
 21
-84.789978
  0
LINE
  8
0
 10
19.339142
 20
-76.949982
 11
19.339142
 21
-84.789978
  0
LINE
  8
0
 10
19.639143
 20
-84.869980
 11
20.339142
 21
-84.869980
  0
LINE
  8
0
 10
19.639143
 20
-76.869980
 11
20.339142
 21
-76.869980
  0
LINE
  8
0
 10
26.339142
 20
-68.869980
 11
26.339142
 21
-92.869980
  0
LINE
  8
0
 10
-7.360857
 20
-77.369980
 11
-7.360857
 21
-84.369980
  0
LINE
  8
0
 10
-10.660857
 20
-79.619980
 11
-10.660857
 21
-82.119980
  0
LINE
  8
0
 10
-9.360857
 20
-79.119980
 11
-9.360857
 21
-82.619980
  0
LINE
  8
0
 10
-7.360857
 20
-82.619980
 11
-9.360857
 21
-82.619980
  0
LINE
  8
0
 10
-7.360857
 20
-79.119980
 11
-9.360857
 21
-79.119980
  0
LINE
  8
0
 10
-10.660853
 20
-79.619980
 11
-9.910853
 21
-80.059982
  0
LINE
  8
0
 10
-10.660857
 20
-82.119980
 11
-9.910859
 21
-81.689980
  0
LINE
  8
0
 10
-9.360858
 20
-79.119987
 11
-9.900856
 21
-80.059982
  0
LINE
  8
0
 10
-9.360857
 20
-82.619980
 11
-9.900858
 21
-81.689980
  0
LINE
  8
0
 10
-9.900858
 20
-80.059982
 11
-9.900858
 21
-81.689980
  0
LINE
  8
0
 10
-7.040857
 20
-78.849983
 11
2.329143
 21
-78.849983
  0
LINE
  8
0
 10
-7.040857
 20
-76.829979
 11
2.329143
 21
-76.829979
  0
LINE
  8
0
 10
-7.360860
 20
-77.369980
 11
-7.040861
 21
-76.829987
  0
LINE
  8
0
 10
-7.040857
 20
-82.889984
 11
2.329143
 21
-82.889984
  0
LINE
  8
0
 10
-7.360857
 20
-84.369980
 11
-7.040858
 21
-84.919983
  0
LINE
  8
0
 10
-7.040857
 20
-84.919983
 11
2.329143
 21
-84.919983
  0
LINE
  8
0
 10
2.639144
 20
-84.369980
 11
2.329144
 21
-84.919975
  0
LINE
  8
0
 10
2.639141
 20
-77.369987
 11
2.329140
 21
-76.829979
  0
LINE
  8
0
 10
-194.250000
 20
132.600006
 11
194.800003
 21
132.600006
  0
LINE
  8
0
 10
194.800003
 20
132.600006
 11
194.800003
 21
-133.500000
  0
LINE
  8
0
 10
-194.250000
 20
132.600006
 11
-194.250000
 21
-133.500000
  0
LINE
  8
0
 10
-194.250000
 20
-133.500000
 11
194.800003
 21
-133.500000
  0
CIRCLE
  8
0
 10
-57.660858
 20
5.664884
 40
2.000000
  0
CIRCLE
  8
0
 10
-57.660858
 20
5.664884
 40
3.500000
  0
ARC
  8
0
 10
2.289140
 20
2.514884
 40
0.350000
 50
180.000046
 51
269.999969
  0
ARC
  8
0
 10
2.289140
 20
8.814884
 40
0.350000
 50
90.000038
 51
180.000000
  0
ARC
  8
0
 10
3.589142
 20
2.514884
 40
0.350000
 50
270.000031
 51
359.999969
  0
ARC
  8
0
 10
3.589142
 20
8.814884
 40
0.350000
 50
0.000000
 51
89.999962
  0
ARC
  8
0
 10
3.589142
 20
102.514885
 40
0.349998
 50
270.000031
 51
0.000000
  0
ARC
  8
0
 10
3.589142
 20
108.814880
 40
0.350000
 50
0.000000
 51
89.999962
  0
ARC
  8
0
 10
2.289140
 20
102.514885
 40
0.350000
 50
180.000000
 51
269.999969
  0
ARC
  8
0
 10
2.289140
 20
108.814880
 40
0.349998
 50
90.000038
 51
180.000000
  0
CIRCLE
  8
0
 10
-61.660858
 20
-3.335116
 40
1.500000
  0
CIRCLE
  8
0
 62
     2
 10
-57.660858
 20
5.664884
 40
1.650000
  0
CIRCLE
  8
0
 10
-57.660858
 20
5.664884
 40
1.000000
  0
CIRCLE
  8
0
 10
-57.660858
 20
5.664884
 40
5.000000
  0
ARC
  8
0
 10
-61.663540
 20
14.624145
 40
3.502920
 50
352.466370
 51
0.666367
  0
ARC
  8
0
 10
-61.656651
 20
14.665401
 40
2.751695
 50
349.519867
 51
204.486450
  0
ARC
  8
0
 10
-61.655857
 20
14.664886
 40
2.407493
 50
348.013275
 51
191.986740
  0
ARC
  8
0
 10
-61.655857
 20
14.664887
 40
1.444308
 50
339.745636
 51
200.254364
  0
ARC
  8
0
 10
-53.655857
 20
-3.335097
 40
2.749750
 50
245.392380
 51
294.607635
  0
ARC
  8
0
 10
-53.660862
 20
-3.330116
 40
2.749735
 50
335.392242
 51
24.607746
  0
ARC
  8
0
 10
11.339143
 20
5.664884
 40
2.500000
 50
143.130096
 51
216.869904
  0
CIRCLE
  8
0
 10
44.339142
 20
13.664884
 40
1.750000
  0
CIRCLE
  8
0
 10
44.339142
 20
13.664884
 40
3.000000
  0
CIRCLE
  8
0
 10
44.339142
 20
-2.335116
 40
1.750000
  0
ARC
  8
0
 10
5.727399
 20
8.706657
 40
1.791347
 50
154.605133
 51
214.389175
  0
ARC
  8
0
 10
10.626529
 20
5.669884
 40
6.691164
 50
162.383881
 51
197.616119
  0
ARC
  8
0
 10
5.728152
 20
2.633052
 40
1.792003
 50
145.622864
 51
205.382843
  0
ARC
  8
0
 10
4.550062
 20
2.633833
 40
1.783374
 50
334.457764
 51
34.536552
  0
ARC
  8
0
 10
-0.348256
 20
5.669884
 40
6.681646
 50
342.357971
 51
17.642031
  0
ARC
  8
0
 10
4.550819
 20
8.705875
 40
1.782716
 50
325.451233
 51
25.554474
  0
CIRCLE
  8
0
 10
15.839143
 20
105.664886
 40
1.500000
  0
CIRCLE
  8
0
 10
15.839143
 20
105.664886
 40
1.250000
  0
CIRCLE
  8
0
 10
15.839128
 20
105.664871
 40
0.866022
  0
CIRCLE
  8
0
 62
     2
 10
50.339142
 20
105.664886
 40
2.500000
  0
CIRCLE
  8
0
 10
50.339142
 20
105.664886
 40
2.099999
  0
CIRCLE
  8
0
 62
     2
 10
31.839142
 20
104.864883
 40
2.500000
  0
CIRCLE
  8
0
 10
31.839142
 20
104.864883
 40
2.099999
  0
CIRCLE
  8
0
 62
     2
 10
66.339142
 20
105.664886
 40
2.500000
  0
CIRCLE
  8
0
 10
66.339142
 20
105.664886
 40
2.099999
  0
ARC
  8
0
 10
8.993760
 20
107.414886
 40
5.057064
 50
159.754059
 51
200.245941
  0
ARC
  8
0
 10
1.284512
 20
107.414886
 40
5.047695
 50
339.714813
 51
20.285173
  0
ARC
  8
0
 10
8.993760
 20
103.914886
 40
5.057064
 50
159.754059
 51
200.245941
  0
ARC
  8
0
 10
1.284512
 20
103.914886
 40
5.047695
 50
339.714813
 51
20.285173
  0
CIRCLE
  8
0
 10
44.339142
 20
-2.335116
 40
3.000000
  0
CIRCLE
  8
0
 62
     2
 10
121.339142
 20
-3.335116
 40
1.500000
  0
CIRCLE
  8
0
 10
121.339142
 20
-3.335116
 40
1.250000
  0
CIRCLE
  8
0
 10
113.339142
 20
14.664884
 40
1.250000
  0
CIRCLE
  8
0
 62
     2
 10
113.339142
 20
14.664884
 40
1.500000
  0
CIRCLE
  8
0
 62
     2
 10
37.839142
 20
-1.835116
 40
1.500000
  0
CIRCLE
  8
0
 10
37.839142
 20
-1.835116
 40
1.250000
  0
CIRCLE
  8
0
 10
36.839142
 20
13.164884
 40
1.250000
  0
CIRCLE
  8
0
 62
     2
 10
36.839142
 20
13.164884
 40
1.500000
  0
ARC
  8
0
 10
4.550467
 20
-83.906105
 40
1.794154
 50
334.447998
 51
34.496399
  0
ARC
  8
0
 10
11.339143
 20
-80.869980
 40
2.500000
 50
143.130096
 51
216.869904
  0
ARC
  8
0
 10
-0.348251
 20
-80.869980
 40
6.689658
 50
342.424744
 51
17.575251
  0
ARC
  8
0
 10
4.550139
 20
-77.838150
 40
1.791999
 50
325.622742
 51
25.382847
  0
ARC
  8
0
 10
5.727898
 20
-83.905327
 40
1.785547
 50
145.343903
 51
205.711823
  0
ARC
  8
0
 10
5.728229
 20
-77.838928
 40
1.783380
 50
154.457764
 51
214.536545
  0
ARC
  8
0
 10
10.626542
 20
-80.869980
 40
6.680132
 50
162.398865
 51
197.601135
  0
ARC
  8
0
 10
-5.571807
 20
-77.839981
 40
1.782754
 50
145.490677
 51
214.509323
  0
ARC
  8
0
 10
-0.673492
 20
-80.869980
 40
6.680100
 50
162.398773
 51
197.601288
  0
ARC
  8
0
 10
-5.571804
 20
-83.904984
 40
1.785593
 50
145.358612
 51
214.641388
  0
ARC
  8
0
 10
0.850098
 20
-77.839981
 40
1.790999
 50
325.671814
 51
34.328182
  0
ARC
  8
0
 10
-4.048217
 20
-80.869980
 40
6.689627
 50
342.424652
 51
17.575336
  0
ARC
  8
0
 10
0.850095
 20
-83.904984
 40
1.793824
 50
325.540070
 51
34.459938
  0
TEXT
  8
0
 10
-183.492187
 20
13.450000
 40
4.500000
  1
DIMENSION LIST
 50
0.000000
 41
1.052632
 51
0.000000
  7
STANDARD
  0
TEXT
  8
0
 10
-151.992187
 20
-72.550003
 40
4.500000
  1
DIMENSION LIST
 50
0.000000
 41
1.052632
 51
0.000000
  7
STANDARD
  0
TEXT
  8
0
 10
-140.742187
 20
-34.549999
 40
4.500000
  1
28
 50
0.000000
 41
1.052632
 51
0.000000
  7
STANDARD
  0
TEXT
  8
0
 10
-163.242187
 20
-42.549999
 40
4.500000
  1
30
 50
0.000000
 41
1.052632
 51
0.000000
  7
STANDARD
  0
TEXT
  8
0
 10
-163.242187
 20
-34.549999
 40
4.500000
  1
25
 50
0.000000
 41
1.052632
 51
0.000000
  7
STANDARD
  0
TEXT
  8
0
 10
-163.242187
 20
-26.549999
 40
4.500000
  1
20
 50
0.000000
 41
1.052632
 51
0.000000
  7
STANDARD
  0
TEXT
  8
0
 10
-163.242187
 20
-18.549999
 40
4.500000
  1
15
 50
0.000000
 41
1.052632
 51
0.000000
  7
STANDARD
  0
TEXT
  8
0
 10
-163.242187
 20
-10.550000
 40
4.500000
  1
10
 50
0.000000
 41
1.052632
 51
0.000000
  7
STANDARD
  0
TEXT
  8
0
 10
-160.992187
 20
-2.550000
 40
4.500000
  1
5
 50
0.000000
 41
1.052632
 51
0.000000
  7
STANDARD
  0
TEXT
  8
0
 10
-140.742187
 20
-18.549999
 40
4.500000
  1
23
 50
0.000000
 41
1.052632
 51
0.000000
  7
STANDARD
  0
TEXT
  8
0
 10
-140.742187
 20
-10.550000
 40
4.500000
  1
18
 50
0.000000
 41
1.052632
 51
0.000000
  7
STANDARD
  0
TEXT
  8
0
 10
-140.742187
 20
-2.550000
 40
4.500000
  1
16
 50
0.000000
 41
1.052632
 51
0.000000
  7
STANDARD
  0
TEXT
  8
0
 10
-138.492187
 20
5.450000
 40
4.500000
  1
A
 50
0.000000
 41
1.052632
 51
0.000000
  7
STANDARD
  0
TEXT
  8
0
 10
-172.242187
 20
5.450000
 40
4.500000
  1
STROKE
 50
0.000000
 41
1.052632
 51
0.000000
  7
STANDARD
  0
TEXT
  8
0
 10
-169.567719
 20
-80.550003
 40
4.500000
  1
PAD TYPE
 50
0.000000
 41
0.893125
 51
0.000000
  7
STANDARD
  0
TEXT
  8
0
 10
-158.892654
 20
-88.550003
 40
4.500000
  1
P2
 50
0.000000
 41
1.052632
 51
0.000000
  7
STANDARD
  0
TEXT
  8
0
 10
-163.392654
 20
-96.550003
 40
4.500000
  1
P3.5
 50
0.000000
 41
1.052632
 51
0.000000
  7
STANDARD
  0
TEXT
  8
0
 10
-158.892654
 20
-104.550003
 40
4.500000
  1
P6
 50
0.000000
 41
1.052632
 51
0.000000
  7
STANDARD
  0
TEXT
  8
0
 10
-158.892654
 20
-112.550003
 40
4.500000
  1
P8
 50
0.000000
 41
1.052632
 51
0.000000
  7
STANDARD
  0
TEXT
  8
0
 10
-125.142654
 20
-80.550003
 40
4.500000
  1
B
 50
0.000000
 41
1.052632
 51
0.000000
  7
STANDARD
  0
TEXT
  8
0
 10
-107.142654
 20
-80.550003
 40
4.500000
  1
(C)
 50
0.000000
 41
1.052632
 51
0.000000
  7
STANDARD
  0
TEXT
  8
0
 10
-80.142654
 20
-80.550003
 40
4.500000
  1
D
 50
0.000000
 41
1.052632
 51
0.000000
  7
STANDARD
  0
TEXT
  8
0
 10
-131.892654
 20
-88.550003
 40
4.500000
  1
13.3
 50
0.000000
 41
1.052632
 51
0.000000
  7
STANDARD
  0
TEXT
  8
0
 10
-131.892654
 20
-96.550003
 40
4.500000
  1
13.5
 50
0.000000
 41
1.052632
 51
0.000000
  7
STANDARD
  0
TEXT
  8
0
 10
-131.892654
 20
-112.550003
 40
4.500000
  1
15.5
 50
0.000000
 41
1.052632
 51
0.000000
  7
STANDARD
  0
TEXT
  8
0
 10
-104.892654
 20
-92.550003
 40
4.500000
  1
31
 50
0.000000
 41
1.052632
 51
0.000000
  7
STANDARD
  0
TEXT
  8
0
 10
-104.892654
 20
-112.550003
 40
4.500000
  1
33
 50
0.000000
 41
1.052632
 51
0.000000
  7
STANDARD
  0
TEXT
  8
0
 10
-84.642654
 20
-88.550003
 40
4.500000
  1
2.5
 50
0.000000
 41
1.052632
 51
0.000000
  7
STANDARD
  0
TEXT
  8
0
 10
-84.642654
 20
-96.550003
 40
4.500000
  1
3.5
 50
0.000000
 41
1.052632
 51
0.000000
  7
STANDARD
  0
TEXT
  8
0
 10
-80.142654
 20
-104.550003
 40
4.500000
  1
6
 50
0.000000
 41
1.052632
 51
0.000000
  7
STANDARD
  0
TEXT
  8
0
 10
-80.142654
 20
-112.550003
 40
4.500000
  1
8
 50
0.000000
 41
1.052632
 51
0.000000
  7
STANDARD
  0
TEXT
  8
0
 10
-127.392654
 20
-104.550003
 40
4.500000
  1
16
 50
0.000000
 41
1.052632
 51
0.000000
  7
STANDARD
  0
TEXT
  8
0
 10
-109.392654
 20
-104.550003
 40
4.500000
  1
33.5
 50
0.000000
 41
1.052632
 51
0.000000
  7
STANDARD
  0
TEXT
  8
0
 10
-186.892654
 20
104.550003
 40
4.500000
  1
MODEL:BDAV10*ST(5)
 50
0.000000
 41
1.052632
 51
0.000000
  7
STANDARD
  0
TEXT
  8
0
 62
     2
 10
35.539143
 20
51.664883
 40
3.200000
  1
43+ST*2
 50
0.000000
 41
1.052632
 51
0.000000
  7
STANDARD
  0
LINE
  8
0
 62
     2
 10
20.339142
 20
50.664883
 11
73.339142
 21
50.664883
  0
LINE
  8
0
 62
     2
 10
20.339142
 20
50.664883
 11
23.236919
 21
51.441341
  0
LINE
  8
0
 62
     2
 10
20.339142
 20
50.664883
 11
23.236919
 21
49.888424
  0
LINE
  8
0
 62
     2
 10
73.339142
 20
50.664883
 11
70.441368
 21
49.888424
  0
LINE
  8
0
 62
     2
 10
73.339142
 20
50.664883
 11
70.441368
 21
51.441341
  0
LINE
  8
0
 62
     2
 10
20.339142
 20
17.664885
 11
20.339142
 21
52.164883
  0
LINE
  8
0
 62
     2
 10
73.339142
 20
17.664885
 11
73.339142
 21
52.164883
  0
TEXT
  8
0
 62
     2
 10
21.639141
 20
41.664883
 40
3.200000
  1
6
 50
0.000000
 41
1.052632
 51
0.000000
  7
STANDARD
  0
LINE
  8
0
 62
     2
 10
20.339142
 20
40.664883
 11
26.339142
 21
40.664883
  0
CIRCLE
  8
0
 62
     2
 10
20.339142
 20
40.664883
 40
0.500000
  0
LINE
  8
0
 62
     2
 10
20.339142
 20
17.664885
 11
20.339142
 21
42.164883
  0
LINE
  8
0
 62
     2
 10
26.339142
 20
17.664885
 11
26.339142
 21
42.164883
  0
TEXT
  8
0
 62
     2
 10
29.097191
 20
86.664886
 40
3.200000
  1
１３．５＋ＳＴ
 50
0.000000
 41
0.833333
 51
0.000000
  7
STANDARD
  0
LINE
  8
0
 62
     2
 10
50.339142
 20
85.664886
 11
31.839142
 21
85.664886
  0
LINE
  8
0
 62
     2
 10
50.339142
 20
85.664886
 11
47.441364
 21
84.888428
  0
LINE
  8
0
 62
     2
 10
50.339142
 20
85.664886
 11
47.441364
 21
86.441345
  0
LINE
  8
0
 62
     2
 10
31.839142
 20
85.664886
 11
34.736919
 21
86.441345
  0
LINE
  8
0
 62
     2
 10
31.839142
 20
85.664886
 11
34.736919
 21
84.888428
  0
LINE
  8
0
 62
     2
 10
50.339142
 20
101.664886
 11
50.339142
 21
84.164886
  0
LINE
  8
0
 62
     2
 10
31.839142
 20
102.464890
 11
31.839142
 21
84.164886
  0
TEXT
  8
0
 62
     2
 10
56.639141
 20
86.664886
 40
3.200000
  1
A
 50
0.000000
 41
1.052632
 51
0.000000
  7
STANDARD
  0
LINE
  8
0
 62
     2
 10
66.339142
 20
85.664886
 11
50.339142
 21
85.664886
  0
LINE
  8
0
 62
     2
 10
66.339142
 20
85.664886
 11
63.441364
 21
84.888428
  0
LINE
  8
0
 62
     2
 10
66.339142
 20
85.664886
 11
63.441364
 21
86.441345
  0
LINE
  8
0
 62
     2
 10
50.339142
 20
85.664886
 11
53.236919
 21
86.441345
  0
LINE
  8
0
 62
     2
 10
50.339142
 20
85.664886
 11
53.236919
 21
84.888428
  0
LINE
  8
0
 62
     2
 10
66.339142
 20
101.664886
 11
66.339142
 21
84.164886
  0
LINE
  8
0
 62
     2
 10
50.339142
 20
101.664886
 11
50.339142
 21
84.164886
  0
TEXT
  8
0
 62
     2
 10
50.739143
 20
-28.335115
 40
3.200000
  1
２４＋Ｓｔ
 50
0.000000
 41
0.833333
 51
0.000000
  7
STANDARD
  0
LINE
  8
0
 62
     2
 10
44.339142
 20
-29.335115
 11
73.339142
 21
-29.335115
  0
LINE
  8
0
 62
     2
 10
44.339142
 20
-29.335115
 11
47.236919
 21
-28.558659
  0
LINE
  8
0
 62
     2
 10
44.339142
 20
-29.335115
 11
47.236919
 21
-30.111572
  0
LINE
  8
0
 62
     2
 10
73.339142
 20
-29.335115
 11
70.441368
 21
-30.111572
  0
LINE
  8
0
 62
     2
 10
73.339142
 20
-29.335115
 11
70.441368
 21
-28.558659
  0
LINE
  8
0
 62
     2
 10
44.339142
 20
-6.835116
 11
44.339142
 21
-30.835115
  0
LINE
  8
0
 62
     2
 10
73.339142
 20
-6.335116
 11
73.339142
 21
-30.835115
  0
TEXT
  8
0
 62
     2
 10
24.239141
 20
-28.335115
 40
3.200000
  1
１９＋Ｓｔ
 50
0.000000
 41
0.833333
 51
0.000000
  7
STANDARD
  0
LINE
  8
0
 62
     2
 10
20.339142
 20
-29.335115
 11
44.339142
 21
-29.335115
  0
LINE
  8
0
 62
     2
 10
20.339142
 20
-29.335115
 11
23.236919
 21
-28.558659
  0
LINE
  8
0
 62
     2
 10
20.339142
 20
-29.335115
 11
23.236919
 21
-30.111572
  0
LINE
  8
0
 62
     2
 10
44.339142
 20
-29.335115
 11
41.441364
 21
-30.111572
  0
LINE
  8
0
 62
     2
 10
44.339142
 20
-29.335115
 11
41.441364
 21
-28.558659
  0
LINE
  8
0
 62
     2
 10
20.339142
 20
-6.335116
 11
20.339142
 21
-30.835115
  0
LINE
  8
0
 62
     2
 10
44.339142
 20
-6.835116
 11
44.339142
 21
-30.835115
  0
TEXT
  8
0
 62
     2
 10
27.072474
 20
-18.335115
 40
3.200000
  1
6.5
 50
0.000000
 41
1.052632
 51
0.000000
  7
STANDARD
  0
LINE
  8
0
 62
     2
 10
37.839142
 20
-19.335115
 11
44.339142
 21
-19.335115
  0
LINE
  8
0
 62
     2
 10
37.839142
 20
-19.335115
 11
34.941364
 21
-20.111572
  0
LINE
  8
0
 62
     2
 10
37.839142
 20
-19.335115
 11
34.941364
 21
-18.558659
  0
LINE
  8
0
 62
     2
 10
37.839142
 20
-19.335115
 11
31.839142
 21
-19.335115
  0
LINE
  8
0
 62
     2
 10
44.339142
 20
-19.335115
 11
47.236919
 21
-18.558659
  0
LINE
  8
0
 62
     2
 10
44.339142
 20
-19.335115
 11
47.236919
 21
-20.111572
  0
LINE
  8
0
 62
     2
 10
44.339142
 20
-19.335115
 11
50.339142
 21
-19.335115
  0
LINE
  8
0
 62
     2
 10
37.839142
 20
-5.335116
 11
37.839142
 21
-20.835115
  0
LINE
  8
0
 62
     2
 10
44.339142
 20
-6.835116
 11
44.339142
 21
-20.835115
  0
LINE
  8
0
 62
     2
 10
27.172474
 20
-19.335115
 11
37.839142
 21
-19.335115
  0
TEXT
  8
0
 62
     2
 10
29.422470
 20
41.664883
 40
3.200000
  1
10.5
 50
0.000000
 41
1.052632
 51
0.000000
  7
STANDARD
  0
LINE
  8
0
 62
     2
 10
26.339142
 20
40.664883
 11
36.839142
 21
40.664883
  0
LINE
  8
0
 62
     2
 10
26.339142
 20
40.664883
 11
29.236919
 21
41.441341
  0
LINE
  8
0
 62
     2
 10
26.339142
 20
40.664883
 11
29.236919
 21
39.888424
  0
LINE
  8
0
 62
     2
 10
36.839142
 20
40.664883
 11
33.941364
 21
39.888424
  0
LINE
  8
0
 62
     2
 10
36.839142
 20
40.664883
 11
33.941364
 21
41.441341
  0
LINE
  8
0
 62
     2
 10
26.339142
 20
17.664885
 11
26.339142
 21
42.164883
  0
LINE
  8
0
 62
     2
 10
36.839142
 20
16.664885
 11
36.839142
 21
42.164883
  0
TEXT
  8
0
 62
     2
 10
35.846954
 20
-114.869980
 40
4.500000
  1
43+ST*2
 50
0.000000
 41
1.052632
 51
0.000000
  7
STANDARD
  0
LINE
  8
0
 62
     2
 10
83.339142
 20
-115.869980
 11
20.339142
 21
-115.869980
  0
LINE
  8
0
 62
     2
 10
83.339142
 20
-115.869980
 11
80.441368
 21
-116.646439
  0
LINE
  8
0
 62
     2
 10
83.339142
 20
-115.869980
 11
80.441368
 21
-115.093521
  0
LINE
  8
0
 62
     2
 10
20.339142
 20
-115.869980
 11
23.236919
 21
-115.093521
  0
LINE
  8
0
 62
     2
 10
20.339142
 20
-115.869980
 11
23.236919
 21
-116.646439
  0
LINE
  8
0
 62
     2
 10
83.339142
 20
-94.369980
 11
83.339142
 21
-117.369980
  0
LINE
  8
0
 62
     2
 10
20.339142
 20
-92.869980
 11
20.339142
 21
-117.369980
  0
TEXT
  8
0
 62
     2
 10
-2.153045
 20
-114.869980
 40
4.500000
  1
(C)
 50
0.000000
 41
1.052632
 51
0.000000
  7
STANDARD
  0
LINE
  8
0
 62
     2
 10
20.339142
 20
-115.869980
 11
-10.660857
 21
-115.869980
  0
LINE
  8
0
 62
     2
 10
20.339142
 20
-115.869980
 11
17.441364
 21
-116.646439
  0
LINE
  8
0
 62
     2
 10
20.339142
 20
-115.869980
 11
17.441364
 21
-115.093521
  0
LINE
  8
0
 62
     2
 10
-10.660857
 20
-115.869980
 11
-7.763080
 21
-115.093521
  0
LINE
  8
0
 62
     2
 10
-10.660857
 20
-115.869980
 11
-7.763080
 21
-116.646439
  0
LINE
  8
0
 62
     2
 10
20.339142
 20
-92.869980
 11
20.339142
 21
-117.369980
  0
LINE
  8
0
 62
     2
 10
-10.660857
 20
-82.119980
 11
-10.660857
 21
-117.369980
  0
TEXT
  8
0
 62
     2
 10
-6.503045
 20
-104.869980
 40
4.500000
  1
B
 50
0.000000
 41
1.052632
 51
0.000000
  7
STANDARD
  0
LINE
  8
0
 62
     2
 10
2.639143
 20
-105.869980
 11
-10.660857
 21
-105.869980
  0
LINE
  8
0
 62
     2
 10
2.639143
 20
-105.869980
 11
-0.258635
 21
-106.646439
  0
LINE
  8
0
 62
     2
 10
2.639143
 20
-105.869980
 11
-0.258635
 21
-105.093521
  0
LINE
  8
0
 62
     2
 10
-10.660857
 20
-105.869980
 11
-7.763080
 21
-105.093521
  0
LINE
  8
0
 62
     2
 10
-10.660857
 20
-105.869980
 11
-7.763080
 21
-106.646439
  0
LINE
  8
0
 62
     2
 10
2.639143
 20
-85.869980
 11
2.639143
 21
-107.369980
  0
LINE
  8
0
 62
     2
 10
-10.660857
 20
-82.119980
 11
-10.660857
 21
-107.369980
  0
TEXT
  8
0
 62
     2
 10
-24.160860
 20
-85.612167
 40
4.500000
  1
φD
 50
90.000000
 41
1.052632
 51
0.000000
  7
STANDARD
  0
LINE
  8
0
 62
     2
 10
-23.160858
 20
-79.619980
 11
-23.160858
 21
-82.119980
  0
LINE
  8
0
 62
     2
 10
-23.160858
 20
-79.619980
 11
-23.937315
 21
-76.722206
  0
LINE
  8
0
 62
     2
 10
-23.160858
 20
-79.619980
 11
-22.384401
 21
-76.722206
  0
LINE
  8
0
 62
     2
 10
-23.160858
 20
-79.619980
 11
-23.160858
 21
-73.619980
  0
LINE
  8
0
 62
     2
 10
-23.160858
 20
-82.119980
 11
-22.384401
 21
-85.017754
  0
LINE
  8
0
 62
     2
 10
-23.160858
 20
-82.119980
 11
-23.937315
 21
-85.017754
  0
LINE
  8
0
 62
     2
 10
-23.160858
 20
-82.119980
 11
-23.160858
 21
-88.119980
  0
LINE
  8
0
 62
     2
 10
-10.660857
 20
-79.619980
 11
-24.660858
 21
-79.619980
  0
LINE
  8
0
 62
     2
 10
-10.660857
 20
-82.119980
 11
-24.660858
 21
-82.119980
  0
ENDSEC
  0
EOF
