  0
SECTION
  2
HEADER
  9
$ACADVER
  1
AC1002
  9
$INSBASE
 10
0.0
 20
0.0
  9
$EXTMIN
 10
-131.1236
 20
-90.00001
  9
$EXTMAX
 10
131.1236
 20
90.00001
  9
$LIMMIN
 10
0.0
 20
0.0
  9
$LIMMAX
 10
12.0
 20
9.0
  9
$VIEWCTR
 10
10.11492432
 20
0.0
  9
$VIEWSIZE
 40
180.00002
  9
$SNAPMODE
 70
     0
  9
$SNAPUNIT
 10
1.0
 20
1.0
  9
$SNAPBASE
 10
0.0
 20
0.0
  9
$SNAPANG
 50
0.0
  9
$SNAPSTYLE
 70
     0
  9
$SNAPISOPAIR
 70
     0
  9
$GRIDMODE
 70
     0
  9
$GRIDUNIT
 10
0.0
 20
0.0
  9
$ORTHOMODE
 70
     0
  9
$REGENMODE
 70
     1
  9
$FILLMODE
 70
     1
  9
$QTEXTMODE
 70
     0
  9
$DRAGMODE
 70
     2
  9
$LTSCALE
 40
1.0
  9
$OSMODE
 70
     0
  9
$ATTMODE
 70
     1
  9
$TEXTSIZE
 40
0.2
  9
$TRACEWID
 40
0.05
  9
$TEXTSTYLE
  7
AAA
  9
$CLAYER
  8
0
  9
$CELTYPE
  6
BYLAYER
  9
$CECOLOR
 62
   256
  9
$DIMSCALE
 40
1.0
  9
$DIMASZ
 40
0.18
  9
$DIMEXO
 40
0.0625
  9
$DIMDLI
 40
0.38
  9
$DIMRND
 40
0.0
  9
$DIMDLE
 40
0.0
  9
$DIMEXE
 40
0.18
  9
$DIMTP
 40
0.0
  9
$DIMTM
 40
0.0
  9
$DIMTXT
 40
0.18
  9
$DIMCEN
 40
0.09
  9
$DIMTSZ
 40
0.0
  9
$DIMTOL
 70
     0
  9
$DIMLIM
 70
     0
  9
$DIMTIH
 70
     1
  9
$DIMTOH
 70
     1
  9
$DIMSE1
 70
     0
  9
$DIMSE2
 70
     0
  9
$DIMTAD
 70
     0
  9
$DIMZIN
 70
     0
  9
$DIMBLK
  1

  9
$LUNITS
 70
     2
  9
$LUPREC
 70
     4
  9
$AXISMODE
 70
     0
  9
$AXISUNIT
 10
0.0
 20
0.0
  9
$SKETCHINC
 40
0.1
  9
$FILLETRAD
 40
0.0
  9
$AUNITS
 70
     0
  9
$AUPREC
 70
     0
  9
$MENU
  1
ACAD
  9
$ELEVATION
 40
0.0
  9
$THICKNESS
 40
0.0
  9
$VIEWDIR
 10
0.0
 20
0.0
 30
1.0
  9
$LIMCHECK
 70
     0
  9
$BLIPMODE
 70
     1
  9
$CHAMFERA
 40
0.0
  9
$CHAMFERB
 40
0.0
  9
$FASTZOOM
 70
     1
  9
$SKPOLY
 70
     0
  9
$TDCREATE
 40
2447839.5930671794
  9
$TDUPDATE
 40
2447839.5930671794
  9
$TDINDWG
 40
0.0013657407
  9
$TDUSRTIMER
 40
0.0013657407
  9
$USRTIMER
 70
     1
  9
$ANGBASE
 50
0.0
  9
$ANGDIR
 70
     0
  9
$PDMODE
 70
     0
  9
$PDSIZE
 40
0.0
  9
$PLINEWID
 40
0.0
  9
$COORDS
 70
     0
  9
$USERI1
 70
     0
  9
$USERI2
 70
     0
  9
$USERI3
 70
     0
  9
$USERI4
 70
     0
  9
$USERI5
 70
     0
  9
$USERR1
 40
0.0
  9
$USERR2
 40
0.0
  9
$USERR3
 40
0.0
  9
$USERR4
 40
0.0
  9
$USERR5
 40
0.0
  0
ENDSEC
  0
SECTION
  2
TABLES
  0
TABLE
  2
LTYPE
 70
     3
  0
LTYPE
  2
CONTINUOUS
 70
    64
  3
SOLID
 72
    65
 73
     0
 40
0.0
  0
LTYPE
  2
CENTER
 70
    64
  3
CENTER
 72
    65
 73
     4
 40
2.0
 49
1.25
 49
-0.25
 49
0.25
 49
-0.25
  0
LTYPE
  2
PHANTOM
 70
    64
  3
PHANTOM
 72
    65
 73
     6
 40
2.5
 49
1.25
 49
-0.25
 49
0.25
 49
-0.25
 49
0.25
 49
-0.25
  0
ENDTAB
  0
TABLE
  2
LAYER
 70
     1
  0
LAYER
  2
0
 70
    64
 62
     7
  6
CONTINUOUS
  0
ENDTAB
  0
TABLE
  2
STYLE
 70
     2
  0
STYLE
  2
AAA
 70
     0
 40
0.0
 41
1.0
 50
0.0
 71
     0
 42
0.2
  3
TXT
  4

  0
STYLE
  2
STANDARD
 70
    64
 40
0.0
 41
1.0
 50
0.0
 71
     0
 42
0.2
  3
TXT
  4
BIGFONT
  0
ENDTAB
  0
TABLE
  2
VIEW
 70
     0
  0
ENDTAB
  0
ENDSEC
  0
SECTION
  2
BLOCKS
  0
ENDSEC
  0
SECTION
  2
ENTITIES
  0
POINT
  8
0
  6
CONTINUOUS
 62
     7
 10
-81.12356
 20
-24.99998
  0
POINT
  8
0
  6
CONTINUOUS
 62
     7
 10
-91.12356
 20
-24.99998
  0
POINT
  8
0
  6
CONTINUOUS
 62
     7
 10
-14.0
 20
-25.0
  0
POINT
  8
0
  6
CONTINUOUS
 62
     7
 10
34.0
 20
-25.0
  0
POINT
  8
0
  6
CONTINUOUS
 62
     7
 10
99.12363
 20
-24.99999
  0
POINT
  8
0
  6
CONTINUOUS
 62
     7
 10
89.12363
 20
-24.99999
  0
POINT
  8
0
  6
CONTINUOUS
 62
     7
 10
-14.0
 20
45.0
  0
POINT
  8
0
  6
CONTINUOUS
 62
     7
 10
34.0
 20
45.0
  0
LINE
  8
0
  6
CONTINUOUS
 62
     7
 10
-131.1236
 20
-90.00001
 11
-131.1236
 21
90.00001
  0
LINE
  8
0
  6
CONTINUOUS
 62
     7
 10
131.1236
 20
90.00001
 11
131.1236
 21
-90.00001
  0
LINE
  8
0
  6
CONTINUOUS
 62
     7
 10
-131.1236
 20
-90.00001
 11
131.1236
 21
-90.00001
  0
LINE
  8
0
  6
CONTINUOUS
 62
     7
 10
-131.1236
 20
90.00001
 11
131.1236
 21
90.00001
  0
LINE
  8
0
  6
CONTINUOUS
 62
     7
 10
-131.1236
 20
79.88764
 11
-77.19102
 21
79.88764
  0
LINE
  8
0
  6
CONTINUOUS
 62
     7
 10
-77.19102
 20
79.88764
 11
-77.19102
 21
90.00001
  0
LINE
  8
0
  6
CONTINUOUS
 62
     7
 10
77.19101
 20
-79.88764
 11
131.1236
 21
-79.88764
  0
LINE
  8
0
  6
CONTINUOUS
 62
     7
 10
91.35169
 20
-82.31916
 11
96.53259
 21
-82.31916
  0
LINE
  8
0
  6
CONTINUOUS
 62
     7
 10
91.35169
 20
-86.91354
 11
95.75056
 21
-86.91354
  0
LINE
  8
0
  6
CONTINUOUS
 62
     7
 10
91.35169
 20
-88.08657
 11
97.31461
 21
-88.08657
  0
LINE
  8
0
  6
CONTINUOUS
 62
     7
 10
91.35169
 20
-83.49218
 11
95.75056
 21
-83.49218
  0
LINE
  8
0
  6
CONTINUOUS
 62
     7
 10
91.35169
 20
-82.31916
 11
91.35169
 21
-83.49218
  0
LINE
  8
0
  6
CONTINUOUS
 62
     7
 10
97.31461
 20
-83.10118
 11
97.31461
 21
-88.08657
  0
LINE
  8
0
  6
CONTINUOUS
 62
     7
 10
95.75056
 20
-83.49218
 11
95.75056
 21
-86.91354
  0
LINE
  8
0
  6
CONTINUOUS
 62
     7
 10
98.19438
 20
-82.31916
 11
98.19438
 21
-83.49218
  0
LINE
  8
0
  6
CONTINUOUS
 62
     7
 10
103.7663
 20
-83.49218
 11
103.7663
 21
-87.30457
  0
LINE
  8
0
  6
CONTINUOUS
 62
     7
 10
102.2023
 20
-83.49218
 11
102.2023
 21
-86.91354
  0
LINE
  8
0
  6
CONTINUOUS
 62
     7
 10
91.35169
 20
-86.91354
 11
91.35169
 21
-88.08657
  0
LINE
  8
0
  6
CONTINUOUS
 62
     7
 10
98.19438
 20
-82.31916
 11
99.73978
 21
-82.31916
  0
LINE
  8
0
  6
CONTINUOUS
 62
     7
 10
98.19438
 20
-88.08657
 11
99.4088
 21
-88.08657
  0
LINE
  8
0
  6
CONTINUOUS
 62
     7
 10
98.19463
 20
-88.08676
 11
99.4257
 21
-83.49239
  0
LINE
  8
0
  6
CONTINUOUS
 62
     7
 10
98.19438
 20
-83.49218
 11
99.42545
 21
-83.49218
  0
LINE
  8
0
  6
CONTINUOUS
 62
     7
 10
99.40903
 20
-88.08674
 11
100.6401
 21
-83.49235
  0
LINE
  8
0
  6
CONTINUOUS
 62
     7
 10
101.0292
 20
-86.91354
 11
102.2023
 21
-86.91354
  0
LINE
  8
0
  6
CONTINUOUS
 62
     7
 10
101.0291
 20
-86.91348
 11
101.3434
 21
-88.08647
  0
LINE
  8
0
  6
CONTINUOUS
 62
     7
 10
101.3435
 20
-88.08657
 11
102.9843
 21
-88.08657
  0
LINE
  8
0
  6
CONTINUOUS
 62
     7
 10
100.6399
 20
-83.49218
 11
102.2023
 21
-83.49218
  0
LINE
  8
0
  6
CONTINUOUS
 62
     7
 10
100.9542
 20
-82.31916
 11
102.5933
 21
-82.31916
  0
LINE
  8
0
  6
CONTINUOUS
 62
     7
 10
99.73981
 20
-82.31919
 11
99.97292
 21
-81.44921
  0
LINE
  8
0
  6
CONTINUOUS
 62
     7
 10
100.9542
 20
-82.31916
 11
101.1873
 21
-81.44919
  0
LINE
  8
0
  6
CONTINUOUS
 62
     7
 10
104.7438
 20
-82.31916
 11
106.6011
 21
-82.31916
  0
LINE
  8
0
  6
CONTINUOUS
 62
     7
 10
104.7438
 20
-83.49218
 11
109.3053
 21
-83.49218
  0
LINE
  8
0
  6
CONTINUOUS
 62
     7
 10
106.6011
 20
-88.08657
 11
108.1652
 21
-88.08657
  0
LINE
  8
0
  6
CONTINUOUS
 62
     7
 10
104.7438
 20
-82.31916
 11
104.7438
 21
-83.49218
  0
LINE
  8
0
  6
CONTINUOUS
 62
     7
 10
110.5112
 20
-85.61926
 11
110.5112
 21
-86.91354
  0
LINE
  8
0
  6
CONTINUOUS
 62
     7
 10
104.7437
 20
-86.91345
 11
106.601
 21
-86.04738
  0
LINE
  8
0
  6
CONTINUOUS
 62
     7
 10
104.7438
 20
-85.61927
 11
109.3053
 21
-83.4922
  0
LINE
  8
0
  6
CONTINUOUS
 62
     7
 10
104.7438
 20
-85.61926
 11
104.7438
 21
-86.91354
  0
LINE
  8
0
  6
CONTINUOUS
 62
     7
 10
108.1652
 20
-85.81956
 11
110.5112
 21
-86.91356
  0
LINE
  8
0
  6
CONTINUOUS
 62
     7
 10
109.0154
 20
-84.92177
 11
110.5113
 21
-85.61932
  0
LINE
  8
0
  6
CONTINUOUS
 62
     7
 10
110.5112
 20
-83.10118
 11
110.5112
 21
-83.72594
  0
LINE
  8
0
  6
CONTINUOUS
 62
     7
 10
106.6011
 20
-81.44916
 11
106.6011
 21
-82.31916
  0
LINE
  8
0
  6
CONTINUOUS
 62
     7
 10
108.1652
 20
-81.44916
 11
108.1652
 21
-82.31916
  0
LINE
  8
0
  6
CONTINUOUS
 62
     7
 10
108.1652
 20
-82.31916
 11
109.7292
 21
-82.31916
  0
LINE
  8
0
  6
CONTINUOUS
 62
     7
 10
106.6011
 20
-86.04747
 11
106.6011
 21
-88.08657
  0
LINE
  8
0
  6
CONTINUOUS
 62
     7
 10
108.1652
 20
-85.81956
 11
108.1652
 21
-88.08657
  0
LINE
  8
0
  6
CONTINUOUS
 62
     7
 10
109.0153
 20
-84.92168
 11
110.0597
 21
-84.43469
  0
LINE
  8
0
  6
CONTINUOUS
 62
     7
 10
115.7899
 20
-81.80107
 11
116.9629
 21
-81.80107
  0
LINE
  8
0
  6
CONTINUOUS
 62
     7
 10
111.0
 20
-84.22416
 11
111.0
 21
-85.48656
  0
LINE
  8
0
  6
CONTINUOUS
 62
     7
 10
116.9629
 20
-81.80107
 11
116.9629
 21
-82.31916
  0
LINE
  8
0
  6
CONTINUOUS
 62
     7
 10
115.7899
 20
-81.80107
 11
115.7899
 21
-82.05386
  0
LINE
  8
0
  6
CONTINUOUS
 62
     7
 10
114.2258
 20
-84.20361
 11
114.2258
 21
-88.08657
  0
LINE
  8
0
  6
CONTINUOUS
 62
     7
 10
111.0001
 20
-84.22427
 11
115.5435
 21
-82.41731
  0
LINE
  8
0
  6
CONTINUOUS
 62
     7
 10
111.0
 20
-85.48662
 11
114.2259
 21
-84.20366
  0
LINE
  8
0
  6
CONTINUOUS
 62
     7
 10
114.2258
 20
-88.08657
 11
115.7899
 21
-88.08657
  0
LINE
  8
0
  6
CONTINUOUS
 62
     7
 10
115.7899
 20
-83.58156
 11
115.7899
 21
-88.08657
  0
LINE
  8
0
  6
CONTINUOUS
 62
     7
 10
115.79
 20
-83.58161
 11
116.2235
 21
-83.40919
  0
LINE
  8
0
  6
CONTINUOUS
 62
     7
 10
99.87858
 20
-81.44916
 11
101.1873
 21
-81.44916
  0
LINE
  8
0
  6
CONTINUOUS
 62
     7
 10
103.1309
 20
-81.44916
 11
103.6294
 21
-81.44916
  0
LINE
  8
0
  6
CONTINUOUS
 62
     7
 10
106.6011
 20
-81.44916
 11
108.1652
 21
-81.44916
  0
LINE
  8
0
  6
CONTINUOUS
 62
     7
 10
103.1309
 20
-82.23119
 11
103.6294
 21
-82.23119
  0
LINE
  8
0
  6
CONTINUOUS
 62
     7
 10
103.1309
 20
-81.44916
 11
103.1309
 21
-82.23119
  0
LINE
  8
0
  6
CONTINUOUS
 62
     7
 10
103.6294
 20
-81.44916
 11
103.6294
 21
-82.23119
  0
LINE
  8
0
  6
CONTINUOUS
 62
     7
 10
103.9227
 20
-81.44916
 11
103.9227
 21
-82.23119
  0
LINE
  8
0
  6
CONTINUOUS
 62
     7
 10
104.4799
 20
-81.44916
 11
104.4799
 21
-82.23119
  0
LINE
  8
0
  6
CONTINUOUS
 62
     7
 10
103.9227
 20
-81.44916
 11
104.4799
 21
-81.44916
  0
LINE
  8
0
  6
CONTINUOUS
 62
     7
 10
103.9227
 20
-82.23119
 11
104.4799
 21
-82.23119
  0
LINE
  8
0
  6
CONTINUOUS
 62
     7
 10
77.19101
 20
79.88764
 11
131.1236
 21
79.88764
  0
LINE
  8
0
  6
CONTINUOUS
 62
     7
 10
77.19101
 20
90.00001
 11
77.19101
 21
79.88764
  0
LINE
  8
0
  6
CONTINUOUS
 62
     7
 10
77.19101
 20
-79.88764
 11
77.19101
 21
-90.00001
  0
LINE
  8
0
  6
CONTINUOUS
 62
     2
 10
22.75
 20
47.96507
 11
28.52351
 21
57.96507
  0
LINE
  8
0
  6
CONTINUOUS
 62
     2
 10
28.5235
 20
57.96506
 11
40.20235946
 21
57.96506
  0
LINE
  8
0
  6
CONTINUOUS
 62
     2
 10
-33.77351
 20
-37.5
 11
-45.0767366
 21
-37.5
  0
LINE
  8
0
  6
CONTINUOUS
 62
     2
 10
-27.99999
 20
-27.5
 11
-33.7735
 21
-37.50001
  0
LINE
  8
0
  6
CONTINUOUS
 62
     2
 10
4.0
 20
-42.84366
 11
4.0
 21
-52.5
  0
LINE
  8
0
  6
CONTINUOUS
 62
     2
 10
-14.0
 20
-8.5
 11
-14.0
 21
2.5
  0
LINE
  8
0
  6
CONTINUOUS
 62
     2
 10
-1.5
 20
48.2
 11
-1.5
 21
66.0
  0
LINE
  8
0
  6
CONTINUOUS
 62
     2
 10
21.5
 20
49.80001
 11
21.5
 21
66.0
  0
LINE
  8
0
  6
CONTINUOUS
 62
     2
 10
-29.0
 20
11.5
 11
34.0
 21
11.5
  0
LINE
  8
0
  6
CONTINUOUS
 62
     2
 10
-14.0
 20
1.5
 11
34.0
 21
1.5
  0
LINE
  8
0
  6
CONTINUOUS
 62
     2
 10
4.0
 20
-51.5
 11
34.0
 21
-51.5
  0
LINE
  8
0
  6
CONTINUOUS
 62
     2
 10
-1.5
 20
65.0
 11
21.49991
 21
65.0
  0
LINE
  8
0
  6
CONTINUOUS
 62
     2
 10
1.5
 20
66.09191
 11
-1.50001
 21
65.0
  0
LINE
  8
0
  6
CONTINUOUS
 62
     2
 10
1.5
 20
63.9081
 11
-1.49999
 21
65.00002
  0
LINE
  8
0
  6
CONTINUOUS
 62
     2
 10
-26.00001
 20
12.59191
 11
-29.00001
 21
11.5
  0
LINE
  8
0
  6
CONTINUOUS
 62
     2
 10
-26.0
 20
10.4081
 11
-29.0
 21
11.50001
  0
LINE
  8
0
  6
CONTINUOUS
 62
     2
 10
-11.0
 20
2.59191
 11
-14.00001
 21
1.49999
  0
LINE
  8
0
  6
CONTINUOUS
 62
     2
 10
-11.0
 20
0.4081
 11
-14.0
 21
1.50001
  0
LINE
  8
0
  6
CONTINUOUS
 62
     2
 10
6.99999
 20
-50.40809
 11
3.99999
 21
-51.5
  0
LINE
  8
0
  6
CONTINUOUS
 62
     2
 10
7.0
 20
-52.59191
 11
4.0
 21
-51.5
  0
LINE
  8
0
  6
CONTINUOUS
 62
     2
 10
31.00001
 20
2.59191
 11
34.00002
 21
1.5
  0
LINE
  8
0
  6
CONTINUOUS
 62
     2
 10
31.0
 20
0.40809
 11
34.0
 21
1.5
  0
LINE
  8
0
  6
CONTINUOUS
 62
     2
 10
31.0
 20
12.5919
 11
34.00001
 21
11.49999
  0
LINE
  8
0
  6
CONTINUOUS
 62
     2
 10
31.0
 20
10.40809
 11
34.0
 21
11.50001
  0
LINE
  8
0
  6
CONTINUOUS
 62
     2
 10
18.50002
 20
66.09193
 11
21.50002
 21
65.00002
  0
LINE
  8
0
  6
CONTINUOUS
 62
     2
 10
18.49999
 20
63.90812
 11
21.49999
 21
65.00004
  0
LINE
  8
0
  6
CONTINUOUS
 62
     2
 10
33.36749
 20
-60.56066
 11
48.94409563
 21
-60.56066
  0
LINE
  8
0
  6
CONTINUOUS
 62
     2
 10
-28.55433
 20
-30.64404
 11
-27.99995
 21
-27.50001
  0
LINE
  8
0
  6
CONTINUOUS
 62
     2
 10
-30.44562
 20
-29.55214
 11
-28.0
 21
-27.50002
  0
LINE
  8
0
  6
CONTINUOUS
 62
     2
 10
13.5561
 20
-38.64906
 11
12.46419
 21
-35.64907
  0
LINE
  8
0
  6
CONTINUOUS
 62
     2
 10
15.229
 20
-37.24533
 11
12.46418
 21
-35.64906
  0
LINE
  8
0
  6
CONTINUOUS
 62
     2
 10
23.30438
 20
51.10909
 11
22.75
 21
47.96505
  0
LINE
  8
0
  6
CONTINUOUS
 62
     2
 10
25.19562
 20
50.0172
 11
22.74999
 21
47.96508
  0
LINE
  8
0
  6
CONTINUOUS
 62
     7
 10
-102.76037318
 20
-84.28783
 11
-100.12383915
 21
-84.28783
  0
LINE
  8
0
  6
CONTINUOUS
 62
     2
 10
30.99998
 20
-52.59182
 11
33.99997
 21
-51.49991
  0
LINE
  8
0
  6
CONTINUOUS
 62
     2
 10
31.00002
 20
-50.40808
 11
34.00002
 21
-51.49999
  0
LINE
  8
0
  6
CONTINUOUS
 62
     7
 10
-102.09655298
 20
-83.71139747
 11
-100.12377915
 21
-84.28775
  0
LINE
  8
0
  6
CONTINUOUS
 62
     7
 10
-102.09655298
 20
-84.93395064
 11
-100.12383915
 21
-84.28786
  0
LINE
  8
0
  6
CONTINUOUS
 62
     2
 10
34.0
 20
-8.00295
 11
34.0
 21
12.5
  0
LINE
  8
0
  6
CONTINUOUS
 62
     2
 10
-29.0
 20
-22.19469
 11
-29.0
 21
12.5
  0
LINE
  8
0
  6
CONTINUOUS
 62
     2
 10
34.0
 20
-42.0177
 11
34.0
 21
-52.5
  0
LINE
  8
0
  6
CONTINUOUS
 62
     2
 10
12.46418
 20
-35.64907
 11
33.36749
 21
-60.56066
  0
LINE
  8
0
  6
CONTINUOUS
 62
     7
 10
-14.0
 20
-8.5
 11
9.57883
 21
-8.5
  0
LINE
  8
0
  6
CONTINUOUS
 62
     7
 10
-14.0
 20
-41.5
 11
18.42116
 21
-41.5
  0
LINE
  8
0
  6
CENTER
 62
     2
 10
-31.0
 20
-25.0
 11
37.0
 21
-25.0
  0
LINE
  8
0
  6
CONTINUOUS
 62
     7
 10
-7.0
 20
-8.5
 11
-7.0
 21
-41.5
  0
LINE
  8
0
  6
CONTINUOUS
 62
     7
 10
27.0
 20
-8.5
 11
27.0
 21
-41.5
  0
LINE
  8
0
  6
CONTINUOUS
 62
     7
 10
34.0
 20
-8.5
 11
34.0
 21
-41.5
  0
LINE
  8
0
  6
CONTINUOUS
 62
     7
 10
29.8
 20
-8.5
 11
29.8
 21
-17.0
  0
LINE
  8
0
  6
CONTINUOUS
 62
     7
 10
-14.0
 20
-8.5
 11
-14.0
 21
-41.5
  0
LINE
  8
0
  6
CONTINUOUS
 62
     7
 10
-9.8
 20
-33.0
 11
-9.8
 21
-41.5
  0
LINE
  8
0
  6
CONTINUOUS
 62
     7
 10
29.8
 20
-17.0
 11
34.0
 21
-17.0
  0
LINE
  8
0
  6
CONTINUOUS
 62
     7
 10
-14.0
 20
-33.0
 11
-9.8
 21
-33.0
  0
LINE
  8
0
  6
CONTINUOUS
 62
     7
 10
-13.4
 20
-34.9
 11
-9.8
 21
-34.9
  0
LINE
  8
0
  6
CONTINUOUS
 62
     7
 10
-13.4
 20
-34.4
 11
-9.8
 21
-34.4
  0
LINE
  8
0
  6
CONTINUOUS
 62
     7
 10
-13.4
 20
-37.5
 11
-9.8
 21
-37.5
  0
LINE
  8
0
  6
CONTINUOUS
 62
     7
 10
-13.4
 20
-40.1
 11
-9.8
 21
-40.1
  0
LINE
  8
0
  6
CONTINUOUS
 62
     7
 10
-13.4
 20
-40.6
 11
-9.8
 21
-40.6
  0
LINE
  8
0
  6
CONTINUOUS
 62
     7
 10
-13.8
 20
-34.69283
 11
-13.8
 21
-40.30718
  0
LINE
  8
0
  6
CONTINUOUS
 62
     7
 10
-13.4
 20
-41.0
 11
-9.8
 21
-41.0
  0
LINE
  8
0
  6
CONTINUOUS
 62
     7
 10
-13.4
 20
-34.0
 11
-9.8
 21
-34.0
  0
LINE
  8
0
  6
CONTINUOUS
 62
     7
 10
-13.4
 20
-34.0
 11
-13.4
 21
-41.0
  0
LINE
  8
0
  6
CONTINUOUS
 62
     7
 10
-13.8
 20
-34.69283
 11
-13.4
 21
-34.00001
  0
LINE
  8
0
  6
CONTINUOUS
 62
     7
 10
-13.80001
 20
-40.30718
 11
-13.40001
 21
-41.0
  0
LINE
  8
0
  6
CONTINUOUS
 62
     7
 10
-13.4
 20
-38.3
 11
-9.8
 21
-38.3
  0
LINE
  8
0
  6
CONTINUOUS
 62
     7
 10
-13.4
 20
-36.7
 11
-9.8
 21
-36.7
  0
LINE
  8
0
  6
CONTINUOUS
 62
     7
 10
-13.4
 20
-36.0
 11
-9.8
 21
-36.0
  0
LINE
  8
0
  6
CONTINUOUS
 62
     7
 10
-13.4
 20
-39.0
 11
-9.8
 21
-39.0
  0
LINE
  8
0
  6
CONTINUOUS
 62
     7
 10
-13.4
 20
-35.4
 11
-9.8
 21
-35.4
  0
LINE
  8
0
  6
CONTINUOUS
 62
     7
 10
-13.4
 20
-39.6
 11
-9.8
 21
-39.6
  0
LINE
  8
0
  6
CONTINUOUS
 62
     7
 10
33.4
 20
-14.6
 11
29.8
 21
-14.6
  0
LINE
  8
0
  6
CONTINUOUS
 62
     7
 10
33.4
 20
-9.9
 11
29.8
 21
-9.9
  0
LINE
  8
0
  6
CONTINUOUS
 62
     7
 10
33.4
 20
-15.6
 11
29.8
 21
-15.6
  0
LINE
  8
0
  6
CONTINUOUS
 62
     7
 10
33.4
 20
-10.4
 11
29.8
 21
-10.4
  0
LINE
  8
0
  6
CONTINUOUS
 62
     7
 10
33.4
 20
-15.1
 11
29.8
 21
-15.1
  0
LINE
  8
0
  6
CONTINUOUS
 62
     7
 10
33.4
 20
-12.5
 11
29.8
 21
-12.5
  0
LINE
  8
0
  6
CONTINUOUS
 62
     7
 10
33.4
 20
-9.4
 11
29.8
 21
-9.4
  0
LINE
  8
0
  6
CONTINUOUS
 62
     7
 10
33.8
 20
-15.30718
 11
33.8
 21
-9.69282
  0
LINE
  8
0
  6
CONTINUOUS
 62
     7
 10
33.4
 20
-9.0
 11
29.8
 21
-9.0
  0
LINE
  8
0
  6
CONTINUOUS
 62
     7
 10
33.4
 20
-16.0
 11
29.8
 21
-16.0
  0
LINE
  8
0
  6
CONTINUOUS
 62
     7
 10
33.39999
 20
-16.0
 11
33.39999
 21
-9.0
  0
LINE
  8
0
  6
CONTINUOUS
 62
     7
 10
33.80001
 20
-15.30719
 11
33.40001
 21
-16.00001
  0
LINE
  8
0
  6
CONTINUOUS
 62
     7
 10
33.80001
 20
-9.69282
 11
33.40001
 21
-9.0
  0
LINE
  8
0
  6
CONTINUOUS
 62
     7
 10
33.4
 20
-11.7
 11
29.8
 21
-11.7
  0
LINE
  8
0
  6
CONTINUOUS
 62
     7
 10
33.4
 20
-13.3
 11
29.8
 21
-13.3
  0
LINE
  8
0
  6
CONTINUOUS
 62
     7
 10
33.4
 20
-14.0
 11
29.8
 21
-14.0
  0
LINE
  8
0
  6
CONTINUOUS
 62
     7
 10
33.4
 20
-11.0
 11
29.8
 21
-11.0
  0
LINE
  8
0
  6
CONTINUOUS
 62
     7
 10
-15.0
 20
-20.0
 11
-15.0
 21
-30.0
  0
LINE
  8
0
  6
CONTINUOUS
 62
     7
 10
-15.0
 20
-20.0
 11
-14.0
 21
-20.0
  0
LINE
  8
0
  6
CONTINUOUS
 62
     7
 10
-15.0
 20
-30.0
 11
-14.0
 21
-30.0
  0
LINE
  8
0
  6
CONTINUOUS
 62
     7
 10
-23.0
 20
-21.0
 11
-23.0
 21
-29.0
  0
LINE
  8
0
  6
CONTINUOUS
 62
     7
 10
-29.0
 20
-23.0
 11
-28.5
 21
-22.5
  0
LINE
  8
0
  6
CONTINUOUS
 62
     7
 10
-28.9
 20
-22.9
 11
-26.2
 21
-22.9
  0
LINE
  8
0
  6
CONTINUOUS
 62
     7
 10
-28.5
 20
-22.5
 11
-26.2
 21
-22.5
  0
LINE
  8
0
  6
CONTINUOUS
 62
     7
 10
-28.5
 20
-22.5
 11
-28.5
 21
-27.5
  0
LINE
  8
0
  6
CONTINUOUS
 62
     7
 10
-29.0
 20
-23.0
 11
-29.0
 21
-27.0
  0
LINE
  8
0
  6
CONTINUOUS
 62
     7
 10
-28.9
 20
-27.1
 11
-26.2
 21
-27.1
  0
LINE
  8
0
  6
CONTINUOUS
 62
     7
 10
-28.99999
 20
-26.99999
 11
-28.49999
 21
-27.49999
  0
LINE
  8
0
  6
CONTINUOUS
 62
     7
 10
-28.5
 20
-27.5
 11
-26.2
 21
-27.5
  0
LINE
  8
0
  6
CONTINUOUS
 62
     7
 10
-19.8
 20
-27.1
 11
-17.0
 21
-27.1
  0
LINE
  8
0
  6
CONTINUOUS
 62
     7
 10
-19.8
 20
-27.5
 11
-15.5
 21
-27.5
  0
LINE
  8
0
  6
CONTINUOUS
 62
     7
 10
-17.0
 20
-22.5
 11
-17.0
 21
-27.5
  0
LINE
  8
0
  6
CONTINUOUS
 62
     7
 10
-17.0
 20
-27.1
 11
-16.30718
 21
-27.5
  0
LINE
  8
0
  6
CONTINUOUS
 62
     7
 10
-15.5
 20
-27.50001
 11
-15.0
 21
-28.00001
  0
LINE
  8
0
  6
CONTINUOUS
 62
     7
 10
-15.5
 20
-22.5
 11
-15.5
 21
-27.5
  0
LINE
  8
0
  6
CONTINUOUS
 62
     7
 10
-15.5
 20
-22.50001
 11
-15.0
 21
-22.00001
  0
LINE
  8
0
  6
CONTINUOUS
 62
     7
 10
-19.8
 20
-22.5
 11
-15.5
 21
-22.5
  0
LINE
  8
0
  6
CONTINUOUS
 62
     7
 10
-17.0
 20
-22.9
 11
-16.30718
 21
-22.5
  0
LINE
  8
0
  6
CONTINUOUS
 62
     7
 10
-19.8
 20
-22.9
 11
-17.0
 21
-22.9
  0
LINE
  8
0
  6
CONTINUOUS
 62
     7
 10
-22.64273
 20
-20.3812
 11
-20.15727
 21
-20.3812
  0
LINE
  8
0
  6
CONTINUOUS
 62
     7
 10
-22.64273
 20
-22.6906
 11
-20.15727
 21
-22.6906
  0
LINE
  8
0
  6
CONTINUOUS
 62
     7
 10
-22.64273
 20
-27.30941
 11
-20.15726
 21
-27.30941
  0
LINE
  8
0
  6
CONTINUOUS
 62
     7
 10
-22.64273
 20
-29.6188
 11
-20.15727
 21
-29.6188
  0
LINE
  8
0
  6
CONTINUOUS
 62
     7
 10
-23.0
 20
-21.0
 11
-22.64273
 21
-20.3812
  0
LINE
  8
0
  6
CONTINUOUS
 62
     7
 10
-22.99999
 20
-29.0
 11
-22.64272
 21
-29.6188
  0
LINE
  8
0
  6
CONTINUOUS
 62
     7
 10
-19.8
 20
-21.00001
 11
-20.15727
 21
-20.3812
  0
LINE
  8
0
  6
CONTINUOUS
 62
     7
 10
-19.8
 20
-21.0
 11
-19.8
 21
-29.0
  0
LINE
  8
0
  6
CONTINUOUS
 62
     7
 10
-19.8
 20
-29.00001
 11
-20.15727
 21
-29.61881
  0
LINE
  8
0
  6
CONTINUOUS
 62
     7
 10
-25.84273
 20
-20.3812
 11
-23.35727
 21
-20.3812
  0
LINE
  8
0
  6
CONTINUOUS
 62
     7
 10
-26.2
 20
-21.0
 11
-25.84273
 21
-20.3812
  0
LINE
  8
0
  6
CONTINUOUS
 62
     7
 10
-23.0
 20
-21.00001
 11
-23.35727
 21
-20.3812
  0
LINE
  8
0
  6
CONTINUOUS
 62
     7
 10
-26.2
 20
-21.0
 11
-26.2
 21
-29.0
  0
LINE
  8
0
  6
CONTINUOUS
 62
     7
 10
-23.0
 20
-21.0
 11
-23.0
 21
-29.0
  0
LINE
  8
0
  6
CONTINUOUS
 62
     7
 10
-25.84273
 20
-22.6906
 11
-23.35727
 21
-22.6906
  0
LINE
  8
0
  6
CONTINUOUS
 62
     7
 10
-25.84273
 20
-27.30941
 11
-23.35727
 21
-27.30941
  0
LINE
  8
0
  6
CONTINUOUS
 62
     7
 10
-26.19999
 20
-29.0
 11
-25.84273
 21
-29.6188
  0
LINE
  8
0
  6
CONTINUOUS
 62
     7
 10
-23.0
 20
-29.0
 11
-23.35727
 21
-29.6188
  0
LINE
  8
0
  6
CONTINUOUS
 62
     7
 10
-25.84273
 20
-29.6188
 11
-23.35727
 21
-29.6188
  0
LINE
  8
0
  6
CENTER
 62
     2
 10
4.0
 20
-7.5
 11
4.0
 21
-18.5
  0
LINE
  8
0
  6
CENTER
 62
     2
 10
4.0
 20
-31.5
 11
4.0
 21
-42.5
  0
LINE
  8
0
  6
CENTER
 62
     2
 10
16.5
 20
-12.5
 11
16.5
 21
-18.5
  0
LINE
  8
0
  6
CENTER
 62
     2
 10
11.5
 20
-31.5
 11
11.5
 21
-37.5
  0
LINE
  8
0
  6
CENTER
 62
     2
 10
13.5
 20
-15.5
 11
19.5
 21
-15.5
  0
LINE
  8
0
  6
CENTER
 62
     2
 10
8.5
 20
-34.5
 11
14.5
 21
-34.5
  0
LINE
  8
0
  6
CENTER
 62
     2
 10
-1.5
 20
-13.0
 11
9.5
 21
-13.0
  0
LINE
  8
0
  6
CENTER
 62
     2
 10
-1.5
 20
-37.0
 11
9.5
 21
-37.0
  0
LINE
  8
0
  6
PHANTOM
 62
     2
 10
9.31089
 20
-7.50001
 11
18.68911
 21
-42.5
  0
LINE
  8
0
  6
PHANTOM
 62
     2
 10
9.82852
 20
-7.5
 11
19.20674
 21
-42.5
  0
LINE
  8
0
  6
CONTINUOUS
 62
     7
 10
10.09647
 20
-8.5
 11
34.0
 21
-8.5
  0
LINE
  8
0
  6
CONTINUOUS
 62
     7
 10
18.9388
 20
-41.5
 11
34.0
 21
-41.5
  0
LINE
  8
0
  6
CONTINUOUS
 62
     7
 10
-7.0
 20
55.0
 11
-7.0
 21
35.0
  0
LINE
  8
0
  6
CONTINUOUS
 62
     7
 10
27.0
 20
55.0
 11
27.0
 21
35.0
  0
LINE
  8
0
  6
CENTER
 62
     2
 10
-31.0
 20
45.0
 11
37.0
 21
45.0
  0
LINE
  8
0
  6
CONTINUOUS
 62
     7
 10
-14.0
 20
35.0
 11
16.67947
 21
35.0
  0
LINE
  8
0
  6
CONTINUOUS
 62
     7
 10
-14.0
 20
55.0
 11
11.32048
 21
55.0
  0
LINE
  8
0
  6
CONTINUOUS
 62
     7
 10
34.0
 20
55.0
 11
34.0
 21
35.0
  0
LINE
  8
0
  6
CONTINUOUS
 62
     7
 10
29.8
 20
43.2
 11
29.8
 21
35.0
  0
LINE
  8
0
  6
CONTINUOUS
 62
     7
 10
-13.4
 20
51.0
 11
-9.8
 21
51.0
  0
LINE
  8
0
  6
CONTINUOUS
 62
     7
 10
-14.0
 20
55.0
 11
-14.0
 21
35.0
  0
LINE
  8
0
  6
CONTINUOUS
 62
     7
 10
-9.8
 20
55.0
 11
-9.8
 21
46.80001
  0
LINE
  8
0
  6
CONTINUOUS
 62
     7
 10
29.8
 20
43.2
 11
34.0
 21
43.2
  0
LINE
  8
0
  6
CONTINUOUS
 62
     7
 10
-14.0
 20
46.80001
 11
-9.8
 21
46.80001
  0
LINE
  8
0
  6
CONTINUOUS
 62
     7
 10
-13.8
 20
53.80718
 11
-13.8
 21
48.19283
  0
LINE
  8
0
  6
CONTINUOUS
 62
     7
 10
-13.4
 20
47.5
 11
-9.8
 21
47.5
  0
LINE
  8
0
  6
CONTINUOUS
 62
     7
 10
-13.4
 20
54.5
 11
-9.8
 21
54.5
  0
LINE
  8
0
  6
CONTINUOUS
 62
     7
 10
-13.4
 20
54.5
 11
-13.4
 21
47.5
  0
LINE
  8
0
  6
CONTINUOUS
 62
     7
 10
-13.80001
 20
53.8072
 11
-13.40001
 21
54.50002
  0
LINE
  8
0
  6
CONTINUOUS
 62
     7
 10
-13.8
 20
48.19284
 11
-13.39999
 21
47.50002
  0
LINE
  8
0
  6
CONTINUOUS
 62
     7
 10
-13.4
 20
50.2
 11
-9.8
 21
50.2
  0
LINE
  8
0
  6
CONTINUOUS
 62
     7
 10
-13.4
 20
51.80001
 11
-9.8
 21
51.80001
  0
LINE
  8
0
  6
CONTINUOUS
 62
     7
 10
-13.4
 20
52.5
 11
-9.8
 21
52.5
  0
LINE
  8
0
  6
CONTINUOUS
 62
     7
 10
-13.4
 20
49.5
 11
-9.8
 21
49.5
  0
LINE
  8
0
  6
CONTINUOUS
 62
     7
 10
-13.4
 20
53.1
 11
-9.8
 21
53.1
  0
LINE
  8
0
  6
CONTINUOUS
 62
     7
 10
-13.4
 20
48.90001
 11
-9.8
 21
48.90001
  0
LINE
  8
0
  6
CONTINUOUS
 62
     7
 10
-13.4
 20
53.6
 11
-9.8
 21
53.6
  0
LINE
  8
0
  6
CONTINUOUS
 62
     7
 10
-13.4
 20
48.40001
 11
-9.8
 21
48.40001
  0
LINE
  8
0
  6
CONTINUOUS
 62
     7
 10
-13.4
 20
47.90001
 11
-9.8
 21
47.90001
  0
LINE
  8
0
  6
CONTINUOUS
 62
     7
 10
-13.4
 20
54.1
 11
-9.8
 21
54.1
  0
LINE
  8
0
  6
CONTINUOUS
 62
     7
 10
33.4
 20
36.90001
 11
29.8
 21
36.90001
  0
LINE
  8
0
  6
CONTINUOUS
 62
     7
 10
33.4
 20
41.6
 11
29.8
 21
41.6
  0
LINE
  8
0
  6
CONTINUOUS
 62
     7
 10
33.4
 20
35.90001
 11
29.8
 21
35.90001
  0
LINE
  8
0
  6
CONTINUOUS
 62
     7
 10
33.4
 20
41.1
 11
29.8
 21
41.1
  0
LINE
  8
0
  6
CONTINUOUS
 62
     7
 10
33.4
 20
36.40001
 11
29.8
 21
36.40001
  0
LINE
  8
0
  6
CONTINUOUS
 62
     7
 10
33.4
 20
39.0
 11
29.8
 21
39.0
  0
LINE
  8
0
  6
CONTINUOUS
 62
     7
 10
33.4
 20
42.1
 11
29.8
 21
42.1
  0
LINE
  8
0
  6
CONTINUOUS
 62
     7
 10
33.8
 20
36.19283
 11
33.8
 21
41.80718
  0
LINE
  8
0
  6
CONTINUOUS
 62
     7
 10
33.4
 20
42.5
 11
29.8
 21
42.5
  0
LINE
  8
0
  6
CONTINUOUS
 62
     7
 10
33.4
 20
35.5
 11
29.8
 21
35.5
  0
LINE
  8
0
  6
CONTINUOUS
 62
     7
 10
33.39999
 20
35.5
 11
33.39999
 21
42.5
  0
LINE
  8
0
  6
CONTINUOUS
 62
     7
 10
33.8
 20
36.19281
 11
33.4
 21
35.49999
  0
LINE
  8
0
  6
CONTINUOUS
 62
     7
 10
33.80001
 20
41.8072
 11
33.40001
 21
42.50001
  0
LINE
  8
0
  6
CONTINUOUS
 62
     7
 10
33.4
 20
39.80001
 11
29.8
 21
39.80001
  0
LINE
  8
0
  6
CONTINUOUS
 62
     7
 10
33.4
 20
38.2
 11
29.8
 21
38.2
  0
LINE
  8
0
  6
CONTINUOUS
 62
     7
 10
33.4
 20
37.5
 11
29.8
 21
37.5
  0
LINE
  8
0
  6
CONTINUOUS
 62
     7
 10
33.4
 20
40.5
 11
29.8
 21
40.5
  0
LINE
  8
0
  6
CONTINUOUS
 62
     7
 10
-29.0
 20
47.0
 11
-29.0
 21
43.0
  0
LINE
  8
0
  6
CONTINUOUS
 62
     7
 10
-15.0
 20
40.0
 11
-14.0
 21
40.0
  0
LINE
  8
0
  6
CONTINUOUS
 62
     7
 10
-15.0
 20
50.0
 11
-14.0
 21
50.0
  0
LINE
  8
0
  6
CONTINUOUS
 62
     7
 10
-15.0
 20
50.0
 11
-15.0
 21
40.0
  0
LINE
  8
0
  6
CONTINUOUS
 62
     7
 10
-15.5
 20
47.5
 11
-15.5
 21
42.5
  0
LINE
  8
0
  6
CONTINUOUS
 62
     7
 10
-28.5
 20
47.5
 11
-26.2
 21
47.5
  0
LINE
  8
0
  6
CONTINUOUS
 62
     7
 10
-28.5
 20
42.5
 11
-26.2
 21
42.5
  0
LINE
  8
0
  6
CONTINUOUS
 62
     7
 10
-15.50002
 20
47.50003
 11
-15.00003
 21
48.00003
  0
LINE
  8
0
  6
CONTINUOUS
 62
     7
 10
-15.49999
 20
42.50002
 11
-15.0
 21
42.00002
  0
LINE
  8
0
  6
CONTINUOUS
 62
     7
 10
-28.99995
 20
46.99995
 11
-28.49995
 21
47.49995
  0
LINE
  8
0
  6
CONTINUOUS
 62
     7
 10
-29.00003
 20
42.99997
 11
-28.50003
 21
42.49997
  0
LINE
  8
0
  6
CONTINUOUS
 62
     7
 10
-17.0
 20
47.5
 11
-17.0
 21
42.5
  0
LINE
  8
0
  6
CONTINUOUS
 62
     7
 10
-28.9
 20
42.90001
 11
-26.2
 21
42.90001
  0
LINE
  8
0
  6
CONTINUOUS
 62
     7
 10
-28.9
 20
47.1
 11
-26.2
 21
47.1
  0
LINE
  8
0
  6
CONTINUOUS
 62
     7
 10
-16.99998
 20
47.09998
 11
-16.30715
 21
47.49998
  0
LINE
  8
0
  6
CONTINUOUS
 62
     7
 10
-17.00002
 20
42.89998
 11
-16.3072
 21
42.49998
  0
LINE
  8
0
  6
CONTINUOUS
 62
     7
 10
-28.5
 20
47.5
 11
-28.5
 21
42.5
  0
LINE
  8
0
  6
CONTINUOUS
 62
     7
 10
-19.8
 20
47.5
 11
-15.5
 21
47.5
  0
LINE
  8
0
  6
CONTINUOUS
 62
     7
 10
-19.8
 20
47.1
 11
-17.0
 21
47.1
  0
LINE
  8
0
  6
CONTINUOUS
 62
     7
 10
-19.8
 20
42.90001
 11
-17.0
 21
42.90001
  0
LINE
  8
0
  6
CONTINUOUS
 62
     7
 10
-19.8
 20
42.5
 11
-15.5
 21
42.5
  0
LINE
  8
0
  6
CONTINUOUS
 62
     7
 10
-23.0
 20
49.0
 11
-23.0
 21
41.0
  0
LINE
  8
0
  6
CONTINUOUS
 62
     7
 10
-23.0
 20
41.0
 11
-19.8
 21
41.0
  0
LINE
  8
0
  6
CONTINUOUS
 62
     7
 10
-23.0
 20
49.0
 11
-19.8
 21
49.0
  0
LINE
  8
0
  6
CONTINUOUS
 62
     7
 10
-19.8
 20
49.0
 11
-19.8
 21
41.0
  0
LINE
  8
0
  6
CONTINUOUS
 62
     7
 10
-26.2
 20
49.0
 11
-23.0
 21
49.0
  0
LINE
  8
0
  6
CONTINUOUS
 62
     7
 10
-26.2
 20
49.0
 11
-26.2
 21
41.0
  0
LINE
  8
0
  6
CONTINUOUS
 62
     7
 10
-26.2
 20
41.0
 11
-23.0
 21
41.0
  0
LINE
  8
0
  6
CONTINUOUS
 62
     7
 10
-23.0
 20
49.0
 11
-23.0
 21
41.0
  0
LINE
  8
0
  6
CONTINUOUS
 62
     7
 10
-3.26775
 20
45.96779
 11
0.26779
 21
42.43225
  0
LINE
  8
0
  6
CENTER
 62
     2
 10
21.5
 20
49.80001
 11
21.5
 21
41.80001
  0
LINE
  8
0
  6
CENTER
 62
     2
 10
17.5
 20
45.80001
 11
25.5
 21
45.80001
  0
LINE
  8
0
  6
CONTINUOUS
 62
     7
 10
-3.26777
 20
42.43224
 11
0.26776
 21
45.96777
  0
LINE
  8
0
  6
CONTINUOUS
 62
     7
 10
-25.84273
 20
45.0
 11
-23.35727
 21
45.0
  0
LINE
  8
0
  6
CONTINUOUS
 62
     7
 10
-22.64273
 20
45.0
 11
-20.15727
 21
45.0
  0
LINE
  8
0
  6
CENTER
 62
     2
 10
-5.5
 20
44.2
 11
2.5
 21
44.2
  0
LINE
  8
0
  6
CENTER
 62
     2
 10
-1.5
 20
48.2
 11
-1.5
 21
40.2
  0
LINE
  8
0
  6
CONTINUOUS
 62
     7
 10
-3.8273
 20
43.28693
 11
-0.58693
 21
46.52731
  0
LINE
  8
0
  6
CONTINUOUS
 62
     7
 10
-3.82728
 20
45.11308
 11
-0.5869
 21
41.87271
  0
LINE
  8
0
  6
CONTINUOUS
 62
     7
 10
-2.41309
 20
41.87271
 11
0.82729
 21
45.11309
  0
LINE
  8
0
  6
CONTINUOUS
 62
     7
 10
-2.41307
 20
46.52731
 11
0.8273
 21
43.28693
  0
LINE
  8
0
  6
CONTINUOUS
 62
     7
 10
-3.97488
 20
44.55355
 11
-1.85356
 21
46.67488
  0
LINE
  8
0
  6
CONTINUOUS
 62
     7
 10
-3.97486
 20
43.84646
 11
-1.85354
 21
41.72514
  0
LINE
  8
0
  6
CONTINUOUS
 62
     7
 10
-1.14645
 20
41.72514
 11
0.97487
 21
43.84645
  0
LINE
  8
0
  6
CONTINUOUS
 62
     7
 10
-1.14643
 20
46.67489
 11
0.97489
 21
44.55357
  0
LINE
  8
0
  6
PHANTOM
 62
     2
 10
11.05253
 20
56.0
 11
16.94742
 21
34.0
  0
LINE
  8
0
  6
PHANTOM
 62
     2
 10
11.57019
 20
56.0
 11
17.46508
 21
34.0
  0
LINE
  8
0
  6
CONTINUOUS
 62
     7
 10
17.19713
 20
35.0
 11
34.0
 21
35.0
  0
LINE
  8
0
  6
CONTINUOUS
 62
     7
 10
11.83815
 20
55.0
 11
34.0
 21
55.0
  0
LINE
  8
0
  6
CONTINUOUS
 62
     7
 10
-101.1236
 20
-41.49998
 11
-81.12356
 21
-41.49998
  0
LINE
  8
0
  6
CONTINUOUS
 62
     7
 10
-101.1236
 20
-8.49998
 11
-81.12356
 21
-8.49998
  0
LINE
  8
0
  6
CONTINUOUS
 62
     7
 10
-81.12356
 20
-8.49998
 11
-81.12356
 21
-41.49998
  0
LINE
  8
0
  6
CONTINUOUS
 62
     7
 10
-101.1236
 20
-8.49998
 11
-101.1236
 21
-41.49998
  0
LINE
  8
0
  6
CONTINUOUS
 62
     7
 10
-101.1236
 20
-16.99998
 11
-97.12356
 21
-16.99998
  0
LINE
  8
0
  6
CONTINUOUS
 62
     7
 10
-85.12356
 20
-32.99998
 11
-81.12356
 21
-32.99998
  0
LINE
  8
0
  6
CONTINUOUS
 62
     7
 10
-92.62356
 20
-8.49998
 11
-92.62356
 21
-12.49998
  0
LINE
  8
0
  6
CONTINUOUS
 62
     7
 10
-89.62356
 20
-37.49998
 11
-89.62356
 21
-41.49998
  0
LINE
  8
0
  6
CONTINUOUS
 62
     7
 10
-85.12358
 20
-35.76795
 11
-83.62357
 21
-36.63398
  0
LINE
  8
0
  6
CONTINUOUS
 62
     7
 10
-86.62357
 20
-36.63397
 11
-85.12356
 21
-35.76794
  0
LINE
  8
0
  6
CONTINUOUS
 62
     7
 10
-86.62356
 20
-36.63395
 11
-86.62356
 21
-38.366
  0
LINE
  8
0
  6
CONTINUOUS
 62
     7
 10
-86.62357
 20
-38.36604
 11
-85.12357
 21
-39.23206
  0
LINE
  8
0
  6
CONTINUOUS
 62
     7
 10
-85.12356
 20
-39.23204
 11
-83.62355
 21
-38.36601
  0
LINE
  8
0
  6
CONTINUOUS
 62
     7
 10
-83.62356
 20
-36.63395
 11
-83.62356
 21
-38.366
  0
LINE
  8
0
  6
CONTINUOUS
 62
     7
 10
-97.12357
 20
-10.76794
 11
-95.62357
 21
-11.63397
  0
LINE
  8
0
  6
CONTINUOUS
 62
     7
 10
-98.62357
 20
-11.63394
 11
-97.12357
 21
-10.76791
  0
LINE
  8
0
  6
CONTINUOUS
 62
     7
 10
-98.62356
 20
-11.63395
 11
-98.62356
 21
-13.366
  0
LINE
  8
0
  6
CONTINUOUS
 62
     7
 10
-98.62357
 20
-13.36602
 11
-97.12356
 21
-14.23205
  0
LINE
  8
0
  6
CONTINUOUS
 62
     7
 10
-97.12358
 20
-14.23201
 11
-95.62357
 21
-13.36598
  0
LINE
  8
0
  6
CONTINUOUS
 62
     7
 10
-95.62356
 20
-11.63395
 11
-95.62356
 21
-13.366
  0
LINE
  8
0
  6
CONTINUOUS
 62
     7
 10
-95.12356
 20
-22.69057
 11
-95.12356
 21
-27.30938
  0
LINE
  8
0
  6
CONTINUOUS
 62
     7
 10
-87.12356
 20
-22.69057
 11
-87.12356
 21
-27.30938
  0
LINE
  8
0
  6
CONTINUOUS
 62
     7
 10
-95.12358
 20
-27.3094
 11
-91.12357
 21
-29.6188
  0
LINE
  8
0
  6
CONTINUOUS
 62
     7
 10
-91.12357
 20
-20.38119
 11
-87.12357
 21
-22.69059
  0
LINE
  8
0
  6
CONTINUOUS
 62
     7
 10
-95.12357
 20
-22.69057
 11
-91.12357
 21
-20.38117
  0
LINE
  8
0
  6
CONTINUOUS
 62
     7
 10
-91.12357
 20
-29.61877
 11
-87.12357
 21
-27.30937
  0
LINE
  8
0
  6
CENTER
 62
     2
 10
-102.1236
 20
-12.49998
 11
-92.12356
 21
-12.49998
  0
LINE
  8
0
  6
CENTER
 62
     2
 10
-90.12356
 20
-37.49998
 11
-80.12356
 21
-37.49998
  0
LINE
  8
0
  6
CENTER
 62
     2
 10
-97.12356
 20
-7.49998
 11
-97.12356
 21
-17.49998
  0
LINE
  8
0
  6
CENTER
 62
     2
 10
-85.12356
 20
-32.49998
 11
-85.12356
 21
-42.49998
  0
LINE
  8
0
  6
CENTER
 62
     2
 10
-91.12356
 20
-4.99998
 11
-91.12356
 21
-44.99998
  0
LINE
  8
0
  6
CENTER
 62
     2
 10
-103.6236
 20
-24.99998
 11
-78.62356
 21
-24.99998
  0
LINE
  8
0
  6
CONTINUOUS
 62
     7
 10
99.12363
 20
-8.49999
 11
99.12363
 21
-41.49999
  0
LINE
  8
0
  6
CONTINUOUS
 62
     7
 10
79.12363
 20
-8.49999
 11
79.12363
 21
-41.49999
  0
LINE
  8
0
  6
CONTINUOUS
 62
     7
 10
79.12363
 20
-8.49999
 11
99.12363
 21
-8.49999
  0
LINE
  8
0
  6
CONTINUOUS
 62
     7
 10
79.12363
 20
-41.49999
 11
99.12363
 21
-41.49999
  0
LINE
  8
0
  6
CONTINUOUS
 62
     7
 10
87.62363
 20
-8.49999
 11
87.62363
 21
-12.49999
  0
LINE
  8
0
  6
CONTINUOUS
 62
     7
 10
90.62363
 20
-37.49999
 11
90.62363
 21
-41.49999
  0
LINE
  8
0
  6
CONTINUOUS
 62
     7
 10
95.12363
 20
-32.99999
 11
99.12363
 21
-32.99999
  0
LINE
  8
0
  6
CONTINUOUS
 62
     7
 10
79.12363
 20
-16.99999
 11
83.12363
 21
-16.99999
  0
LINE
  8
0
  6
CONTINUOUS
 62
     7
 10
93.62363
 20
-36.63396
 11
93.62363
 21
-38.36602
  0
LINE
  8
0
  6
CONTINUOUS
 62
     7
 10
96.62363
 20
-36.63396
 11
96.62363
 21
-38.36602
  0
LINE
  8
0
  6
CONTINUOUS
 62
     7
 10
93.62366
 20
-36.63405
 11
95.12366
 21
-35.76803
  0
LINE
  8
0
  6
CONTINUOUS
 62
     7
 10
95.12366
 20
-39.23207
 11
96.62366
 21
-38.36605
  0
LINE
  8
0
  6
CONTINUOUS
 62
     7
 10
95.12364
 20
-35.76791
 11
96.62364
 21
-36.63394
  0
LINE
  8
0
  6
CONTINUOUS
 62
     7
 10
93.62363
 20
-38.36599
 11
95.12364
 21
-39.23202
  0
LINE
  8
0
  6
CONTINUOUS
 62
     7
 10
83.12365
 20
-10.76792
 11
84.62366
 21
-11.63395
  0
LINE
  8
0
  6
CONTINUOUS
 62
     7
 10
81.62364
 20
-11.63398
 11
83.12363
 21
-10.76796
  0
LINE
  8
0
  6
CONTINUOUS
 62
     7
 10
81.62363
 20
-11.63396
 11
81.62363
 21
-13.36602
  0
LINE
  8
0
  6
CONTINUOUS
 62
     7
 10
81.62364
 20
-13.366
 11
83.12364
 21
-14.23203
  0
LINE
  8
0
  6
CONTINUOUS
 62
     7
 10
83.12364
 20
-14.23205
 11
84.62365
 21
-13.36603
  0
LINE
  8
0
  6
CONTINUOUS
 62
     7
 10
84.62363
 20
-11.63396
 11
84.62363
 21
-13.30352
  0
LINE
  8
0
  6
CENTER
 62
     2
 10
78.12363
 20
-12.49999
 11
88.12363
 21
-12.49999
  0
LINE
  8
0
  6
CENTER
 62
     2
 10
90.12363
 20
-37.49999
 11
100.1236
 21
-37.49999
  0
LINE
  8
0
  6
CENTER
 62
     2
 10
83.12363
 20
-7.49999
 11
83.12363
 21
-17.49999
  0
LINE
  8
0
  6
CENTER
 62
     2
 10
95.12363
 20
-32.49999
 11
95.12363
 21
-42.49999
  0
LINE
  8
0
  6
CENTER
 62
     2
 10
89.12363
 20
-4.99999
 11
89.12363
 21
-44.99999
  0
LINE
  8
0
  6
CENTER
 62
     2
 10
76.62363
 20
-24.99999
 11
101.6236
 21
-24.99999
  0
ARC
  8
0
  6
CONTINUOUS
 62
     7
 10
96.53259
 20
-83.10118
 40
0.78202
 50
0.0
 51
89.99999
  0
ARC
  8
0
  6
CONTINUOUS
 62
     7
 10
102.9843
 20
-87.30457
 40
0.78202
 50
270.0
 51
0.0
  0
ARC
  8
0
  6
CONTINUOUS
 62
     7
 10
102.5933
 20
-83.49218
 40
1.17303
 50
0.0
 51
89.99999
  0
ARC
  8
0
  6
CONTINUOUS
 62
     7
 10
109.7292
 20
-83.10118
 40
0.78202
 50
0.0
 51
89.99999
  0
ARC
  8
0
  6
CONTINUOUS
 62
     7
 10
109.7292
 20
-83.72594
 40
0.78202
 50
295.0
 51
0.0
  0
ARC
  8
0
  6
CONTINUOUS
 62
     7
 10
115.7899
 20
-82.31916
 40
1.17304
 50
291.6882
 51
0.0
  0
ARC
  8
0
  6
CONTINUOUS
 62
     7
 10
115.3989
 20
-82.05386
 40
0.39101
 50
291.6885
 51
0.0
  0
CIRCLE
  8
0
  6
CONTINUOUS
 62
     7
 10
11.5
 20
-34.5
 40
1.5
  0
CIRCLE
  8
0
  6
CONTINUOUS
 62
     7
 10
16.5
 20
-15.5
 40
1.5
  0
CIRCLE
  8
0
  6
CONTINUOUS
 62
     7
 10
11.5
 20
-34.5
 40
1.25
  0
CIRCLE
  8
0
  6
CONTINUOUS
 62
     7
 10
16.5
 20
-15.5
 40
1.25
  0
CIRCLE
  8
0
  6
CONTINUOUS
 62
     7
 10
4.0
 20
-13.0
 40
2.25
  0
CIRCLE
  8
0
  6
CONTINUOUS
 62
     7
 10
4.0
 20
-37.0
 40
2.25
  0
CIRCLE
  8
0
  6
CONTINUOUS
 62
     7
 10
4.0
 20
-13.0
 40
3.8
  0
CIRCLE
  8
0
  6
CONTINUOUS
 62
     7
 10
4.0
 20
-37.0
 40
3.8
  0
ARC
  8
0
  6
CONTINUOUS
 62
     7
 10
-15.3573
 20
-25.0
 40
7.6427
 50
162.412
 51
197.588
  0
ARC
  8
0
  6
CONTINUOUS
 62
     7
 10
-20.95535
 20
-21.5359
 40
2.04465
 50
154.3842
 51
214.3844
  0
ARC
  8
0
  6
CONTINUOUS
 62
     7
 10
-20.95535
 20
-28.46411
 40
2.04465
 50
145.6156
 51
214.3844
  0
ARC
  8
0
  6
CONTINUOUS
 62
     7
 10
-21.84465
 20
-21.5359
 40
2.04465
 50
325.6155
 51
25.6158
  0
ARC
  8
0
  6
CONTINUOUS
 62
     7
 10
-27.4427
 20
-25.0
 40
7.6427
 50
342.412
 51
17.58798
  0
ARC
  8
0
  6
CONTINUOUS
 62
     7
 10
-21.84465
 20
-28.46411
 40
2.04465
 50
325.6155
 51
34.38436
  0
ARC
  8
0
  6
CONTINUOUS
 62
     7
 10
-25.04465
 20
-21.5359
 40
2.04465
 50
325.6155
 51
25.6158
  0
ARC
  8
0
  6
CONTINUOUS
 62
     7
 10
-24.15535
 20
-21.5359
 40
2.04465
 50
154.3842
 51
214.3844
  0
ARC
  8
0
  6
CONTINUOUS
 62
     7
 10
-30.6427
 20
-25.0
 40
7.6427
 50
342.412
 51
17.58798
  0
ARC
  8
0
  6
CONTINUOUS
 62
     7
 10
-18.5573
 20
-25.0
 40
7.6427
 50
162.412
 51
197.588
  0
ARC
  8
0
  6
CONTINUOUS
 62
     7
 10
-25.04465
 20
-28.46411
 40
2.04465
 50
325.6155
 51
34.38436
  0
ARC
  8
0
  6
CONTINUOUS
 62
     7
 10
-24.15535
 20
-28.46411
 40
2.04465
 50
145.6156
 51
214.3844
  0
CIRCLE
  8
0
  6
CONTINUOUS
 62
     7
 10
21.5
 20
45.80001
 40
0.5
  0
CIRCLE
  8
0
  6
CONTINUOUS
 62
     7
 10
21.5
 20
45.80001
 40
2.5
  0
CIRCLE
  8
0
  6
CONTINUOUS
 62
     7
 10
-1.5
 20
44.2
 40
2.5
  0
CIRCLE
  8
0
  6
CONTINUOUS
 62
     7
 10
21.5
 20
45.80001
 40
2.1
  0
ARC
  8
0
  6
CONTINUOUS
 62
     7
 10
-17.22332
 20
47.0
 40
5.77668
 50
159.7437
 51
200.2562
  0
ARC
  8
0
  6
CONTINUOUS
 62
     7
 10
-17.22332
 20
43.0
 40
5.77668
 50
159.7437
 51
200.2562
  0
ARC
  8
0
  6
CONTINUOUS
 62
     7
 10
-25.57668
 20
47.0
 40
5.77668
 50
339.7437
 51
20.25621
  0
ARC
  8
0
  6
CONTINUOUS
 62
     7
 10
-25.57668
 20
43.0
 40
5.77668
 50
339.7437
 51
20.25621
  0
ARC
  8
0
  6
CONTINUOUS
 62
     7
 10
-20.42332
 20
47.0
 40
5.77668
 50
159.7437
 51
200.2562
  0
ARC
  8
0
  6
CONTINUOUS
 62
     7
 10
-20.42332
 20
43.0
 40
5.77668
 50
159.7437
 51
200.2562
  0
ARC
  8
0
  6
CONTINUOUS
 62
     7
 10
-28.77668
 20
43.0
 40
5.77668
 50
339.7437
 51
20.25621
  0
ARC
  8
0
  6
CONTINUOUS
 62
     7
 10
-28.77668
 20
47.0
 40
5.77668
 50
339.7437
 51
20.25621
  0
ARC
  8
0
  6
CONTINUOUS
 62
     7
 10
-97.12356
 20
-12.49998
 40
4.5
 50
270.0
 51
0.0
  0
ARC
  8
0
  6
CONTINUOUS
 62
     7
 10
-85.12356
 20
-37.49998
 40
4.5
 50
89.99999
 51
180.0
  0
CIRCLE
  8
0
  6
CONTINUOUS
 62
     7
 10
-85.12356
 20
-37.49998
 40
3.5
  0
CIRCLE
  8
0
  6
CONTINUOUS
 62
     7
 10
-85.12356
 20
-37.49998
 40
2.80718
  0
CIRCLE
  8
0
  6
CONTINUOUS
 62
     7
 10
-97.12356
 20
-12.49998
 40
3.5
  0
CIRCLE
  8
0
  6
CONTINUOUS
 62
     7
 10
-97.12356
 20
-12.49998
 40
2.80718
  0
CIRCLE
  8
0
  6
CONTINUOUS
 62
     7
 10
-91.12356
 20
-24.99998
 40
5.0
  0
CIRCLE
  8
0
  6
CONTINUOUS
 62
     7
 10
-91.12356
 20
-24.99998
 40
4.0
  0
CIRCLE
  8
0
  6
CONTINUOUS
 62
     7
 10
-91.12356
 20
-24.99998
 40
2.5
  0
CIRCLE
  8
0
  6
CONTINUOUS
 62
     7
 10
-91.12356
 20
-24.99998
 40
2.1
  0
ARC
  8
0
  6
CONTINUOUS
 62
     7
 10
83.12363
 20
-12.49999
 40
4.5
 50
270.0
 51
0.0
  0
ARC
  8
0
  6
CONTINUOUS
 62
     7
 10
95.12363
 20
-37.49999
 40
4.5
 50
89.99999
 51
180.0
  0
CIRCLE
  8
0
  6
CONTINUOUS
 62
     7
 10
95.12363
 20
-37.49999
 40
3.5
  0
CIRCLE
  8
0
  6
CONTINUOUS
 62
     7
 10
95.12363
 20
-37.49999
 40
2.80718
  0
CIRCLE
  8
0
  6
CONTINUOUS
 62
     7
 10
83.12363
 20
-12.49999
 40
3.5
  0
CIRCLE
  8
0
  6
CONTINUOUS
 62
     7
 10
83.12363
 20
-12.49999
 40
2.80718
  0
TEXT
  8
0
  6
CONTINUOUS
 62
     7
 10
-114.18103132
 20
63.24264
 40
3.5
  1
        BSAS 16*ST(5)
 41
0.8
  7
STANDARD
  0
TEXT
  8
0
  6
CONTINUOUS
 62
     7
 10
80.98867
 20
83.53382
 40
3.0
  1
DATE : FEB,1989
 41
0.8
  7
STANDARD
  0
TEXT
  8
0
  6
CONTINUOUS
 62
     7
 10
-129.8223
 20
83.29883
 40
3.5
  1
MULTI MOUNT CYL
 41
0.8
  7
STANDARD
  0
TEXT
  8
0
  6
CONTINUOUS
 62
     7
 10
29.94136
 20
58.79006
 40
2.5
  1
M5*0.8
 41
0.8
  7
STANDARD
  0
TEXT
  8
0
  6
CONTINUOUS
 62
     7
 10
-44.40715172
 20
-36.675
 40
2.5
  1
M5*0.8
 41
0.8
  7
STANDARD
  0
TEXT
  8
0
  6
CONTINUOUS
 62
     7
 10
-125.4946
 20
-85.46284
 40
2.5
  1
NOTE : A ,C ,D ,M    CATALOG
 41
0.8
  7
STANDARD
  0
TEXT
  8
0
  6
CONTINUOUS
 62
     7
 10
12.41775
 20
-50.8
 40
2.5
  1
M+ST
 41
0.8
  7
STANDARD
  0
TEXT
  8
0
  6
CONTINUOUS
 62
     7
 10
5.41775
 20
2.2
 40
2.5
  1
C+ST
 41
0.8
  7
STANDARD
  0
TEXT
  8
0
  6
CONTINUOUS
 62
     7
 10
-4.58225
 20
12.2
 40
2.5
  1
A+ST
 41
0.8
  7
STANDARD
  0
TEXT
  8
0
  6
CONTINUOUS
 62
     7
 10
4.91775
 20
65.7
 40
2.5
  1
D+ST
 41
0.8
  7
STANDARD
  0
TEXT
  8
0
  6
CONTINUOUS
 62
     7
 10
34.78535
 20
-59.73566
 40
2.5
  1
4-M3*0.5
 41
0.8
  7
STANDARD
  0
TEXT
  8
0
  6
CONTINUOUS
 62
     7
 10
-122.1986
 20
68.24265
 40
3.5
  1
MODEL : BSA 16*ST(10)
 41
0.8
  7
STANDARD
  0
ENDSEC
  0
EOF
