  0
SECTION
  2
HEADER
  9
$ACADVER
  1
AC1014
  9
$ACADMAINTVER
 70
       0
  9
$DWGCODEPAGE
  3
ANSI_932
  9
$INSBASE
 10
0.0
 20
0.0
 30
0.0
  9
$EXTMIN
 10
-281.25
 20
-195.0
 30
0.0
  9
$EXTMAX
 10
282.09985352
 20
195.5
 30
0.0
  9
$LIMMIN
 10
-297.0
 20
-210.0
  9
$LIMMAX
 10
297.0
 20
210.0
  9
$ORTHOMODE
 70
       0
  9
$REGENMODE
 70
       1
  9
$FILLMODE
 70
       1
  9
$QTEXTMODE
 70
       0
  9
$MIRRTEXT
 70
       1
  9
$DRAGMODE
 70
       2
  9
$LTSCALE
 40
1.0
  9
$OSMODE
 70
       0
  9
$ATTMODE
 70
       1
  9
$TEXTSIZE
 40
3.20000005
  9
$TRACEWID
 40
0.05
  9
$TEXTSTYLE
  7
MX_NOTE_STANDARD
  9
$CLAYER
  8
0
  9
$CELTYPE
  6
CONTINUOUS
  9
$CECOLOR
 62
     256
  9
$CELTSCALE
 40
1.0
  9
$DELOBJ
 70
       1
  9
$DISPSILH
 70
       0
  9
$DIMSCALE
 40
1.0
  9
$DIMASZ
 40
2.5
  9
$DIMEXO
 40
1.5
  9
$DIMDLI
 40
3.75
  9
$DIMRND
 40
0.0
  9
$DIMDLE
 40
0.0
  9
$DIMEXE
 40
1.5
  9
$DIMTP
 40
0.0
  9
$DIMTM
 40
0.0
  9
$DIMTXT
 40
3.20000005
  9
$DIMCEN
 40
2.5
  9
$DIMTSZ
 40
0.0
  9
$DIMTOL
 70
       0
  9
$DIMLIM
 70
       0
  9
$DIMTIH
 70
       0
  9
$DIMTOH
 70
       0
  9
$DIMSE1
 70
       0
  9
$DIMSE2
 70
       0
  9
$DIMTAD
 70
       1
  9
$DIMZIN
 70
       8
  9
$DIMBLK
  1

  9
$DIMASO
 70
       1
  9
$DIMSHO
 70
       1
  9
$DIMPOST
  1

  9
$DIMAPOST
  1

  9
$DIMALT
 70
       0
  9
$DIMALTD
 70
       4
  9
$DIMALTF
 40
0.03937008
  9
$DIMLFAC
 40
1.0
  9
$DIMTOFL
 70
       1
  9
$DIMTVP
 40
0.0
  9
$DIMTIX
 70
       0
  9
$DIMSOXD
 70
       0
  9
$DIMSAH
 70
       1
  9
$DIMBLK1
  1
_OPEN30
  9
$DIMBLK2
  1
_OPEN30
  9
$DIMSTYLE
  2
MXDIMSTYLE
  9
$DIMCLRD
 70
       0
  9
$DIMCLRE
 70
       0
  9
$DIMCLRT
 70
       0
  9
$DIMTFAC
 40
1.0
  9
$DIMGAP
 40
1.0
  9
$DIMJUST
 70
       0
  9
$DIMSD1
 70
       0
  9
$DIMSD2
 70
       0
  9
$DIMTOLJ
 70
       0
  9
$DIMTZIN
 70
       0
  9
$DIMALTZ
 70
       0
  9
$DIMALTTZ
 70
       0
  9
$DIMFIT
 70
       3
  9
$DIMUPT
 70
       1
  9
$DIMUNIT
 70
       2
  9
$DIMDEC
 70
       2
  9
$DIMTDEC
 70
       2
  9
$DIMALTU
 70
       2
  9
$DIMALTTD
 70
       4
  9
$DIMTXSTY
  7
MX_NOTE_STANDARD
  9
$DIMAUNIT
 70
       0
  9
$LUNITS
 70
       2
  9
$LUPREC
 70
       4
  9
$SKETCHINC
 40
0.1
  9
$FILLETRAD
 40
0.0
  9
$AUNITS
 70
       0
  9
$AUPREC
 70
       0
  9
$MENU
  1
acad
  9
$ELEVATION
 40
0.0
  9
$PELEVATION
 40
0.0
  9
$THICKNESS
 40
0.0
  9
$LIMCHECK
 70
       0
  9
$BLIPMODE
 70
       1
  9
$CHAMFERA
 40
0.0
  9
$CHAMFERB
 40
0.0
  9
$CHAMFERC
 40
0.0
  9
$CHAMFERD
 40
0.0
  9
$SKPOLY
 70
       0
  9
$TDCREATE
 40
2454286.723055556
  9
$TDUPDATE
 40
2454286.723055556
  9
$TDINDWG
 40
0.0000000000
  9
$TDUSRTIMER
 40
0.0000000000
  9
$USRTIMER
 70
       1
  9
$ANGBASE
 50
0.0
  9
$ANGDIR
 70
       0
  9
$PDMODE
 70
       0
  9
$PDSIZE
 40
0.0
  9
$PLINEWID
 40
0.0
  9
$COORDS
 70
       1
  9
$SPLFRAME
 70
       0
  9
$SPLINETYPE
 70
       6
  9
$SPLINESEGS
 70
       8
  9
$ATTDIA
 70
       0
  9
$ATTREQ
 70
       1
  9
$HANDLING
 70
       1
  9
$HANDSEED
  5
49F
  9
$SURFTAB1
 70
       6
  9
$SURFTAB2
 70
       6
  9
$SURFTYPE
 70
       6
  9
$SURFU
 70
       6
  9
$SURFV
 70
       6
  9
$UCSNAME
  2

  9
$UCSORG
 10
0.0
 20
0.0
 30
0.0
  9
$UCSXDIR
 10
1.0
 20
0.0
 30
0.0
  9
$UCSYDIR
 10
0.0
 20
1.0
 30
0.0
  9
$PUCSNAME
  2

  9
$PUCSORG
 10
0.0
 20
0.0
 30
0.0
  9
$PUCSXDIR
 10
1.0
 20
0.0
 30
0.0
  9
$PUCSYDIR
 10
0.0
 20
1.0
 30
0.0
  9
$USERI1
 70
       0
  9
$USERI2
 70
       0
  9
$USERI3
 70
       0
  9
$USERI4
 70
       0
  9
$USERI5
 70
       0
  9
$USERR1
 40
0.0
  9
$USERR2
 40
0.0
  9
$USERR3
 40
0.0
  9
$USERR4
 40
0.0
  9
$USERR5
 40
0.0
  9
$WORLDVIEW
 70
       1
  9
$SHADEDGE
 70
       3
  9
$SHADEDIF
 70
      70
  9
$TILEMODE
 70
       1
  9
$MAXACTVP
 70
      16
  9
$PINSBASE
 10
0.0
 20
0.0
 30
0.0
  9
$PLIMCHECK
 70
       0
  9
$PEXTMIN
 10
1.00000000E+20
 20
1.00000000E+20
 30
1.00000000E+20
  9
$PEXTMAX
 10
-1.00000000E+20
 20
-1.00000000E+20
 30
-1.00000000E+20
  9
$PLIMMIN
 10
0.0
 20
0.0
  9
$PLIMMAX
 10
12.0
 20
9.0
  9
$UNITMODE
 70
       0
  9
$VISRETAIN
 70
       0
  9
$PLINEGEN
 70
       1
  9
$PSLTSCALE
 70
       0
  9
$TREEDEPTH
 70
    3020
  9
$PICKSTYLE
 70
       1
  9
$CMLSTYLE
  2
Standard
  9
$CMLJUST
 70
       0
  9
$CMLSCALE
 40
1.0
  9
$PROXYGRAPHICS
 70
       0
  9
$MEASUREMENT
 70
       1
  0
ENDSEC
  0
SECTION
  2
CLASSES
  0
CLASS
  1
LWPOLYLINE
  2
AcDbPolyline
  3
"AutoCAD"
 90
        0
280
       0
281
       1
  0
CLASS
  1
IMAGE
  2
AcDbRasterImage
  3
ISM
 90
      127
280
       0
281
       1
  0
CLASS
  1
OLE2FRAME
  2
AcDbOle2Frame
  3
""
 90
        0
280
       0
281
       1
  0
CLASS
  1
HATCH
  2
AcDbHatch
  3
"ACAD_SEDONA"
 90
        0
280
       0
281
       1
  0
CLASS
  1
DICTIONARYVAR
  2
AcDbDictionaryVar
  3
"AutoCAD"
 90
        0
280
       0
281
       0
  0
CLASS
  1
RASTERVARIABLES
  2
AcDbRasterVariables
  3
ISM
 90
        0
280
       0
281
       0
  0
CLASS
  1
IMAGEDEF
  2
AcDbRasterImageDef
  3
ISM
 90
        0
280
       0
281
       0
  0
CLASS
  1
IMAGEDEF_REACTOR
  2
AcDbRasterImageDefReactor
  3
ISM
 90
        1
280
       0
281
       0
  0
CLASS
  1
IDBUFFER
  2
AcDbIdBuffer
  3
"Acad"
 90
        0
280
       0
281
       0
  0
CLASS
  1
SPATIAL_FILTER
  2
AcDbSpatialFilter
  3
"Acad"
 90
        0
280
       0
281
       0
  0
CLASS
  1
XRECORD
  2
AcDbXrecord
  3
"<Built In>"
 90
        0
280
       0
281
       0
  0
CLASS
  1
SORTENTSTABLE
  2
AcDbSortentsTable
  3
"AutoCAD"
 90
        0
280
       0
281
       0
  0
CLASS
  1
LAYER_INDEX
  2
AcDbLayerIndex
  3
"Acad"
 90
        0
280
       0
281
       0
  0
CLASS
  1
SPATIAL_INDEX
  2
AcDbSpatialIndex
  3
"Acad"
 90
        0
280
       0
281
       0
  0
CLASS
  1
OBJECT_PTR
  2
CAseDLPNTableRecord
  3
"ASE-LPNTableRecord"
 90
        1
280
       0
281
       0
  0
CLASS
  1
LAYOUT
  2
AcDbLayout
  3
"AutoCAD 2000"
 90
        0
280
       0
281
       0
  0
CLASS
  1
PLOTSETTINGS
  2
AcDbPlotSettings
  3
"AutoCAD 2000"
 90
        0
280
       0
281
       0
  0
CLASS
  1
ACDBDICTIONARYWDFLT
  2
AcDbDictionaryWithDefault
  3
"AutoCAD 2000"
 90
        0
280
       0
281
       0
  0
CLASS
  1
ACDBPLACEHOLDER
  2
AcDbPlaceHolder
  3
"AutoCAD 2000"
 90
        0
280
       0
281
       0
  0
ENDSEC
  0
SECTION
  2
TABLES
  0
TABLE
  2
VPORT
  5
7
100
AcDbSymbolTable
 70
       1
  0
VPORT
  5
15
100
AcDbSymbolTableRecord
100
AcDbViewportTableRecord
  2
*ACTIVE
 70
       0
 10
0.0
 20
0.0
 11
1.0
 21
1.0
 12
0.0
 22
0.0
 13
0.0
 23
0.0
 14
1.0
 24
1.0
 15
0.0
 25
0.0
 16
0.0
 26
0.0
 36
1.0
 17
0.0
 27
0.0
 37
0.0
 40
424.2
 41
1.73205081
 42
50.0
 43
0.0
 44
0.0
 50
0.0
 51
0.0
 71
       0
 72
     100
 73
       1
 74
       1
 75
       0
 76
       0
 77
       0
 78
       0
  0
ENDTAB
  0
TABLE
  2
LTYPE
  5
4
100
AcDbSymbolTable
 70
       4
  0
LTYPE
  5
11
100
AcDbSymbolTableRecord
100
AcDbLinetypeTableRecord
  2
BYBLOCK
 70
      64
  3

 72
      65
 73
       0
 40
0.0
  0
LTYPE
  5
12
100
AcDbSymbolTableRecord
100
AcDbLinetypeTableRecord
  2
BYLAYER
 70
      64
  3

 72
      65
 73
       0
 40
0.0
  0
LTYPE
  5
13
100
AcDbSymbolTableRecord
100
AcDbLinetypeTableRecord
  2
CONTINUOUS
 70
      64
  3
Solid line
 72
      65
 73
       0
 40
0.0
  0
LTYPE
  5
201
100
AcDbSymbolTableRecord
100
AcDbLinetypeTableRecord
  2
CENTER
 70
      64
  3
Center ____ _ ____ _ ____ _ ____ _ ____ _ ____
 72
      65
 73
       4
 40
50.8
 49
31.75
 74
       0
 49
-6.35
 74
       0
 49
6.35
 74
       0
 49
-6.35
 74
       0
  0
ENDTAB
  0
TABLE
  2
LAYER
  5
2
100
AcDbSymbolTable
 70
       2
  0
LAYER
  5
14
100
AcDbSymbolTableRecord
100
AcDbLayerTableRecord
  2
0
 70
       0
 62
       7
  6
CONTINUOUS
  0
LAYER
  5
1D
100
AcDbSymbolTableRecord
100
AcDbLayerTableRecord
  2
DEFPOINTS
 70
       0
 62
       7
  6
CONTINUOUS
  0
ENDTAB
  0
TABLE
  2
STYLE
  5
3
100
AcDbSymbolTable
 70
       1
  0
STYLE
  5
17
100
AcDbSymbolTableRecord
100
AcDbTextStyleTableRecord
  2
MX_NOTE_STANDARD
 70
       0
 40
0.0
 41
1.0
 50
0.0
 71
       0
 42
3.20000005
  3
txt.shx
  4
extfont.shx
  0
ENDTAB
  0
TABLE
  2
VIEW
  5
5
100
AcDbSymbolTable
 70
       0
  0
ENDTAB
  0
TABLE
  2
UCS
  5
6
100
AcDbSymbolTable
 70
       0
  0
ENDTAB
  0
TABLE
  2
APPID
  5
8
100
AcDbSymbolTable
 70
       1
  0
APPID
  5
16
100
AcDbSymbolTableRecord
100
AcDbRegAppTableRecord
  2
ACAD
 70
       0
  0
ENDTAB
  0
TABLE
  2
DIMSTYLE
  5
9
100
AcDbSymbolTable
 70
       1
  0
DIMSTYLE
105
18
100
AcDbSymbolTableRecord
100
AcDbDimStyleTableRecord
  2
MXDIMSTYLE
 70
       0
  3

  4

  5

  6
_OPEN30
  7
_OPEN30
 40
1.0
 41
2.5
 42
1.5
 43
3.75
 44
1.5
 45
0.0
 46
0.0
 47
0.0
 48
0.0
 71
       0
 72
       0
 73
       0
 74
       0
 75
       0
 76
       0
 77
       1
 78
       8
140
3.20000005
141
2.5
142
0.0
143
0.03937008
144
1.0
145
0.0
146
1.0
147
1.0
170
       0
171
       4
172
       1
173
       1
174
       0
175
       0
176
       0
177
       0
178
       0
270
       2
271
       2
272
       2
273
       2
274
       4
275
       0
280
       0
281
       0
282
       0
283
       0
284
       0
285
       0
286
       0
287
       3
288
       1
340
17
  0
ENDTAB
  0
TABLE
  2
BLOCK_RECORD
  5
1
100
AcDbSymbolTable
 70
       1
  0
BLOCK_RECORD
  5
A
100
AcDbSymbolTableRecord
100
AcDbBlockTableRecord
  2
*MODEL_SPACE
  0
BLOCK_RECORD
  5
B
100
AcDbSymbolTableRecord
100
AcDbBlockTableRecord
  2
*PAPER_SPACE
  0
BLOCK_RECORD
  5
1E
100
AcDbSymbolTableRecord
100
AcDbBlockTableRecord
  2
_OPEN30
  0
ENDTAB
  0
ENDSEC
  0
SECTION
  2
BLOCKS
  0
BLOCK
  5
D
100
AcDbEntity
  8
0
100
AcDbBlockBegin
  2
*MODEL_SPACE
 70
       0
 10
0.0
 20
0.0
 30
0.0
  3
*MODEL_SPACE
  1

  0
ENDBLK
  5
E
100
AcDbEntity
  8
0
100
AcDbBlockEnd
  0
BLOCK
  5
F
100
AcDbEntity
 67
       1
  8
0
100
AcDbBlockBegin
  2
*PAPER_SPACE
 70
       0
 10
0.0
 20
0.0
 30
0.0
  3
*PAPER_SPACE
  1

  0
ENDBLK
  5
10
100
AcDbEntity
 67
       1
  8
0
100
AcDbBlockEnd
  0
BLOCK
  5
1F
100
AcDbEntity
  8
0
  6
ByBlock
 62
       0
100
AcDbBlockBegin
  2
_OPEN30
 70
       2
 10
0.0
 20
0.0
 30
0.0
  3
_OPEN30
  1

  0
LINE
  5
20
100
AcDbEntity
  8
0
  6
ByBlock
 62
       0
100
AcDbLine
 10
-1.0
 20
0.267949
 30
0.0
 11
0.0
 21
0.0
 31
0.0
  0
LINE
  5
21
100
AcDbEntity
  8
0
  6
ByBlock
 62
       0
100
AcDbLine
 10
0.0
 20
0.0
 30
0.0
 11
-1.0
 21
-0.267949
 31
0.0
  0
LINE
  5
22
100
AcDbEntity
  8
0
  6
ByBlock
 62
       0
100
AcDbLine
 10
0.0
 20
0.0
 30
0.0
 11
-1.0
 21
0.0
 31
0.0
  0
ENDBLK
  5
23
100
AcDbEntity
  8
0
  6
ByBlock
 62
       0
100
AcDbBlockEnd
  0
ENDSEC
  0
SECTION
  2
ENTITIES
  0
MTEXT
  5
24
100
AcDbEntity
  8
0
  6
CONTINUOUS
 62
       7
100
AcDbMText
 10
-264.70743797
 20
155.9404016
 30
0.0
 40
6.39999962
 41
0.0
 71
       4
 72
       1
  1
\W0.833;\A1;搭載バルブ形式
  0
MTEXT
  5
25
100
AcDbEntity
  8
0
  6
CONTINUOUS
 62
       7
100
AcDbMText
 10
-265.3313116
 20
146.47967667
 30
0.0
 40
6.39999962
 41
0.0
 71
       4
 72
       1
  1
\W1.063;\A1;stn.1～6：MV200E1-2-11-L DC24V
  0
LINE
  5
26
100
AcDbEntity
  8
0
  6
CONTINUOUS
 62
       7
100
AcDbLine
 10
14.26110522
 20
-152.00314129
 30
0.0
 11
182.26110522
 21
-152.00314129
 31
0.0
  0
LINE
  5
27
100
AcDbEntity
  8
0
  6
CONTINUOUS
 62
       7
100
AcDbLine
 10
202.26110522
 20
-152.20314129
 30
0.0
 11
202.26110522
 21
-121.50314129
 31
0.0
  0
LINE
  5
28
100
AcDbEntity
  8
0
  6
CONTINUOUS
 62
       7
100
AcDbLine
 10
-5.73889478
 20
-152.20314129
 30
0.0
 11
-5.73889478
 21
-121.50314129
 31
0.0
  0
LINE
  5
29
100
AcDbEntity
  8
0
  6
CONTINUOUS
 62
       7
100
AcDbLine
 10
14.26110522
 20
-125.00314129
 30
0.0
 11
182.26110522
 21
-125.00314129
 31
0.0
  0
LINE
  5
2A
100
AcDbEntity
  8
0
  6
CONTINUOUS
 62
       2
100
AcDbLine
 10
42.06110445
 20
-106.00314129
 30
0.0
 11
34.46110598
 21
-106.00314129
 31
0.0
  0
LINE
  5
2B
100
AcDbEntity
  8
0
  6
CONTINUOUS
 62
       2
100
AcDbLine
 10
33.98967665
 20
-65.21990899
 30
0.0
 11
33.98967665
 21
-69.56018697
 31
0.0
  0
SPLINE
  5
2C
100
AcDbEntity
  8
0
  6
CONTINUOUS
 62
       7
100
AcDbSpline
210
0.0
220
0.0
230
1.0
 70
       0
 71
       3
 72
       0
 73
       0
 74
       3
 44
0.000001
 12
-0.0802089112074189
 22
0.9967780748807231
 32
0.0
 13
0.9995887199999934
 23
0.0286773577718516
 33
0.0
 11
31.503962359345479
 21
-68.503141287851633
 31
0.0
 11
31.818248073725471
 21
-66.931712715951733
 31
0.0
 11
34.018248074385468
 21
-66.017427001391695
 31
0.0
  0
SPLINE
  5
2D
100
AcDbEntity
  8
0
  6
CONTINUOUS
 62
       7
100
AcDbSpline
210
0.0
220
0.0
230
1.0
 70
       0
 71
       3
 72
       0
 73
       0
 74
       3
 44
0.000001
 12
0.080208911207419
 22
0.9967780748807231
 32
0.0
 13
-0.9995887199999934
 23
0.0286773577718522
 33
0.0
 11
36.503962360845463
 21
-68.503141287851633
 31
0.0
 11
36.189676646465472
 21
-66.931712715951733
 31
0.0
 11
34.018248074385468
 21
-66.017427001391695
 31
0.0
  0
LINE
  5
2E
100
AcDbEntity
  8
0
  6
CONTINUOUS
 62
       7
100
AcDbLine
 10
37.50396236
 20
-68.50314129
 30
0.0
 11
31.01824807
 21
-68.50314129
 31
0.0
  0
LINE
  5
2F
100
AcDbEntity
  8
0
  6
CONTINUOUS
 62
       7
100
AcDbLine
 10
37.50396236
 20
-77.50314129
 30
0.0
 11
37.50396236
 21
-66.017427
 31
0.0
  0
LINE
  5
30
100
AcDbEntity
  8
0
  6
CONTINUOUS
 62
       7
100
AcDbLine
 10
31.01824807
 20
-68.50314129
 30
0.0
 11
31.01824807
 21
-66.017427
 31
0.0
  0
LINE
  5
31
100
AcDbEntity
  8
0
  6
CONTINUOUS
 62
       7
100
AcDbLine
 10
38.50396236
 20
-78.50314129
 30
0.0
 11
38.50396236
 21
-77.50314129
 31
0.0
  0
LINE
  5
32
100
AcDbEntity
  8
0
  6
CONTINUOUS
 62
       7
100
AcDbLine
 10
19.01824807
 20
-77.50314129
 30
0.0
 11
19.01824807
 21
-66.017427
 31
0.0
  0
LINE
  5
33
100
AcDbEntity
  8
0
  6
CONTINUOUS
 62
       7
100
AcDbLine
 10
18.01824807
 20
-78.50314129
 30
0.0
 11
18.01824807
 21
-77.50314129
 31
0.0
  0
LINE
  5
34
100
AcDbEntity
  8
0
  6
CONTINUOUS
 62
       7
100
AcDbLine
 10
37.50396236
 20
-66.017427
 30
0.0
 11
19.01824807
 21
-66.017427
 31
0.0
  0
LINE
  5
35
100
AcDbEntity
  8
0
  6
CONTINUOUS
 62
       7
100
AcDbLine
 10
38.50396236
 20
-77.50314129
 30
0.0
 11
18.01824807
 21
-77.50314129
 31
0.0
  0
LINE
  5
36
100
AcDbEntity
  8
0
  6
CONTINUOUS
 62
       7
100
AcDbLine
 10
41.76110522
 20
-78.50314129
 30
0.0
 11
14.76110522
 21
-78.50314129
 31
0.0
  0
LINE
  5
37
100
AcDbEntity
  8
0
  6
CONTINUOUS
 62
       2
100
AcDbLine
 10
38.76110522
 20
-91.00314129
 30
0.0
 11
38.76110522
 21
-96.00314129
 31
0.0
  0
CIRCLE
  5
38
100
AcDbEntity
  8
0
  6
CONTINUOUS
 62
       7
100
AcDbCircle
 10
38.76110522
 20
-93.50314129
 30
0.0
 40
1.2295
  0
CIRCLE
  5
39
100
AcDbEntity
  8
0
  6
CONTINUOUS
 62
       2
100
AcDbCircle
 10
38.76110522
 20
-93.50314129
 30
0.0
 40
1.5
  0
LINE
  5
3A
100
AcDbEntity
  8
0
  6
CONTINUOUS
 62
       2
100
AcDbLine
 10
41.26110522
 20
-93.50314129
 30
0.0
 11
36.26110522
 21
-93.50314129
 31
0.0
  0
CIRCLE
  5
3B
100
AcDbEntity
  8
0
  6
CONTINUOUS
 62
       7
100
AcDbCircle
 10
17.76110522
 20
-118.50314129
 30
0.0
 40
1.2295
  0
CIRCLE
  5
3C
100
AcDbEntity
  8
0
  6
CONTINUOUS
 62
       2
100
AcDbCircle
 10
17.76110522
 20
-118.50314129
 30
0.0
 40
1.5
  0
LINE
  5
3D
100
AcDbEntity
  8
0
  6
CONTINUOUS
 62
       2
100
AcDbLine
 10
38.26110522
 20
-102.20314206
 30
0.0
 11
38.26110522
 21
-109.80314053
 31
0.0
  0
ARC
  5
3E
100
AcDbEntity
  8
0
  6
CONTINUOUS
 62
       7
100
AcDbCircle
 10
38.26110522
 20
-106.00314129
 30
0.0
 40
3.5
100
AcDbArc
 50
90.0
 51
270.0
  0
LINE
  5
3F
100
AcDbEntity
  8
0
  6
CONTINUOUS
 62
       7
100
AcDbLine
 10
39.32176559
 20
-107.06380132
 30
0.0
 11
37.2004451
 21
-104.94248101
 31
0.0
  0
LINE
  5
40
100
AcDbEntity
  8
0
  6
CONTINUOUS
 62
       7
100
AcDbLine
 10
39.32176566
 20
-104.94248134
 30
0.0
 11
37.20044536
 21
-107.06380183
 31
0.0
  0
CIRCLE
  5
41
100
AcDbEntity
  8
0
  6
CONTINUOUS
 62
       7
100
AcDbCircle
 10
38.26110522
 20
-106.00314129
 30
0.0
 40
2.79999924
  0
LINE
  5
42
100
AcDbEntity
  8
0
  6
CONTINUOUS
 62
       7
100
AcDbLine
 10
41.76110522
 20
-109.50314129
 30
0.0
 11
38.26110522
 21
-109.50314129
 31
0.0
  0
LINE
  5
43
100
AcDbEntity
  8
0
  6
CONTINUOUS
 62
       7
100
AcDbLine
 10
41.76110522
 20
-102.50314129
 30
0.0
 11
38.26110522
 21
-102.50314129
 31
0.0
  0
CIRCLE
  5
44
100
AcDbEntity
  8
0
  6
CONTINUOUS
 62
       7
100
AcDbCircle
 10
18.26110522
 20
-106.00314129
 30
0.0
 40
2.79999924
  0
LINE
  5
45
100
AcDbEntity
  8
0
  6
CONTINUOUS
 62
       7
100
AcDbLine
 10
17.20044477
 20
-104.94248134
 30
0.0
 11
19.32176507
 21
-107.06380183
 31
0.0
  0
LINE
  5
46
100
AcDbEntity
  8
0
  6
CONTINUOUS
 62
       7
100
AcDbLine
 10
17.20044485
 20
-107.06380132
 30
0.0
 11
19.32176533
 21
-104.94248101
 31
0.0
  0
LINE
  5
47
100
AcDbEntity
  8
0
  6
CONTINUOUS
 62
       2
100
AcDbLine
 10
14.46110598
 20
-106.00314129
 30
0.0
 11
22.06110445
 21
-106.00314129
 31
0.0
  0
LINE
  5
48
100
AcDbEntity
  8
0
  6
CONTINUOUS
 62
       7
100
AcDbLine
 10
14.76110522
 20
-124.50314129
 30
0.0
 11
41.76110522
 21
-124.50314129
 31
0.0
  0
LINE
  5
49
100
AcDbEntity
  8
0
  6
CONTINUOUS
 62
       2
100
AcDbLine
 10
15.26110522
 20
-118.50314129
 30
0.0
 11
20.26110522
 21
-118.50314129
 31
0.0
  0
LINE
  5
4A
100
AcDbEntity
  8
0
  6
CONTINUOUS
 62
       7
100
AcDbLine
 10
14.76110522
 20
-78.50314129
 30
0.0
 11
14.76110522
 21
-125.00314129
 31
0.0
  0
ARC
  5
4B
100
AcDbEntity
  8
0
  6
CONTINUOUS
 62
       7
100
AcDbCircle
 10
18.26110522
 20
-106.00314129
 30
0.0
 40
3.5
100
AcDbArc
 50
270.0
 51
90.0
  0
LINE
  5
4C
100
AcDbEntity
  8
0
  6
CONTINUOUS
 62
       2
100
AcDbLine
 10
18.26110522
 20
-102.20314206
 30
0.0
 11
18.26110522
 21
-109.80314053
 31
0.0
  0
LINE
  5
4D
100
AcDbEntity
  8
0
  6
CONTINUOUS
 62
       2
100
AcDbLine
 10
17.76110522
 20
-121.00314129
 30
0.0
 11
17.76110522
 21
-116.00314129
 31
0.0
  0
LINE
  5
4E
100
AcDbEntity
  8
0
  6
CONTINUOUS
 62
       7
100
AcDbLine
 10
14.76110522
 20
-109.50314129
 30
0.0
 11
18.26110522
 21
-109.50314129
 31
0.0
  0
LINE
  5
4F
100
AcDbEntity
  8
0
  6
CONTINUOUS
 62
       7
100
AcDbLine
 10
14.76110522
 20
-102.50314129
 30
0.0
 11
18.26110522
 21
-102.50314129
 31
0.0
  0
LINE
  5
50
100
AcDbEntity
  8
0
  6
CONTINUOUS
 62
       7
100
AcDbLine
 10
14.76110522
 20
-87.50314129
 30
0.0
 11
41.76110522
 21
-87.50314129
 31
0.0
  0
LINE
  5
51
100
AcDbEntity
  8
0
  6
CONTINUOUS
 62
       7
100
AcDbLine
 10
41.76110522
 20
-78.50314129
 30
0.0
 11
41.76110522
 21
-125.00314129
 31
0.0
  0
LINE
  5
52
100
AcDbEntity
  8
0
  6
CONTINUOUS
 62
       2
100
AcDbLine
 10
28.26110522
 20
-64.42015221
 30
0.0
 11
28.26110522
 21
-127.00314129
 31
0.0
  0
LINE
  5
53
100
AcDbEntity
  8
0
  6
CONTINUOUS
 62
       2
100
AcDbLine
 10
56.26110522
 20
-64.42015221
 30
0.0
 11
56.26110522
 21
-127.00314129
 31
0.0
  0
LINE
  5
54
100
AcDbEntity
  8
0
  6
CONTINUOUS
 62
       7
100
AcDbLine
 10
69.76110522
 20
-78.50314129
 30
0.0
 11
69.76110522
 21
-125.00314129
 31
0.0
  0
LINE
  5
55
100
AcDbEntity
  8
0
  6
CONTINUOUS
 62
       7
100
AcDbLine
 10
42.76110522
 20
-87.50314129
 30
0.0
 11
69.76110522
 21
-87.50314129
 31
0.0
  0
LINE
  5
56
100
AcDbEntity
  8
0
  6
CONTINUOUS
 62
       7
100
AcDbLine
 10
42.76110522
 20
-102.50314129
 30
0.0
 11
46.26110522
 21
-102.50314129
 31
0.0
  0
LINE
  5
57
100
AcDbEntity
  8
0
  6
CONTINUOUS
 62
       7
100
AcDbLine
 10
42.76110522
 20
-109.50314129
 30
0.0
 11
46.26110522
 21
-109.50314129
 31
0.0
  0
LINE
  5
58
100
AcDbEntity
  8
0
  6
CONTINUOUS
 62
       2
100
AcDbLine
 10
45.76110522
 20
-121.00314129
 30
0.0
 11
45.76110522
 21
-116.00314129
 31
0.0
  0
LINE
  5
59
100
AcDbEntity
  8
0
  6
CONTINUOUS
 62
       2
100
AcDbLine
 10
46.26110522
 20
-102.20314206
 30
0.0
 11
46.26110522
 21
-109.80314053
 31
0.0
  0
ARC
  5
5A
100
AcDbEntity
  8
0
  6
CONTINUOUS
 62
       7
100
AcDbCircle
 10
46.26110522
 20
-106.00314129
 30
0.0
 40
3.5
100
AcDbArc
 50
270.0
 51
90.0
  0
LINE
  5
5B
100
AcDbEntity
  8
0
  6
CONTINUOUS
 62
       7
100
AcDbLine
 10
42.76110522
 20
-78.50314129
 30
0.0
 11
42.76110522
 21
-125.00314129
 31
0.0
  0
LINE
  5
5C
100
AcDbEntity
  8
0
  6
CONTINUOUS
 62
       2
100
AcDbLine
 10
43.26110522
 20
-118.50314129
 30
0.0
 11
48.26110522
 21
-118.50314129
 31
0.0
  0
LINE
  5
5D
100
AcDbEntity
  8
0
  6
CONTINUOUS
 62
       7
100
AcDbLine
 10
42.76110522
 20
-124.50314129
 30
0.0
 11
69.76110522
 21
-124.50314129
 31
0.0
  0
LINE
  5
5E
100
AcDbEntity
  8
0
  6
CONTINUOUS
 62
       2
100
AcDbLine
 10
42.46110598
 20
-106.00314129
 30
0.0
 11
50.06110445
 21
-106.00314129
 31
0.0
  0
LINE
  5
5F
100
AcDbEntity
  8
0
  6
CONTINUOUS
 62
       7
100
AcDbLine
 10
45.20044485
 20
-107.06380132
 30
0.0
 11
47.32176533
 21
-104.94248101
 31
0.0
  0
LINE
  5
60
100
AcDbEntity
  8
0
  6
CONTINUOUS
 62
       7
100
AcDbLine
 10
45.20044477
 20
-104.94248134
 30
0.0
 11
47.32176507
 21
-107.06380183
 31
0.0
  0
CIRCLE
  5
61
100
AcDbEntity
  8
0
  6
CONTINUOUS
 62
       7
100
AcDbCircle
 10
46.26110522
 20
-106.00314129
 30
0.0
 40
2.79999924
  0
LINE
  5
62
100
AcDbEntity
  8
0
  6
CONTINUOUS
 62
       7
100
AcDbLine
 10
69.76110522
 20
-102.50314129
 30
0.0
 11
66.26110522
 21
-102.50314129
 31
0.0
  0
LINE
  5
63
100
AcDbEntity
  8
0
  6
CONTINUOUS
 62
       7
100
AcDbLine
 10
69.76110522
 20
-109.50314129
 30
0.0
 11
66.26110522
 21
-109.50314129
 31
0.0
  0
CIRCLE
  5
64
100
AcDbEntity
  8
0
  6
CONTINUOUS
 62
       7
100
AcDbCircle
 10
66.26110522
 20
-106.00314129
 30
0.0
 40
2.79999924
  0
LINE
  5
65
100
AcDbEntity
  8
0
  6
CONTINUOUS
 62
       7
100
AcDbLine
 10
67.32176566
 20
-104.94248134
 30
0.0
 11
65.20044536
 21
-107.06380183
 31
0.0
  0
LINE
  5
66
100
AcDbEntity
  8
0
  6
CONTINUOUS
 62
       7
100
AcDbLine
 10
67.32176559
 20
-107.06380132
 30
0.0
 11
65.2004451
 21
-104.94248101
 31
0.0
  0
ARC
  5
67
100
AcDbEntity
  8
0
  6
CONTINUOUS
 62
       7
100
AcDbCircle
 10
66.26110522
 20
-106.00314129
 30
0.0
 40
3.5
100
AcDbArc
 50
90.0
 51
270.0
  0
LINE
  5
68
100
AcDbEntity
  8
0
  6
CONTINUOUS
 62
       2
100
AcDbLine
 10
66.26110522
 20
-102.20314206
 30
0.0
 11
66.26110522
 21
-109.80314053
 31
0.0
  0
CIRCLE
  5
69
100
AcDbEntity
  8
0
  6
CONTINUOUS
 62
       2
100
AcDbCircle
 10
45.76110522
 20
-118.50314129
 30
0.0
 40
1.5
  0
CIRCLE
  5
6A
100
AcDbEntity
  8
0
  6
CONTINUOUS
 62
       7
100
AcDbCircle
 10
45.76110522
 20
-118.50314129
 30
0.0
 40
1.2295
  0
LINE
  5
6B
100
AcDbEntity
  8
0
  6
CONTINUOUS
 62
       2
100
AcDbLine
 10
69.26110522
 20
-93.50314129
 30
0.0
 11
64.26110522
 21
-93.50314129
 31
0.0
  0
CIRCLE
  5
6C
100
AcDbEntity
  8
0
  6
CONTINUOUS
 62
       2
100
AcDbCircle
 10
66.76110522
 20
-93.50314129
 30
0.0
 40
1.5
  0
CIRCLE
  5
6D
100
AcDbEntity
  8
0
  6
CONTINUOUS
 62
       7
100
AcDbCircle
 10
66.76110522
 20
-93.50314129
 30
0.0
 40
1.2295
  0
LINE
  5
6E
100
AcDbEntity
  8
0
  6
CONTINUOUS
 62
       2
100
AcDbLine
 10
66.76110522
 20
-91.00314129
 30
0.0
 11
66.76110522
 21
-96.00314129
 31
0.0
  0
LINE
  5
6F
100
AcDbEntity
  8
0
  6
CONTINUOUS
 62
       7
100
AcDbLine
 10
69.76110522
 20
-78.50314129
 30
0.0
 11
42.76110522
 21
-78.50314129
 31
0.0
  0
LINE
  5
70
100
AcDbEntity
  8
0
  6
CONTINUOUS
 62
       7
100
AcDbLine
 10
66.50396236
 20
-77.50314129
 30
0.0
 11
46.01824807
 21
-77.50314129
 31
0.0
  0
LINE
  5
71
100
AcDbEntity
  8
0
  6
CONTINUOUS
 62
       7
100
AcDbLine
 10
65.50396236
 20
-66.017427
 30
0.0
 11
47.01824807
 21
-66.017427
 31
0.0
  0
LINE
  5
72
100
AcDbEntity
  8
0
  6
CONTINUOUS
 62
       7
100
AcDbLine
 10
46.01824807
 20
-78.50314129
 30
0.0
 11
46.01824807
 21
-77.50314129
 31
0.0
  0
LINE
  5
73
100
AcDbEntity
  8
0
  6
CONTINUOUS
 62
       7
100
AcDbLine
 10
47.01824807
 20
-77.50314129
 30
0.0
 11
47.01824807
 21
-66.017427
 31
0.0
  0
LINE
  5
74
100
AcDbEntity
  8
0
  6
CONTINUOUS
 62
       7
100
AcDbLine
 10
66.50396236
 20
-78.50314129
 30
0.0
 11
66.50396236
 21
-77.50314129
 31
0.0
  0
LINE
  5
75
100
AcDbEntity
  8
0
  6
CONTINUOUS
 62
       7
100
AcDbLine
 10
59.01824807
 20
-68.50314129
 30
0.0
 11
59.01824807
 21
-66.017427
 31
0.0
  0
LINE
  5
76
100
AcDbEntity
  8
0
  6
CONTINUOUS
 62
       7
100
AcDbLine
 10
65.50396236
 20
-77.50314129
 30
0.0
 11
65.50396236
 21
-66.017427
 31
0.0
  0
LINE
  5
77
100
AcDbEntity
  8
0
  6
CONTINUOUS
 62
       7
100
AcDbLine
 10
65.50396236
 20
-68.50314129
 30
0.0
 11
59.01824807
 21
-68.50314129
 31
0.0
  0
SPLINE
  5
78
100
AcDbEntity
  8
0
  6
CONTINUOUS
 62
       7
100
AcDbSpline
210
0.0
220
0.0
230
1.0
 70
       0
 71
       3
 72
       0
 73
       0
 74
       3
 44
0.000001
 12
0.080208911207419
 22
0.9967780748807231
 32
0.0
 13
-0.9995887199999934
 23
0.0286773577718522
 33
0.0
 11
64.503962360845463
 21
-68.503141287851633
 31
0.0
 11
64.189676646465472
 21
-66.931712715951733
 31
0.0
 11
62.018248074385468
 21
-66.017427001391695
 31
0.0
  0
SPLINE
  5
79
100
AcDbEntity
  8
0
  6
CONTINUOUS
 62
       7
100
AcDbSpline
210
0.0
220
0.0
230
1.0
 70
       0
 71
       3
 72
       0
 73
       0
 74
       3
 44
0.000001
 12
-0.0802089112074189
 22
0.9967780748807231
 32
0.0
 13
0.9995887199999934
 23
0.0286773577718516
 33
0.0
 11
59.503962359345479
 21
-68.503141287851633
 31
0.0
 11
59.818248073725471
 21
-66.931712715951733
 31
0.0
 11
62.018248074385468
 21
-66.017427001391695
 31
0.0
  0
LINE
  5
7A
100
AcDbEntity
  8
0
  6
CONTINUOUS
 62
       2
100
AcDbLine
 10
61.98967665
 20
-65.21990899
 30
0.0
 11
61.98967665
 21
-69.56018697
 31
0.0
  0
LINE
  5
7B
100
AcDbEntity
  8
0
  6
CONTINUOUS
 62
       2
100
AcDbLine
 10
70.06110445
 20
-106.00314129
 30
0.0
 11
62.46110598
 21
-106.00314129
 31
0.0
  0
LINE
  5
7C
100
AcDbEntity
  8
0
  6
CONTINUOUS
 62
       2
100
AcDbLine
 10
84.26110522
 20
-64.42015221
 30
0.0
 11
84.26110522
 21
-127.00314129
 31
0.0
  0
LINE
  5
7D
100
AcDbEntity
  8
0
  6
CONTINUOUS
 62
       7
100
AcDbLine
 10
97.76110522
 20
-78.50314129
 30
0.0
 11
97.76110522
 21
-125.00314129
 31
0.0
  0
LINE
  5
7E
100
AcDbEntity
  8
0
  6
CONTINUOUS
 62
       7
100
AcDbLine
 10
70.76110522
 20
-87.50314129
 30
0.0
 11
97.76110522
 21
-87.50314129
 31
0.0
  0
LINE
  5
7F
100
AcDbEntity
  8
0
  6
CONTINUOUS
 62
       7
100
AcDbLine
 10
70.76110522
 20
-102.50314129
 30
0.0
 11
74.26110522
 21
-102.50314129
 31
0.0
  0
LINE
  5
80
100
AcDbEntity
  8
0
  6
CONTINUOUS
 62
       7
100
AcDbLine
 10
70.76110522
 20
-109.50314129
 30
0.0
 11
74.26110522
 21
-109.50314129
 31
0.0
  0
LINE
  5
81
100
AcDbEntity
  8
0
  6
CONTINUOUS
 62
       2
100
AcDbLine
 10
73.76110522
 20
-121.00314129
 30
0.0
 11
73.76110522
 21
-116.00314129
 31
0.0
  0
LINE
  5
82
100
AcDbEntity
  8
0
  6
CONTINUOUS
 62
       2
100
AcDbLine
 10
74.26110522
 20
-102.20314206
 30
0.0
 11
74.26110522
 21
-109.80314053
 31
0.0
  0
ARC
  5
83
100
AcDbEntity
  8
0
  6
CONTINUOUS
 62
       7
100
AcDbCircle
 10
74.26110522
 20
-106.00314129
 30
0.0
 40
3.5
100
AcDbArc
 50
270.0
 51
90.0
  0
LINE
  5
84
100
AcDbEntity
  8
0
  6
CONTINUOUS
 62
       7
100
AcDbLine
 10
70.76110522
 20
-78.50314129
 30
0.0
 11
70.76110522
 21
-125.00314129
 31
0.0
  0
LINE
  5
85
100
AcDbEntity
  8
0
  6
CONTINUOUS
 62
       2
100
AcDbLine
 10
71.26110522
 20
-118.50314129
 30
0.0
 11
76.26110522
 21
-118.50314129
 31
0.0
  0
LINE
  5
86
100
AcDbEntity
  8
0
  6
CONTINUOUS
 62
       7
100
AcDbLine
 10
70.76110522
 20
-124.50314129
 30
0.0
 11
97.76110522
 21
-124.50314129
 31
0.0
  0
LINE
  5
87
100
AcDbEntity
  8
0
  6
CONTINUOUS
 62
       2
100
AcDbLine
 10
70.46110598
 20
-106.00314129
 30
0.0
 11
78.06110445
 21
-106.00314129
 31
0.0
  0
LINE
  5
88
100
AcDbEntity
  8
0
  6
CONTINUOUS
 62
       7
100
AcDbLine
 10
73.20044485
 20
-107.06380132
 30
0.0
 11
75.32176533
 21
-104.94248101
 31
0.0
  0
LINE
  5
89
100
AcDbEntity
  8
0
  6
CONTINUOUS
 62
       7
100
AcDbLine
 10
73.20044477
 20
-104.94248134
 30
0.0
 11
75.32176507
 21
-107.06380183
 31
0.0
  0
CIRCLE
  5
8A
100
AcDbEntity
  8
0
  6
CONTINUOUS
 62
       7
100
AcDbCircle
 10
74.26110522
 20
-106.00314129
 30
0.0
 40
2.79999924
  0
LINE
  5
8B
100
AcDbEntity
  8
0
  6
CONTINUOUS
 62
       7
100
AcDbLine
 10
97.76110522
 20
-102.50314129
 30
0.0
 11
94.26110522
 21
-102.50314129
 31
0.0
  0
LINE
  5
8C
100
AcDbEntity
  8
0
  6
CONTINUOUS
 62
       7
100
AcDbLine
 10
97.76110522
 20
-109.50314129
 30
0.0
 11
94.26110522
 21
-109.50314129
 31
0.0
  0
CIRCLE
  5
8D
100
AcDbEntity
  8
0
  6
CONTINUOUS
 62
       7
100
AcDbCircle
 10
94.26110522
 20
-106.00314129
 30
0.0
 40
2.79999924
  0
LINE
  5
8E
100
AcDbEntity
  8
0
  6
CONTINUOUS
 62
       7
100
AcDbLine
 10
95.32176566
 20
-104.94248134
 30
0.0
 11
93.20044536
 21
-107.06380183
 31
0.0
  0
LINE
  5
8F
100
AcDbEntity
  8
0
  6
CONTINUOUS
 62
       7
100
AcDbLine
 10
95.32176559
 20
-107.06380132
 30
0.0
 11
93.2004451
 21
-104.94248101
 31
0.0
  0
ARC
  5
90
100
AcDbEntity
  8
0
  6
CONTINUOUS
 62
       7
100
AcDbCircle
 10
94.26110522
 20
-106.00314129
 30
0.0
 40
3.5
100
AcDbArc
 50
90.0
 51
270.0
  0
LINE
  5
91
100
AcDbEntity
  8
0
  6
CONTINUOUS
 62
       2
100
AcDbLine
 10
94.26110522
 20
-102.20314206
 30
0.0
 11
94.26110522
 21
-109.80314053
 31
0.0
  0
CIRCLE
  5
92
100
AcDbEntity
  8
0
  6
CONTINUOUS
 62
       2
100
AcDbCircle
 10
73.76110522
 20
-118.50314129
 30
0.0
 40
1.5
  0
CIRCLE
  5
93
100
AcDbEntity
  8
0
  6
CONTINUOUS
 62
       7
100
AcDbCircle
 10
73.76110522
 20
-118.50314129
 30
0.0
 40
1.2295
  0
LINE
  5
94
100
AcDbEntity
  8
0
  6
CONTINUOUS
 62
       2
100
AcDbLine
 10
97.26110522
 20
-93.50314129
 30
0.0
 11
92.26110522
 21
-93.50314129
 31
0.0
  0
CIRCLE
  5
95
100
AcDbEntity
  8
0
  6
CONTINUOUS
 62
       2
100
AcDbCircle
 10
94.76110522
 20
-93.50314129
 30
0.0
 40
1.5
  0
CIRCLE
  5
96
100
AcDbEntity
  8
0
  6
CONTINUOUS
 62
       7
100
AcDbCircle
 10
94.76110522
 20
-93.50314129
 30
0.0
 40
1.2295
  0
LINE
  5
97
100
AcDbEntity
  8
0
  6
CONTINUOUS
 62
       2
100
AcDbLine
 10
94.76110522
 20
-91.00314129
 30
0.0
 11
94.76110522
 21
-96.00314129
 31
0.0
  0
LINE
  5
98
100
AcDbEntity
  8
0
  6
CONTINUOUS
 62
       7
100
AcDbLine
 10
97.76110522
 20
-78.50314129
 30
0.0
 11
70.76110522
 21
-78.50314129
 31
0.0
  0
LINE
  5
99
100
AcDbEntity
  8
0
  6
CONTINUOUS
 62
       7
100
AcDbLine
 10
94.50396236
 20
-77.50314129
 30
0.0
 11
74.01824807
 21
-77.50314129
 31
0.0
  0
LINE
  5
9A
100
AcDbEntity
  8
0
  6
CONTINUOUS
 62
       7
100
AcDbLine
 10
93.50396236
 20
-66.017427
 30
0.0
 11
75.01824807
 21
-66.017427
 31
0.0
  0
LINE
  5
9B
100
AcDbEntity
  8
0
  6
CONTINUOUS
 62
       7
100
AcDbLine
 10
74.01824807
 20
-78.50314129
 30
0.0
 11
74.01824807
 21
-77.50314129
 31
0.0
  0
LINE
  5
9C
100
AcDbEntity
  8
0
  6
CONTINUOUS
 62
       7
100
AcDbLine
 10
75.01824807
 20
-77.50314129
 30
0.0
 11
75.01824807
 21
-66.017427
 31
0.0
  0
LINE
  5
9D
100
AcDbEntity
  8
0
  6
CONTINUOUS
 62
       7
100
AcDbLine
 10
94.50396236
 20
-78.50314129
 30
0.0
 11
94.50396236
 21
-77.50314129
 31
0.0
  0
LINE
  5
9E
100
AcDbEntity
  8
0
  6
CONTINUOUS
 62
       7
100
AcDbLine
 10
87.01824807
 20
-68.50314129
 30
0.0
 11
87.01824807
 21
-66.017427
 31
0.0
  0
LINE
  5
9F
100
AcDbEntity
  8
0
  6
CONTINUOUS
 62
       7
100
AcDbLine
 10
93.50396236
 20
-77.50314129
 30
0.0
 11
93.50396236
 21
-66.017427
 31
0.0
  0
LINE
  5
A0
100
AcDbEntity
  8
0
  6
CONTINUOUS
 62
       7
100
AcDbLine
 10
93.50396236
 20
-68.50314129
 30
0.0
 11
87.01824807
 21
-68.50314129
 31
0.0
  0
SPLINE
  5
A1
100
AcDbEntity
  8
0
  6
CONTINUOUS
 62
       7
100
AcDbSpline
210
0.0
220
0.0
230
1.0
 70
       0
 71
       3
 72
       0
 73
       0
 74
       3
 44
0.000001
 12
0.080208911207419
 22
0.9967780748807231
 32
0.0
 13
-0.9995887199999934
 23
0.0286773577718522
 33
0.0
 11
92.503962360845463
 21
-68.503141287851633
 31
0.0
 11
92.189676646465472
 21
-66.931712715951733
 31
0.0
 11
90.018248074385468
 21
-66.017427001391695
 31
0.0
  0
SPLINE
  5
A2
100
AcDbEntity
  8
0
  6
CONTINUOUS
 62
       7
100
AcDbSpline
210
0.0
220
0.0
230
1.0
 70
       0
 71
       3
 72
       0
 73
       0
 74
       3
 44
0.000001
 12
-0.0802089112074189
 22
0.9967780748807231
 32
0.0
 13
0.9995887199999934
 23
0.0286773577718516
 33
0.0
 11
87.503962359345479
 21
-68.503141287851633
 31
0.0
 11
87.818248073725471
 21
-66.931712715951733
 31
0.0
 11
90.018248074385468
 21
-66.017427001391695
 31
0.0
  0
LINE
  5
A3
100
AcDbEntity
  8
0
  6
CONTINUOUS
 62
       2
100
AcDbLine
 10
89.98967665
 20
-65.21990899
 30
0.0
 11
89.98967665
 21
-69.56018697
 31
0.0
  0
LINE
  5
A4
100
AcDbEntity
  8
0
  6
CONTINUOUS
 62
       2
100
AcDbLine
 10
98.06110445
 20
-106.00314129
 30
0.0
 11
90.46110598
 21
-106.00314129
 31
0.0
  0
LINE
  5
A5
100
AcDbEntity
  8
0
  6
CONTINUOUS
 62
       2
100
AcDbLine
 10
112.26110522
 20
-64.42015221
 30
0.0
 11
112.26110522
 21
-127.00314129
 31
0.0
  0
LINE
  5
A6
100
AcDbEntity
  8
0
  6
CONTINUOUS
 62
       7
100
AcDbLine
 10
125.76110522
 20
-78.50314129
 30
0.0
 11
125.76110522
 21
-125.00314129
 31
0.0
  0
LINE
  5
A7
100
AcDbEntity
  8
0
  6
CONTINUOUS
 62
       7
100
AcDbLine
 10
98.76110522
 20
-87.50314129
 30
0.0
 11
125.76110522
 21
-87.50314129
 31
0.0
  0
LINE
  5
A8
100
AcDbEntity
  8
0
  6
CONTINUOUS
 62
       7
100
AcDbLine
 10
98.76110522
 20
-102.50314129
 30
0.0
 11
102.26110522
 21
-102.50314129
 31
0.0
  0
LINE
  5
A9
100
AcDbEntity
  8
0
  6
CONTINUOUS
 62
       7
100
AcDbLine
 10
98.76110522
 20
-109.50314129
 30
0.0
 11
102.26110522
 21
-109.50314129
 31
0.0
  0
LINE
  5
AA
100
AcDbEntity
  8
0
  6
CONTINUOUS
 62
       2
100
AcDbLine
 10
101.76110522
 20
-121.00314129
 30
0.0
 11
101.76110522
 21
-116.00314129
 31
0.0
  0
LINE
  5
AB
100
AcDbEntity
  8
0
  6
CONTINUOUS
 62
       2
100
AcDbLine
 10
102.26110522
 20
-102.20314206
 30
0.0
 11
102.26110522
 21
-109.80314053
 31
0.0
  0
ARC
  5
AC
100
AcDbEntity
  8
0
  6
CONTINUOUS
 62
       7
100
AcDbCircle
 10
102.26110522
 20
-106.00314129
 30
0.0
 40
3.5
100
AcDbArc
 50
270.0
 51
90.0
  0
LINE
  5
AD
100
AcDbEntity
  8
0
  6
CONTINUOUS
 62
       7
100
AcDbLine
 10
98.76110522
 20
-78.50314129
 30
0.0
 11
98.76110522
 21
-125.00314129
 31
0.0
  0
LINE
  5
AE
100
AcDbEntity
  8
0
  6
CONTINUOUS
 62
       2
100
AcDbLine
 10
99.26110522
 20
-118.50314129
 30
0.0
 11
104.26110522
 21
-118.50314129
 31
0.0
  0
LINE
  5
AF
100
AcDbEntity
  8
0
  6
CONTINUOUS
 62
       7
100
AcDbLine
 10
98.76110522
 20
-124.50314129
 30
0.0
 11
125.76110522
 21
-124.50314129
 31
0.0
  0
LINE
  5
B0
100
AcDbEntity
  8
0
  6
CONTINUOUS
 62
       2
100
AcDbLine
 10
98.46110598
 20
-106.00314129
 30
0.0
 11
106.06110445
 21
-106.00314129
 31
0.0
  0
LINE
  5
B1
100
AcDbEntity
  8
0
  6
CONTINUOUS
 62
       7
100
AcDbLine
 10
101.20044485
 20
-107.06380132
 30
0.0
 11
103.32176533
 21
-104.94248101
 31
0.0
  0
LINE
  5
B2
100
AcDbEntity
  8
0
  6
CONTINUOUS
 62
       7
100
AcDbLine
 10
101.20044477
 20
-104.94248134
 30
0.0
 11
103.32176507
 21
-107.06380183
 31
0.0
  0
CIRCLE
  5
B3
100
AcDbEntity
  8
0
  6
CONTINUOUS
 62
       7
100
AcDbCircle
 10
102.26110522
 20
-106.00314129
 30
0.0
 40
2.79999924
  0
LINE
  5
B4
100
AcDbEntity
  8
0
  6
CONTINUOUS
 62
       7
100
AcDbLine
 10
125.76110522
 20
-102.50314129
 30
0.0
 11
122.26110522
 21
-102.50314129
 31
0.0
  0
LINE
  5
B5
100
AcDbEntity
  8
0
  6
CONTINUOUS
 62
       7
100
AcDbLine
 10
125.76110522
 20
-109.50314129
 30
0.0
 11
122.26110522
 21
-109.50314129
 31
0.0
  0
CIRCLE
  5
B6
100
AcDbEntity
  8
0
  6
CONTINUOUS
 62
       7
100
AcDbCircle
 10
122.26110522
 20
-106.00314129
 30
0.0
 40
2.79999924
  0
LINE
  5
B7
100
AcDbEntity
  8
0
  6
CONTINUOUS
 62
       7
100
AcDbLine
 10
123.32176566
 20
-104.94248134
 30
0.0
 11
121.20044536
 21
-107.06380183
 31
0.0
  0
LINE
  5
B8
100
AcDbEntity
  8
0
  6
CONTINUOUS
 62
       7
100
AcDbLine
 10
123.32176559
 20
-107.06380132
 30
0.0
 11
121.2004451
 21
-104.94248101
 31
0.0
  0
ARC
  5
B9
100
AcDbEntity
  8
0
  6
CONTINUOUS
 62
       7
100
AcDbCircle
 10
122.26110522
 20
-106.00314129
 30
0.0
 40
3.5
100
AcDbArc
 50
90.0
 51
270.0
  0
LINE
  5
BA
100
AcDbEntity
  8
0
  6
CONTINUOUS
 62
       2
100
AcDbLine
 10
122.26110522
 20
-102.20314206
 30
0.0
 11
122.26110522
 21
-109.80314053
 31
0.0
  0
CIRCLE
  5
BB
100
AcDbEntity
  8
0
  6
CONTINUOUS
 62
       2
100
AcDbCircle
 10
101.76110522
 20
-118.50314129
 30
0.0
 40
1.5
  0
CIRCLE
  5
BC
100
AcDbEntity
  8
0
  6
CONTINUOUS
 62
       7
100
AcDbCircle
 10
101.76110522
 20
-118.50314129
 30
0.0
 40
1.2295
  0
LINE
  5
BD
100
AcDbEntity
  8
0
  6
CONTINUOUS
 62
       2
100
AcDbLine
 10
125.26110522
 20
-93.50314129
 30
0.0
 11
120.26110522
 21
-93.50314129
 31
0.0
  0
CIRCLE
  5
BE
100
AcDbEntity
  8
0
  6
CONTINUOUS
 62
       2
100
AcDbCircle
 10
122.76110522
 20
-93.50314129
 30
0.0
 40
1.5
  0
CIRCLE
  5
BF
100
AcDbEntity
  8
0
  6
CONTINUOUS
 62
       7
100
AcDbCircle
 10
122.76110522
 20
-93.50314129
 30
0.0
 40
1.2295
  0
LINE
  5
C0
100
AcDbEntity
  8
0
  6
CONTINUOUS
 62
       2
100
AcDbLine
 10
122.76110522
 20
-91.00314129
 30
0.0
 11
122.76110522
 21
-96.00314129
 31
0.0
  0
LINE
  5
C1
100
AcDbEntity
  8
0
  6
CONTINUOUS
 62
       7
100
AcDbLine
 10
125.76110522
 20
-78.50314129
 30
0.0
 11
98.76110522
 21
-78.50314129
 31
0.0
  0
LINE
  5
C2
100
AcDbEntity
  8
0
  6
CONTINUOUS
 62
       7
100
AcDbLine
 10
122.50396236
 20
-77.50314129
 30
0.0
 11
102.01824807
 21
-77.50314129
 31
0.0
  0
LINE
  5
C3
100
AcDbEntity
  8
0
  6
CONTINUOUS
 62
       7
100
AcDbLine
 10
121.50396236
 20
-66.017427
 30
0.0
 11
103.01824807
 21
-66.017427
 31
0.0
  0
LINE
  5
C4
100
AcDbEntity
  8
0
  6
CONTINUOUS
 62
       7
100
AcDbLine
 10
102.01824807
 20
-78.50314129
 30
0.0
 11
102.01824807
 21
-77.50314129
 31
0.0
  0
LINE
  5
C5
100
AcDbEntity
  8
0
  6
CONTINUOUS
 62
       7
100
AcDbLine
 10
103.01824807
 20
-77.50314129
 30
0.0
 11
103.01824807
 21
-66.017427
 31
0.0
  0
LINE
  5
C6
100
AcDbEntity
  8
0
  6
CONTINUOUS
 62
       7
100
AcDbLine
 10
122.50396236
 20
-78.50314129
 30
0.0
 11
122.50396236
 21
-77.50314129
 31
0.0
  0
LINE
  5
C7
100
AcDbEntity
  8
0
  6
CONTINUOUS
 62
       7
100
AcDbLine
 10
115.01824807
 20
-68.50314129
 30
0.0
 11
115.01824807
 21
-66.017427
 31
0.0
  0
LINE
  5
C8
100
AcDbEntity
  8
0
  6
CONTINUOUS
 62
       7
100
AcDbLine
 10
121.50396236
 20
-77.50314129
 30
0.0
 11
121.50396236
 21
-66.017427
 31
0.0
  0
LINE
  5
C9
100
AcDbEntity
  8
0
  6
CONTINUOUS
 62
       7
100
AcDbLine
 10
121.50396236
 20
-68.50314129
 30
0.0
 11
115.01824807
 21
-68.50314129
 31
0.0
  0
SPLINE
  5
CA
100
AcDbEntity
  8
0
  6
CONTINUOUS
 62
       7
100
AcDbSpline
210
0.0
220
0.0
230
1.0
 70
       0
 71
       3
 72
       0
 73
       0
 74
       3
 44
0.000001
 12
0.080208911207419
 22
0.9967780748807231
 32
0.0
 13
-0.9995887199999934
 23
0.0286773577718522
 33
0.0
 11
120.50396236084546
 21
-68.503141287851633
 31
0.0
 11
120.18967664646547
 21
-66.931712715951733
 31
0.0
 11
118.01824807438547
 21
-66.017427001391695
 31
0.0
  0
SPLINE
  5
CB
100
AcDbEntity
  8
0
  6
CONTINUOUS
 62
       7
100
AcDbSpline
210
0.0
220
0.0
230
1.0
 70
       0
 71
       3
 72
       0
 73
       0
 74
       3
 44
0.000001
 12
-0.0802089112074189
 22
0.9967780748807231
 32
0.0
 13
0.9995887199999934
 23
0.0286773577718516
 33
0.0
 11
115.50396235934548
 21
-68.503141287851633
 31
0.0
 11
115.81824807372547
 21
-66.931712715951733
 31
0.0
 11
118.01824807438547
 21
-66.017427001391695
 31
0.0
  0
LINE
  5
CC
100
AcDbEntity
  8
0
  6
CONTINUOUS
 62
       2
100
AcDbLine
 10
117.98967665
 20
-65.21990899
 30
0.0
 11
117.98967665
 21
-69.56018697
 31
0.0
  0
LINE
  5
CD
100
AcDbEntity
  8
0
  6
CONTINUOUS
 62
       2
100
AcDbLine
 10
126.06110445
 20
-106.00314129
 30
0.0
 11
118.46110598
 21
-106.00314129
 31
0.0
  0
LINE
  5
CE
100
AcDbEntity
  8
0
  6
CONTINUOUS
 62
       2
100
AcDbLine
 10
140.26110522
 20
-64.42015221
 30
0.0
 11
140.26110522
 21
-127.00314129
 31
0.0
  0
LINE
  5
CF
100
AcDbEntity
  8
0
  6
CONTINUOUS
 62
       7
100
AcDbLine
 10
153.76110522
 20
-78.50314129
 30
0.0
 11
153.76110522
 21
-125.00314129
 31
0.0
  0
LINE
  5
D0
100
AcDbEntity
  8
0
  6
CONTINUOUS
 62
       7
100
AcDbLine
 10
126.76110522
 20
-87.50314129
 30
0.0
 11
153.76110522
 21
-87.50314129
 31
0.0
  0
LINE
  5
D1
100
AcDbEntity
  8
0
  6
CONTINUOUS
 62
       7
100
AcDbLine
 10
126.76110522
 20
-102.50314129
 30
0.0
 11
130.26110522
 21
-102.50314129
 31
0.0
  0
LINE
  5
D2
100
AcDbEntity
  8
0
  6
CONTINUOUS
 62
       7
100
AcDbLine
 10
126.76110522
 20
-109.50314129
 30
0.0
 11
130.26110522
 21
-109.50314129
 31
0.0
  0
LINE
  5
D3
100
AcDbEntity
  8
0
  6
CONTINUOUS
 62
       2
100
AcDbLine
 10
129.76110522
 20
-121.00314129
 30
0.0
 11
129.76110522
 21
-116.00314129
 31
0.0
  0
LINE
  5
D4
100
AcDbEntity
  8
0
  6
CONTINUOUS
 62
       2
100
AcDbLine
 10
130.26110522
 20
-102.20314206
 30
0.0
 11
130.26110522
 21
-109.80314053
 31
0.0
  0
ARC
  5
D5
100
AcDbEntity
  8
0
  6
CONTINUOUS
 62
       7
100
AcDbCircle
 10
130.26110522
 20
-106.00314129
 30
0.0
 40
3.5
100
AcDbArc
 50
270.0
 51
90.0
  0
LINE
  5
D6
100
AcDbEntity
  8
0
  6
CONTINUOUS
 62
       7
100
AcDbLine
 10
126.76110522
 20
-78.50314129
 30
0.0
 11
126.76110522
 21
-125.00314129
 31
0.0
  0
LINE
  5
D7
100
AcDbEntity
  8
0
  6
CONTINUOUS
 62
       2
100
AcDbLine
 10
127.26110522
 20
-118.50314129
 30
0.0
 11
132.26110522
 21
-118.50314129
 31
0.0
  0
LINE
  5
D8
100
AcDbEntity
  8
0
  6
CONTINUOUS
 62
       7
100
AcDbLine
 10
126.76110522
 20
-124.50314129
 30
0.0
 11
153.76110522
 21
-124.50314129
 31
0.0
  0
LINE
  5
D9
100
AcDbEntity
  8
0
  6
CONTINUOUS
 62
       2
100
AcDbLine
 10
126.46110598
 20
-106.00314129
 30
0.0
 11
134.06110445
 21
-106.00314129
 31
0.0
  0
LINE
  5
DA
100
AcDbEntity
  8
0
  6
CONTINUOUS
 62
       7
100
AcDbLine
 10
129.20044485
 20
-107.06380132
 30
0.0
 11
131.32176533
 21
-104.94248101
 31
0.0
  0
LINE
  5
DB
100
AcDbEntity
  8
0
  6
CONTINUOUS
 62
       7
100
AcDbLine
 10
129.20044477
 20
-104.94248134
 30
0.0
 11
131.32176507
 21
-107.06380183
 31
0.0
  0
CIRCLE
  5
DC
100
AcDbEntity
  8
0
  6
CONTINUOUS
 62
       7
100
AcDbCircle
 10
130.26110522
 20
-106.00314129
 30
0.0
 40
2.79999924
  0
LINE
  5
DD
100
AcDbEntity
  8
0
  6
CONTINUOUS
 62
       7
100
AcDbLine
 10
153.76110522
 20
-102.50314129
 30
0.0
 11
150.26110522
 21
-102.50314129
 31
0.0
  0
LINE
  5
DE
100
AcDbEntity
  8
0
  6
CONTINUOUS
 62
       7
100
AcDbLine
 10
153.76110522
 20
-109.50314129
 30
0.0
 11
150.26110522
 21
-109.50314129
 31
0.0
  0
CIRCLE
  5
DF
100
AcDbEntity
  8
0
  6
CONTINUOUS
 62
       7
100
AcDbCircle
 10
150.26110522
 20
-106.00314129
 30
0.0
 40
2.79999924
  0
LINE
  5
E0
100
AcDbEntity
  8
0
  6
CONTINUOUS
 62
       7
100
AcDbLine
 10
151.32176566
 20
-104.94248134
 30
0.0
 11
149.20044536
 21
-107.06380183
 31
0.0
  0
LINE
  5
E1
100
AcDbEntity
  8
0
  6
CONTINUOUS
 62
       7
100
AcDbLine
 10
151.32176559
 20
-107.06380132
 30
0.0
 11
149.2004451
 21
-104.94248101
 31
0.0
  0
ARC
  5
E2
100
AcDbEntity
  8
0
  6
CONTINUOUS
 62
       7
100
AcDbCircle
 10
150.26110522
 20
-106.00314129
 30
0.0
 40
3.5
100
AcDbArc
 50
90.0
 51
270.0
  0
LINE
  5
E3
100
AcDbEntity
  8
0
  6
CONTINUOUS
 62
       2
100
AcDbLine
 10
150.26110522
 20
-102.20314206
 30
0.0
 11
150.26110522
 21
-109.80314053
 31
0.0
  0
CIRCLE
  5
E4
100
AcDbEntity
  8
0
  6
CONTINUOUS
 62
       2
100
AcDbCircle
 10
129.76110522
 20
-118.50314129
 30
0.0
 40
1.5
  0
CIRCLE
  5
E5
100
AcDbEntity
  8
0
  6
CONTINUOUS
 62
       7
100
AcDbCircle
 10
129.76110522
 20
-118.50314129
 30
0.0
 40
1.2295
  0
LINE
  5
E6
100
AcDbEntity
  8
0
  6
CONTINUOUS
 62
       2
100
AcDbLine
 10
153.26110522
 20
-93.50314129
 30
0.0
 11
148.26110522
 21
-93.50314129
 31
0.0
  0
CIRCLE
  5
E7
100
AcDbEntity
  8
0
  6
CONTINUOUS
 62
       2
100
AcDbCircle
 10
150.76110522
 20
-93.50314129
 30
0.0
 40
1.5
  0
CIRCLE
  5
E8
100
AcDbEntity
  8
0
  6
CONTINUOUS
 62
       7
100
AcDbCircle
 10
150.76110522
 20
-93.50314129
 30
0.0
 40
1.2295
  0
LINE
  5
E9
100
AcDbEntity
  8
0
  6
CONTINUOUS
 62
       2
100
AcDbLine
 10
150.76110522
 20
-91.00314129
 30
0.0
 11
150.76110522
 21
-96.00314129
 31
0.0
  0
LINE
  5
EA
100
AcDbEntity
  8
0
  6
CONTINUOUS
 62
       7
100
AcDbLine
 10
153.76110522
 20
-78.50314129
 30
0.0
 11
126.76110522
 21
-78.50314129
 31
0.0
  0
LINE
  5
EB
100
AcDbEntity
  8
0
  6
CONTINUOUS
 62
       7
100
AcDbLine
 10
150.50396236
 20
-77.50314129
 30
0.0
 11
130.01824807
 21
-77.50314129
 31
0.0
  0
LINE
  5
EC
100
AcDbEntity
  8
0
  6
CONTINUOUS
 62
       7
100
AcDbLine
 10
149.50396236
 20
-66.017427
 30
0.0
 11
131.01824807
 21
-66.017427
 31
0.0
  0
LINE
  5
ED
100
AcDbEntity
  8
0
  6
CONTINUOUS
 62
       7
100
AcDbLine
 10
130.01824807
 20
-78.50314129
 30
0.0
 11
130.01824807
 21
-77.50314129
 31
0.0
  0
LINE
  5
EE
100
AcDbEntity
  8
0
  6
CONTINUOUS
 62
       7
100
AcDbLine
 10
131.01824807
 20
-77.50314129
 30
0.0
 11
131.01824807
 21
-66.017427
 31
0.0
  0
LINE
  5
EF
100
AcDbEntity
  8
0
  6
CONTINUOUS
 62
       7
100
AcDbLine
 10
150.50396236
 20
-78.50314129
 30
0.0
 11
150.50396236
 21
-77.50314129
 31
0.0
  0
LINE
  5
F0
100
AcDbEntity
  8
0
  6
CONTINUOUS
 62
       7
100
AcDbLine
 10
143.01824807
 20
-68.50314129
 30
0.0
 11
143.01824807
 21
-66.017427
 31
0.0
  0
LINE
  5
F1
100
AcDbEntity
  8
0
  6
CONTINUOUS
 62
       7
100
AcDbLine
 10
149.50396236
 20
-77.50314129
 30
0.0
 11
149.50396236
 21
-66.017427
 31
0.0
  0
LINE
  5
F2
100
AcDbEntity
  8
0
  6
CONTINUOUS
 62
       7
100
AcDbLine
 10
149.50396236
 20
-68.50314129
 30
0.0
 11
143.01824807
 21
-68.50314129
 31
0.0
  0
SPLINE
  5
F3
100
AcDbEntity
  8
0
  6
CONTINUOUS
 62
       7
100
AcDbSpline
210
0.0
220
0.0
230
1.0
 70
       0
 71
       3
 72
       0
 73
       0
 74
       3
 44
0.000001
 12
0.080208911207419
 22
0.9967780748807231
 32
0.0
 13
-0.9995887199999934
 23
0.0286773577718522
 33
0.0
 11
148.50396236084546
 21
-68.503141287851633
 31
0.0
 11
148.18967664646547
 21
-66.931712715951733
 31
0.0
 11
146.01824807438547
 21
-66.017427001391695
 31
0.0
  0
SPLINE
  5
F4
100
AcDbEntity
  8
0
  6
CONTINUOUS
 62
       7
100
AcDbSpline
210
0.0
220
0.0
230
1.0
 70
       0
 71
       3
 72
       0
 73
       0
 74
       3
 44
0.000001
 12
-0.0802089112074189
 22
0.9967780748807231
 32
0.0
 13
0.9995887199999934
 23
0.0286773577718516
 33
0.0
 11
143.50396235934548
 21
-68.503141287851633
 31
0.0
 11
143.81824807372547
 21
-66.931712715951733
 31
0.0
 11
146.01824807438547
 21
-66.017427001391695
 31
0.0
  0
LINE
  5
F5
100
AcDbEntity
  8
0
  6
CONTINUOUS
 62
       2
100
AcDbLine
 10
145.98967665
 20
-65.21990899
 30
0.0
 11
145.98967665
 21
-69.56018697
 31
0.0
  0
LINE
  5
F6
100
AcDbEntity
  8
0
  6
CONTINUOUS
 62
       2
100
AcDbLine
 10
154.06110445
 20
-106.00314129
 30
0.0
 11
146.46110598
 21
-106.00314129
 31
0.0
  0
LINE
  5
F7
100
AcDbEntity
  8
0
  6
CONTINUOUS
 62
       2
100
AcDbLine
 10
168.26110522
 20
-64.42015221
 30
0.0
 11
168.26110522
 21
-127.00314129
 31
0.0
  0
LINE
  5
F8
100
AcDbEntity
  8
0
  6
CONTINUOUS
 62
       7
100
AcDbLine
 10
181.76110522
 20
-78.50314129
 30
0.0
 11
181.76110522
 21
-125.00314129
 31
0.0
  0
LINE
  5
F9
100
AcDbEntity
  8
0
  6
CONTINUOUS
 62
       7
100
AcDbLine
 10
154.76110522
 20
-87.50314129
 30
0.0
 11
181.76110522
 21
-87.50314129
 31
0.0
  0
LINE
  5
FA
100
AcDbEntity
  8
0
  6
CONTINUOUS
 62
       7
100
AcDbLine
 10
154.76110522
 20
-102.50314129
 30
0.0
 11
158.26110522
 21
-102.50314129
 31
0.0
  0
LINE
  5
FB
100
AcDbEntity
  8
0
  6
CONTINUOUS
 62
       7
100
AcDbLine
 10
154.76110522
 20
-109.50314129
 30
0.0
 11
158.26110522
 21
-109.50314129
 31
0.0
  0
LINE
  5
FC
100
AcDbEntity
  8
0
  6
CONTINUOUS
 62
       2
100
AcDbLine
 10
157.76110522
 20
-121.00314129
 30
0.0
 11
157.76110522
 21
-116.00314129
 31
0.0
  0
LINE
  5
FD
100
AcDbEntity
  8
0
  6
CONTINUOUS
 62
       2
100
AcDbLine
 10
158.26110522
 20
-102.20314206
 30
0.0
 11
158.26110522
 21
-109.80314053
 31
0.0
  0
ARC
  5
FE
100
AcDbEntity
  8
0
  6
CONTINUOUS
 62
       7
100
AcDbCircle
 10
158.26110522
 20
-106.00314129
 30
0.0
 40
3.5
100
AcDbArc
 50
270.0
 51
90.0
  0
LINE
  5
FF
100
AcDbEntity
  8
0
  6
CONTINUOUS
 62
       7
100
AcDbLine
 10
154.76110522
 20
-78.50314129
 30
0.0
 11
154.76110522
 21
-125.00314129
 31
0.0
  0
LINE
  5
100
100
AcDbEntity
  8
0
  6
CONTINUOUS
 62
       2
100
AcDbLine
 10
155.26110522
 20
-118.50314129
 30
0.0
 11
160.26110522
 21
-118.50314129
 31
0.0
  0
LINE
  5
101
100
AcDbEntity
  8
0
  6
CONTINUOUS
 62
       7
100
AcDbLine
 10
154.76110522
 20
-124.50314129
 30
0.0
 11
181.76110522
 21
-124.50314129
 31
0.0
  0
LINE
  5
102
100
AcDbEntity
  8
0
  6
CONTINUOUS
 62
       2
100
AcDbLine
 10
154.46110598
 20
-106.00314129
 30
0.0
 11
162.06110445
 21
-106.00314129
 31
0.0
  0
LINE
  5
103
100
AcDbEntity
  8
0
  6
CONTINUOUS
 62
       7
100
AcDbLine
 10
157.20044485
 20
-107.06380132
 30
0.0
 11
159.32176533
 21
-104.94248101
 31
0.0
  0
LINE
  5
104
100
AcDbEntity
  8
0
  6
CONTINUOUS
 62
       7
100
AcDbLine
 10
157.20044477
 20
-104.94248134
 30
0.0
 11
159.32176507
 21
-107.06380183
 31
0.0
  0
CIRCLE
  5
105
100
AcDbEntity
  8
0
  6
CONTINUOUS
 62
       7
100
AcDbCircle
 10
158.26110522
 20
-106.00314129
 30
0.0
 40
2.79999924
  0
LINE
  5
106
100
AcDbEntity
  8
0
  6
CONTINUOUS
 62
       7
100
AcDbLine
 10
181.76110522
 20
-102.50314129
 30
0.0
 11
178.26110522
 21
-102.50314129
 31
0.0
  0
LINE
  5
107
100
AcDbEntity
  8
0
  6
CONTINUOUS
 62
       7
100
AcDbLine
 10
181.76110522
 20
-109.50314129
 30
0.0
 11
178.26110522
 21
-109.50314129
 31
0.0
  0
CIRCLE
  5
108
100
AcDbEntity
  8
0
  6
CONTINUOUS
 62
       7
100
AcDbCircle
 10
178.26110522
 20
-106.00314129
 30
0.0
 40
2.79999924
  0
LINE
  5
109
100
AcDbEntity
  8
0
  6
CONTINUOUS
 62
       7
100
AcDbLine
 10
179.32176566
 20
-104.94248134
 30
0.0
 11
177.20044536
 21
-107.06380183
 31
0.0
  0
LINE
  5
10A
100
AcDbEntity
  8
0
  6
CONTINUOUS
 62
       7
100
AcDbLine
 10
179.32176559
 20
-107.06380132
 30
0.0
 11
177.2004451
 21
-104.94248101
 31
0.0
  0
ARC
  5
10B
100
AcDbEntity
  8
0
  6
CONTINUOUS
 62
       7
100
AcDbCircle
 10
178.26110522
 20
-106.00314129
 30
0.0
 40
3.5
100
AcDbArc
 50
90.0
 51
270.0
  0
LINE
  5
10C
100
AcDbEntity
  8
0
  6
CONTINUOUS
 62
       2
100
AcDbLine
 10
178.26110522
 20
-102.20314206
 30
0.0
 11
178.26110522
 21
-109.80314053
 31
0.0
  0
CIRCLE
  5
10D
100
AcDbEntity
  8
0
  6
CONTINUOUS
 62
       2
100
AcDbCircle
 10
157.76110522
 20
-118.50314129
 30
0.0
 40
1.5
  0
CIRCLE
  5
10E
100
AcDbEntity
  8
0
  6
CONTINUOUS
 62
       7
100
AcDbCircle
 10
157.76110522
 20
-118.50314129
 30
0.0
 40
1.2295
  0
LINE
  5
10F
100
AcDbEntity
  8
0
  6
CONTINUOUS
 62
       2
100
AcDbLine
 10
181.26110522
 20
-93.50314129
 30
0.0
 11
176.26110522
 21
-93.50314129
 31
0.0
  0
CIRCLE
  5
110
100
AcDbEntity
  8
0
  6
CONTINUOUS
 62
       2
100
AcDbCircle
 10
178.76110522
 20
-93.50314129
 30
0.0
 40
1.5
  0
CIRCLE
  5
111
100
AcDbEntity
  8
0
  6
CONTINUOUS
 62
       7
100
AcDbCircle
 10
178.76110522
 20
-93.50314129
 30
0.0
 40
1.2295
  0
LINE
  5
112
100
AcDbEntity
  8
0
  6
CONTINUOUS
 62
       2
100
AcDbLine
 10
178.76110522
 20
-91.00314129
 30
0.0
 11
178.76110522
 21
-96.00314129
 31
0.0
  0
LINE
  5
113
100
AcDbEntity
  8
0
  6
CONTINUOUS
 62
       7
100
AcDbLine
 10
181.76110522
 20
-78.50314129
 30
0.0
 11
154.76110522
 21
-78.50314129
 31
0.0
  0
LINE
  5
114
100
AcDbEntity
  8
0
  6
CONTINUOUS
 62
       7
100
AcDbLine
 10
178.50396236
 20
-77.50314129
 30
0.0
 11
158.01824807
 21
-77.50314129
 31
0.0
  0
LINE
  5
115
100
AcDbEntity
  8
0
  6
CONTINUOUS
 62
       7
100
AcDbLine
 10
177.50396236
 20
-66.017427
 30
0.0
 11
159.01824807
 21
-66.017427
 31
0.0
  0
LINE
  5
116
100
AcDbEntity
  8
0
  6
CONTINUOUS
 62
       7
100
AcDbLine
 10
158.01824807
 20
-78.50314129
 30
0.0
 11
158.01824807
 21
-77.50314129
 31
0.0
  0
LINE
  5
117
100
AcDbEntity
  8
0
  6
CONTINUOUS
 62
       7
100
AcDbLine
 10
159.01824807
 20
-77.50314129
 30
0.0
 11
159.01824807
 21
-66.017427
 31
0.0
  0
LINE
  5
118
100
AcDbEntity
  8
0
  6
CONTINUOUS
 62
       7
100
AcDbLine
 10
178.50396236
 20
-78.50314129
 30
0.0
 11
178.50396236
 21
-77.50314129
 31
0.0
  0
LINE
  5
119
100
AcDbEntity
  8
0
  6
CONTINUOUS
 62
       7
100
AcDbLine
 10
171.01824807
 20
-68.50314129
 30
0.0
 11
171.01824807
 21
-66.017427
 31
0.0
  0
LINE
  5
11A
100
AcDbEntity
  8
0
  6
CONTINUOUS
 62
       7
100
AcDbLine
 10
177.50396236
 20
-77.50314129
 30
0.0
 11
177.50396236
 21
-66.017427
 31
0.0
  0
LINE
  5
11B
100
AcDbEntity
  8
0
  6
CONTINUOUS
 62
       7
100
AcDbLine
 10
177.50396236
 20
-68.50314129
 30
0.0
 11
171.01824807
 21
-68.50314129
 31
0.0
  0
SPLINE
  5
11C
100
AcDbEntity
  8
0
  6
CONTINUOUS
 62
       7
100
AcDbSpline
210
0.0
220
0.0
230
1.0
 70
       0
 71
       3
 72
       0
 73
       0
 74
       3
 44
0.000001
 12
0.080208911207419
 22
0.9967780748807231
 32
0.0
 13
-0.9995887199999934
 23
0.0286773577718522
 33
0.0
 11
176.50396236084546
 21
-68.503141287851633
 31
0.0
 11
176.18967664646547
 21
-66.931712715951733
 31
0.0
 11
174.01824807438547
 21
-66.017427001391695
 31
0.0
  0
SPLINE
  5
11D
100
AcDbEntity
  8
0
  6
CONTINUOUS
 62
       7
100
AcDbSpline
210
0.0
220
0.0
230
1.0
 70
       0
 71
       3
 72
       0
 73
       0
 74
       3
 44
0.000001
 12
-0.0802089112074189
 22
0.9967780748807231
 32
0.0
 13
0.9995887199999934
 23
0.0286773577718516
 33
0.0
 11
171.50396235934548
 21
-68.503141287851633
 31
0.0
 11
171.81824807372547
 21
-66.931712715951733
 31
0.0
 11
174.01824807438547
 21
-66.017427001391695
 31
0.0
  0
LINE
  5
11E
100
AcDbEntity
  8
0
  6
CONTINUOUS
 62
       2
100
AcDbLine
 10
173.98967665
 20
-65.21990899
 30
0.0
 11
173.98967665
 21
-69.56018697
 31
0.0
  0
LINE
  5
11F
100
AcDbEntity
  8
0
  6
CONTINUOUS
 62
       2
100
AcDbLine
 10
182.06110445
 20
-106.00314129
 30
0.0
 11
174.46110598
 21
-106.00314129
 31
0.0
  0
LINE
  5
120
100
AcDbEntity
  8
0
  6
CONTINUOUS
 62
       7
100
AcDbLine
 10
14.26110522
 20
-152.20314129
 30
0.0
 11
14.26110522
 21
-121.50314129
 31
0.0
  0
LINE
  5
121
100
AcDbEntity
  8
0
  6
CONTINUOUS
 62
       7
100
AcDbLine
 10
-5.73889478
 20
-121.50314129
 30
0.0
 11
14.26110522
 21
-121.50314129
 31
0.0
  0
LINE
  5
122
100
AcDbEntity
  8
0
  6
CONTINUOUS
 62
       7
100
AcDbLine
 10
182.26110522
 20
-121.50314129
 30
0.0
 11
202.26110522
 21
-121.50314129
 31
0.0
  0
LINE
  5
123
100
AcDbEntity
  8
0
  6
CONTINUOUS
 62
       7
100
AcDbLine
 10
182.26110522
 20
-152.20314129
 30
0.0
 11
182.26110522
 21
-121.50314129
 31
0.0
  0
LINE
  5
124
100
AcDbEntity
  8
0
  6
CONTINUOUS
 62
       7
100
AcDbLine
 10
182.26110522
 20
-152.20314129
 30
0.0
 11
202.26110522
 21
-152.20314129
 31
0.0
  0
LINE
  5
125
100
AcDbEntity
  8
0
  6
CONTINUOUS
 62
       7
100
AcDbLine
 10
-5.73889478
 20
-152.20314129
 30
0.0
 11
14.26110522
 21
-152.20314129
 31
0.0
  0
LINE
  5
126
100
AcDbEntity
  8
0
  6
CONTINUOUS
 62
       7
100
AcDbLine
 10
182.26110522
 20
-149.00314129
 30
0.0
 11
202.26110522
 21
-149.00314129
 31
0.0
  0
LINE
  5
127
100
AcDbEntity
  8
0
  6
CONTINUOUS
 62
       7
100
AcDbLine
 10
-5.73889478
 20
-149.00314129
 30
0.0
 11
14.26110522
 21
-149.00314129
 31
0.0
  0
LINE
  5
128
100
AcDbEntity
  8
0
  6
CONTINUOUS
 62
       2
100
AcDbLine
 10
4.26110522
 20
-155.34209721
 30
0.0
 11
4.26110522
 21
-146.03786912
 31
0.0
  0
LINE
  5
129
100
AcDbEntity
  8
0
  6
CONTINUOUS
 62
       2
100
AcDbLine
 10
192.26110522
 20
-155.34209721
 30
0.0
 11
192.26110522
 21
-146.03786912
 31
0.0
  0
LINE
  5
12A
100
AcDbEntity
  8
0
  6
CONTINUOUS
 62
       2
100
AcDbLine
 10
-0.73889478
 20
-117.37135066
 30
0.0
 11
-0.73889478
 21
-123.12620743
 31
0.0
  0
LINE
  5
12B
100
AcDbEntity
  8
0
  6
CONTINUOUS
 62
       7
100
AcDbLine
 10
-4.23889478
 20
-120.80314129
 30
0.0
 11
2.76110522
 21
-120.80314129
 31
0.0
  0
ARC
  5
12C
100
AcDbEntity
  8
0
  6
CONTINUOUS
 62
       7
100
AcDbCircle
 10
-0.73889478
 20
-121.86892837
 30
0.0
 40
3.65867491
100
AcDbArc
 50
16.93604788
 51
163.06395212
  0
LINE
  5
12D
100
AcDbEntity
  8
0
  6
CONTINUOUS
 62
       7
100
AcDbLine
 10
-0.73889478
 20
-118.21025346
 30
0.0
 11
-2.21606495
 21
-119.68742363
 31
0.0
  0
LINE
  5
12E
100
AcDbEntity
  8
0
  6
CONTINUOUS
 62
       7
100
AcDbLine
 10
-0.73889478
 20
-118.21025346
 30
0.0
 11
0.73827538
 21
-119.68742363
 31
0.0
  0
LINE
  5
12F
100
AcDbEntity
  8
0
  6
CONTINUOUS
 62
       7
100
AcDbLine
 10
-4.23889478
 20
-121.50314129
 30
0.0
 11
-4.23889478
 21
-120.80314129
 31
0.0
  0
LINE
  5
130
100
AcDbEntity
  8
0
  6
CONTINUOUS
 62
       7
100
AcDbLine
 10
2.76110522
 20
-121.50314129
 30
0.0
 11
2.76110522
 21
-120.80314129
 31
0.0
  0
LINE
  5
131
100
AcDbEntity
  8
0
  6
CONTINUOUS
 62
       2
100
AcDbLine
 10
9.26110522
 20
-117.37135066
 30
0.0
 11
9.26110522
 21
-123.12620743
 31
0.0
  0
LINE
  5
132
100
AcDbEntity
  8
0
  6
CONTINUOUS
 62
       7
100
AcDbLine
 10
5.76110522
 20
-120.80314129
 30
0.0
 11
12.76110522
 21
-120.80314129
 31
0.0
  0
ARC
  5
133
100
AcDbEntity
  8
0
  6
CONTINUOUS
 62
       7
100
AcDbCircle
 10
9.26110522
 20
-121.86892837
 30
0.0
 40
3.65867491
100
AcDbArc
 50
16.93604788
 51
163.06395212
  0
LINE
  5
134
100
AcDbEntity
  8
0
  6
CONTINUOUS
 62
       7
100
AcDbLine
 10
9.26110522
 20
-118.21025346
 30
0.0
 11
7.78393505
 21
-119.68742363
 31
0.0
  0
LINE
  5
135
100
AcDbEntity
  8
0
  6
CONTINUOUS
 62
       7
100
AcDbLine
 10
9.26110522
 20
-118.21025346
 30
0.0
 11
10.73827538
 21
-119.68742363
 31
0.0
  0
LINE
  5
136
100
AcDbEntity
  8
0
  6
CONTINUOUS
 62
       7
100
AcDbLine
 10
5.76110522
 20
-121.50314129
 30
0.0
 11
5.76110522
 21
-120.80314129
 31
0.0
  0
LINE
  5
137
100
AcDbEntity
  8
0
  6
CONTINUOUS
 62
       7
100
AcDbLine
 10
12.76110522
 20
-121.50314129
 30
0.0
 11
12.76110522
 21
-120.80314129
 31
0.0
  0
LINE
  5
138
100
AcDbEntity
  8
0
  6
CONTINUOUS
 62
       2
100
AcDbLine
 10
187.26110522
 20
-117.37135066
 30
0.0
 11
187.26110522
 21
-123.12620743
 31
0.0
  0
LINE
  5
139
100
AcDbEntity
  8
0
  6
CONTINUOUS
 62
       7
100
AcDbLine
 10
183.76110522
 20
-120.80314129
 30
0.0
 11
190.76110522
 21
-120.80314129
 31
0.0
  0
ARC
  5
13A
100
AcDbEntity
  8
0
  6
CONTINUOUS
 62
       7
100
AcDbCircle
 10
187.26110522
 20
-121.86892837
 30
0.0
 40
3.65867491
100
AcDbArc
 50
16.93604788
 51
163.06395212
  0
LINE
  5
13B
100
AcDbEntity
  8
0
  6
CONTINUOUS
 62
       7
100
AcDbLine
 10
187.26110522
 20
-118.21025346
 30
0.0
 11
185.78393505
 21
-119.68742363
 31
0.0
  0
LINE
  5
13C
100
AcDbEntity
  8
0
  6
CONTINUOUS
 62
       7
100
AcDbLine
 10
187.26110522
 20
-118.21025346
 30
0.0
 11
188.73827538
 21
-119.68742363
 31
0.0
  0
LINE
  5
13D
100
AcDbEntity
  8
0
  6
CONTINUOUS
 62
       7
100
AcDbLine
 10
183.76110522
 20
-121.50314129
 30
0.0
 11
183.76110522
 21
-120.80314129
 31
0.0
  0
LINE
  5
13E
100
AcDbEntity
  8
0
  6
CONTINUOUS
 62
       7
100
AcDbLine
 10
190.76110522
 20
-121.50314129
 30
0.0
 11
190.76110522
 21
-120.80314129
 31
0.0
  0
LINE
  5
13F
100
AcDbEntity
  8
0
  6
CONTINUOUS
 62
       2
100
AcDbLine
 10
197.26110522
 20
-117.37135066
 30
0.0
 11
197.26110522
 21
-123.12620743
 31
0.0
  0
LINE
  5
140
100
AcDbEntity
  8
0
  6
CONTINUOUS
 62
       7
100
AcDbLine
 10
193.76110522
 20
-120.80314129
 30
0.0
 11
200.76110522
 21
-120.80314129
 31
0.0
  0
ARC
  5
141
100
AcDbEntity
  8
0
  6
CONTINUOUS
 62
       7
100
AcDbCircle
 10
197.26110522
 20
-121.86892837
 30
0.0
 40
3.65867491
100
AcDbArc
 50
16.93604788
 51
163.06395212
  0
LINE
  5
142
100
AcDbEntity
  8
0
  6
CONTINUOUS
 62
       7
100
AcDbLine
 10
197.26110522
 20
-118.21025346
 30
0.0
 11
195.78393505
 21
-119.68742363
 31
0.0
  0
LINE
  5
143
100
AcDbEntity
  8
0
  6
CONTINUOUS
 62
       7
100
AcDbLine
 10
197.26110522
 20
-118.21025346
 30
0.0
 11
198.73827538
 21
-119.68742363
 31
0.0
  0
LINE
  5
144
100
AcDbEntity
  8
0
  6
CONTINUOUS
 62
       7
100
AcDbLine
 10
193.76110522
 20
-121.50314129
 30
0.0
 11
193.76110522
 21
-120.80314129
 31
0.0
  0
LINE
  5
145
100
AcDbEntity
  8
0
  6
CONTINUOUS
 62
       7
100
AcDbLine
 10
200.76110522
 20
-121.50314129
 30
0.0
 11
200.76110522
 21
-120.80314129
 31
0.0
  0
LINE
  5
146
100
AcDbEntity
  8
0
  6
CONTINUOUS
 62
       2
100
AcDbLine
 10
197.26110522
 20
19.99347257
 30
0.0
 11
197.26110522
 21
26.04064806
 31
0.0
  0
LINE
  5
147
100
AcDbEntity
  8
0
  6
CONTINUOUS
 62
       2
100
AcDbLine
 10
200.29059187
 20
22.96618407
 30
0.0
 11
194.3394033
 21
22.96618407
 31
0.0
  0
LINE
  5
148
100
AcDbEntity
  8
0
  6
CONTINUOUS
 62
       2
100
AcDbLine
 10
190.30795297
 20
34.96618407
 30
0.0
 11
183.71215211
 21
34.96618407
 31
0.0
  0
LINE
  5
149
100
AcDbEntity
  8
0
  6
CONTINUOUS
 62
       2
100
AcDbLine
 10
187.26110522
 20
31.60788899
 30
0.0
 11
187.26110522
 21
38.13499904
 31
0.0
  0
ARC
  5
14A
100
AcDbEntity
  8
0
  6
CONTINUOUS
 62
       7
100
AcDbCircle
 10
183.26110522
 20
-5.01381593
 30
0.0
 40
1.0
100
AcDbArc
 50
180.0
 51
270.0
  0
ARC
  5
14B
100
AcDbEntity
  8
0
  6
CONTINUOUS
 62
       7
100
AcDbCircle
 10
201.26110522
 20
-5.01381593
 30
0.0
 40
1.0
100
AcDbArc
 50
270.0
 51
0.0
  0
ARC
  5
14C
100
AcDbEntity
  8
0
  6
CONTINUOUS
 62
       7
100
AcDbCircle
 10
201.26110522
 20
62.96618407
 30
0.0
 40
1.0
100
AcDbArc
 50
0.0
 51
90.0
  0
ARC
  5
14D
100
AcDbEntity
  8
0
  6
CONTINUOUS
 62
       7
100
AcDbCircle
 10
183.26110522
 20
62.96618407
 30
0.0
 40
1.0
100
AcDbArc
 50
90.0
 51
180.0
  0
ARC
  5
14E
100
AcDbEntity
  8
0
  6
CONTINUOUS
 62
       7
100
AcDbCircle
 10
13.26110522
 20
-5.01381593
 30
0.0
 40
1.0
100
AcDbArc
 50
270.0
 51
0.0
  0
ARC
  5
14F
100
AcDbEntity
  8
0
  6
CONTINUOUS
 62
       7
100
AcDbCircle
 10
13.26110522
 20
62.96618407
 30
0.0
 40
1.0
100
AcDbArc
 50
0.0
 51
90.0
  0
ARC
  5
150
100
AcDbEntity
  8
0
  6
CONTINUOUS
 62
       7
100
AcDbCircle
 10
-4.73889478
 20
-5.01381593
 30
0.0
 40
1.0
100
AcDbArc
 50
180.0
 51
270.0
  0
ARC
  5
151
100
AcDbEntity
  8
0
  6
CONTINUOUS
 62
       7
100
AcDbCircle
 10
-4.73889478
 20
62.96618407
 30
0.0
 40
1.0
100
AcDbArc
 50
90.0
 51
180.0
  0
CIRCLE
  5
152
100
AcDbEntity
  8
0
  6
CONTINUOUS
 62
       7
100
AcDbCircle
 10
4.27109911
 20
54.97604369
 30
0.0
 40
2.75
  0
CIRCLE
  5
153
100
AcDbEntity
  8
0
  6
CONTINUOUS
 62
       7
100
AcDbCircle
 10
4.27109911
 20
2.97605895
 30
0.0
 40
2.75
  0
CIRCLE
  5
154
100
AcDbEntity
  8
0
  6
CONTINUOUS
 62
       7
100
AcDbCircle
 10
192.27109911
 20
2.97605895
 30
0.0
 40
2.75
  0
CIRCLE
  5
155
100
AcDbEntity
  8
0
  6
CONTINUOUS
 62
       7
100
AcDbCircle
 10
192.27109911
 20
54.97604369
 30
0.0
 40
2.75
  0
LINE
  5
156
100
AcDbEntity
  8
0
  6
CONTINUOUS
 62
       2
100
AcDbLine
 10
-0.13889478
 20
54.96618407
 30
0.0
 11
8.46110522
 21
54.96618407
 31
0.0
  0
LINE
  5
157
100
AcDbEntity
  8
0
  6
CONTINUOUS
 62
       2
100
AcDbLine
 10
0.46110522
 20
2.96618407
 30
0.0
 11
8.26110522
 21
2.96618407
 31
0.0
  0
LINE
  5
158
100
AcDbEntity
  8
0
  6
CONTINUOUS
 62
       2
100
AcDbLine
 10
4.26110522
 20
59.22618407
 30
0.0
 11
4.26110522
 21
-1.71381593
 31
0.0
  0
LINE
  5
159
100
AcDbEntity
  8
0
  6
CONTINUOUS
 62
       2
100
AcDbLine
 10
187.86110522
 20
54.96618407
 30
0.0
 11
196.46110522
 21
54.96618407
 31
0.0
  0
LINE
  5
15A
100
AcDbEntity
  8
0
  6
CONTINUOUS
 62
       2
100
AcDbLine
 10
188.46110522
 20
2.96618407
 30
0.0
 11
196.26110522
 21
2.96618407
 31
0.0
  0
LINE
  5
15B
100
AcDbEntity
  8
0
  6
CONTINUOUS
 62
       2
100
AcDbLine
 10
192.26110522
 20
59.22618407
 30
0.0
 11
192.26110522
 21
-1.71381593
 31
0.0
  0
LINE
  5
15C
100
AcDbEntity
  8
0
  6
CONTINUOUS
 62
       7
100
AcDbLine
 10
183.26110522
 20
63.96618407
 30
0.0
 11
201.26110522
 21
63.96618407
 31
0.0
  0
LINE
  5
15D
100
AcDbEntity
  8
0
  6
CONTINUOUS
 62
       7
100
AcDbLine
 10
183.26110522
 20
-6.01381593
 30
0.0
 11
201.26110522
 21
-6.01381593
 31
0.0
  0
LINE
  5
15E
100
AcDbEntity
  8
0
  6
CONTINUOUS
 62
       7
100
AcDbLine
 10
182.26110522
 20
-5.01381593
 30
0.0
 11
182.26110522
 21
62.96618407
 31
0.0
  0
LINE
  5
15F
100
AcDbEntity
  8
0
  6
CONTINUOUS
 62
       7
100
AcDbLine
 10
202.26110522
 20
62.96618407
 30
0.0
 11
202.26110522
 21
-5.01381593
 31
0.0
  0
LINE
  5
160
100
AcDbEntity
  8
0
  6
CONTINUOUS
 62
       2
100
AcDbLine
 10
2.30795297
 20
34.96618407
 30
0.0
 11
-3.83520943
 21
34.96618407
 31
0.0
  0
LINE
  5
161
100
AcDbEntity
  8
0
  6
CONTINUOUS
 62
       2
100
AcDbLine
 10
-0.73889478
 20
31.60788899
 30
0.0
 11
-0.73889478
 21
38.13499904
 31
0.0
  0
LINE
  5
162
100
AcDbEntity
  8
0
  6
CONTINUOUS
 62
       7
100
AcDbLine
 10
-4.73889478
 20
63.96618407
 30
0.0
 11
13.26110522
 21
63.96618407
 31
0.0
  0
LINE
  5
163
100
AcDbEntity
  8
0
  6
CONTINUOUS
 62
       7
100
AcDbLine
 10
-4.73889478
 20
-6.01381593
 30
0.0
 11
13.26110522
 21
-6.01381593
 31
0.0
  0
LINE
  5
164
100
AcDbEntity
  8
0
  6
CONTINUOUS
 62
       7
100
AcDbLine
 10
-5.73889478
 20
62.96618407
 30
0.0
 11
-5.73889478
 21
-5.01381593
 31
0.0
  0
LINE
  5
165
100
AcDbEntity
  8
0
  6
CONTINUOUS
 62
       2
100
AcDbLine
 10
-8.11889478
 20
28.96618407
 30
0.0
 11
204.04110522
 21
28.96618407
 31
0.0
  0
LINE
  5
166
100
AcDbEntity
  8
0
  6
CONTINUOUS
 62
       7
100
AcDbLine
 10
14.26110522
 20
-5.01381593
 30
0.0
 11
14.26110522
 21
62.96618407
 31
0.0
  0
LINE
  5
167
100
AcDbEntity
  8
0
  6
CONTINUOUS
 62
       2
100
AcDbLine
 10
12.29059187
 20
22.96618407
 30
0.0
 11
6.3394033
 21
22.96618407
 31
0.0
  0
LINE
  5
168
100
AcDbEntity
  8
0
  6
CONTINUOUS
 62
       2
100
AcDbLine
 10
9.26110522
 20
19.99347257
 30
0.0
 11
9.26110522
 21
26.04064806
 31
0.0
  0
LINE
  5
169
100
AcDbEntity
  8
0
  6
CONTINUOUS
 62
       2
100
AcDbLine
 10
-143.21889478
 20
37.94618407
 30
0.0
 11
-143.21889478
 21
19.78618407
 31
0.0
  0
LINE
  5
16A
100
AcDbEntity
  8
0
  6
CONTINUOUS
 62
       2
100
AcDbLine
 10
-158.49112796
 20
28.96618407
 30
0.0
 11
-124.98639582
 21
28.96618407
 31
0.0
  0
LINE
  5
16B
100
AcDbEntity
  8
0
  6
CONTINUOUS
 62
       7
100
AcDbLine
 10
180.20110522
 20
25.40618407
 30
0.0
 11
177.18110522
 21
22.38618407
 31
0.0
  0
LINE
  5
16C
100
AcDbEntity
  8
0
  6
CONTINUOUS
 62
       7
100
AcDbLine
 10
180.22110522
 20
22.50618407
 30
0.0
 11
177.34110522
 21
25.38618407
 31
0.0
  0
CIRCLE
  5
16D
100
AcDbEntity
  8
0
  6
CONTINUOUS
 62
       7
100
AcDbCircle
 10
178.75111132
 20
23.85620238
 30
0.0
 40
3.0
  0
ARC
  5
16E
100
AcDbEntity
  8
0
  6
CONTINUOUS
 62
       7
100
AcDbCircle
 10
178.75110196
 20
23.86618407
 30
0.0
 40
4.00371322
100
AcDbArc
 50
41.25320623
 51
318.74679377
  0
LINE
  5
16F
100
AcDbEntity
  8
0
  6
CONTINUOUS
 62
       2
100
AcDbLine
 10
173.90110522
 20
23.96618407
 30
0.0
 11
183.14110522
 21
23.96618407
 31
0.0
  0
LINE
  5
170
100
AcDbEntity
  8
0
  6
CONTINUOUS
 62
       2
100
AcDbLine
 10
168.26110522
 20
7.00929289
 30
0.0
 11
168.26110522
 21
110.79356861
 31
0.0
  0
LINE
  5
171
100
AcDbEntity
  8
0
  6
CONTINUOUS
 62
       2
100
AcDbLine
 10
157.76110522
 20
39.24618407
 30
0.0
 11
157.76110522
 21
29.26618407
 31
0.0
  0
LINE
  5
172
100
AcDbEntity
  8
0
  6
CONTINUOUS
 62
       7
100
AcDbLine
 10
159.20110522
 20
35.40618407
 30
0.0
 11
156.18110522
 21
32.38618407
 31
0.0
  0
LINE
  5
173
100
AcDbEntity
  8
0
  6
CONTINUOUS
 62
       2
100
AcDbLine
 10
162.82110522
 20
33.96618407
 30
0.0
 11
153.68110522
 21
33.96618407
 31
0.0
  0
ARC
  5
174
100
AcDbEntity
  8
0
  6
CONTINUOUS
 62
       7
100
AcDbCircle
 10
157.75846001
 20
33.95341268
 30
0.0
 40
4.00266558
100
AcDbArc
 50
0.1828151
 51
138.48996663
  0
ARC
  5
175
100
AcDbEntity
  8
0
  6
CONTINUOUS
 62
       7
100
AcDbCircle
 10
157.76505909
 20
33.96145788
 30
0.0
 40
3.99604892
100
AcDbArc
 50
221.25945368
 51
0.06776459
  0
CIRCLE
  5
176
100
AcDbEntity
  8
0
  6
CONTINUOUS
 62
       7
100
AcDbCircle
 10
157.7510808
 20
33.95630156
 30
0.0
 40
3.0
  0
LINE
  5
177
100
AcDbEntity
  8
0
  6
CONTINUOUS
 62
       7
100
AcDbLine
 10
159.22110522
 20
32.50618407
 30
0.0
 11
156.34110522
 21
35.38618407
 31
0.0
  0
LINE
  5
178
100
AcDbEntity
  8
0
  6
CONTINUOUS
 62
       2
100
AcDbLine
 10
178.76110522
 20
28.72618407
 30
0.0
 11
178.76110522
 21
19.20618407
 31
0.0
  0
LINE
  5
179
100
AcDbEntity
  8
0
  6
CONTINUOUS
 62
       7
100
AcDbLine
 10
152.20110522
 20
25.40618407
 30
0.0
 11
149.18110522
 21
22.38618407
 31
0.0
  0
LINE
  5
17A
100
AcDbEntity
  8
0
  6
CONTINUOUS
 62
       7
100
AcDbLine
 10
152.22110522
 20
22.50618407
 30
0.0
 11
149.34110522
 21
25.38618407
 31
0.0
  0
CIRCLE
  5
17B
100
AcDbEntity
  8
0
  6
CONTINUOUS
 62
       7
100
AcDbCircle
 10
150.75111132
 20
23.85620238
 30
0.0
 40
3.0
  0
ARC
  5
17C
100
AcDbEntity
  8
0
  6
CONTINUOUS
 62
       7
100
AcDbCircle
 10
150.75110196
 20
23.86618407
 30
0.0
 40
4.00371322
100
AcDbArc
 50
41.25320623
 51
318.74679377
  0
LINE
  5
17D
100
AcDbEntity
  8
0
  6
CONTINUOUS
 62
       2
100
AcDbLine
 10
140.26110522
 20
7.00929289
 30
0.0
 11
140.26110522
 21
110.79356861
 31
0.0
  0
LINE
  5
17E
100
AcDbEntity
  8
0
  6
CONTINUOUS
 62
       2
100
AcDbLine
 10
129.76110522
 20
39.24618407
 30
0.0
 11
129.76110522
 21
29.26618407
 31
0.0
  0
LINE
  5
17F
100
AcDbEntity
  8
0
  6
CONTINUOUS
 62
       7
100
AcDbLine
 10
131.20110522
 20
35.40618407
 30
0.0
 11
128.18110522
 21
32.38618407
 31
0.0
  0
LINE
  5
180
100
AcDbEntity
  8
0
  6
CONTINUOUS
 62
       2
100
AcDbLine
 10
134.82110522
 20
33.96618407
 30
0.0
 11
125.68110522
 21
33.96618407
 31
0.0
  0
ARC
  5
181
100
AcDbEntity
  8
0
  6
CONTINUOUS
 62
       7
100
AcDbCircle
 10
129.75846001
 20
33.95341268
 30
0.0
 40
4.00266558
100
AcDbArc
 50
0.1828151
 51
138.48996663
  0
ARC
  5
182
100
AcDbEntity
  8
0
  6
CONTINUOUS
 62
       7
100
AcDbCircle
 10
129.76505909
 20
33.96145788
 30
0.0
 40
3.99604892
100
AcDbArc
 50
221.25945368
 51
0.06776459
  0
CIRCLE
  5
183
100
AcDbEntity
  8
0
  6
CONTINUOUS
 62
       7
100
AcDbCircle
 10
129.7510808
 20
33.95630156
 30
0.0
 40
3.0
  0
LINE
  5
184
100
AcDbEntity
  8
0
  6
CONTINUOUS
 62
       7
100
AcDbLine
 10
131.22110522
 20
32.50618407
 30
0.0
 11
128.34110522
 21
35.38618407
 31
0.0
  0
LINE
  5
185
100
AcDbEntity
  8
0
  6
CONTINUOUS
 62
       2
100
AcDbLine
 10
150.76110522
 20
28.72618407
 30
0.0
 11
150.76110522
 21
19.20618407
 31
0.0
  0
LINE
  5
186
100
AcDbEntity
  8
0
  6
CONTINUOUS
 62
       7
100
AcDbLine
 10
124.20110522
 20
25.40618407
 30
0.0
 11
121.18110522
 21
22.38618407
 31
0.0
  0
LINE
  5
187
100
AcDbEntity
  8
0
  6
CONTINUOUS
 62
       7
100
AcDbLine
 10
124.22110522
 20
22.50618407
 30
0.0
 11
121.34110522
 21
25.38618407
 31
0.0
  0
CIRCLE
  5
188
100
AcDbEntity
  8
0
  6
CONTINUOUS
 62
       7
100
AcDbCircle
 10
122.75111132
 20
23.85620238
 30
0.0
 40
3.0
  0
ARC
  5
189
100
AcDbEntity
  8
0
  6
CONTINUOUS
 62
       7
100
AcDbCircle
 10
122.75110196
 20
23.86618407
 30
0.0
 40
4.00371322
100
AcDbArc
 50
41.25320623
 51
318.74679377
  0
LINE
  5
18A
100
AcDbEntity
  8
0
  6
CONTINUOUS
 62
       2
100
AcDbLine
 10
117.90110522
 20
23.96618407
 30
0.0
 11
127.14110522
 21
23.96618407
 31
0.0
  0
LINE
  5
18B
100
AcDbEntity
  8
0
  6
CONTINUOUS
 62
       2
100
AcDbLine
 10
112.26110522
 20
7.00929289
 30
0.0
 11
112.26110522
 21
110.79356861
 31
0.0
  0
LINE
  5
18C
100
AcDbEntity
  8
0
  6
CONTINUOUS
 62
       2
100
AcDbLine
 10
101.76110522
 20
39.24618407
 30
0.0
 11
101.76110522
 21
29.26618407
 31
0.0
  0
LINE
  5
18D
100
AcDbEntity
  8
0
  6
CONTINUOUS
 62
       7
100
AcDbLine
 10
103.20110522
 20
35.40618407
 30
0.0
 11
100.18110522
 21
32.38618407
 31
0.0
  0
LINE
  5
18E
100
AcDbEntity
  8
0
  6
CONTINUOUS
 62
       2
100
AcDbLine
 10
106.82110522
 20
33.96618407
 30
0.0
 11
97.68110522
 21
33.96618407
 31
0.0
  0
ARC
  5
18F
100
AcDbEntity
  8
0
  6
CONTINUOUS
 62
       7
100
AcDbCircle
 10
101.75846001
 20
33.95341268
 30
0.0
 40
4.00266558
100
AcDbArc
 50
0.1828151
 51
138.48996663
  0
ARC
  5
190
100
AcDbEntity
  8
0
  6
CONTINUOUS
 62
       7
100
AcDbCircle
 10
101.76505909
 20
33.96145788
 30
0.0
 40
3.99604892
100
AcDbArc
 50
221.25945368
 51
0.06776459
  0
CIRCLE
  5
191
100
AcDbEntity
  8
0
  6
CONTINUOUS
 62
       7
100
AcDbCircle
 10
101.7510808
 20
33.95630156
 30
0.0
 40
3.0
  0
LINE
  5
192
100
AcDbEntity
  8
0
  6
CONTINUOUS
 62
       7
100
AcDbLine
 10
103.22110522
 20
32.50618407
 30
0.0
 11
100.34110522
 21
35.38618407
 31
0.0
  0
LINE
  5
193
100
AcDbEntity
  8
0
  6
CONTINUOUS
 62
       2
100
AcDbLine
 10
122.76110522
 20
28.72618407
 30
0.0
 11
122.76110522
 21
19.20618407
 31
0.0
  0
LINE
  5
194
100
AcDbEntity
  8
0
  6
CONTINUOUS
 62
       7
100
AcDbLine
 10
96.20110522
 20
25.40618407
 30
0.0
 11
93.18110522
 21
22.38618407
 31
0.0
  0
LINE
  5
195
100
AcDbEntity
  8
0
  6
CONTINUOUS
 62
       7
100
AcDbLine
 10
96.22110522
 20
22.50618407
 30
0.0
 11
93.34110522
 21
25.38618407
 31
0.0
  0
CIRCLE
  5
196
100
AcDbEntity
  8
0
  6
CONTINUOUS
 62
       7
100
AcDbCircle
 10
94.75111132
 20
23.85620238
 30
0.0
 40
3.0
  0
ARC
  5
197
100
AcDbEntity
  8
0
  6
CONTINUOUS
 62
       7
100
AcDbCircle
 10
94.75110196
 20
23.86618407
 30
0.0
 40
4.00371322
100
AcDbArc
 50
41.25320623
 51
318.74679377
  0
LINE
  5
198
100
AcDbEntity
  8
0
  6
CONTINUOUS
 62
       2
100
AcDbLine
 10
89.90110522
 20
23.96618407
 30
0.0
 11
99.14110522
 21
23.96618407
 31
0.0
  0
LINE
  5
199
100
AcDbEntity
  8
0
  6
CONTINUOUS
 62
       2
100
AcDbLine
 10
84.26110522
 20
7.00929289
 30
0.0
 11
84.26110522
 21
110.79356861
 31
0.0
  0
LINE
  5
19A
100
AcDbEntity
  8
0
  6
CONTINUOUS
 62
       2
100
AcDbLine
 10
73.76110522
 20
39.24618407
 30
0.0
 11
73.76110522
 21
29.26618407
 31
0.0
  0
LINE
  5
19B
100
AcDbEntity
  8
0
  6
CONTINUOUS
 62
       7
100
AcDbLine
 10
75.20110522
 20
35.40618407
 30
0.0
 11
72.18110522
 21
32.38618407
 31
0.0
  0
LINE
  5
19C
100
AcDbEntity
  8
0
  6
CONTINUOUS
 62
       2
100
AcDbLine
 10
78.82110522
 20
33.96618407
 30
0.0
 11
69.68110522
 21
33.96618407
 31
0.0
  0
ARC
  5
19D
100
AcDbEntity
  8
0
  6
CONTINUOUS
 62
       7
100
AcDbCircle
 10
73.75846001
 20
33.95341268
 30
0.0
 40
4.00266558
100
AcDbArc
 50
0.1828151
 51
138.48996663
  0
ARC
  5
19E
100
AcDbEntity
  8
0
  6
CONTINUOUS
 62
       7
100
AcDbCircle
 10
73.76505909
 20
33.96145788
 30
0.0
 40
3.99604892
100
AcDbArc
 50
221.25945368
 51
0.06776459
  0
CIRCLE
  5
19F
100
AcDbEntity
  8
0
  6
CONTINUOUS
 62
       7
100
AcDbCircle
 10
73.7510808
 20
33.95630156
 30
0.0
 40
3.0
  0
LINE
  5
1A0
100
AcDbEntity
  8
0
  6
CONTINUOUS
 62
       7
100
AcDbLine
 10
75.22110522
 20
32.50618407
 30
0.0
 11
72.34110522
 21
35.38618407
 31
0.0
  0
LINE
  5
1A1
100
AcDbEntity
  8
0
  6
CONTINUOUS
 62
       2
100
AcDbLine
 10
94.76110522
 20
28.72618407
 30
0.0
 11
94.76110522
 21
19.20618407
 31
0.0
  0
LINE
  5
1A2
100
AcDbEntity
  8
0
  6
CONTINUOUS
 62
       7
100
AcDbLine
 10
68.20110522
 20
25.40618407
 30
0.0
 11
65.18110522
 21
22.38618407
 31
0.0
  0
LINE
  5
1A3
100
AcDbEntity
  8
0
  6
CONTINUOUS
 62
       7
100
AcDbLine
 10
68.22110522
 20
22.50618407
 30
0.0
 11
65.34110522
 21
25.38618407
 31
0.0
  0
CIRCLE
  5
1A4
100
AcDbEntity
  8
0
  6
CONTINUOUS
 62
       7
100
AcDbCircle
 10
66.75111132
 20
23.85620238
 30
0.0
 40
3.0
  0
ARC
  5
1A5
100
AcDbEntity
  8
0
  6
CONTINUOUS
 62
       7
100
AcDbCircle
 10
66.75110196
 20
23.86618407
 30
0.0
 40
4.00371322
100
AcDbArc
 50
41.25320623
 51
318.74679377
  0
LINE
  5
1A6
100
AcDbEntity
  8
0
  6
CONTINUOUS
 62
       2
100
AcDbLine
 10
61.90110522
 20
23.96618407
 30
0.0
 11
71.14110522
 21
23.96618407
 31
0.0
  0
LINE
  5
1A7
100
AcDbEntity
  8
0
  6
CONTINUOUS
 62
       2
100
AcDbLine
 10
56.26110522
 20
7.00929289
 30
0.0
 11
56.26110522
 21
110.79356861
 31
0.0
  0
LINE
  5
1A8
100
AcDbEntity
  8
0
  6
CONTINUOUS
 62
       2
100
AcDbLine
 10
45.76110522
 20
39.24618407
 30
0.0
 11
45.76110522
 21
29.26618407
 31
0.0
  0
LINE
  5
1A9
100
AcDbEntity
  8
0
  6
CONTINUOUS
 62
       7
100
AcDbLine
 10
47.20110522
 20
35.40618407
 30
0.0
 11
44.18110522
 21
32.38618407
 31
0.0
  0
LINE
  5
1AA
100
AcDbEntity
  8
0
  6
CONTINUOUS
 62
       2
100
AcDbLine
 10
50.82110522
 20
33.96618407
 30
0.0
 11
41.68110522
 21
33.96618407
 31
0.0
  0
ARC
  5
1AB
100
AcDbEntity
  8
0
  6
CONTINUOUS
 62
       7
100
AcDbCircle
 10
45.75846001
 20
33.95341268
 30
0.0
 40
4.00266558
100
AcDbArc
 50
0.1828151
 51
138.48996663
  0
ARC
  5
1AC
100
AcDbEntity
  8
0
  6
CONTINUOUS
 62
       7
100
AcDbCircle
 10
45.76505909
 20
33.96145788
 30
0.0
 40
3.99604892
100
AcDbArc
 50
221.25945368
 51
0.06776459
  0
CIRCLE
  5
1AD
100
AcDbEntity
  8
0
  6
CONTINUOUS
 62
       7
100
AcDbCircle
 10
45.7510808
 20
33.95630156
 30
0.0
 40
3.0
  0
LINE
  5
1AE
100
AcDbEntity
  8
0
  6
CONTINUOUS
 62
       7
100
AcDbLine
 10
47.22110522
 20
32.50618407
 30
0.0
 11
44.34110522
 21
35.38618407
 31
0.0
  0
LINE
  5
1AF
100
AcDbEntity
  8
0
  6
CONTINUOUS
 62
       2
100
AcDbLine
 10
66.76110522
 20
28.72618407
 30
0.0
 11
66.76110522
 21
19.20618407
 31
0.0
  0
LINE
  5
1B0
100
AcDbEntity
  8
0
  6
CONTINUOUS
 62
       7
100
AcDbLine
 10
40.20110522
 20
25.40618407
 30
0.0
 11
37.18110522
 21
22.38618407
 31
0.0
  0
LINE
  5
1B1
100
AcDbEntity
  8
0
  6
CONTINUOUS
 62
       7
100
AcDbLine
 10
40.22110522
 20
22.50618407
 30
0.0
 11
37.34110522
 21
25.38618407
 31
0.0
  0
CIRCLE
  5
1B2
100
AcDbEntity
  8
0
  6
CONTINUOUS
 62
       7
100
AcDbCircle
 10
38.75111132
 20
23.85620238
 30
0.0
 40
3.0
  0
ARC
  5
1B3
100
AcDbEntity
  8
0
  6
CONTINUOUS
 62
       7
100
AcDbCircle
 10
38.75110196
 20
23.86618407
 30
0.0
 40
4.00371322
100
AcDbArc
 50
41.25320623
 51
318.74679377
  0
LINE
  5
1B4
100
AcDbEntity
  8
0
  6
CONTINUOUS
 62
       2
100
AcDbLine
 10
33.90110522
 20
23.96618407
 30
0.0
 11
43.14110522
 21
23.96618407
 31
0.0
  0
LINE
  5
1B5
100
AcDbEntity
  8
0
  6
CONTINUOUS
 62
       2
100
AcDbLine
 10
28.26110522
 20
7.00929289
 30
0.0
 11
28.26110522
 21
110.79356861
 31
0.0
  0
LINE
  5
1B6
100
AcDbEntity
  8
0
  6
CONTINUOUS
 62
       2
100
AcDbLine
 10
17.76110522
 20
39.24618407
 30
0.0
 11
17.76110522
 21
29.26618407
 31
0.0
  0
LINE
  5
1B7
100
AcDbEntity
  8
0
  6
CONTINUOUS
 62
       7
100
AcDbLine
 10
19.20110522
 20
35.40618407
 30
0.0
 11
16.18110522
 21
32.38618407
 31
0.0
  0
LINE
  5
1B8
100
AcDbEntity
  8
0
  6
CONTINUOUS
 62
       2
100
AcDbLine
 10
22.82110522
 20
33.96618407
 30
0.0
 11
13.68110522
 21
33.96618407
 31
0.0
  0
ARC
  5
1B9
100
AcDbEntity
  8
0
  6
CONTINUOUS
 62
       7
100
AcDbCircle
 10
17.75846001
 20
33.95341268
 30
0.0
 40
4.00266558
100
AcDbArc
 50
0.1828151
 51
138.48996663
  0
ARC
  5
1BA
100
AcDbEntity
  8
0
  6
CONTINUOUS
 62
       7
100
AcDbCircle
 10
17.76505909
 20
33.96145788
 30
0.0
 40
3.99604892
100
AcDbArc
 50
221.25945368
 51
0.06776459
  0
CIRCLE
  5
1BB
100
AcDbEntity
  8
0
  6
CONTINUOUS
 62
       7
100
AcDbCircle
 10
17.7510808
 20
33.95630156
 30
0.0
 40
3.0
  0
LINE
  5
1BC
100
AcDbEntity
  8
0
  6
CONTINUOUS
 62
       7
100
AcDbLine
 10
19.22110522
 20
32.50618407
 30
0.0
 11
16.34110522
 21
35.38618407
 31
0.0
  0
LINE
  5
1BD
100
AcDbEntity
  8
0
  6
CONTINUOUS
 62
       2
100
AcDbLine
 10
38.76110522
 20
28.72618407
 30
0.0
 11
38.76110522
 21
19.20618407
 31
0.0
  0
LINE
  5
1BE
100
AcDbEntity
  8
0
  6
CONTINUOUS
 62
       7
100
AcDbLine
 10
14.26110522
 20
18.46618407
 30
0.0
 11
14.76110522
 21
18.36618407
 31
0.0
  0
LINE
  5
1BF
100
AcDbEntity
  8
0
  6
CONTINUOUS
 62
       7
100
AcDbLine
 10
14.26110522
 20
39.46618407
 30
0.0
 11
14.76110522
 21
39.46618407
 31
0.0
  0
LINE
  5
1C0
100
AcDbEntity
  8
0
  6
CONTINUOUS
 62
       7
100
AcDbLine
 10
41.76110522
 20
39.46618407
 30
0.0
 11
42.76110522
 21
39.46618407
 31
0.0
  0
LINE
  5
1C1
100
AcDbEntity
  8
0
  6
CONTINUOUS
 62
       7
100
AcDbLine
 10
41.76110522
 20
18.36618407
 30
0.0
 11
42.76110522
 21
18.36618407
 31
0.0
  0
LINE
  5
1C2
100
AcDbEntity
  8
0
  6
CONTINUOUS
 62
       7
100
AcDbLine
 10
69.76110522
 20
39.46618407
 30
0.0
 11
70.76110522
 21
39.46618407
 31
0.0
  0
LINE
  5
1C3
100
AcDbEntity
  8
0
  6
CONTINUOUS
 62
       7
100
AcDbLine
 10
69.76110522
 20
18.36618407
 30
0.0
 11
70.76110522
 21
18.36618407
 31
0.0
  0
LINE
  5
1C4
100
AcDbEntity
  8
0
  6
CONTINUOUS
 62
       7
100
AcDbLine
 10
97.76110522
 20
39.46618407
 30
0.0
 11
98.76110522
 21
39.46618407
 31
0.0
  0
LINE
  5
1C5
100
AcDbEntity
  8
0
  6
CONTINUOUS
 62
       7
100
AcDbLine
 10
97.76110522
 20
18.36618407
 30
0.0
 11
98.76110522
 21
18.36618407
 31
0.0
  0
LINE
  5
1C6
100
AcDbEntity
  8
0
  6
CONTINUOUS
 62
       7
100
AcDbLine
 10
125.76110522
 20
39.46618407
 30
0.0
 11
126.76110522
 21
39.46618407
 31
0.0
  0
LINE
  5
1C7
100
AcDbEntity
  8
0
  6
CONTINUOUS
 62
       7
100
AcDbLine
 10
125.76110522
 20
18.36618407
 30
0.0
 11
126.76110522
 21
18.36618407
 31
0.0
  0
LINE
  5
1C8
100
AcDbEntity
  8
0
  6
CONTINUOUS
 62
       7
100
AcDbLine
 10
153.76110522
 20
39.46618407
 30
0.0
 11
154.76110522
 21
39.46618407
 31
0.0
  0
LINE
  5
1C9
100
AcDbEntity
  8
0
  6
CONTINUOUS
 62
       7
100
AcDbLine
 10
153.76110522
 20
18.36618407
 30
0.0
 11
154.76110522
 21
18.36618407
 31
0.0
  0
LINE
  5
1CA
100
AcDbEntity
  8
0
  6
CONTINUOUS
 62
       7
100
AcDbLine
 10
188.70110522
 20
36.40618407
 30
0.0
 11
185.68110522
 21
33.38618407
 31
0.0
  0
LINE
  5
1CB
100
AcDbEntity
  8
0
  6
CONTINUOUS
 62
       7
100
AcDbLine
 10
188.72110522
 20
33.50618407
 30
0.0
 11
185.84110522
 21
36.38618407
 31
0.0
  0
CIRCLE
  5
1CC
100
AcDbEntity
  8
0
  6
CONTINUOUS
 62
       7
100
AcDbCircle
 10
187.2510808
 20
34.95630156
 30
0.0
 40
3.0
  0
LINE
  5
1CD
100
AcDbEntity
  8
0
  6
CONTINUOUS
 62
       7
100
AcDbLine
 10
198.70110522
 20
24.40618407
 30
0.0
 11
195.68110522
 21
21.38618407
 31
0.0
  0
LINE
  5
1CE
100
AcDbEntity
  8
0
  6
CONTINUOUS
 62
       7
100
AcDbLine
 10
198.72110522
 20
21.50618407
 30
0.0
 11
195.84110522
 21
24.38618407
 31
0.0
  0
CIRCLE
  5
1CF
100
AcDbEntity
  8
0
  6
CONTINUOUS
 62
       7
100
AcDbCircle
 10
197.2510808
 20
22.95630156
 30
0.0
 40
3.0
  0
CIRCLE
  5
1D0
100
AcDbEntity
  8
0
  6
CONTINUOUS
 62
       7
100
AcDbCircle
 10
-0.7489192
 20
34.95630156
 30
0.0
 40
3.0
  0
LINE
  5
1D1
100
AcDbEntity
  8
0
  6
CONTINUOUS
 62
       7
100
AcDbLine
 10
0.70110522
 20
36.40618407
 30
0.0
 11
-2.31889478
 21
33.38618407
 31
0.0
  0
LINE
  5
1D2
100
AcDbEntity
  8
0
  6
CONTINUOUS
 62
       7
100
AcDbLine
 10
0.72110522
 20
33.50618407
 30
0.0
 11
-2.15889478
 21
36.38618407
 31
0.0
  0
CIRCLE
  5
1D3
100
AcDbEntity
  8
0
  6
CONTINUOUS
 62
       7
100
AcDbCircle
 10
9.2510808
 20
22.95630156
 30
0.0
 40
3.0
  0
LINE
  5
1D4
100
AcDbEntity
  8
0
  6
CONTINUOUS
 62
       7
100
AcDbLine
 10
10.70110522
 20
24.40618407
 30
0.0
 11
7.68110522
 21
21.38618407
 31
0.0
  0
LINE
  5
1D5
100
AcDbEntity
  8
0
  6
CONTINUOUS
 62
       7
100
AcDbLine
 10
10.72110522
 20
21.50618407
 30
0.0
 11
7.84110522
 21
24.38618407
 31
0.0
  0
LINE
  5
1D6
100
AcDbEntity
  8
0
  6
CONTINUOUS
 62
       7
100
AcDbLine
 10
-5.73889483
 20
44.16618407
 30
0.0
 11
14.26110522
 21
44.16618407
 31
0.0
  0
LINE
  5
1D7
100
AcDbEntity
  8
0
  6
CONTINUOUS
 62
       7
100
AcDbLine
 10
-5.73889483
 20
13.76618407
 30
0.0
 11
14.26110522
 21
13.76618407
 31
0.0
  0
LINE
  5
1D8
100
AcDbEntity
  8
0
  6
CONTINUOUS
 62
       7
100
AcDbLine
 10
182.26110522
 20
44.16618407
 30
0.0
 11
202.26110522
 21
44.16618407
 31
0.0
  0
LINE
  5
1D9
100
AcDbEntity
  8
0
  6
CONTINUOUS
 62
       7
100
AcDbLine
 10
182.26110522
 20
13.76618407
 30
0.0
 11
202.26110522
 21
13.76618407
 31
0.0
  0
LINE
  5
1DA
100
AcDbEntity
  8
0
  6
CONTINUOUS
 62
       7
100
AcDbLine
 10
-126.23889483
 20
61.46618407
 30
0.0
 11
-89.23889483
 21
61.46618407
 31
0.0
  0
LINE
  5
1DB
100
AcDbEntity
  8
0
  6
CONTINUOUS
 62
       7
100
AcDbLine
 10
-126.23889483
 20
63.46618407
 30
0.0
 11
-89.23889483
 21
63.46618407
 31
0.0
  0
LINE
  5
1DC
100
AcDbEntity
  8
0
  6
CONTINUOUS
 62
       7
100
AcDbLine
 10
-117.73889478
 20
108.46618407
 30
0.0
 11
-117.73889478
 21
108.66618407
 31
0.0
  0
LINE
  5
1DD
100
AcDbEntity
  8
0
  6
CONTINUOUS
 62
       7
100
AcDbLine
 10
-117.73889478
 20
108.66618407
 30
0.0
 11
-116.93889478
 21
109.46618407
 31
0.0
  0
LINE
  5
1DE
100
AcDbEntity
  8
0
  6
CONTINUOUS
 62
       7
100
AcDbLine
 10
-98.53889478
 20
109.46618407
 30
0.0
 11
-116.93889478
 21
109.46618407
 31
0.0
  0
LINE
  5
1DF
100
AcDbEntity
  8
0
  6
CONTINUOUS
 62
       7
100
AcDbLine
 10
-98.53889478
 20
109.46618407
 30
0.0
 11
-97.73889478
 21
108.66618407
 31
0.0
  0
LINE
  5
1E0
100
AcDbEntity
  8
0
  6
CONTINUOUS
 62
       7
100
AcDbLine
 10
-97.73889478
 20
108.46618407
 30
0.0
 11
-97.73889478
 21
108.66618407
 31
0.0
  0
LINE
  5
1E1
100
AcDbEntity
  8
0
  6
CONTINUOUS
 62
       7
100
AcDbLine
 10
-126.23889478
 20
108.46618407
 30
0.0
 11
-80.23889478
 21
108.46618407
 31
0.0
  0
LINE
  5
1E2
100
AcDbEntity
  8
0
  6
CONTINUOUS
 62
       7
100
AcDbLine
 10
-80.23889478
 20
108.46618407
 30
0.0
 11
-80.23889478
 21
77.46618407
 31
0.0
  0
LINE
  5
1E3
100
AcDbEntity
  8
0
  6
CONTINUOUS
 62
       7
100
AcDbLine
 10
-96.2388948
 20
105.66618407
 30
0.0
 11
-89.2388948
 21
105.66618407
 31
0.0
  0
LINE
  5
1E4
100
AcDbEntity
  8
0
  6
CONTINUOUS
 62
       2
100
AcDbLine
 10
-92.7388948
 20
109.74618407
 30
0.0
 11
-92.7388948
 21
104.64618407
 31
0.0
  0
LINE
  5
1E5
100
AcDbEntity
  8
0
  6
CONTINUOUS
 62
       7
100
AcDbLine
 10
-95.4988948
 20
107.54618407
 30
0.0
 11
-95.4988948
 21
106.36618407
 31
0.0
  0
LINE
  5
1E6
100
AcDbEntity
  8
0
  6
CONTINUOUS
 62
       7
100
AcDbLine
 10
-89.9988948
 20
107.54618407
 30
0.0
 11
-89.9988948
 21
106.36618407
 31
0.0
  0
LINE
  5
1E7
100
AcDbEntity
  8
0
  6
CONTINUOUS
 62
       7
100
AcDbLine
 10
-89.7388948
 20
106.36618407
 30
0.0
 11
-89.7388948
 21
105.66618407
 31
0.0
  0
LINE
  5
1E8
100
AcDbEntity
  8
0
  6
CONTINUOUS
 62
       7
100
AcDbLine
 10
-95.7388948
 20
106.36618407
 30
0.0
 11
-89.7388948
 21
106.36618407
 31
0.0
  0
LINE
  5
1E9
100
AcDbEntity
  8
0
  6
CONTINUOUS
 62
       7
100
AcDbLine
 10
-95.7388948
 20
106.36618407
 30
0.0
 11
-95.7388948
 21
105.66618407
 31
0.0
  0
ARC
  5
1EA
100
AcDbEntity
  8
0
  6
CONTINUOUS
 62
       7
100
AcDbCircle
 10
-92.7488948
 20
103.36644096
 30
0.0
 40
5.00327418
100
AcDbArc
 50
56.65767581
 51
123.34232419
  0
LINE
  5
1EB
100
AcDbEntity
  8
0
  6
CONTINUOUS
 62
       7
100
AcDbLine
 10
-80.23889478
 20
77.46618407
 30
0.0
 11
-89.23889478
 21
77.46618407
 31
0.0
  0
LINE
  5
1EC
100
AcDbEntity
  8
0
  6
CONTINUOUS
 62
       7
100
AcDbLine
 10
-96.2388948
 20
105.66618403
 30
0.0
 11
-96.2388948
 21
108.46618411
 31
0.0
  0
LINE
  5
1ED
100
AcDbEntity
  8
0
  6
CONTINUOUS
 62
       7
100
AcDbLine
 10
-89.2388948
 20
105.66618407
 30
0.0
 11
-89.2388948
 21
108.46618407
 31
0.0
  0
LINE
  5
1EE
100
AcDbEntity
  8
0
  6
CONTINUOUS
 62
       7
100
AcDbLine
 10
-78.63889478
 20
79.96618407
 30
0.0
 11
-68.2388948
 21
79.96618407
 31
0.0
  0
LINE
  5
1EF
100
AcDbEntity
  8
0
  6
CONTINUOUS
 62
       7
100
AcDbLine
 10
-78.63889478
 20
105.96618407
 30
0.0
 11
-68.2388948
 21
105.96618407
 31
0.0
  0
LINE
  5
1F0
100
AcDbEntity
  8
0
  6
CONTINUOUS
 62
       2
100
AcDbLine
 10
-82.68614336
 20
92.96618407
 30
0.0
 11
-66.11593021
 21
92.96618407
 31
0.0
  0
LINE
  5
1F1
100
AcDbEntity
  8
0
  6
CONTINUOUS
 62
       7
100
AcDbLine
 10
-78.63889478
 20
106.46618407
 30
0.0
 11
-78.63889478
 21
79.46618407
 31
0.0
  0
LINE
  5
1F2
100
AcDbEntity
  8
0
  6
CONTINUOUS
 62
       7
100
AcDbLine
 10
-80.23889478
 20
106.46618407
 30
0.0
 11
-78.63889478
 21
106.46618407
 31
0.0
  0
LINE
  5
1F3
100
AcDbEntity
  8
0
  6
CONTINUOUS
 62
       7
100
AcDbLine
 10
-80.23889478
 20
79.46618407
 30
0.0
 11
-78.63889478
 21
79.46618407
 31
0.0
  0
LINE
  5
1F4
100
AcDbEntity
  8
0
  6
CONTINUOUS
 62
       7
100
AcDbLine
 10
-67.7388948
 20
80.46618407
 30
0.0
 11
-67.7388948
 21
105.46618407
 31
0.0
  0
LINE
  5
1F5
100
AcDbEntity
  8
0
  6
CONTINUOUS
 62
       2
100
AcDbLine
 10
-71.54410348
 20
101.96618407
 30
0.0
 11
-66.11593021
 21
101.96618407
 31
0.0
  0
LINE
  5
1F6
100
AcDbEntity
  8
0
  6
CONTINUOUS
 62
       7
100
AcDbLine
 10
-70.2388948
 20
98.96618407
 30
0.0
 11
-67.7388948
 21
98.96618407
 31
0.0
  0
LINE
  5
1F7
100
AcDbEntity
  8
0
  6
CONTINUOUS
 62
       7
100
AcDbLine
 10
-70.2388948
 20
98.96618407
 30
0.0
 11
-70.2388948
 21
105.96618407
 31
0.0
  0
LINE
  5
1F8
100
AcDbEntity
  8
0
  6
CONTINUOUS
 62
       2
100
AcDbLine
 10
-73.13889478
 20
131.12399696
 30
0.0
 11
-73.13889478
 21
104.36090313
 31
0.0
  0
LINE
  5
1F9
100
AcDbEntity
  8
0
  6
CONTINUOUS
 62
       7
100
AcDbLine
 10
-76.13889478
 20
107.96618407
 30
0.0
 11
-70.13889478
 21
107.96618407
 31
0.0
  0
LINE
  5
1FA
100
AcDbEntity
  8
0
  6
CONTINUOUS
 62
       7
100
AcDbLine
 10
-69.63889478
 20
107.46618407
 30
0.0
 11
-69.63889478
 21
105.96618407
 31
0.0
  0
LINE
  5
1FB
100
AcDbEntity
  8
0
  6
CONTINUOUS
 62
       7
100
AcDbLine
 10
-76.63889478
 20
107.46618407
 30
0.0
 11
-76.63889478
 21
105.96618407
 31
0.0
  0
ARC
  5
1FC
100
AcDbEntity
  8
0
  6
CONTINUOUS
 62
       7
100
AcDbCircle
 10
-76.13889478
 20
107.46618407
 30
0.0
 40
0.5
100
AcDbArc
 50
90.0
 51
180.0
  0
ARC
  5
1FD
100
AcDbEntity
  8
0
  6
CONTINUOUS
 62
       7
100
AcDbCircle
 10
-70.13889478
 20
107.46618407
 30
0.0
 40
0.5
100
AcDbArc
 50
0.0
 51
90.0
  0
LINE
  5
1FE
100
AcDbEntity
  8
0
  6
CONTINUOUS
 62
       7
100
AcDbLine
 10
-71.93889478
 20
120.11671338
 30
0.0
 11
-71.93889478
 21
113.95963989
 31
0.0
  0
LINE
  5
1FF
100
AcDbEntity
  8
0
  6
CONTINUOUS
 62
       7
100
AcDbLine
 10
-74.33889478
 20
120.11671338
 30
0.0
 11
-74.33889478
 21
115.00963989
 31
0.0
  0
LINE
  5
200
100
AcDbEntity
  8
0
  6
CONTINUOUS
 62
       7
100
AcDbLine
 10
-74.3388948
 20
120.11671338
 30
0.0
 11
-71.93889482
 21
120.11671338
 31
0.0
  0
LINE
  5
202
100
AcDbEntity
  8
0
  6
CENTER
 62
       2
100
AcDbLine
 10
-74.33889478
 20
115.00963989
 30
0.0
 11
-71.93889478
 21
113.95963989
 31
0.0
  0
LINE
  5
203
100
AcDbEntity
  8
0
  6
CONTINUOUS
 62
       7
100
AcDbLine
 10
-74.33889478
 20
112.8299444
 30
0.0
 11
-74.33889478
 21
107.96618407
 31
0.0
  0
LINE
  5
204
100
AcDbEntity
  8
0
  6
CONTINUOUS
 62
       7
100
AcDbLine
 10
-71.93889478
 20
111.7799444
 30
0.0
 11
-71.93889478
 21
107.96618407
 31
0.0
  0
LINE
  5
205
100
AcDbEntity
  8
0
  6
CONTINUOUS
 62
       7
100
AcDbLine
 10
-72.75889478
 20
130.11671338
 30
0.0
 11
-72.75889478
 21
120.11671338
 31
0.0
  0
LINE
  5
206
100
AcDbEntity
  8
0
  6
CONTINUOUS
 62
       7
100
AcDbLine
 10
-73.51889478
 20
130.11671338
 30
0.0
 11
-73.51889478
 21
120.11671338
 31
0.0
  0
LINE
  5
207
100
AcDbEntity
  8
0
  6
CONTINUOUS
 62
       7
100
AcDbLine
 10
-73.51889478
 20
130.11671338
 30
0.0
 11
-72.75889478
 21
130.11671338
 31
0.0
  0
ARC
  5
208
100
AcDbEntity
  8
0
  6
CONTINUOUS
 62
       7
100
AcDbCircle
 10
-69.06706939
 20
104.09951728
 30
0.0
 40
0.66666669
100
AcDbArc
 50
29.49235568
 51
90.00001799
  0
ARC
  5
209
100
AcDbEntity
  8
0
  6
CONTINUOUS
 62
       7
100
AcDbCircle
 10
-69.06706939
 20
99.83285086
 30
0.0
 40
0.66666669
100
AcDbArc
 50
269.99998201
 51
330.50764432
  0
ARC
  5
20A
100
AcDbEntity
  8
0
  6
CONTINUOUS
 62
       7
100
AcDbCircle
 10
-72.83889518
 20
101.96618407
 30
0.0
 40
5.0
100
AcDbArc
 50
330.50764432
 51
29.49233837
  0
LINE
  5
20B
100
AcDbEntity
  8
0
  6
CONTINUOUS
 62
       7
100
AcDbLine
 10
-69.06706939
 20
104.76618331
 30
0.0
 11
-70.2388948
 21
104.76618331
 31
0.0
  0
LINE
  5
20C
100
AcDbEntity
  8
0
  6
CONTINUOUS
 62
       7
100
AcDbLine
 10
-69.06706939
 20
99.16618483
 30
0.0
 11
-70.2388948
 21
99.16618483
 31
0.0
  0
ARC
  5
20D
100
AcDbEntity
  8
0
  6
CONTINUOUS
 62
       7
100
AcDbCircle
 10
-68.2388948
 20
105.46618407
 30
0.0
 40
0.5
100
AcDbArc
 50
0.0
 51
90.0
  0
ARC
  5
20E
100
AcDbEntity
  8
0
  6
CONTINUOUS
 62
       7
100
AcDbCircle
 10
-68.2388948
 20
80.46618407
 30
0.0
 40
0.5
100
AcDbArc
 50
270.0
 51
0.0
  0
LINE
  5
20F
100
AcDbEntity
  8
0
  6
CENTER
 62
       2
100
AcDbLine
 10
-74.33889478
 20
112.8299444
 30
0.0
 11
-71.93889478
 21
111.7799444
 31
0.0
  0
LINE
  5
210
100
AcDbEntity
  8
0
  6
CONTINUOUS
 62
       7
100
AcDbLine
 10
-126.2388948
 20
43.67017836
 30
0.0
 11
-126.2388948
 21
108.46618407
 31
0.0
  0
LINE
  5
211
100
AcDbEntity
  8
0
  6
CONTINUOUS
 62
       7
100
AcDbLine
 10
-89.2388948
 20
63.46618407
 30
0.0
 11
-89.2388948
 21
77.46618407
 31
0.0
  0
LINE
  5
212
100
AcDbEntity
  8
0
  6
CONTINUOUS
 62
       7
100
AcDbLine
 10
-154.21889478
 20
39.46618407
 30
0.0
 11
-154.21889478
 21
18.46618407
 31
0.0
  0
LINE
  5
213
100
AcDbEntity
  8
0
  6
CONTINUOUS
 62
       7
100
AcDbLine
 10
-89.23889478
 20
63.46618407
 30
0.0
 11
-89.23889478
 21
11.38362691
 31
0.0
  0
LINE
  5
214
100
AcDbEntity
  8
0
  6
CONTINUOUS
 62
       2
100
AcDbLine
 10
-107.71889478
 20
114.46618407
 30
0.0
 11
-107.71889478
 21
5.38362691
 31
0.0
  0
LINE
  5
215
100
AcDbEntity
  8
0
  6
CONTINUOUS
 62
       7
100
AcDbLine
 10
-124.91184543
 20
15.38362691
 30
0.0
 11
-89.23889478
 21
15.38362691
 31
0.0
  0
LINE
  5
216
100
AcDbEntity
  8
0
  6
CONTINUOUS
 62
       7
100
AcDbLine
 10
-126.21889478
 20
11.38362691
 30
0.0
 11
-126.21889478
 21
14.27698514
 31
0.0
  0
LINE
  5
217
100
AcDbEntity
  8
0
  6
CONTINUOUS
 62
       7
100
AcDbLine
 10
-92.23889478
 20
36.60618407
 30
0.0
 11
-92.23889478
 21
31.32618407
 31
0.0
  0
LINE
  5
218
100
AcDbEntity
  8
0
  6
CONTINUOUS
 62
       7
100
AcDbLine
 10
-92.23889478
 20
36.60618407
 30
0.0
 11
-89.23889478
 21
36.60618407
 31
0.0
  0
LINE
  5
219
100
AcDbEntity
  8
0
  6
CONTINUOUS
 62
       7
100
AcDbLine
 10
-92.23889478
 20
31.32618407
 30
0.0
 11
-89.23889478
 21
31.32618407
 31
0.0
  0
LINE
  5
21A
100
AcDbEntity
  8
0
  6
CONTINUOUS
 62
       2
100
AcDbLine
 10
-97.19889478
 20
49.88362691
 30
0.0
 11
-90.23889478
 21
49.88362691
 31
0.0
  0
LINE
  5
21B
100
AcDbEntity
  8
0
  6
CONTINUOUS
 62
       2
100
AcDbLine
 10
-93.73889478
 20
53.78362691
 30
0.0
 11
-93.73889478
 21
46.04362691
 31
0.0
  0
LINE
  5
21C
100
AcDbEntity
  8
0
  6
CONTINUOUS
 62
       7
100
AcDbLine
 10
-154.21889478
 20
18.46618407
 30
0.0
 11
-127.21889478
 21
18.46618407
 31
0.0
  0
LINE
  5
21D
100
AcDbEntity
  8
0
  6
CONTINUOUS
 62
       7
100
AcDbLine
 10
-154.21889478
 20
39.46618407
 30
0.0
 11
-127.21889478
 21
39.46618407
 31
0.0
  0
LINE
  5
21E
100
AcDbEntity
  8
0
  6
CONTINUOUS
 62
       7
100
AcDbLine
 10
-124.01889478
 20
39.96618407
 30
0.0
 11
-124.01889478
 21
17.96618407
 31
0.0
  0
LINE
  5
21F
100
AcDbEntity
  8
0
  6
CONTINUOUS
 62
       7
100
AcDbLine
 10
-123.31889478
 20
26.46618407
 30
0.0
 11
-123.31889478
 21
19.46618407
 31
0.0
  0
LINE
  5
220
100
AcDbEntity
  8
0
  6
CONTINUOUS
 62
       7
100
AcDbLine
 10
-124.01889478
 20
19.46618407
 30
0.0
 11
-123.31889478
 21
19.46618407
 31
0.0
  0
LINE
  5
221
100
AcDbEntity
  8
0
  6
CONTINUOUS
 62
       7
100
AcDbLine
 10
-124.01889478
 20
26.46618407
 30
0.0
 11
-123.31889478
 21
26.46618407
 31
0.0
  0
LINE
  5
222
100
AcDbEntity
  8
0
  6
CONTINUOUS
 62
       7
100
AcDbLine
 10
-123.31889478
 20
38.46618407
 30
0.0
 11
-123.31889478
 21
31.46618407
 31
0.0
  0
LINE
  5
223
100
AcDbEntity
  8
0
  6
CONTINUOUS
 62
       7
100
AcDbLine
 10
-124.01889478
 20
38.46618407
 30
0.0
 11
-123.31889478
 21
38.46618407
 31
0.0
  0
LINE
  5
224
100
AcDbEntity
  8
0
  6
CONTINUOUS
 62
       7
100
AcDbLine
 10
-154.71889478
 20
63.96618407
 30
0.0
 11
-154.71889478
 21
45.16618407
 31
0.0
  0
LINE
  5
225
100
AcDbEntity
  8
0
  6
CONTINUOUS
 62
       7
100
AcDbLine
 10
-154.71889478
 20
63.96618407
 30
0.0
 11
-151.51889478
 21
63.96618407
 31
0.0
  0
LINE
  5
226
100
AcDbEntity
  8
0
  6
CONTINUOUS
 62
       7
100
AcDbLine
 10
-151.51889478
 20
63.96618407
 30
0.0
 11
-151.51889478
 21
45.16618407
 31
0.0
  0
LINE
  5
227
100
AcDbEntity
  8
0
  6
CONTINUOUS
 62
       7
100
AcDbLine
 10
-150.51889478
 20
44.16618407
 30
0.0
 11
-128.21889478
 21
44.16618407
 31
0.0
  0
LINE
  5
228
100
AcDbEntity
  8
0
  6
CONTINUOUS
 62
       7
100
AcDbLine
 10
-150.51889478
 20
40.96618407
 30
0.0
 11
-128.21889478
 21
40.96618407
 31
0.0
  0
LINE
  5
229
100
AcDbEntity
  8
0
  6
CONTINUOUS
 62
       7
100
AcDbLine
 10
-154.71889478
 20
-6.01381593
 30
0.0
 11
-151.51889478
 21
-6.01381593
 31
0.0
  0
LINE
  5
22A
100
AcDbEntity
  8
0
  6
CONTINUOUS
 62
       7
100
AcDbLine
 10
-150.51889478
 20
16.96618407
 30
0.0
 11
-128.21889478
 21
16.96618407
 31
0.0
  0
LINE
  5
22B
100
AcDbEntity
  8
0
  6
CONTINUOUS
 62
       7
100
AcDbLine
 10
-150.51889478
 20
13.76618407
 30
0.0
 11
-128.21889478
 21
13.76618407
 31
0.0
  0
LINE
  5
22C
100
AcDbEntity
  8
0
  6
CONTINUOUS
 62
       7
100
AcDbLine
 10
-154.71889478
 20
12.76618407
 30
0.0
 11
-154.71889478
 21
-6.01381593
 31
0.0
  0
LINE
  5
22D
100
AcDbEntity
  8
0
  6
CONTINUOUS
 62
       7
100
AcDbLine
 10
-151.51889478
 20
12.76618407
 30
0.0
 11
-151.51889478
 21
-6.01381593
 31
0.0
  0
CIRCLE
  5
22E
100
AcDbEntity
  8
0
  6
CONTINUOUS
 62
       7
100
AcDbCircle
 10
-143.22890089
 20
28.97619628
 30
0.0
 40
5.5
  0
CIRCLE
  5
22F
100
AcDbEntity
  8
0
  6
CONTINUOUS
 62
       2
100
AcDbCircle
 10
-143.22890089
 20
28.97619628
 30
0.0
 40
6.5
  0
ARC
  5
230
100
AcDbEntity
  8
0
  6
CONTINUOUS
 62
       7
100
AcDbCircle
 10
-92.22890873
 20
33.96618407
 30
0.0
 40
2.99294827
100
AcDbArc
 50
298.1065053
 51
61.8934947
  0
ARC
  5
231
100
AcDbEntity
  8
0
  6
CONTINUOUS
 62
       7
100
AcDbCircle
 10
-124.38468186
 20
22.96618407
 30
0.0
 40
3.65867491
100
AcDbArc
 50
286.93604788
 51
73.06395212
  0
ARC
  5
232
100
AcDbEntity
  8
0
  6
CONTINUOUS
 62
       7
100
AcDbCircle
 10
-124.38468186
 20
34.96618407
 30
0.0
 40
3.65867491
100
AcDbArc
 50
286.93604788
 51
73.06395212
  0
ARC
  5
233
100
AcDbEntity
  8
0
  6
CONTINUOUS
 62
       7
100
AcDbCircle
 10
-150.51888289
 20
45.16619596
 30
0.0
 40
4.20001189
100
AcDbArc
 50
180.0001622
 51
269.9998378
  0
ARC
  5
234
100
AcDbEntity
  8
0
  6
CONTINUOUS
 62
       7
100
AcDbCircle
 10
-150.51884484
 20
45.16623401
 30
0.0
 40
1.00004994
100
AcDbArc
 50
180.00286129
 51
269.99713871
  0
ARC
  5
235
100
AcDbEntity
  8
0
  6
CONTINUOUS
 62
       7
100
AcDbCircle
 10
-128.21894183
 20
39.96613703
 30
0.0
 40
1.00004704
100
AcDbArc
 50
0.0026952
 51
89.9973048
  0
ARC
  5
236
100
AcDbEntity
  8
0
  6
CONTINUOUS
 62
       7
100
AcDbCircle
 10
-128.21890366
 20
39.96617519
 30
0.0
 40
4.20000887
100
AcDbArc
 50
0.00012107
 51
89.99987893
  0
ARC
  5
237
100
AcDbEntity
  8
0
  6
CONTINUOUS
 62
       7
100
AcDbCircle
 10
-128.22890394
 20
17.97619322
 30
0.0
 40
1.01005875
100
AcDbArc
 50
270.56778058
 51
359.43221942
  0
ARC
  5
238
100
AcDbEntity
  8
0
  6
CONTINUOUS
 62
       7
100
AcDbCircle
 10
-128.22890394
 20
17.97619322
 30
0.0
 40
4.21002105
100
AcDbArc
 50
270.13621853
 51
359.86378147
  0
ARC
  5
239
100
AcDbEntity
  8
0
  6
CONTINUOUS
 62
       7
100
AcDbCircle
 10
-150.52889936
 20
12.77618865
 30
0.0
 40
0.99004597
100
AcDbArc
 50
89.42100686
 51
180.57899314
  0
ARC
  5
23A
100
AcDbEntity
  8
0
  6
CONTINUOUS
 62
       7
100
AcDbCircle
 10
-150.52889936
 20
12.77618865
 30
0.0
 40
4.19000737
100
AcDbArc
 50
89.86319341
 51
180.13680659
  0
LINE
  5
23B
100
AcDbEntity
  8
0
  6
CONTINUOUS
 62
       7
100
AcDbLine
 10
-127.21889478
 20
39.96613703
 30
0.0
 11
-127.21889478
 21
17.96618407
 31
0.0
  0
CIRCLE
  5
23C
100
AcDbEntity
  8
0
  6
CONTINUOUS
 62
       7
100
AcDbCircle
 10
-93.73889478
 20
49.88362691
 30
0.0
 40
2.2
  0
LINE
  5
23D
100
AcDbEntity
  8
0
  6
CONTINUOUS
 62
       7
100
AcDbLine
 10
-124.01889478
 20
31.46618407
 30
0.0
 11
-123.31889478
 21
31.46618407
 31
0.0
  0
LINE
  5
23E
100
AcDbEntity
  8
0
  6
CONTINUOUS
 62
       2
100
AcDbLine
 10
-119.88710415
 20
34.96618407
 30
0.0
 11
-128.37381269
 21
34.96618407
 31
0.0
  0
LINE
  5
23F
100
AcDbEntity
  8
0
  6
CONTINUOUS
 62
       2
100
AcDbLine
 10
-119.88710415
 20
22.96618407
 30
0.0
 11
-128.37381269
 21
22.96618407
 31
0.0
  0
LINE
  5
240
100
AcDbEntity
  8
0
  6
CONTINUOUS
 62
       7
100
AcDbLine
 10
-120.72600695
 20
34.96618407
 30
0.0
 11
-122.20317712
 21
36.44335424
 31
0.0
  0
LINE
  5
241
100
AcDbEntity
  8
0
  6
CONTINUOUS
 62
       7
100
AcDbLine
 10
-120.72600695
 20
34.96618407
 30
0.0
 11
-122.20317712
 21
33.4890139
 31
0.0
  0
LINE
  5
242
100
AcDbEntity
  8
0
  6
CONTINUOUS
 62
       7
100
AcDbLine
 10
-120.72600695
 20
22.96618407
 30
0.0
 11
-122.20317712
 21
24.44335424
 31
0.0
  0
LINE
  5
243
100
AcDbEntity
  8
0
  6
CONTINUOUS
 62
       7
100
AcDbLine
 10
-120.72600695
 20
22.96618407
 30
0.0
 11
-122.20317712
 21
21.4890139
 31
0.0
  0
LINE
  5
244
100
AcDbEntity
  8
0
  6
CONTINUOUS
 62
       7
100
AcDbLine
 10
-90.23889478
 20
10.38362691
 30
0.0
 11
-125.21889478
 21
10.38362691
 31
0.0
  0
ARC
  5
245
100
AcDbEntity
  8
0
  6
CONTINUOUS
 62
       7
100
AcDbCircle
 10
-90.23889478
 20
11.38362691
 30
0.0
 40
1.0
100
AcDbArc
 50
270.0
 51
0.0
  0
ARC
  5
246
100
AcDbEntity
  8
0
  6
CONTINUOUS
 62
       7
100
AcDbCircle
 10
-125.21889478
 20
11.38362691
 30
0.0
 40
1.0
100
AcDbArc
 50
180.0
 51
270.0
  0
LINE
  5
247
100
AcDbEntity
  8
0
  6
CONTINUOUS
 62
       7
100
AcDbLine
 10
41.76110522
 20
108.46618407
 30
0.0
 11
41.76110522
 21
15.46618407
 31
0.0
  0
LINE
  5
248
100
AcDbEntity
  8
0
  6
CONTINUOUS
 62
       7
100
AcDbLine
 10
14.76110522
 20
108.46618407
 30
0.0
 11
14.76110522
 21
15.46618407
 31
0.0
  0
LINE
  5
249
100
AcDbEntity
  8
0
  6
CONTINUOUS
 62
       7
100
AcDbLine
 10
38.26110522
 20
108.46618407
 30
0.0
 11
38.26110522
 21
108.66618407
 31
0.0
  0
LINE
  5
24A
100
AcDbEntity
  8
0
  6
CONTINUOUS
 62
       7
100
AcDbLine
 10
37.46110522
 20
109.46618407
 30
0.0
 11
38.26110522
 21
108.66618407
 31
0.0
  0
LINE
  5
24B
100
AcDbEntity
  8
0
  6
CONTINUOUS
 62
       7
100
AcDbLine
 10
18.26110522
 20
108.46618407
 30
0.0
 11
18.26110522
 21
108.66618407
 31
0.0
  0
LINE
  5
24C
100
AcDbEntity
  8
0
  6
CONTINUOUS
 62
       7
100
AcDbLine
 10
19.06110522
 20
109.46618407
 30
0.0
 11
18.26110522
 21
108.66618407
 31
0.0
  0
LINE
  5
24D
100
AcDbEntity
  8
0
  6
CONTINUOUS
 62
       7
100
AcDbLine
 10
19.06110522
 20
109.46618407
 30
0.0
 11
27.56110522
 21
109.46618407
 31
0.0
  0
LINE
  5
24E
100
AcDbEntity
  8
0
  6
CONTINUOUS
 62
       7
100
AcDbLine
 10
14.76110522
 20
108.46618407
 30
0.0
 11
27.56110522
 21
108.46618407
 31
0.0
  0
LINE
  5
24F
100
AcDbEntity
  8
0
  6
CONTINUOUS
 62
       7
100
AcDbLine
 10
14.76110522
 20
63.36618407
 30
0.0
 11
41.76110522
 21
63.36618407
 31
0.0
  0
LINE
  5
250
100
AcDbEntity
  8
0
  6
CONTINUOUS
 62
       7
100
AcDbLine
 10
14.76110522
 20
61.36618407
 30
0.0
 11
41.76110522
 21
61.36618407
 31
0.0
  0
LINE
  5
251
100
AcDbEntity
  8
0
  6
CONTINUOUS
 62
       2
100
AcDbLine
 10
19.68110522
 20
40.46618407
 30
0.0
 11
36.38110522
 21
40.46618407
 31
0.0
  0
CIRCLE
  5
252
100
AcDbEntity
  8
0
  6
CONTINUOUS
 62
       2
100
AcDbCircle
 10
28.27109911
 20
40.47614287
 30
0.0
 40
6.5
  0
CIRCLE
  5
253
100
AcDbEntity
  8
0
  6
CONTINUOUS
 62
       7
100
AcDbCircle
 10
28.27109911
 20
40.47614287
 30
0.0
 40
5.5
  0
LINE
  5
254
100
AcDbEntity
  8
0
  6
CONTINUOUS
 62
       7
100
AcDbLine
 10
14.76110522
 20
15.46618407
 30
0.0
 11
14.76110522
 21
11.46618407
 31
0.0
  0
ARC
  5
255
100
AcDbEntity
  8
0
  6
CONTINUOUS
 62
       7
100
AcDbCircle
 10
15.76110522
 20
11.46618407
 30
0.0
 40
1.0
100
AcDbArc
 50
180.0
 51
270.0
  0
ARC
  5
256
100
AcDbEntity
  8
0
  6
CONTINUOUS
 62
       7
100
AcDbCircle
 10
40.76110522
 20
11.46618407
 30
0.0
 40
1.0
100
AcDbArc
 50
270.0
 51
0.0
  0
LINE
  5
257
100
AcDbEntity
  8
0
  6
CONTINUOUS
 62
       7
100
AcDbLine
 10
41.76110522
 20
15.46618407
 30
0.0
 11
41.76110522
 21
11.46618407
 31
0.0
  0
LINE
  5
258
100
AcDbEntity
  8
0
  6
CONTINUOUS
 62
       7
100
AcDbLine
 10
15.76110522
 20
10.46618407
 30
0.0
 11
40.76110522
 21
10.46618407
 31
0.0
  0
LINE
  5
259
100
AcDbEntity
  8
0
  6
CONTINUOUS
 62
       7
100
AcDbLine
 10
14.76110522
 20
15.46618407
 30
0.0
 11
41.76110522
 21
15.46618407
 31
0.0
  0
LINE
  5
25A
100
AcDbEntity
  8
0
  6
CONTINUOUS
 62
       7
100
AcDbLine
 10
69.76110522
 20
108.46618407
 30
0.0
 11
69.76110522
 21
15.46618407
 31
0.0
  0
LINE
  5
25B
100
AcDbEntity
  8
0
  6
CONTINUOUS
 62
       7
100
AcDbLine
 10
42.76110522
 20
108.46618407
 30
0.0
 11
42.76110522
 21
15.46618407
 31
0.0
  0
LINE
  5
25C
100
AcDbEntity
  8
0
  6
CONTINUOUS
 62
       7
100
AcDbLine
 10
66.26110522
 20
108.46618407
 30
0.0
 11
66.26110522
 21
108.66618407
 31
0.0
  0
LINE
  5
25D
100
AcDbEntity
  8
0
  6
CONTINUOUS
 62
       7
100
AcDbLine
 10
65.46110522
 20
109.46618407
 30
0.0
 11
66.26110522
 21
108.66618407
 31
0.0
  0
LINE
  5
25E
100
AcDbEntity
  8
0
  6
CONTINUOUS
 62
       7
100
AcDbLine
 10
46.26110522
 20
108.46618407
 30
0.0
 11
46.26110522
 21
108.66618407
 31
0.0
  0
LINE
  5
25F
100
AcDbEntity
  8
0
  6
CONTINUOUS
 62
       7
100
AcDbLine
 10
47.06110522
 20
109.46618407
 30
0.0
 11
46.26110522
 21
108.66618407
 31
0.0
  0
LINE
  5
260
100
AcDbEntity
  8
0
  6
CONTINUOUS
 62
       7
100
AcDbLine
 10
47.06110522
 20
109.46618407
 30
0.0
 11
55.56110522
 21
109.46618407
 31
0.0
  0
LINE
  5
261
100
AcDbEntity
  8
0
  6
CONTINUOUS
 62
       7
100
AcDbLine
 10
42.76110522
 20
108.46618407
 30
0.0
 11
55.56110522
 21
108.46618407
 31
0.0
  0
LINE
  5
262
100
AcDbEntity
  8
0
  6
CONTINUOUS
 62
       7
100
AcDbLine
 10
42.76110522
 20
63.36618407
 30
0.0
 11
69.76110522
 21
63.36618407
 31
0.0
  0
LINE
  5
263
100
AcDbEntity
  8
0
  6
CONTINUOUS
 62
       7
100
AcDbLine
 10
42.76110522
 20
61.36618407
 30
0.0
 11
69.76110522
 21
61.36618407
 31
0.0
  0
LINE
  5
264
100
AcDbEntity
  8
0
  6
CONTINUOUS
 62
       2
100
AcDbLine
 10
47.68110522
 20
40.46618407
 30
0.0
 11
64.38110522
 21
40.46618407
 31
0.0
  0
CIRCLE
  5
265
100
AcDbEntity
  8
0
  6
CONTINUOUS
 62
       2
100
AcDbCircle
 10
56.27109911
 20
40.47614287
 30
0.0
 40
6.5
  0
CIRCLE
  5
266
100
AcDbEntity
  8
0
  6
CONTINUOUS
 62
       7
100
AcDbCircle
 10
56.27109911
 20
40.47614287
 30
0.0
 40
5.5
  0
LINE
  5
267
100
AcDbEntity
  8
0
  6
CONTINUOUS
 62
       7
100
AcDbLine
 10
42.76110522
 20
15.46618407
 30
0.0
 11
42.76110522
 21
11.46618407
 31
0.0
  0
ARC
  5
268
100
AcDbEntity
  8
0
  6
CONTINUOUS
 62
       7
100
AcDbCircle
 10
43.76110522
 20
11.46618407
 30
0.0
 40
1.0
100
AcDbArc
 50
180.0
 51
270.0
  0
ARC
  5
269
100
AcDbEntity
  8
0
  6
CONTINUOUS
 62
       7
100
AcDbCircle
 10
68.76110522
 20
11.46618407
 30
0.0
 40
1.0
100
AcDbArc
 50
270.0
 51
0.0
  0
LINE
  5
26A
100
AcDbEntity
  8
0
  6
CONTINUOUS
 62
       7
100
AcDbLine
 10
69.76110522
 20
15.46618407
 30
0.0
 11
69.76110522
 21
11.46618407
 31
0.0
  0
LINE
  5
26B
100
AcDbEntity
  8
0
  6
CONTINUOUS
 62
       7
100
AcDbLine
 10
43.76110522
 20
10.46618407
 30
0.0
 11
68.76110522
 21
10.46618407
 31
0.0
  0
LINE
  5
26C
100
AcDbEntity
  8
0
  6
CONTINUOUS
 62
       7
100
AcDbLine
 10
42.76110522
 20
15.46618407
 30
0.0
 11
69.76110522
 21
15.46618407
 31
0.0
  0
LINE
  5
26D
100
AcDbEntity
  8
0
  6
CONTINUOUS
 62
       7
100
AcDbLine
 10
97.76110522
 20
108.46618407
 30
0.0
 11
97.76110522
 21
15.46618407
 31
0.0
  0
LINE
  5
26E
100
AcDbEntity
  8
0
  6
CONTINUOUS
 62
       7
100
AcDbLine
 10
70.76110522
 20
108.46618407
 30
0.0
 11
70.76110522
 21
15.46618407
 31
0.0
  0
LINE
  5
26F
100
AcDbEntity
  8
0
  6
CONTINUOUS
 62
       7
100
AcDbLine
 10
94.26110522
 20
108.46618407
 30
0.0
 11
94.26110522
 21
108.66618407
 31
0.0
  0
LINE
  5
270
100
AcDbEntity
  8
0
  6
CONTINUOUS
 62
       7
100
AcDbLine
 10
93.46110522
 20
109.46618407
 30
0.0
 11
94.26110522
 21
108.66618407
 31
0.0
  0
LINE
  5
271
100
AcDbEntity
  8
0
  6
CONTINUOUS
 62
       7
100
AcDbLine
 10
74.26110522
 20
108.46618407
 30
0.0
 11
74.26110522
 21
108.66618407
 31
0.0
  0
LINE
  5
272
100
AcDbEntity
  8
0
  6
CONTINUOUS
 62
       7
100
AcDbLine
 10
75.06110522
 20
109.46618407
 30
0.0
 11
74.26110522
 21
108.66618407
 31
0.0
  0
LINE
  5
273
100
AcDbEntity
  8
0
  6
CONTINUOUS
 62
       7
100
AcDbLine
 10
75.06110522
 20
109.46618407
 30
0.0
 11
83.56110522
 21
109.46618407
 31
0.0
  0
LINE
  5
274
100
AcDbEntity
  8
0
  6
CONTINUOUS
 62
       7
100
AcDbLine
 10
70.76110522
 20
108.46618407
 30
0.0
 11
83.56110522
 21
108.46618407
 31
0.0
  0
LINE
  5
275
100
AcDbEntity
  8
0
  6
CONTINUOUS
 62
       7
100
AcDbLine
 10
70.76110522
 20
63.36618407
 30
0.0
 11
97.76110522
 21
63.36618407
 31
0.0
  0
LINE
  5
276
100
AcDbEntity
  8
0
  6
CONTINUOUS
 62
       7
100
AcDbLine
 10
70.76110522
 20
61.36618407
 30
0.0
 11
97.76110522
 21
61.36618407
 31
0.0
  0
LINE
  5
277
100
AcDbEntity
  8
0
  6
CONTINUOUS
 62
       2
100
AcDbLine
 10
75.68110522
 20
40.46618407
 30
0.0
 11
92.38110522
 21
40.46618407
 31
0.0
  0
CIRCLE
  5
278
100
AcDbEntity
  8
0
  6
CONTINUOUS
 62
       2
100
AcDbCircle
 10
84.27109911
 20
40.47614287
 30
0.0
 40
6.5
  0
CIRCLE
  5
279
100
AcDbEntity
  8
0
  6
CONTINUOUS
 62
       7
100
AcDbCircle
 10
84.27109911
 20
40.47614287
 30
0.0
 40
5.5
  0
LINE
  5
27A
100
AcDbEntity
  8
0
  6
CONTINUOUS
 62
       7
100
AcDbLine
 10
70.76110522
 20
15.46618407
 30
0.0
 11
70.76110522
 21
11.46618407
 31
0.0
  0
ARC
  5
27B
100
AcDbEntity
  8
0
  6
CONTINUOUS
 62
       7
100
AcDbCircle
 10
71.76110522
 20
11.46618407
 30
0.0
 40
1.0
100
AcDbArc
 50
180.0
 51
270.0
  0
ARC
  5
27C
100
AcDbEntity
  8
0
  6
CONTINUOUS
 62
       7
100
AcDbCircle
 10
96.76110522
 20
11.46618407
 30
0.0
 40
1.0
100
AcDbArc
 50
270.0
 51
0.0
  0
LINE
  5
27D
100
AcDbEntity
  8
0
  6
CONTINUOUS
 62
       7
100
AcDbLine
 10
97.76110522
 20
15.46618407
 30
0.0
 11
97.76110522
 21
11.46618407
 31
0.0
  0
LINE
  5
27E
100
AcDbEntity
  8
0
  6
CONTINUOUS
 62
       7
100
AcDbLine
 10
71.76110522
 20
10.46618407
 30
0.0
 11
96.76110522
 21
10.46618407
 31
0.0
  0
LINE
  5
27F
100
AcDbEntity
  8
0
  6
CONTINUOUS
 62
       7
100
AcDbLine
 10
70.76110522
 20
15.46618407
 30
0.0
 11
97.76110522
 21
15.46618407
 31
0.0
  0
LINE
  5
280
100
AcDbEntity
  8
0
  6
CONTINUOUS
 62
       7
100
AcDbLine
 10
125.76110522
 20
108.46618407
 30
0.0
 11
125.76110522
 21
15.46618407
 31
0.0
  0
LINE
  5
281
100
AcDbEntity
  8
0
  6
CONTINUOUS
 62
       7
100
AcDbLine
 10
98.76110522
 20
108.46618407
 30
0.0
 11
98.76110522
 21
15.46618407
 31
0.0
  0
LINE
  5
282
100
AcDbEntity
  8
0
  6
CONTINUOUS
 62
       7
100
AcDbLine
 10
122.26110522
 20
108.46618407
 30
0.0
 11
122.26110522
 21
108.66618407
 31
0.0
  0
LINE
  5
283
100
AcDbEntity
  8
0
  6
CONTINUOUS
 62
       7
100
AcDbLine
 10
121.46110522
 20
109.46618407
 30
0.0
 11
122.26110522
 21
108.66618407
 31
0.0
  0
LINE
  5
284
100
AcDbEntity
  8
0
  6
CONTINUOUS
 62
       7
100
AcDbLine
 10
102.26110522
 20
108.46618407
 30
0.0
 11
102.26110522
 21
108.66618407
 31
0.0
  0
LINE
  5
285
100
AcDbEntity
  8
0
  6
CONTINUOUS
 62
       7
100
AcDbLine
 10
103.06110522
 20
109.46618407
 30
0.0
 11
102.26110522
 21
108.66618407
 31
0.0
  0
LINE
  5
286
100
AcDbEntity
  8
0
  6
CONTINUOUS
 62
       7
100
AcDbLine
 10
103.06110522
 20
109.46618407
 30
0.0
 11
111.56110522
 21
109.46618407
 31
0.0
  0
LINE
  5
287
100
AcDbEntity
  8
0
  6
CONTINUOUS
 62
       7
100
AcDbLine
 10
98.76110522
 20
108.46618407
 30
0.0
 11
111.56110522
 21
108.46618407
 31
0.0
  0
LINE
  5
288
100
AcDbEntity
  8
0
  6
CONTINUOUS
 62
       7
100
AcDbLine
 10
98.76110522
 20
63.36618407
 30
0.0
 11
125.76110522
 21
63.36618407
 31
0.0
  0
LINE
  5
289
100
AcDbEntity
  8
0
  6
CONTINUOUS
 62
       7
100
AcDbLine
 10
98.76110522
 20
61.36618407
 30
0.0
 11
125.76110522
 21
61.36618407
 31
0.0
  0
LINE
  5
28A
100
AcDbEntity
  8
0
  6
CONTINUOUS
 62
       2
100
AcDbLine
 10
103.68110522
 20
40.46618407
 30
0.0
 11
120.38110522
 21
40.46618407
 31
0.0
  0
CIRCLE
  5
28B
100
AcDbEntity
  8
0
  6
CONTINUOUS
 62
       2
100
AcDbCircle
 10
112.27109911
 20
40.47614287
 30
0.0
 40
6.5
  0
CIRCLE
  5
28C
100
AcDbEntity
  8
0
  6
CONTINUOUS
 62
       7
100
AcDbCircle
 10
112.27109911
 20
40.47614287
 30
0.0
 40
5.5
  0
LINE
  5
28D
100
AcDbEntity
  8
0
  6
CONTINUOUS
 62
       7
100
AcDbLine
 10
98.76110522
 20
15.46618407
 30
0.0
 11
98.76110522
 21
11.46618407
 31
0.0
  0
ARC
  5
28E
100
AcDbEntity
  8
0
  6
CONTINUOUS
 62
       7
100
AcDbCircle
 10
99.76110522
 20
11.46618407
 30
0.0
 40
1.0
100
AcDbArc
 50
180.0
 51
270.0
  0
ARC
  5
28F
100
AcDbEntity
  8
0
  6
CONTINUOUS
 62
       7
100
AcDbCircle
 10
124.76110522
 20
11.46618407
 30
0.0
 40
1.0
100
AcDbArc
 50
270.0
 51
0.0
  0
LINE
  5
290
100
AcDbEntity
  8
0
  6
CONTINUOUS
 62
       7
100
AcDbLine
 10
125.76110522
 20
15.46618407
 30
0.0
 11
125.76110522
 21
11.46618407
 31
0.0
  0
LINE
  5
291
100
AcDbEntity
  8
0
  6
CONTINUOUS
 62
       7
100
AcDbLine
 10
99.76110522
 20
10.46618407
 30
0.0
 11
124.76110522
 21
10.46618407
 31
0.0
  0
LINE
  5
292
100
AcDbEntity
  8
0
  6
CONTINUOUS
 62
       7
100
AcDbLine
 10
98.76110522
 20
15.46618407
 30
0.0
 11
125.76110522
 21
15.46618407
 31
0.0
  0
LINE
  5
293
100
AcDbEntity
  8
0
  6
CONTINUOUS
 62
       7
100
AcDbLine
 10
153.76110522
 20
108.46618407
 30
0.0
 11
153.76110522
 21
15.46618407
 31
0.0
  0
LINE
  5
294
100
AcDbEntity
  8
0
  6
CONTINUOUS
 62
       7
100
AcDbLine
 10
126.76110522
 20
108.46618407
 30
0.0
 11
126.76110522
 21
15.46618407
 31
0.0
  0
LINE
  5
295
100
AcDbEntity
  8
0
  6
CONTINUOUS
 62
       7
100
AcDbLine
 10
150.26110522
 20
108.46618407
 30
0.0
 11
150.26110522
 21
108.66618407
 31
0.0
  0
LINE
  5
296
100
AcDbEntity
  8
0
  6
CONTINUOUS
 62
       7
100
AcDbLine
 10
149.46110522
 20
109.46618407
 30
0.0
 11
150.26110522
 21
108.66618407
 31
0.0
  0
LINE
  5
297
100
AcDbEntity
  8
0
  6
CONTINUOUS
 62
       7
100
AcDbLine
 10
130.26110522
 20
108.46618407
 30
0.0
 11
130.26110522
 21
108.66618407
 31
0.0
  0
LINE
  5
298
100
AcDbEntity
  8
0
  6
CONTINUOUS
 62
       7
100
AcDbLine
 10
131.06110522
 20
109.46618407
 30
0.0
 11
130.26110522
 21
108.66618407
 31
0.0
  0
LINE
  5
299
100
AcDbEntity
  8
0
  6
CONTINUOUS
 62
       7
100
AcDbLine
 10
131.06110522
 20
109.46618407
 30
0.0
 11
139.56110522
 21
109.46618407
 31
0.0
  0
LINE
  5
29A
100
AcDbEntity
  8
0
  6
CONTINUOUS
 62
       7
100
AcDbLine
 10
126.76110522
 20
108.46618407
 30
0.0
 11
139.56110522
 21
108.46618407
 31
0.0
  0
LINE
  5
29B
100
AcDbEntity
  8
0
  6
CONTINUOUS
 62
       7
100
AcDbLine
 10
126.76110522
 20
63.36618407
 30
0.0
 11
153.76110522
 21
63.36618407
 31
0.0
  0
LINE
  5
29C
100
AcDbEntity
  8
0
  6
CONTINUOUS
 62
       7
100
AcDbLine
 10
126.76110522
 20
61.36618407
 30
0.0
 11
153.76110522
 21
61.36618407
 31
0.0
  0
LINE
  5
29D
100
AcDbEntity
  8
0
  6
CONTINUOUS
 62
       2
100
AcDbLine
 10
131.68110522
 20
40.46618407
 30
0.0
 11
148.38110522
 21
40.46618407
 31
0.0
  0
CIRCLE
  5
29E
100
AcDbEntity
  8
0
  6
CONTINUOUS
 62
       2
100
AcDbCircle
 10
140.27109911
 20
40.47614287
 30
0.0
 40
6.5
  0
CIRCLE
  5
29F
100
AcDbEntity
  8
0
  6
CONTINUOUS
 62
       7
100
AcDbCircle
 10
140.27109911
 20
40.47614287
 30
0.0
 40
5.5
  0
LINE
  5
2A0
100
AcDbEntity
  8
0
  6
CONTINUOUS
 62
       7
100
AcDbLine
 10
126.76110522
 20
15.46618407
 30
0.0
 11
126.76110522
 21
11.46618407
 31
0.0
  0
ARC
  5
2A1
100
AcDbEntity
  8
0
  6
CONTINUOUS
 62
       7
100
AcDbCircle
 10
127.76110522
 20
11.46618407
 30
0.0
 40
1.0
100
AcDbArc
 50
180.0
 51
270.0
  0
ARC
  5
2A2
100
AcDbEntity
  8
0
  6
CONTINUOUS
 62
       7
100
AcDbCircle
 10
152.76110522
 20
11.46618407
 30
0.0
 40
1.0
100
AcDbArc
 50
270.0
 51
0.0
  0
LINE
  5
2A3
100
AcDbEntity
  8
0
  6
CONTINUOUS
 62
       7
100
AcDbLine
 10
153.76110522
 20
15.46618407
 30
0.0
 11
153.76110522
 21
11.46618407
 31
0.0
  0
LINE
  5
2A4
100
AcDbEntity
  8
0
  6
CONTINUOUS
 62
       7
100
AcDbLine
 10
127.76110522
 20
10.46618407
 30
0.0
 11
152.76110522
 21
10.46618407
 31
0.0
  0
LINE
  5
2A5
100
AcDbEntity
  8
0
  6
CONTINUOUS
 62
       7
100
AcDbLine
 10
126.76110522
 20
15.46618407
 30
0.0
 11
153.76110522
 21
15.46618407
 31
0.0
  0
LINE
  5
2A6
100
AcDbEntity
  8
0
  6
CONTINUOUS
 62
       7
100
AcDbLine
 10
181.76110522
 20
108.46618407
 30
0.0
 11
181.76110522
 21
15.46618407
 31
0.0
  0
LINE
  5
2A7
100
AcDbEntity
  8
0
  6
CONTINUOUS
 62
       7
100
AcDbLine
 10
154.76110522
 20
108.46618407
 30
0.0
 11
154.76110522
 21
15.46618407
 31
0.0
  0
LINE
  5
2A8
100
AcDbEntity
  8
0
  6
CONTINUOUS
 62
       7
100
AcDbLine
 10
178.26110522
 20
108.46618407
 30
0.0
 11
178.26110522
 21
108.66618407
 31
0.0
  0
LINE
  5
2A9
100
AcDbEntity
  8
0
  6
CONTINUOUS
 62
       7
100
AcDbLine
 10
177.46110522
 20
109.46618407
 30
0.0
 11
178.26110522
 21
108.66618407
 31
0.0
  0
LINE
  5
2AA
100
AcDbEntity
  8
0
  6
CONTINUOUS
 62
       7
100
AcDbLine
 10
158.26110522
 20
108.46618407
 30
0.0
 11
158.26110522
 21
108.66618407
 31
0.0
  0
LINE
  5
2AB
100
AcDbEntity
  8
0
  6
CONTINUOUS
 62
       7
100
AcDbLine
 10
159.06110522
 20
109.46618407
 30
0.0
 11
158.26110522
 21
108.66618407
 31
0.0
  0
LINE
  5
2AC
100
AcDbEntity
  8
0
  6
CONTINUOUS
 62
       7
100
AcDbLine
 10
159.06110522
 20
109.46618407
 30
0.0
 11
167.56110522
 21
109.46618407
 31
0.0
  0
LINE
  5
2AD
100
AcDbEntity
  8
0
  6
CONTINUOUS
 62
       7
100
AcDbLine
 10
154.76110522
 20
108.46618407
 30
0.0
 11
167.56110522
 21
108.46618407
 31
0.0
  0
LINE
  5
2AE
100
AcDbEntity
  8
0
  6
CONTINUOUS
 62
       7
100
AcDbLine
 10
154.76110522
 20
63.36618407
 30
0.0
 11
181.76110522
 21
63.36618407
 31
0.0
  0
LINE
  5
2AF
100
AcDbEntity
  8
0
  6
CONTINUOUS
 62
       7
100
AcDbLine
 10
154.76110522
 20
61.36618407
 30
0.0
 11
181.76110522
 21
61.36618407
 31
0.0
  0
LINE
  5
2B0
100
AcDbEntity
  8
0
  6
CONTINUOUS
 62
       2
100
AcDbLine
 10
159.68110522
 20
40.46618407
 30
0.0
 11
176.38110522
 21
40.46618407
 31
0.0
  0
CIRCLE
  5
2B1
100
AcDbEntity
  8
0
  6
CONTINUOUS
 62
       2
100
AcDbCircle
 10
168.27109911
 20
40.47614287
 30
0.0
 40
6.5
  0
CIRCLE
  5
2B2
100
AcDbEntity
  8
0
  6
CONTINUOUS
 62
       7
100
AcDbCircle
 10
168.27109911
 20
40.47614287
 30
0.0
 40
5.5
  0
LINE
  5
2B3
100
AcDbEntity
  8
0
  6
CONTINUOUS
 62
       7
100
AcDbLine
 10
154.76110522
 20
15.46618407
 30
0.0
 11
154.76110522
 21
11.46618407
 31
0.0
  0
ARC
  5
2B4
100
AcDbEntity
  8
0
  6
CONTINUOUS
 62
       7
100
AcDbCircle
 10
155.76110522
 20
11.46618407
 30
0.0
 40
1.0
100
AcDbArc
 50
180.0
 51
270.0
  0
ARC
  5
2B5
100
AcDbEntity
  8
0
  6
CONTINUOUS
 62
       7
100
AcDbCircle
 10
180.76110522
 20
11.46618407
 30
0.0
 40
1.0
100
AcDbArc
 50
270.0
 51
0.0
  0
LINE
  5
2B6
100
AcDbEntity
  8
0
  6
CONTINUOUS
 62
       7
100
AcDbLine
 10
181.76110522
 20
15.46618407
 30
0.0
 11
181.76110522
 21
11.46618407
 31
0.0
  0
LINE
  5
2B7
100
AcDbEntity
  8
0
  6
CONTINUOUS
 62
       7
100
AcDbLine
 10
155.76110522
 20
10.46618407
 30
0.0
 11
180.76110522
 21
10.46618407
 31
0.0
  0
LINE
  5
2B8
100
AcDbEntity
  8
0
  6
CONTINUOUS
 62
       7
100
AcDbLine
 10
154.76110522
 20
15.46618407
 30
0.0
 11
181.76110522
 21
15.46618407
 31
0.0
  0
LINE
  5
2B9
100
AcDbEntity
  8
0
  6
CONTINUOUS
 62
       7
100
AcDbLine
 10
181.76110522
 20
39.46618407
 30
0.0
 11
182.26110522
 21
39.46618407
 31
0.0
  0
LINE
  5
2BA
100
AcDbEntity
  8
0
  6
CONTINUOUS
 62
       7
100
AcDbLine
 10
181.76110522
 20
18.36618407
 30
0.0
 11
182.26110522
 21
18.46618407
 31
0.0
  0
LINE
  5
2BB
100
AcDbEntity
  8
0
  6
CONTINUOUS
 62
       7
100
AcDbLine
 10
41.76110522
 20
77.46618407
 30
0.0
 11
14.76110522
 21
77.46618407
 31
0.0
  0
ARC
  5
2BC
100
AcDbEntity
  8
0
  6
CONTINUOUS
 62
       7
100
AcDbCircle
 10
25.76110522
 20
107.46618407
 30
0.0
 40
0.5
100
AcDbArc
 50
90.0
 51
180.0
  0
ARC
  5
2BD
100
AcDbEntity
  8
0
  6
CONTINUOUS
 62
       7
100
AcDbCircle
 10
35.76110522
 20
107.46618407
 30
0.0
 40
0.5
100
AcDbArc
 50
0.0
 51
90.0
  0
LINE
  5
2BE
100
AcDbEntity
  8
0
  6
CONTINUOUS
 62
       2
100
AcDbLine
 10
32.76110522
 20
106.85064104
 30
0.0
 11
32.76110522
 21
130.71359622
 31
0.0
  0
LINE
  5
2BF
100
AcDbEntity
  8
0
  6
CONTINUOUS
 62
       2
100
AcDbLine
 10
28.76110522
 20
106.85064104
 30
0.0
 11
28.76110522
 21
130.71359622
 31
0.0
  0
LINE
  5
2C0
100
AcDbEntity
  8
0
  6
CONTINUOUS
 62
       7
100
AcDbLine
 10
36.26110522
 20
106.46618407
 30
0.0
 11
38.26110522
 21
106.46618407
 31
0.0
  0
LINE
  5
2C1
100
AcDbEntity
  8
0
  6
CONTINUOUS
 62
       7
100
AcDbLine
 10
25.26110522
 20
105.96618407
 30
0.0
 11
25.26110522
 21
107.46618407
 31
0.0
  0
LINE
  5
2C2
100
AcDbEntity
  8
0
  6
CONTINUOUS
 62
       7
100
AcDbLine
 10
36.26110522
 20
105.96618407
 30
0.0
 11
36.26110522
 21
107.46618407
 31
0.0
  0
LINE
  5
2C3
100
AcDbEntity
  8
0
  6
CONTINUOUS
 62
       7
100
AcDbLine
 10
34.76110523
 20
86.96618407
 30
0.0
 11
38.26110523
 21
86.96618407
 31
0.0
  0
LINE
  5
2C4
100
AcDbEntity
  8
0
  6
CONTINUOUS
 62
       7
100
AcDbLine
 10
31.76110522
 20
79.96618411
 30
0.0
 11
31.76110522
 21
83.96618407
 31
0.0
  0
LINE
  5
2C5
100
AcDbEntity
  8
0
  6
CONTINUOUS
 62
       7
100
AcDbLine
 10
24.76110522
 20
101.96618327
 30
0.0
 11
24.76110522
 21
105.96618411
 31
0.0
  0
LINE
  5
2C6
100
AcDbEntity
  8
0
  6
CONTINUOUS
 62
       7
100
AcDbLine
 10
18.26110523
 20
98.96618323
 30
0.0
 11
21.76110523
 21
98.96618323
 31
0.0
  0
ARC
  5
2C7
100
AcDbEntity
  8
0
  6
CONTINUOUS
 62
       7
100
AcDbCircle
 10
34.76110522
 20
83.96618407
 30
0.0
 40
3.0
100
AcDbArc
 50
90.0
 51
180.0
  0
ARC
  5
2C8
100
AcDbEntity
  8
0
  6
CONTINUOUS
 62
       7
100
AcDbCircle
 10
21.76110522
 20
101.96618323
 30
0.0
 40
3.0
100
AcDbArc
 50
270.0
 51
0.0
  0
LINE
  5
2C9
100
AcDbEntity
  8
0
  6
CONTINUOUS
 62
       7
100
AcDbLine
 10
20.70044485
 20
100.90552379
 30
0.0
 11
22.82176533
 21
103.0268441
 31
0.0
  0
LINE
  5
2CA
100
AcDbEntity
  8
0
  6
CONTINUOUS
 62
       7
100
AcDbLine
 10
20.70044477
 20
103.02684376
 30
0.0
 11
22.82176507
 21
100.90552328
 31
0.0
  0
CIRCLE
  5
2CB
100
AcDbEntity
  8
0
  6
CONTINUOUS
 62
       7
100
AcDbCircle
 10
21.76110522
 20
101.96618382
 30
0.0
 40
2.79999924
  0
LINE
  5
2CC
100
AcDbEntity
  8
0
  6
CONTINUOUS
 62
       7
100
AcDbLine
 10
33.70044485
 20
82.90552379
 30
0.0
 11
35.82176533
 21
85.0268441
 31
0.0
  0
LINE
  5
2CD
100
AcDbEntity
  8
0
  6
CONTINUOUS
 62
       7
100
AcDbLine
 10
33.70044477
 20
85.02684376
 30
0.0
 11
35.82176507
 21
82.90552328
 31
0.0
  0
CIRCLE
  5
2CE
100
AcDbEntity
  8
0
  6
CONTINUOUS
 62
       7
100
AcDbCircle
 10
34.76110522
 20
83.96618382
 30
0.0
 40
2.79999924
  0
LINE
  5
2CF
100
AcDbEntity
  8
0
  6
CONTINUOUS
 62
       2
100
AcDbLine
 10
21.76110522
 20
98.26472918
 30
0.0
 11
21.76110522
 21
105.59752465
 31
0.0
  0
LINE
  5
2D0
100
AcDbEntity
  8
0
  6
CONTINUOUS
 62
       2
100
AcDbLine
 10
34.76110522
 20
80.39831481
 30
0.0
 11
34.76110522
 21
87.73111028
 31
0.0
  0
LINE
  5
2D1
100
AcDbEntity
  8
0
  6
CONTINUOUS
 62
       2
100
AcDbLine
 10
31.01094892
 20
83.96618407
 30
0.0
 11
38.05276044
 21
83.96618407
 31
0.0
  0
LINE
  5
2D2
100
AcDbEntity
  8
0
  6
CONTINUOUS
 62
       2
100
AcDbLine
 10
18.55683597
 20
101.96618407
 30
0.0
 11
25.48225392
 21
101.96618407
 31
0.0
  0
LINE
  5
2D3
100
AcDbEntity
  8
0
  6
CONTINUOUS
 62
       7
100
AcDbLine
 10
26.26110522
 20
93.96618407
 30
0.0
 11
25.76110522
 21
94.46618407
 31
0.0
  0
LINE
  5
2D4
100
AcDbEntity
  8
0
  6
CONTINUOUS
 62
       7
100
AcDbLine
 10
25.76110522
 20
91.46618407
 30
0.0
 11
26.26110522
 21
91.96618407
 31
0.0
  0
LINE
  5
2D5
100
AcDbEntity
  8
0
  6
CONTINUOUS
 62
       7
100
AcDbLine
 10
30.26110522
 20
91.96618407
 30
0.0
 11
30.76110522
 21
91.46618407
 31
0.0
  0
LINE
  5
2D6
100
AcDbEntity
  8
0
  6
CONTINUOUS
 62
       7
100
AcDbLine
 10
30.26110522
 20
93.96618407
 30
0.0
 11
30.76110522
 21
94.46618407
 31
0.0
  0
LINE
  5
2D7
100
AcDbEntity
  8
0
  6
CONTINUOUS
 62
       7
100
AcDbLine
 10
25.76110522
 20
91.46618407
 30
0.0
 11
25.76110522
 21
94.46618407
 31
0.0
  0
LINE
  5
2D8
100
AcDbEntity
  8
0
  6
CONTINUOUS
 62
       7
100
AcDbLine
 10
30.76110522
 20
91.46618407
 30
0.0
 11
30.76110522
 21
94.46618407
 31
0.0
  0
LINE
  5
2D9
100
AcDbEntity
  8
0
  6
CONTINUOUS
 62
       7
100
AcDbLine
 10
25.76110522
 20
91.46618407
 30
0.0
 11
30.76110522
 21
91.46618407
 31
0.0
  0
LINE
  5
2DA
100
AcDbEntity
  8
0
  6
CONTINUOUS
 62
       7
100
AcDbLine
 10
25.76110522
 20
94.46618407
 30
0.0
 11
30.76110522
 21
94.46618407
 31
0.0
  0
LINE
  5
2DB
100
AcDbEntity
  8
0
  6
CONTINUOUS
 62
       7
100
AcDbLine
 10
26.26110522
 20
91.96618407
 30
0.0
 11
30.26110522
 21
91.96618407
 31
0.0
  0
LINE
  5
2DC
100
AcDbEntity
  8
0
  6
CONTINUOUS
 62
       7
100
AcDbLine
 10
26.26110522
 20
93.96618407
 30
0.0
 11
30.26110522
 21
93.96618407
 31
0.0
  0
LINE
  5
2DD
100
AcDbEntity
  8
0
  6
CONTINUOUS
 62
       7
100
AcDbLine
 10
26.26110522
 20
91.96618407
 30
0.0
 11
26.26110522
 21
93.96618407
 31
0.0
  0
LINE
  5
2DE
100
AcDbEntity
  8
0
  6
CONTINUOUS
 62
       7
100
AcDbLine
 10
30.26110522
 20
91.96618407
 30
0.0
 11
30.26110522
 21
93.96618407
 31
0.0
  0
ARC
  5
2DF
100
AcDbEntity
  8
0
  6
CONTINUOUS
 62
       7
100
AcDbCircle
 10
18.26110522
 20
79.96618407
 30
0.0
 40
0.5
100
AcDbArc
 50
180.0
 51
270.0
  0
ARC
  5
2E0
100
AcDbEntity
  8
0
  6
CONTINUOUS
 62
       7
100
AcDbCircle
 10
38.26110522
 20
79.96618407
 30
0.0
 40
0.5
100
AcDbArc
 50
270.0
 51
0.0
  0
ARC
  5
2E1
100
AcDbEntity
  8
0
  6
CONTINUOUS
 62
       7
100
AcDbCircle
 10
38.26110522
 20
105.96618407
 30
0.0
 40
0.5
100
AcDbArc
 50
0.0
 51
90.0
  0
ARC
  5
2E2
100
AcDbEntity
  8
0
  6
CONTINUOUS
 62
       7
100
AcDbCircle
 10
18.26110522
 20
105.96618407
 30
0.0
 40
0.5
100
AcDbArc
 50
90.0
 51
180.0
  0
ARC
  5
2E3
100
AcDbEntity
  8
0
  6
CONTINUOUS
 62
       7
100
AcDbCircle
 10
18.76110522
 20
80.46618407
 30
0.0
 40
0.5
100
AcDbArc
 50
180.0
 51
270.0
  0
ARC
  5
2E4
100
AcDbEntity
  8
0
  6
CONTINUOUS
 62
       7
100
AcDbCircle
 10
37.76110522
 20
80.46618407
 30
0.0
 40
0.5
100
AcDbArc
 50
270.0
 51
0.0
  0
ARC
  5
2E5
100
AcDbEntity
  8
0
  6
CONTINUOUS
 62
       7
100
AcDbCircle
 10
37.76110522
 20
105.46618407
 30
0.0
 40
0.5
100
AcDbArc
 50
0.0
 51
90.0
  0
ARC
  5
2E6
100
AcDbEntity
  8
0
  6
CONTINUOUS
 62
       7
100
AcDbCircle
 10
18.76110522
 20
105.46618407
 30
0.0
 40
0.5
100
AcDbArc
 50
90.0
 51
180.0
  0
LINE
  5
2E7
100
AcDbEntity
  8
0
  6
CONTINUOUS
 62
       7
100
AcDbLine
 10
18.76110522
 20
79.96618407
 30
0.0
 11
37.76110522
 21
79.96618407
 31
0.0
  0
LINE
  5
2E8
100
AcDbEntity
  8
0
  6
CONTINUOUS
 62
       7
100
AcDbLine
 10
18.76110522
 20
105.96618407
 30
0.0
 11
37.76110522
 21
105.96618407
 31
0.0
  0
LINE
  5
2E9
100
AcDbEntity
  8
0
  6
CONTINUOUS
 62
       7
100
AcDbLine
 10
18.26110522
 20
106.46618407
 30
0.0
 11
25.26110522
 21
106.46618407
 31
0.0
  0
LINE
  5
2EA
100
AcDbEntity
  8
0
  6
CONTINUOUS
 62
       7
100
AcDbLine
 10
18.26110522
 20
79.46618407
 30
0.0
 11
38.26110522
 21
79.46618407
 31
0.0
  0
LINE
  5
2EB
100
AcDbEntity
  8
0
  6
CONTINUOUS
 62
       7
100
AcDbLine
 10
17.76110522
 20
79.96618407
 30
0.0
 11
17.76110522
 21
105.96618407
 31
0.0
  0
LINE
  5
2EC
100
AcDbEntity
  8
0
  6
CONTINUOUS
 62
       7
100
AcDbLine
 10
38.76110522
 20
79.96618407
 30
0.0
 11
38.76110522
 21
105.96618407
 31
0.0
  0
LINE
  5
2ED
100
AcDbEntity
  8
0
  6
CONTINUOUS
 62
       7
100
AcDbLine
 10
18.26110522
 20
80.46618407
 30
0.0
 11
18.26110522
 21
105.46618407
 31
0.0
  0
LINE
  5
2EE
100
AcDbEntity
  8
0
  6
CONTINUOUS
 62
       7
100
AcDbLine
 10
38.26110522
 20
80.46618407
 30
0.0
 11
38.26110522
 21
105.46618407
 31
0.0
  0
LINE
  5
2EF
100
AcDbEntity
  8
0
  6
CONTINUOUS
 62
       2
100
AcDbLine
 10
16.907675
 20
92.96618407
 30
0.0
 11
39.68000314
 21
92.96618407
 31
0.0
  0
LINE
  5
2F0
100
AcDbEntity
  8
0
  6
CONTINUOUS
 62
       7
100
AcDbLine
 10
25.76110522
 20
107.96618407
 30
0.0
 11
35.76110522
 21
107.96618407
 31
0.0
  0
LINE
  5
2F1
100
AcDbEntity
  8
0
  6
CONTINUOUS
 62
       7
100
AcDbLine
 10
29.96110522
 20
120.11671338
 30
0.0
 11
29.96110522
 21
113.95963989
 31
0.0
  0
LINE
  5
2F2
100
AcDbEntity
  8
0
  6
CONTINUOUS
 62
       7
100
AcDbLine
 10
27.56110522
 20
120.11671338
 30
0.0
 11
27.56110522
 21
115.00963989
 31
0.0
  0
LINE
  5
2F3
100
AcDbEntity
  8
0
  6
CONTINUOUS
 62
       7
100
AcDbLine
 10
27.5611052
 20
120.11671338
 30
0.0
 11
29.96110518
 21
120.11671338
 31
0.0
  0
LINE
  5
2F4
100
AcDbEntity
  8
0
  6
CENTER
 62
       2
100
AcDbLine
 10
27.56110522
 20
115.00963989
 30
0.0
 11
29.96110522
 21
113.95963989
 31
0.0
  0
LINE
  5
2F5
100
AcDbEntity
  8
0
  6
CONTINUOUS
 62
       7
100
AcDbLine
 10
29.14110522
 20
130.11671338
 30
0.0
 11
29.14110522
 21
120.11671338
 31
0.0
  0
LINE
  5
2F6
100
AcDbEntity
  8
0
  6
CONTINUOUS
 62
       7
100
AcDbLine
 10
28.38110522
 20
130.11671338
 30
0.0
 11
28.38110522
 21
120.11671338
 31
0.0
  0
LINE
  5
2F7
100
AcDbEntity
  8
0
  6
CONTINUOUS
 62
       7
100
AcDbLine
 10
28.38110522
 20
130.11671338
 30
0.0
 11
29.14110522
 21
130.11671338
 31
0.0
  0
LINE
  5
2F8
100
AcDbEntity
  8
0
  6
CENTER
 62
       2
100
AcDbLine
 10
27.56110522
 20
112.8299444
 30
0.0
 11
29.96110522
 21
111.7799444
 31
0.0
  0
LINE
  5
2F9
100
AcDbEntity
  8
0
  6
CONTINUOUS
 62
       7
100
AcDbLine
 10
29.96110522
 20
111.7799444
 30
0.0
 11
29.96110522
 21
107.96618407
 31
0.0
  0
LINE
  5
2FA
100
AcDbEntity
  8
0
  6
CONTINUOUS
 62
       7
100
AcDbLine
 10
27.56110522
 20
112.8299444
 30
0.0
 11
27.56110522
 21
107.96618407
 31
0.0
  0
LINE
  5
2FB
100
AcDbEntity
  8
0
  6
CONTINUOUS
 62
       7
100
AcDbLine
 10
33.96110522
 20
120.11671338
 30
0.0
 11
33.96110522
 21
113.95963989
 31
0.0
  0
LINE
  5
2FC
100
AcDbEntity
  8
0
  6
CONTINUOUS
 62
       7
100
AcDbLine
 10
31.56110522
 20
120.11671338
 30
0.0
 11
31.56110522
 21
115.00963989
 31
0.0
  0
LINE
  5
2FD
100
AcDbEntity
  8
0
  6
CONTINUOUS
 62
       7
100
AcDbLine
 10
31.5611052
 20
120.11671338
 30
0.0
 11
33.96110518
 21
120.11671338
 31
0.0
  0
LINE
  5
2FE
100
AcDbEntity
  8
0
  6
CENTER
 62
       2
100
AcDbLine
 10
31.56110522
 20
115.00963989
 30
0.0
 11
33.96110522
 21
113.95963989
 31
0.0
  0
LINE
  5
2FF
100
AcDbEntity
  8
0
  6
CONTINUOUS
 62
       7
100
AcDbLine
 10
33.14110522
 20
130.11671338
 30
0.0
 11
33.14110522
 21
120.11671338
 31
0.0
  0
LINE
  5
300
100
AcDbEntity
  8
0
  6
CONTINUOUS
 62
       7
100
AcDbLine
 10
32.38110522
 20
130.11671338
 30
0.0
 11
32.38110522
 21
120.11671338
 31
0.0
  0
LINE
  5
301
100
AcDbEntity
  8
0
  6
CONTINUOUS
 62
       7
100
AcDbLine
 10
32.38110522
 20
130.11671338
 30
0.0
 11
33.14110522
 21
130.11671338
 31
0.0
  0
LINE
  5
302
100
AcDbEntity
  8
0
  6
CENTER
 62
       2
100
AcDbLine
 10
31.56110522
 20
112.8299444
 30
0.0
 11
33.96110522
 21
111.7799444
 31
0.0
  0
LINE
  5
303
100
AcDbEntity
  8
0
  6
CONTINUOUS
 62
       7
100
AcDbLine
 10
33.96110522
 20
111.7799444
 30
0.0
 11
33.96110522
 21
107.96618407
 31
0.0
  0
LINE
  5
304
100
AcDbEntity
  8
0
  6
CONTINUOUS
 62
       7
100
AcDbLine
 10
31.56110522
 20
112.8299444
 30
0.0
 11
31.56110522
 21
107.96618407
 31
0.0
  0
LINE
  5
305
100
AcDbEntity
  8
0
  6
CONTINUOUS
 62
       7
100
AcDbLine
 10
69.76110522
 20
77.46618407
 30
0.0
 11
42.76110522
 21
77.46618407
 31
0.0
  0
LINE
  5
306
100
AcDbEntity
  8
0
  6
CONTINUOUS
 62
       7
100
AcDbLine
 10
64.26110522
 20
105.96618407
 30
0.0
 11
64.26110522
 21
107.46618407
 31
0.0
  0
LINE
  5
307
100
AcDbEntity
  8
0
  6
CONTINUOUS
 62
       7
100
AcDbLine
 10
53.26110522
 20
105.96618407
 30
0.0
 11
53.26110522
 21
107.46618407
 31
0.0
  0
LINE
  5
308
100
AcDbEntity
  8
0
  6
CONTINUOUS
 62
       2
100
AcDbLine
 10
60.76110522
 20
106.85064104
 30
0.0
 11
60.76110522
 21
130.71359622
 31
0.0
  0
LINE
  5
309
100
AcDbEntity
  8
0
  6
CONTINUOUS
 62
       2
100
AcDbLine
 10
56.76110522
 20
106.85064104
 30
0.0
 11
56.76110522
 21
130.71359622
 31
0.0
  0
LINE
  5
30A
100
AcDbEntity
  8
0
  6
CONTINUOUS
 62
       7
100
AcDbLine
 10
64.26110522
 20
106.46618407
 30
0.0
 11
66.26110522
 21
106.46618407
 31
0.0
  0
LINE
  5
30B
100
AcDbEntity
  8
0
  6
CONTINUOUS
 62
       7
100
AcDbLine
 10
62.76110523
 20
86.96618407
 30
0.0
 11
66.26110523
 21
86.96618407
 31
0.0
  0
LINE
  5
30C
100
AcDbEntity
  8
0
  6
CONTINUOUS
 62
       7
100
AcDbLine
 10
59.76110522
 20
79.96618411
 30
0.0
 11
59.76110522
 21
83.96618407
 31
0.0
  0
LINE
  5
30D
100
AcDbEntity
  8
0
  6
CONTINUOUS
 62
       7
100
AcDbLine
 10
52.76110522
 20
101.96618327
 30
0.0
 11
52.76110522
 21
105.96618411
 31
0.0
  0
LINE
  5
30E
100
AcDbEntity
  8
0
  6
CONTINUOUS
 62
       7
100
AcDbLine
 10
46.26110523
 20
98.96618323
 30
0.0
 11
49.76110523
 21
98.96618323
 31
0.0
  0
ARC
  5
30F
100
AcDbEntity
  8
0
  6
CONTINUOUS
 62
       7
100
AcDbCircle
 10
62.76110522
 20
83.96618407
 30
0.0
 40
3.0
100
AcDbArc
 50
90.0
 51
180.0
  0
ARC
  5
310
100
AcDbEntity
  8
0
  6
CONTINUOUS
 62
       7
100
AcDbCircle
 10
49.76110522
 20
101.96618323
 30
0.0
 40
3.0
100
AcDbArc
 50
270.0
 51
0.0
  0
LINE
  5
311
100
AcDbEntity
  8
0
  6
CONTINUOUS
 62
       7
100
AcDbLine
 10
48.70044485
 20
100.90552379
 30
0.0
 11
50.82176533
 21
103.0268441
 31
0.0
  0
LINE
  5
312
100
AcDbEntity
  8
0
  6
CONTINUOUS
 62
       7
100
AcDbLine
 10
48.70044477
 20
103.02684376
 30
0.0
 11
50.82176507
 21
100.90552328
 31
0.0
  0
CIRCLE
  5
313
100
AcDbEntity
  8
0
  6
CONTINUOUS
 62
       7
100
AcDbCircle
 10
49.76110522
 20
101.96618382
 30
0.0
 40
2.79999924
  0
LINE
  5
314
100
AcDbEntity
  8
0
  6
CONTINUOUS
 62
       7
100
AcDbLine
 10
61.70044485
 20
82.90552379
 30
0.0
 11
63.82176533
 21
85.0268441
 31
0.0
  0
LINE
  5
315
100
AcDbEntity
  8
0
  6
CONTINUOUS
 62
       7
100
AcDbLine
 10
61.70044477
 20
85.02684376
 30
0.0
 11
63.82176507
 21
82.90552328
 31
0.0
  0
CIRCLE
  5
316
100
AcDbEntity
  8
0
  6
CONTINUOUS
 62
       7
100
AcDbCircle
 10
62.76110522
 20
83.96618382
 30
0.0
 40
2.79999924
  0
LINE
  5
317
100
AcDbEntity
  8
0
  6
CONTINUOUS
 62
       2
100
AcDbLine
 10
49.76110522
 20
98.26472918
 30
0.0
 11
49.76110522
 21
105.59752465
 31
0.0
  0
LINE
  5
318
100
AcDbEntity
  8
0
  6
CONTINUOUS
 62
       2
100
AcDbLine
 10
62.76110522
 20
80.39831481
 30
0.0
 11
62.76110522
 21
87.73111028
 31
0.0
  0
LINE
  5
319
100
AcDbEntity
  8
0
  6
CONTINUOUS
 62
       2
100
AcDbLine
 10
59.01094892
 20
83.96618407
 30
0.0
 11
66.05276044
 21
83.96618407
 31
0.0
  0
LINE
  5
31A
100
AcDbEntity
  8
0
  6
CONTINUOUS
 62
       2
100
AcDbLine
 10
46.55683597
 20
101.96618407
 30
0.0
 11
53.48225392
 21
101.96618407
 31
0.0
  0
LINE
  5
31B
100
AcDbEntity
  8
0
  6
CONTINUOUS
 62
       7
100
AcDbLine
 10
54.26110522
 20
93.96618407
 30
0.0
 11
53.76110522
 21
94.46618407
 31
0.0
  0
LINE
  5
31C
100
AcDbEntity
  8
0
  6
CONTINUOUS
 62
       7
100
AcDbLine
 10
53.76110522
 20
91.46618407
 30
0.0
 11
54.26110522
 21
91.96618407
 31
0.0
  0
LINE
  5
31D
100
AcDbEntity
  8
0
  6
CONTINUOUS
 62
       7
100
AcDbLine
 10
58.26110522
 20
91.96618407
 30
0.0
 11
58.76110522
 21
91.46618407
 31
0.0
  0
LINE
  5
31E
100
AcDbEntity
  8
0
  6
CONTINUOUS
 62
       7
100
AcDbLine
 10
58.26110522
 20
93.96618407
 30
0.0
 11
58.76110522
 21
94.46618407
 31
0.0
  0
LINE
  5
31F
100
AcDbEntity
  8
0
  6
CONTINUOUS
 62
       7
100
AcDbLine
 10
53.76110522
 20
91.46618407
 30
0.0
 11
53.76110522
 21
94.46618407
 31
0.0
  0
LINE
  5
320
100
AcDbEntity
  8
0
  6
CONTINUOUS
 62
       7
100
AcDbLine
 10
58.76110522
 20
91.46618407
 30
0.0
 11
58.76110522
 21
94.46618407
 31
0.0
  0
LINE
  5
321
100
AcDbEntity
  8
0
  6
CONTINUOUS
 62
       7
100
AcDbLine
 10
53.76110522
 20
91.46618407
 30
0.0
 11
58.76110522
 21
91.46618407
 31
0.0
  0
LINE
  5
322
100
AcDbEntity
  8
0
  6
CONTINUOUS
 62
       7
100
AcDbLine
 10
53.76110522
 20
94.46618407
 30
0.0
 11
58.76110522
 21
94.46618407
 31
0.0
  0
LINE
  5
323
100
AcDbEntity
  8
0
  6
CONTINUOUS
 62
       7
100
AcDbLine
 10
54.26110522
 20
91.96618407
 30
0.0
 11
58.26110522
 21
91.96618407
 31
0.0
  0
LINE
  5
324
100
AcDbEntity
  8
0
  6
CONTINUOUS
 62
       7
100
AcDbLine
 10
54.26110522
 20
93.96618407
 30
0.0
 11
58.26110522
 21
93.96618407
 31
0.0
  0
LINE
  5
325
100
AcDbEntity
  8
0
  6
CONTINUOUS
 62
       7
100
AcDbLine
 10
54.26110522
 20
91.96618407
 30
0.0
 11
54.26110522
 21
93.96618407
 31
0.0
  0
LINE
  5
326
100
AcDbEntity
  8
0
  6
CONTINUOUS
 62
       7
100
AcDbLine
 10
58.26110522
 20
91.96618407
 30
0.0
 11
58.26110522
 21
93.96618407
 31
0.0
  0
ARC
  5
327
100
AcDbEntity
  8
0
  6
CONTINUOUS
 62
       7
100
AcDbCircle
 10
46.26110522
 20
79.96618407
 30
0.0
 40
0.5
100
AcDbArc
 50
180.0
 51
270.0
  0
ARC
  5
328
100
AcDbEntity
  8
0
  6
CONTINUOUS
 62
       7
100
AcDbCircle
 10
66.26110522
 20
79.96618407
 30
0.0
 40
0.5
100
AcDbArc
 50
270.0
 51
0.0
  0
ARC
  5
329
100
AcDbEntity
  8
0
  6
CONTINUOUS
 62
       7
100
AcDbCircle
 10
66.26110522
 20
105.96618407
 30
0.0
 40
0.5
100
AcDbArc
 50
0.0
 51
90.0
  0
ARC
  5
32A
100
AcDbEntity
  8
0
  6
CONTINUOUS
 62
       7
100
AcDbCircle
 10
46.26110522
 20
105.96618407
 30
0.0
 40
0.5
100
AcDbArc
 50
90.0
 51
180.0
  0
ARC
  5
32B
100
AcDbEntity
  8
0
  6
CONTINUOUS
 62
       7
100
AcDbCircle
 10
46.76110522
 20
80.46618407
 30
0.0
 40
0.5
100
AcDbArc
 50
180.0
 51
270.0
  0
ARC
  5
32C
100
AcDbEntity
  8
0
  6
CONTINUOUS
 62
       7
100
AcDbCircle
 10
65.76110522
 20
80.46618407
 30
0.0
 40
0.5
100
AcDbArc
 50
270.0
 51
0.0
  0
ARC
  5
32D
100
AcDbEntity
  8
0
  6
CONTINUOUS
 62
       7
100
AcDbCircle
 10
65.76110522
 20
105.46618407
 30
0.0
 40
0.5
100
AcDbArc
 50
0.0
 51
90.0
  0
ARC
  5
32E
100
AcDbEntity
  8
0
  6
CONTINUOUS
 62
       7
100
AcDbCircle
 10
46.76110522
 20
105.46618407
 30
0.0
 40
0.5
100
AcDbArc
 50
90.0
 51
180.0
  0
LINE
  5
32F
100
AcDbEntity
  8
0
  6
CONTINUOUS
 62
       7
100
AcDbLine
 10
46.76110522
 20
79.96618407
 30
0.0
 11
65.76110522
 21
79.96618407
 31
0.0
  0
LINE
  5
330
100
AcDbEntity
  8
0
  6
CONTINUOUS
 62
       7
100
AcDbLine
 10
46.76110522
 20
105.96618407
 30
0.0
 11
65.76110522
 21
105.96618407
 31
0.0
  0
LINE
  5
331
100
AcDbEntity
  8
0
  6
CONTINUOUS
 62
       7
100
AcDbLine
 10
46.26110522
 20
106.46618407
 30
0.0
 11
53.26110522
 21
106.46618407
 31
0.0
  0
LINE
  5
332
100
AcDbEntity
  8
0
  6
CONTINUOUS
 62
       7
100
AcDbLine
 10
46.26110522
 20
79.46618407
 30
0.0
 11
66.26110522
 21
79.46618407
 31
0.0
  0
LINE
  5
333
100
AcDbEntity
  8
0
  6
CONTINUOUS
 62
       7
100
AcDbLine
 10
45.76110522
 20
79.96618407
 30
0.0
 11
45.76110522
 21
105.96618407
 31
0.0
  0
LINE
  5
334
100
AcDbEntity
  8
0
  6
CONTINUOUS
 62
       7
100
AcDbLine
 10
66.76110522
 20
79.96618407
 30
0.0
 11
66.76110522
 21
105.96618407
 31
0.0
  0
LINE
  5
335
100
AcDbEntity
  8
0
  6
CONTINUOUS
 62
       7
100
AcDbLine
 10
46.26110522
 20
80.46618407
 30
0.0
 11
46.26110522
 21
105.46618407
 31
0.0
  0
LINE
  5
336
100
AcDbEntity
  8
0
  6
CONTINUOUS
 62
       7
100
AcDbLine
 10
66.26110522
 20
80.46618407
 30
0.0
 11
66.26110522
 21
105.46618407
 31
0.0
  0
LINE
  5
337
100
AcDbEntity
  8
0
  6
CONTINUOUS
 62
       2
100
AcDbLine
 10
44.907675
 20
92.96618407
 30
0.0
 11
67.68000314
 21
92.96618407
 31
0.0
  0
LINE
  5
338
100
AcDbEntity
  8
0
  6
CONTINUOUS
 62
       7
100
AcDbLine
 10
53.76110522
 20
107.96618407
 30
0.0
 11
63.76110522
 21
107.96618407
 31
0.0
  0
LINE
  5
339
100
AcDbEntity
  8
0
  6
CONTINUOUS
 62
       7
100
AcDbLine
 10
57.96110522
 20
120.11671338
 30
0.0
 11
57.96110522
 21
113.95963989
 31
0.0
  0
LINE
  5
33A
100
AcDbEntity
  8
0
  6
CONTINUOUS
 62
       7
100
AcDbLine
 10
55.56110522
 20
120.11671338
 30
0.0
 11
55.56110522
 21
115.00963989
 31
0.0
  0
LINE
  5
33B
100
AcDbEntity
  8
0
  6
CONTINUOUS
 62
       7
100
AcDbLine
 10
55.5611052
 20
120.11671338
 30
0.0
 11
57.96110518
 21
120.11671338
 31
0.0
  0
LINE
  5
33C
100
AcDbEntity
  8
0
  6
CENTER
 62
       2
100
AcDbLine
 10
55.56110522
 20
115.00963989
 30
0.0
 11
57.96110522
 21
113.95963989
 31
0.0
  0
LINE
  5
33D
100
AcDbEntity
  8
0
  6
CONTINUOUS
 62
       7
100
AcDbLine
 10
57.14110522
 20
130.11671338
 30
0.0
 11
57.14110522
 21
120.11671338
 31
0.0
  0
LINE
  5
33E
100
AcDbEntity
  8
0
  6
CONTINUOUS
 62
       7
100
AcDbLine
 10
56.38110522
 20
130.11671338
 30
0.0
 11
56.38110522
 21
120.11671338
 31
0.0
  0
LINE
  5
33F
100
AcDbEntity
  8
0
  6
CONTINUOUS
 62
       7
100
AcDbLine
 10
56.38110522
 20
130.11671338
 30
0.0
 11
57.14110522
 21
130.11671338
 31
0.0
  0
LINE
  5
340
100
AcDbEntity
  8
0
  6
CENTER
 62
       2
100
AcDbLine
 10
55.56110522
 20
112.8299444
 30
0.0
 11
57.96110522
 21
111.7799444
 31
0.0
  0
LINE
  5
341
100
AcDbEntity
  8
0
  6
CONTINUOUS
 62
       7
100
AcDbLine
 10
57.96110522
 20
111.7799444
 30
0.0
 11
57.96110522
 21
107.96618407
 31
0.0
  0
LINE
  5
342
100
AcDbEntity
  8
0
  6
CONTINUOUS
 62
       7
100
AcDbLine
 10
55.56110522
 20
112.8299444
 30
0.0
 11
55.56110522
 21
107.96618407
 31
0.0
  0
LINE
  5
343
100
AcDbEntity
  8
0
  6
CONTINUOUS
 62
       7
100
AcDbLine
 10
61.96110522
 20
120.11671338
 30
0.0
 11
61.96110522
 21
113.95963989
 31
0.0
  0
LINE
  5
344
100
AcDbEntity
  8
0
  6
CONTINUOUS
 62
       7
100
AcDbLine
 10
59.56110522
 20
120.11671338
 30
0.0
 11
59.56110522
 21
115.00963989
 31
0.0
  0
LINE
  5
345
100
AcDbEntity
  8
0
  6
CONTINUOUS
 62
       7
100
AcDbLine
 10
59.5611052
 20
120.11671338
 30
0.0
 11
61.96110518
 21
120.11671338
 31
0.0
  0
LINE
  5
346
100
AcDbEntity
  8
0
  6
CENTER
 62
       2
100
AcDbLine
 10
59.56110522
 20
115.00963989
 30
0.0
 11
61.96110522
 21
113.95963989
 31
0.0
  0
LINE
  5
347
100
AcDbEntity
  8
0
  6
CONTINUOUS
 62
       7
100
AcDbLine
 10
61.14110522
 20
130.11671338
 30
0.0
 11
61.14110522
 21
120.11671338
 31
0.0
  0
LINE
  5
348
100
AcDbEntity
  8
0
  6
CONTINUOUS
 62
       7
100
AcDbLine
 10
60.38110522
 20
130.11671338
 30
0.0
 11
60.38110522
 21
120.11671338
 31
0.0
  0
LINE
  5
349
100
AcDbEntity
  8
0
  6
CONTINUOUS
 62
       7
100
AcDbLine
 10
60.38110522
 20
130.11671338
 30
0.0
 11
61.14110522
 21
130.11671338
 31
0.0
  0
LINE
  5
34A
100
AcDbEntity
  8
0
  6
CENTER
 62
       2
100
AcDbLine
 10
59.56110522
 20
112.8299444
 30
0.0
 11
61.96110522
 21
111.7799444
 31
0.0
  0
LINE
  5
34B
100
AcDbEntity
  8
0
  6
CONTINUOUS
 62
       7
100
AcDbLine
 10
61.96110522
 20
111.7799444
 30
0.0
 11
61.96110522
 21
107.96618407
 31
0.0
  0
LINE
  5
34C
100
AcDbEntity
  8
0
  6
CONTINUOUS
 62
       7
100
AcDbLine
 10
59.56110522
 20
112.8299444
 30
0.0
 11
59.56110522
 21
107.96618407
 31
0.0
  0
ARC
  5
34D
100
AcDbEntity
  8
0
  6
CONTINUOUS
 62
       7
100
AcDbCircle
 10
63.76110522
 20
107.46618407
 30
0.0
 40
0.5
100
AcDbArc
 50
0.0
 51
90.0
  0
ARC
  5
34E
100
AcDbEntity
  8
0
  6
CONTINUOUS
 62
       7
100
AcDbCircle
 10
53.76110522
 20
107.46618407
 30
0.0
 40
0.5
100
AcDbArc
 50
90.0
 51
180.0
  0
LINE
  5
34F
100
AcDbEntity
  8
0
  6
CONTINUOUS
 62
       7
100
AcDbLine
 10
97.76110522
 20
77.46618407
 30
0.0
 11
70.76110522
 21
77.46618407
 31
0.0
  0
LINE
  5
350
100
AcDbEntity
  8
0
  6
CONTINUOUS
 62
       7
100
AcDbLine
 10
92.26110522
 20
105.96618407
 30
0.0
 11
92.26110522
 21
107.46618407
 31
0.0
  0
LINE
  5
351
100
AcDbEntity
  8
0
  6
CONTINUOUS
 62
       7
100
AcDbLine
 10
81.26110522
 20
105.96618407
 30
0.0
 11
81.26110522
 21
107.46618407
 31
0.0
  0
LINE
  5
352
100
AcDbEntity
  8
0
  6
CONTINUOUS
 62
       2
100
AcDbLine
 10
88.76110522
 20
106.85064104
 30
0.0
 11
88.76110522
 21
130.71359622
 31
0.0
  0
LINE
  5
353
100
AcDbEntity
  8
0
  6
CONTINUOUS
 62
       2
100
AcDbLine
 10
84.76110522
 20
106.85064104
 30
0.0
 11
84.76110522
 21
130.71359622
 31
0.0
  0
LINE
  5
354
100
AcDbEntity
  8
0
  6
CONTINUOUS
 62
       7
100
AcDbLine
 10
92.26110522
 20
106.46618407
 30
0.0
 11
94.26110522
 21
106.46618407
 31
0.0
  0
LINE
  5
355
100
AcDbEntity
  8
0
  6
CONTINUOUS
 62
       7
100
AcDbLine
 10
90.76110523
 20
86.96618407
 30
0.0
 11
94.26110523
 21
86.96618407
 31
0.0
  0
LINE
  5
356
100
AcDbEntity
  8
0
  6
CONTINUOUS
 62
       7
100
AcDbLine
 10
87.76110522
 20
79.96618411
 30
0.0
 11
87.76110522
 21
83.96618407
 31
0.0
  0
LINE
  5
357
100
AcDbEntity
  8
0
  6
CONTINUOUS
 62
       7
100
AcDbLine
 10
80.76110522
 20
101.96618327
 30
0.0
 11
80.76110522
 21
105.96618411
 31
0.0
  0
LINE
  5
358
100
AcDbEntity
  8
0
  6
CONTINUOUS
 62
       7
100
AcDbLine
 10
74.26110523
 20
98.96618323
 30
0.0
 11
77.76110523
 21
98.96618323
 31
0.0
  0
ARC
  5
359
100
AcDbEntity
  8
0
  6
CONTINUOUS
 62
       7
100
AcDbCircle
 10
90.76110522
 20
83.96618407
 30
0.0
 40
3.0
100
AcDbArc
 50
90.0
 51
180.0
  0
ARC
  5
35A
100
AcDbEntity
  8
0
  6
CONTINUOUS
 62
       7
100
AcDbCircle
 10
77.76110522
 20
101.96618323
 30
0.0
 40
3.0
100
AcDbArc
 50
270.0
 51
0.0
  0
LINE
  5
35B
100
AcDbEntity
  8
0
  6
CONTINUOUS
 62
       7
100
AcDbLine
 10
76.70044485
 20
100.90552379
 30
0.0
 11
78.82176533
 21
103.0268441
 31
0.0
  0
LINE
  5
35C
100
AcDbEntity
  8
0
  6
CONTINUOUS
 62
       7
100
AcDbLine
 10
76.70044477
 20
103.02684376
 30
0.0
 11
78.82176507
 21
100.90552328
 31
0.0
  0
CIRCLE
  5
35D
100
AcDbEntity
  8
0
  6
CONTINUOUS
 62
       7
100
AcDbCircle
 10
77.76110522
 20
101.96618382
 30
0.0
 40
2.79999924
  0
LINE
  5
35E
100
AcDbEntity
  8
0
  6
CONTINUOUS
 62
       7
100
AcDbLine
 10
89.70044485
 20
82.90552379
 30
0.0
 11
91.82176533
 21
85.0268441
 31
0.0
  0
LINE
  5
35F
100
AcDbEntity
  8
0
  6
CONTINUOUS
 62
       7
100
AcDbLine
 10
89.70044477
 20
85.02684376
 30
0.0
 11
91.82176507
 21
82.90552328
 31
0.0
  0
CIRCLE
  5
360
100
AcDbEntity
  8
0
  6
CONTINUOUS
 62
       7
100
AcDbCircle
 10
90.76110522
 20
83.96618382
 30
0.0
 40
2.79999924
  0
LINE
  5
361
100
AcDbEntity
  8
0
  6
CONTINUOUS
 62
       2
100
AcDbLine
 10
77.76110522
 20
98.26472918
 30
0.0
 11
77.76110522
 21
105.59752465
 31
0.0
  0
LINE
  5
362
100
AcDbEntity
  8
0
  6
CONTINUOUS
 62
       2
100
AcDbLine
 10
90.76110522
 20
80.39831481
 30
0.0
 11
90.76110522
 21
87.73111028
 31
0.0
  0
LINE
  5
363
100
AcDbEntity
  8
0
  6
CONTINUOUS
 62
       2
100
AcDbLine
 10
87.01094892
 20
83.96618407
 30
0.0
 11
94.05276044
 21
83.96618407
 31
0.0
  0
LINE
  5
364
100
AcDbEntity
  8
0
  6
CONTINUOUS
 62
       2
100
AcDbLine
 10
74.55683597
 20
101.96618407
 30
0.0
 11
81.48225392
 21
101.96618407
 31
0.0
  0
LINE
  5
365
100
AcDbEntity
  8
0
  6
CONTINUOUS
 62
       7
100
AcDbLine
 10
82.26110522
 20
93.96618407
 30
0.0
 11
81.76110522
 21
94.46618407
 31
0.0
  0
LINE
  5
366
100
AcDbEntity
  8
0
  6
CONTINUOUS
 62
       7
100
AcDbLine
 10
81.76110522
 20
91.46618407
 30
0.0
 11
82.26110522
 21
91.96618407
 31
0.0
  0
LINE
  5
367
100
AcDbEntity
  8
0
  6
CONTINUOUS
 62
       7
100
AcDbLine
 10
86.26110522
 20
91.96618407
 30
0.0
 11
86.76110522
 21
91.46618407
 31
0.0
  0
LINE
  5
368
100
AcDbEntity
  8
0
  6
CONTINUOUS
 62
       7
100
AcDbLine
 10
86.26110522
 20
93.96618407
 30
0.0
 11
86.76110522
 21
94.46618407
 31
0.0
  0
LINE
  5
369
100
AcDbEntity
  8
0
  6
CONTINUOUS
 62
       7
100
AcDbLine
 10
81.76110522
 20
91.46618407
 30
0.0
 11
81.76110522
 21
94.46618407
 31
0.0
  0
LINE
  5
36A
100
AcDbEntity
  8
0
  6
CONTINUOUS
 62
       7
100
AcDbLine
 10
86.76110522
 20
91.46618407
 30
0.0
 11
86.76110522
 21
94.46618407
 31
0.0
  0
LINE
  5
36B
100
AcDbEntity
  8
0
  6
CONTINUOUS
 62
       7
100
AcDbLine
 10
81.76110522
 20
91.46618407
 30
0.0
 11
86.76110522
 21
91.46618407
 31
0.0
  0
LINE
  5
36C
100
AcDbEntity
  8
0
  6
CONTINUOUS
 62
       7
100
AcDbLine
 10
81.76110522
 20
94.46618407
 30
0.0
 11
86.76110522
 21
94.46618407
 31
0.0
  0
LINE
  5
36D
100
AcDbEntity
  8
0
  6
CONTINUOUS
 62
       7
100
AcDbLine
 10
82.26110522
 20
91.96618407
 30
0.0
 11
86.26110522
 21
91.96618407
 31
0.0
  0
LINE
  5
36E
100
AcDbEntity
  8
0
  6
CONTINUOUS
 62
       7
100
AcDbLine
 10
82.26110522
 20
93.96618407
 30
0.0
 11
86.26110522
 21
93.96618407
 31
0.0
  0
LINE
  5
36F
100
AcDbEntity
  8
0
  6
CONTINUOUS
 62
       7
100
AcDbLine
 10
82.26110522
 20
91.96618407
 30
0.0
 11
82.26110522
 21
93.96618407
 31
0.0
  0
LINE
  5
370
100
AcDbEntity
  8
0
  6
CONTINUOUS
 62
       7
100
AcDbLine
 10
86.26110522
 20
91.96618407
 30
0.0
 11
86.26110522
 21
93.96618407
 31
0.0
  0
ARC
  5
371
100
AcDbEntity
  8
0
  6
CONTINUOUS
 62
       7
100
AcDbCircle
 10
74.26110522
 20
79.96618407
 30
0.0
 40
0.5
100
AcDbArc
 50
180.0
 51
270.0
  0
ARC
  5
372
100
AcDbEntity
  8
0
  6
CONTINUOUS
 62
       7
100
AcDbCircle
 10
94.26110522
 20
79.96618407
 30
0.0
 40
0.5
100
AcDbArc
 50
270.0
 51
0.0
  0
ARC
  5
373
100
AcDbEntity
  8
0
  6
CONTINUOUS
 62
       7
100
AcDbCircle
 10
94.26110522
 20
105.96618407
 30
0.0
 40
0.5
100
AcDbArc
 50
0.0
 51
90.0
  0
ARC
  5
374
100
AcDbEntity
  8
0
  6
CONTINUOUS
 62
       7
100
AcDbCircle
 10
74.26110522
 20
105.96618407
 30
0.0
 40
0.5
100
AcDbArc
 50
90.0
 51
180.0
  0
ARC
  5
375
100
AcDbEntity
  8
0
  6
CONTINUOUS
 62
       7
100
AcDbCircle
 10
74.76110522
 20
80.46618407
 30
0.0
 40
0.5
100
AcDbArc
 50
180.0
 51
270.0
  0
ARC
  5
376
100
AcDbEntity
  8
0
  6
CONTINUOUS
 62
       7
100
AcDbCircle
 10
93.76110522
 20
80.46618407
 30
0.0
 40
0.5
100
AcDbArc
 50
270.0
 51
0.0
  0
ARC
  5
377
100
AcDbEntity
  8
0
  6
CONTINUOUS
 62
       7
100
AcDbCircle
 10
93.76110522
 20
105.46618407
 30
0.0
 40
0.5
100
AcDbArc
 50
0.0
 51
90.0
  0
ARC
  5
378
100
AcDbEntity
  8
0
  6
CONTINUOUS
 62
       7
100
AcDbCircle
 10
74.76110522
 20
105.46618407
 30
0.0
 40
0.5
100
AcDbArc
 50
90.0
 51
180.0
  0
LINE
  5
379
100
AcDbEntity
  8
0
  6
CONTINUOUS
 62
       7
100
AcDbLine
 10
74.76110522
 20
79.96618407
 30
0.0
 11
93.76110522
 21
79.96618407
 31
0.0
  0
LINE
  5
37A
100
AcDbEntity
  8
0
  6
CONTINUOUS
 62
       7
100
AcDbLine
 10
74.76110522
 20
105.96618407
 30
0.0
 11
93.76110522
 21
105.96618407
 31
0.0
  0
LINE
  5
37B
100
AcDbEntity
  8
0
  6
CONTINUOUS
 62
       7
100
AcDbLine
 10
74.26110522
 20
106.46618407
 30
0.0
 11
81.26110522
 21
106.46618407
 31
0.0
  0
LINE
  5
37C
100
AcDbEntity
  8
0
  6
CONTINUOUS
 62
       7
100
AcDbLine
 10
74.26110522
 20
79.46618407
 30
0.0
 11
94.26110522
 21
79.46618407
 31
0.0
  0
LINE
  5
37D
100
AcDbEntity
  8
0
  6
CONTINUOUS
 62
       7
100
AcDbLine
 10
73.76110522
 20
79.96618407
 30
0.0
 11
73.76110522
 21
105.96618407
 31
0.0
  0
LINE
  5
37E
100
AcDbEntity
  8
0
  6
CONTINUOUS
 62
       7
100
AcDbLine
 10
94.76110522
 20
79.96618407
 30
0.0
 11
94.76110522
 21
105.96618407
 31
0.0
  0
LINE
  5
37F
100
AcDbEntity
  8
0
  6
CONTINUOUS
 62
       7
100
AcDbLine
 10
74.26110522
 20
80.46618407
 30
0.0
 11
74.26110522
 21
105.46618407
 31
0.0
  0
LINE
  5
380
100
AcDbEntity
  8
0
  6
CONTINUOUS
 62
       7
100
AcDbLine
 10
94.26110522
 20
80.46618407
 30
0.0
 11
94.26110522
 21
105.46618407
 31
0.0
  0
LINE
  5
381
100
AcDbEntity
  8
0
  6
CONTINUOUS
 62
       2
100
AcDbLine
 10
72.907675
 20
92.96618407
 30
0.0
 11
95.68000314
 21
92.96618407
 31
0.0
  0
LINE
  5
382
100
AcDbEntity
  8
0
  6
CONTINUOUS
 62
       7
100
AcDbLine
 10
81.76110522
 20
107.96618407
 30
0.0
 11
91.76110522
 21
107.96618407
 31
0.0
  0
LINE
  5
383
100
AcDbEntity
  8
0
  6
CONTINUOUS
 62
       7
100
AcDbLine
 10
85.96110522
 20
120.11671338
 30
0.0
 11
85.96110522
 21
113.95963989
 31
0.0
  0
LINE
  5
384
100
AcDbEntity
  8
0
  6
CONTINUOUS
 62
       7
100
AcDbLine
 10
83.56110522
 20
120.11671338
 30
0.0
 11
83.56110522
 21
115.00963989
 31
0.0
  0
LINE
  5
385
100
AcDbEntity
  8
0
  6
CONTINUOUS
 62
       7
100
AcDbLine
 10
83.5611052
 20
120.11671338
 30
0.0
 11
85.96110518
 21
120.11671338
 31
0.0
  0
LINE
  5
386
100
AcDbEntity
  8
0
  6
CENTER
 62
       2
100
AcDbLine
 10
83.56110522
 20
115.00963989
 30
0.0
 11
85.96110522
 21
113.95963989
 31
0.0
  0
LINE
  5
387
100
AcDbEntity
  8
0
  6
CONTINUOUS
 62
       7
100
AcDbLine
 10
85.14110522
 20
130.11671338
 30
0.0
 11
85.14110522
 21
120.11671338
 31
0.0
  0
LINE
  5
388
100
AcDbEntity
  8
0
  6
CONTINUOUS
 62
       7
100
AcDbLine
 10
84.38110522
 20
130.11671338
 30
0.0
 11
84.38110522
 21
120.11671338
 31
0.0
  0
LINE
  5
389
100
AcDbEntity
  8
0
  6
CONTINUOUS
 62
       7
100
AcDbLine
 10
84.38110522
 20
130.11671338
 30
0.0
 11
85.14110522
 21
130.11671338
 31
0.0
  0
LINE
  5
38A
100
AcDbEntity
  8
0
  6
CENTER
 62
       2
100
AcDbLine
 10
83.56110522
 20
112.8299444
 30
0.0
 11
85.96110522
 21
111.7799444
 31
0.0
  0
LINE
  5
38B
100
AcDbEntity
  8
0
  6
CONTINUOUS
 62
       7
100
AcDbLine
 10
85.96110522
 20
111.7799444
 30
0.0
 11
85.96110522
 21
107.96618407
 31
0.0
  0
LINE
  5
38C
100
AcDbEntity
  8
0
  6
CONTINUOUS
 62
       7
100
AcDbLine
 10
83.56110522
 20
112.8299444
 30
0.0
 11
83.56110522
 21
107.96618407
 31
0.0
  0
LINE
  5
38D
100
AcDbEntity
  8
0
  6
CONTINUOUS
 62
       7
100
AcDbLine
 10
89.96110522
 20
120.11671338
 30
0.0
 11
89.96110522
 21
113.95963989
 31
0.0
  0
LINE
  5
38E
100
AcDbEntity
  8
0
  6
CONTINUOUS
 62
       7
100
AcDbLine
 10
87.56110522
 20
120.11671338
 30
0.0
 11
87.56110522
 21
115.00963989
 31
0.0
  0
LINE
  5
38F
100
AcDbEntity
  8
0
  6
CONTINUOUS
 62
       7
100
AcDbLine
 10
87.5611052
 20
120.11671338
 30
0.0
 11
89.96110518
 21
120.11671338
 31
0.0
  0
LINE
  5
390
100
AcDbEntity
  8
0
  6
CENTER
 62
       2
100
AcDbLine
 10
87.56110522
 20
115.00963989
 30
0.0
 11
89.96110522
 21
113.95963989
 31
0.0
  0
LINE
  5
391
100
AcDbEntity
  8
0
  6
CONTINUOUS
 62
       7
100
AcDbLine
 10
89.14110522
 20
130.11671338
 30
0.0
 11
89.14110522
 21
120.11671338
 31
0.0
  0
LINE
  5
392
100
AcDbEntity
  8
0
  6
CONTINUOUS
 62
       7
100
AcDbLine
 10
88.38110522
 20
130.11671338
 30
0.0
 11
88.38110522
 21
120.11671338
 31
0.0
  0
LINE
  5
393
100
AcDbEntity
  8
0
  6
CONTINUOUS
 62
       7
100
AcDbLine
 10
88.38110522
 20
130.11671338
 30
0.0
 11
89.14110522
 21
130.11671338
 31
0.0
  0
LINE
  5
394
100
AcDbEntity
  8
0
  6
CENTER
 62
       2
100
AcDbLine
 10
87.56110522
 20
112.8299444
 30
0.0
 11
89.96110522
 21
111.7799444
 31
0.0
  0
LINE
  5
395
100
AcDbEntity
  8
0
  6
CONTINUOUS
 62
       7
100
AcDbLine
 10
89.96110522
 20
111.7799444
 30
0.0
 11
89.96110522
 21
107.96618407
 31
0.0
  0
LINE
  5
396
100
AcDbEntity
  8
0
  6
CONTINUOUS
 62
       7
100
AcDbLine
 10
87.56110522
 20
112.8299444
 30
0.0
 11
87.56110522
 21
107.96618407
 31
0.0
  0
ARC
  5
397
100
AcDbEntity
  8
0
  6
CONTINUOUS
 62
       7
100
AcDbCircle
 10
91.76110522
 20
107.46618407
 30
0.0
 40
0.5
100
AcDbArc
 50
0.0
 51
90.0
  0
ARC
  5
398
100
AcDbEntity
  8
0
  6
CONTINUOUS
 62
       7
100
AcDbCircle
 10
81.76110522
 20
107.46618407
 30
0.0
 40
0.5
100
AcDbArc
 50
90.0
 51
180.0
  0
LINE
  5
399
100
AcDbEntity
  8
0
  6
CONTINUOUS
 62
       7
100
AcDbLine
 10
125.76110522
 20
77.46618407
 30
0.0
 11
98.76110522
 21
77.46618407
 31
0.0
  0
LINE
  5
39A
100
AcDbEntity
  8
0
  6
CONTINUOUS
 62
       7
100
AcDbLine
 10
120.26110522
 20
105.96618407
 30
0.0
 11
120.26110522
 21
107.46618407
 31
0.0
  0
LINE
  5
39B
100
AcDbEntity
  8
0
  6
CONTINUOUS
 62
       7
100
AcDbLine
 10
109.26110522
 20
105.96618407
 30
0.0
 11
109.26110522
 21
107.46618407
 31
0.0
  0
LINE
  5
39C
100
AcDbEntity
  8
0
  6
CONTINUOUS
 62
       2
100
AcDbLine
 10
116.76110522
 20
106.85064104
 30
0.0
 11
116.76110522
 21
130.71359622
 31
0.0
  0
LINE
  5
39D
100
AcDbEntity
  8
0
  6
CONTINUOUS
 62
       2
100
AcDbLine
 10
112.76110522
 20
106.85064104
 30
0.0
 11
112.76110522
 21
130.71359622
 31
0.0
  0
LINE
  5
39E
100
AcDbEntity
  8
0
  6
CONTINUOUS
 62
       7
100
AcDbLine
 10
120.26110522
 20
106.46618407
 30
0.0
 11
122.26110522
 21
106.46618407
 31
0.0
  0
LINE
  5
39F
100
AcDbEntity
  8
0
  6
CONTINUOUS
 62
       7
100
AcDbLine
 10
118.76110523
 20
86.96618407
 30
0.0
 11
122.26110523
 21
86.96618407
 31
0.0
  0
LINE
  5
3A0
100
AcDbEntity
  8
0
  6
CONTINUOUS
 62
       7
100
AcDbLine
 10
115.76110522
 20
79.96618411
 30
0.0
 11
115.76110522
 21
83.96618407
 31
0.0
  0
LINE
  5
3A1
100
AcDbEntity
  8
0
  6
CONTINUOUS
 62
       7
100
AcDbLine
 10
108.76110522
 20
101.96618327
 30
0.0
 11
108.76110522
 21
105.96618411
 31
0.0
  0
LINE
  5
3A2
100
AcDbEntity
  8
0
  6
CONTINUOUS
 62
       7
100
AcDbLine
 10
102.26110523
 20
98.96618323
 30
0.0
 11
105.76110523
 21
98.96618323
 31
0.0
  0
ARC
  5
3A3
100
AcDbEntity
  8
0
  6
CONTINUOUS
 62
       7
100
AcDbCircle
 10
118.76110522
 20
83.96618407
 30
0.0
 40
3.0
100
AcDbArc
 50
90.0
 51
180.0
  0
ARC
  5
3A4
100
AcDbEntity
  8
0
  6
CONTINUOUS
 62
       7
100
AcDbCircle
 10
105.76110522
 20
101.96618323
 30
0.0
 40
3.0
100
AcDbArc
 50
270.0
 51
0.0
  0
LINE
  5
3A5
100
AcDbEntity
  8
0
  6
CONTINUOUS
 62
       7
100
AcDbLine
 10
104.70044485
 20
100.90552379
 30
0.0
 11
106.82176533
 21
103.0268441
 31
0.0
  0
LINE
  5
3A6
100
AcDbEntity
  8
0
  6
CONTINUOUS
 62
       7
100
AcDbLine
 10
104.70044477
 20
103.02684376
 30
0.0
 11
106.82176507
 21
100.90552328
 31
0.0
  0
CIRCLE
  5
3A7
100
AcDbEntity
  8
0
  6
CONTINUOUS
 62
       7
100
AcDbCircle
 10
105.76110522
 20
101.96618382
 30
0.0
 40
2.79999924
  0
LINE
  5
3A8
100
AcDbEntity
  8
0
  6
CONTINUOUS
 62
       7
100
AcDbLine
 10
117.70044485
 20
82.90552379
 30
0.0
 11
119.82176533
 21
85.0268441
 31
0.0
  0
LINE
  5
3A9
100
AcDbEntity
  8
0
  6
CONTINUOUS
 62
       7
100
AcDbLine
 10
117.70044477
 20
85.02684376
 30
0.0
 11
119.82176507
 21
82.90552328
 31
0.0
  0
CIRCLE
  5
3AA
100
AcDbEntity
  8
0
  6
CONTINUOUS
 62
       7
100
AcDbCircle
 10
118.76110522
 20
83.96618382
 30
0.0
 40
2.79999924
  0
LINE
  5
3AB
100
AcDbEntity
  8
0
  6
CONTINUOUS
 62
       2
100
AcDbLine
 10
105.76110522
 20
98.26472918
 30
0.0
 11
105.76110522
 21
105.59752465
 31
0.0
  0
LINE
  5
3AC
100
AcDbEntity
  8
0
  6
CONTINUOUS
 62
       2
100
AcDbLine
 10
118.76110522
 20
80.39831481
 30
0.0
 11
118.76110522
 21
87.73111028
 31
0.0
  0
LINE
  5
3AD
100
AcDbEntity
  8
0
  6
CONTINUOUS
 62
       2
100
AcDbLine
 10
115.01094892
 20
83.96618407
 30
0.0
 11
122.05276044
 21
83.96618407
 31
0.0
  0
LINE
  5
3AE
100
AcDbEntity
  8
0
  6
CONTINUOUS
 62
       2
100
AcDbLine
 10
102.55683597
 20
101.96618407
 30
0.0
 11
109.48225392
 21
101.96618407
 31
0.0
  0
LINE
  5
3AF
100
AcDbEntity
  8
0
  6
CONTINUOUS
 62
       7
100
AcDbLine
 10
110.26110522
 20
93.96618407
 30
0.0
 11
109.76110522
 21
94.46618407
 31
0.0
  0
LINE
  5
3B0
100
AcDbEntity
  8
0
  6
CONTINUOUS
 62
       7
100
AcDbLine
 10
109.76110522
 20
91.46618407
 30
0.0
 11
110.26110522
 21
91.96618407
 31
0.0
  0
LINE
  5
3B1
100
AcDbEntity
  8
0
  6
CONTINUOUS
 62
       7
100
AcDbLine
 10
114.26110522
 20
91.96618407
 30
0.0
 11
114.76110522
 21
91.46618407
 31
0.0
  0
LINE
  5
3B2
100
AcDbEntity
  8
0
  6
CONTINUOUS
 62
       7
100
AcDbLine
 10
114.26110522
 20
93.96618407
 30
0.0
 11
114.76110522
 21
94.46618407
 31
0.0
  0
LINE
  5
3B3
100
AcDbEntity
  8
0
  6
CONTINUOUS
 62
       7
100
AcDbLine
 10
109.76110522
 20
91.46618407
 30
0.0
 11
109.76110522
 21
94.46618407
 31
0.0
  0
LINE
  5
3B4
100
AcDbEntity
  8
0
  6
CONTINUOUS
 62
       7
100
AcDbLine
 10
114.76110522
 20
91.46618407
 30
0.0
 11
114.76110522
 21
94.46618407
 31
0.0
  0
LINE
  5
3B5
100
AcDbEntity
  8
0
  6
CONTINUOUS
 62
       7
100
AcDbLine
 10
109.76110522
 20
91.46618407
 30
0.0
 11
114.76110522
 21
91.46618407
 31
0.0
  0
LINE
  5
3B6
100
AcDbEntity
  8
0
  6
CONTINUOUS
 62
       7
100
AcDbLine
 10
109.76110522
 20
94.46618407
 30
0.0
 11
114.76110522
 21
94.46618407
 31
0.0
  0
LINE
  5
3B7
100
AcDbEntity
  8
0
  6
CONTINUOUS
 62
       7
100
AcDbLine
 10
110.26110522
 20
91.96618407
 30
0.0
 11
114.26110522
 21
91.96618407
 31
0.0
  0
LINE
  5
3B8
100
AcDbEntity
  8
0
  6
CONTINUOUS
 62
       7
100
AcDbLine
 10
110.26110522
 20
93.96618407
 30
0.0
 11
114.26110522
 21
93.96618407
 31
0.0
  0
LINE
  5
3B9
100
AcDbEntity
  8
0
  6
CONTINUOUS
 62
       7
100
AcDbLine
 10
110.26110522
 20
91.96618407
 30
0.0
 11
110.26110522
 21
93.96618407
 31
0.0
  0
LINE
  5
3BA
100
AcDbEntity
  8
0
  6
CONTINUOUS
 62
       7
100
AcDbLine
 10
114.26110522
 20
91.96618407
 30
0.0
 11
114.26110522
 21
93.96618407
 31
0.0
  0
ARC
  5
3BB
100
AcDbEntity
  8
0
  6
CONTINUOUS
 62
       7
100
AcDbCircle
 10
102.26110522
 20
79.96618407
 30
0.0
 40
0.5
100
AcDbArc
 50
180.0
 51
270.0
  0
ARC
  5
3BC
100
AcDbEntity
  8
0
  6
CONTINUOUS
 62
       7
100
AcDbCircle
 10
122.26110522
 20
79.96618407
 30
0.0
 40
0.5
100
AcDbArc
 50
270.0
 51
0.0
  0
ARC
  5
3BD
100
AcDbEntity
  8
0
  6
CONTINUOUS
 62
       7
100
AcDbCircle
 10
122.26110522
 20
105.96618407
 30
0.0
 40
0.5
100
AcDbArc
 50
0.0
 51
90.0
  0
ARC
  5
3BE
100
AcDbEntity
  8
0
  6
CONTINUOUS
 62
       7
100
AcDbCircle
 10
102.26110522
 20
105.96618407
 30
0.0
 40
0.5
100
AcDbArc
 50
90.0
 51
180.0
  0
ARC
  5
3BF
100
AcDbEntity
  8
0
  6
CONTINUOUS
 62
       7
100
AcDbCircle
 10
102.76110522
 20
80.46618407
 30
0.0
 40
0.5
100
AcDbArc
 50
180.0
 51
270.0
  0
ARC
  5
3C0
100
AcDbEntity
  8
0
  6
CONTINUOUS
 62
       7
100
AcDbCircle
 10
121.76110522
 20
80.46618407
 30
0.0
 40
0.5
100
AcDbArc
 50
270.0
 51
0.0
  0
ARC
  5
3C1
100
AcDbEntity
  8
0
  6
CONTINUOUS
 62
       7
100
AcDbCircle
 10
121.76110522
 20
105.46618407
 30
0.0
 40
0.5
100
AcDbArc
 50
0.0
 51
90.0
  0
ARC
  5
3C2
100
AcDbEntity
  8
0
  6
CONTINUOUS
 62
       7
100
AcDbCircle
 10
102.76110522
 20
105.46618407
 30
0.0
 40
0.5
100
AcDbArc
 50
90.0
 51
180.0
  0
LINE
  5
3C3
100
AcDbEntity
  8
0
  6
CONTINUOUS
 62
       7
100
AcDbLine
 10
102.76110522
 20
79.96618407
 30
0.0
 11
121.76110522
 21
79.96618407
 31
0.0
  0
LINE
  5
3C4
100
AcDbEntity
  8
0
  6
CONTINUOUS
 62
       7
100
AcDbLine
 10
102.76110522
 20
105.96618407
 30
0.0
 11
121.76110522
 21
105.96618407
 31
0.0
  0
LINE
  5
3C5
100
AcDbEntity
  8
0
  6
CONTINUOUS
 62
       7
100
AcDbLine
 10
102.26110522
 20
106.46618407
 30
0.0
 11
109.26110522
 21
106.46618407
 31
0.0
  0
LINE
  5
3C6
100
AcDbEntity
  8
0
  6
CONTINUOUS
 62
       7
100
AcDbLine
 10
102.26110522
 20
79.46618407
 30
0.0
 11
122.26110522
 21
79.46618407
 31
0.0
  0
LINE
  5
3C7
100
AcDbEntity
  8
0
  6
CONTINUOUS
 62
       7
100
AcDbLine
 10
101.76110522
 20
79.96618407
 30
0.0
 11
101.76110522
 21
105.96618407
 31
0.0
  0
LINE
  5
3C8
100
AcDbEntity
  8
0
  6
CONTINUOUS
 62
       7
100
AcDbLine
 10
122.76110522
 20
79.96618407
 30
0.0
 11
122.76110522
 21
105.96618407
 31
0.0
  0
LINE
  5
3C9
100
AcDbEntity
  8
0
  6
CONTINUOUS
 62
       7
100
AcDbLine
 10
102.26110522
 20
80.46618407
 30
0.0
 11
102.26110522
 21
105.46618407
 31
0.0
  0
LINE
  5
3CA
100
AcDbEntity
  8
0
  6
CONTINUOUS
 62
       7
100
AcDbLine
 10
122.26110522
 20
80.46618407
 30
0.0
 11
122.26110522
 21
105.46618407
 31
0.0
  0
LINE
  5
3CB
100
AcDbEntity
  8
0
  6
CONTINUOUS
 62
       2
100
AcDbLine
 10
100.907675
 20
92.96618407
 30
0.0
 11
123.68000314
 21
92.96618407
 31
0.0
  0
LINE
  5
3CC
100
AcDbEntity
  8
0
  6
CONTINUOUS
 62
       7
100
AcDbLine
 10
109.76110522
 20
107.96618407
 30
0.0
 11
119.76110522
 21
107.96618407
 31
0.0
  0
LINE
  5
3CD
100
AcDbEntity
  8
0
  6
CONTINUOUS
 62
       7
100
AcDbLine
 10
113.96110522
 20
120.11671338
 30
0.0
 11
113.96110522
 21
113.95963989
 31
0.0
  0
LINE
  5
3CE
100
AcDbEntity
  8
0
  6
CONTINUOUS
 62
       7
100
AcDbLine
 10
111.56110522
 20
120.11671338
 30
0.0
 11
111.56110522
 21
115.00963989
 31
0.0
  0
LINE
  5
3CF
100
AcDbEntity
  8
0
  6
CONTINUOUS
 62
       7
100
AcDbLine
 10
111.5611052
 20
120.11671338
 30
0.0
 11
113.96110518
 21
120.11671338
 31
0.0
  0
LINE
  5
3D0
100
AcDbEntity
  8
0
  6
CENTER
 62
       2
100
AcDbLine
 10
111.56110522
 20
115.00963989
 30
0.0
 11
113.96110522
 21
113.95963989
 31
0.0
  0
LINE
  5
3D1
100
AcDbEntity
  8
0
  6
CONTINUOUS
 62
       7
100
AcDbLine
 10
113.14110522
 20
130.11671338
 30
0.0
 11
113.14110522
 21
120.11671338
 31
0.0
  0
LINE
  5
3D2
100
AcDbEntity
  8
0
  6
CONTINUOUS
 62
       7
100
AcDbLine
 10
112.38110522
 20
130.11671338
 30
0.0
 11
112.38110522
 21
120.11671338
 31
0.0
  0
LINE
  5
3D3
100
AcDbEntity
  8
0
  6
CONTINUOUS
 62
       7
100
AcDbLine
 10
112.38110522
 20
130.11671338
 30
0.0
 11
113.14110522
 21
130.11671338
 31
0.0
  0
LINE
  5
3D4
100
AcDbEntity
  8
0
  6
CENTER
 62
       2
100
AcDbLine
 10
111.56110522
 20
112.8299444
 30
0.0
 11
113.96110522
 21
111.7799444
 31
0.0
  0
LINE
  5
3D5
100
AcDbEntity
  8
0
  6
CONTINUOUS
 62
       7
100
AcDbLine
 10
113.96110522
 20
111.7799444
 30
0.0
 11
113.96110522
 21
107.96618407
 31
0.0
  0
LINE
  5
3D6
100
AcDbEntity
  8
0
  6
CONTINUOUS
 62
       7
100
AcDbLine
 10
111.56110522
 20
112.8299444
 30
0.0
 11
111.56110522
 21
107.96618407
 31
0.0
  0
LINE
  5
3D7
100
AcDbEntity
  8
0
  6
CONTINUOUS
 62
       7
100
AcDbLine
 10
117.96110522
 20
120.11671338
 30
0.0
 11
117.96110522
 21
113.95963989
 31
0.0
  0
LINE
  5
3D8
100
AcDbEntity
  8
0
  6
CONTINUOUS
 62
       7
100
AcDbLine
 10
115.56110522
 20
120.11671338
 30
0.0
 11
115.56110522
 21
115.00963989
 31
0.0
  0
LINE
  5
3D9
100
AcDbEntity
  8
0
  6
CONTINUOUS
 62
       7
100
AcDbLine
 10
115.5611052
 20
120.11671338
 30
0.0
 11
117.96110518
 21
120.11671338
 31
0.0
  0
LINE
  5
3DA
100
AcDbEntity
  8
0
  6
CENTER
 62
       2
100
AcDbLine
 10
115.56110522
 20
115.00963989
 30
0.0
 11
117.96110522
 21
113.95963989
 31
0.0
  0
LINE
  5
3DB
100
AcDbEntity
  8
0
  6
CONTINUOUS
 62
       7
100
AcDbLine
 10
117.14110522
 20
130.11671338
 30
0.0
 11
117.14110522
 21
120.11671338
 31
0.0
  0
LINE
  5
3DC
100
AcDbEntity
  8
0
  6
CONTINUOUS
 62
       7
100
AcDbLine
 10
116.38110522
 20
130.11671338
 30
0.0
 11
116.38110522
 21
120.11671338
 31
0.0
  0
LINE
  5
3DD
100
AcDbEntity
  8
0
  6
CONTINUOUS
 62
       7
100
AcDbLine
 10
116.38110522
 20
130.11671338
 30
0.0
 11
117.14110522
 21
130.11671338
 31
0.0
  0
LINE
  5
3DE
100
AcDbEntity
  8
0
  6
CENTER
 62
       2
100
AcDbLine
 10
115.56110522
 20
112.8299444
 30
0.0
 11
117.96110522
 21
111.7799444
 31
0.0
  0
LINE
  5
3DF
100
AcDbEntity
  8
0
  6
CONTINUOUS
 62
       7
100
AcDbLine
 10
117.96110522
 20
111.7799444
 30
0.0
 11
117.96110522
 21
107.96618407
 31
0.0
  0
LINE
  5
3E0
100
AcDbEntity
  8
0
  6
CONTINUOUS
 62
       7
100
AcDbLine
 10
115.56110522
 20
112.8299444
 30
0.0
 11
115.56110522
 21
107.96618407
 31
0.0
  0
ARC
  5
3E1
100
AcDbEntity
  8
0
  6
CONTINUOUS
 62
       7
100
AcDbCircle
 10
119.76110522
 20
107.46618407
 30
0.0
 40
0.5
100
AcDbArc
 50
0.0
 51
90.0
  0
ARC
  5
3E2
100
AcDbEntity
  8
0
  6
CONTINUOUS
 62
       7
100
AcDbCircle
 10
109.76110522
 20
107.46618407
 30
0.0
 40
0.5
100
AcDbArc
 50
90.0
 51
180.0
  0
LINE
  5
3E3
100
AcDbEntity
  8
0
  6
CONTINUOUS
 62
       7
100
AcDbLine
 10
153.76110522
 20
77.46618407
 30
0.0
 11
126.76110522
 21
77.46618407
 31
0.0
  0
LINE
  5
3E4
100
AcDbEntity
  8
0
  6
CONTINUOUS
 62
       7
100
AcDbLine
 10
148.26110522
 20
105.96618407
 30
0.0
 11
148.26110522
 21
107.46618407
 31
0.0
  0
LINE
  5
3E5
100
AcDbEntity
  8
0
  6
CONTINUOUS
 62
       7
100
AcDbLine
 10
137.26110522
 20
105.96618407
 30
0.0
 11
137.26110522
 21
107.46618407
 31
0.0
  0
LINE
  5
3E6
100
AcDbEntity
  8
0
  6
CONTINUOUS
 62
       2
100
AcDbLine
 10
144.76110522
 20
106.85064104
 30
0.0
 11
144.76110522
 21
130.71359622
 31
0.0
  0
LINE
  5
3E7
100
AcDbEntity
  8
0
  6
CONTINUOUS
 62
       2
100
AcDbLine
 10
140.76110522
 20
106.85064104
 30
0.0
 11
140.76110522
 21
130.71359622
 31
0.0
  0
LINE
  5
3E8
100
AcDbEntity
  8
0
  6
CONTINUOUS
 62
       7
100
AcDbLine
 10
148.26110522
 20
106.46618407
 30
0.0
 11
150.26110522
 21
106.46618407
 31
0.0
  0
LINE
  5
3E9
100
AcDbEntity
  8
0
  6
CONTINUOUS
 62
       7
100
AcDbLine
 10
146.76110523
 20
86.96618407
 30
0.0
 11
150.26110523
 21
86.96618407
 31
0.0
  0
LINE
  5
3EA
100
AcDbEntity
  8
0
  6
CONTINUOUS
 62
       7
100
AcDbLine
 10
143.76110522
 20
79.96618411
 30
0.0
 11
143.76110522
 21
83.96618407
 31
0.0
  0
LINE
  5
3EB
100
AcDbEntity
  8
0
  6
CONTINUOUS
 62
       7
100
AcDbLine
 10
136.76110522
 20
101.96618327
 30
0.0
 11
136.76110522
 21
105.96618411
 31
0.0
  0
LINE
  5
3EC
100
AcDbEntity
  8
0
  6
CONTINUOUS
 62
       7
100
AcDbLine
 10
130.26110523
 20
98.96618323
 30
0.0
 11
133.76110523
 21
98.96618323
 31
0.0
  0
ARC
  5
3ED
100
AcDbEntity
  8
0
  6
CONTINUOUS
 62
       7
100
AcDbCircle
 10
146.76110522
 20
83.96618407
 30
0.0
 40
3.0
100
AcDbArc
 50
90.0
 51
180.0
  0
ARC
  5
3EE
100
AcDbEntity
  8
0
  6
CONTINUOUS
 62
       7
100
AcDbCircle
 10
133.76110522
 20
101.96618323
 30
0.0
 40
3.0
100
AcDbArc
 50
270.0
 51
0.0
  0
LINE
  5
3EF
100
AcDbEntity
  8
0
  6
CONTINUOUS
 62
       7
100
AcDbLine
 10
132.70044485
 20
100.90552379
 30
0.0
 11
134.82176533
 21
103.0268441
 31
0.0
  0
LINE
  5
3F0
100
AcDbEntity
  8
0
  6
CONTINUOUS
 62
       7
100
AcDbLine
 10
132.70044477
 20
103.02684376
 30
0.0
 11
134.82176507
 21
100.90552328
 31
0.0
  0
CIRCLE
  5
3F1
100
AcDbEntity
  8
0
  6
CONTINUOUS
 62
       7
100
AcDbCircle
 10
133.76110522
 20
101.96618382
 30
0.0
 40
2.79999924
  0
LINE
  5
3F2
100
AcDbEntity
  8
0
  6
CONTINUOUS
 62
       7
100
AcDbLine
 10
145.70044485
 20
82.90552379
 30
0.0
 11
147.82176533
 21
85.0268441
 31
0.0
  0
LINE
  5
3F3
100
AcDbEntity
  8
0
  6
CONTINUOUS
 62
       7
100
AcDbLine
 10
145.70044477
 20
85.02684376
 30
0.0
 11
147.82176507
 21
82.90552328
 31
0.0
  0
CIRCLE
  5
3F4
100
AcDbEntity
  8
0
  6
CONTINUOUS
 62
       7
100
AcDbCircle
 10
146.76110522
 20
83.96618382
 30
0.0
 40
2.79999924
  0
LINE
  5
3F5
100
AcDbEntity
  8
0
  6
CONTINUOUS
 62
       2
100
AcDbLine
 10
133.76110522
 20
98.26472918
 30
0.0
 11
133.76110522
 21
105.59752465
 31
0.0
  0
LINE
  5
3F6
100
AcDbEntity
  8
0
  6
CONTINUOUS
 62
       2
100
AcDbLine
 10
146.76110522
 20
80.39831481
 30
0.0
 11
146.76110522
 21
87.73111028
 31
0.0
  0
LINE
  5
3F7
100
AcDbEntity
  8
0
  6
CONTINUOUS
 62
       2
100
AcDbLine
 10
143.01094892
 20
83.96618407
 30
0.0
 11
150.05276044
 21
83.96618407
 31
0.0
  0
LINE
  5
3F8
100
AcDbEntity
  8
0
  6
CONTINUOUS
 62
       2
100
AcDbLine
 10
130.55683597
 20
101.96618407
 30
0.0
 11
137.48225392
 21
101.96618407
 31
0.0
  0
LINE
  5
3F9
100
AcDbEntity
  8
0
  6
CONTINUOUS
 62
       7
100
AcDbLine
 10
138.26110522
 20
93.96618407
 30
0.0
 11
137.76110522
 21
94.46618407
 31
0.0
  0
LINE
  5
3FA
100
AcDbEntity
  8
0
  6
CONTINUOUS
 62
       7
100
AcDbLine
 10
137.76110522
 20
91.46618407
 30
0.0
 11
138.26110522
 21
91.96618407
 31
0.0
  0
LINE
  5
3FB
100
AcDbEntity
  8
0
  6
CONTINUOUS
 62
       7
100
AcDbLine
 10
142.26110522
 20
91.96618407
 30
0.0
 11
142.76110522
 21
91.46618407
 31
0.0
  0
LINE
  5
3FC
100
AcDbEntity
  8
0
  6
CONTINUOUS
 62
       7
100
AcDbLine
 10
142.26110522
 20
93.96618407
 30
0.0
 11
142.76110522
 21
94.46618407
 31
0.0
  0
LINE
  5
3FD
100
AcDbEntity
  8
0
  6
CONTINUOUS
 62
       7
100
AcDbLine
 10
137.76110522
 20
91.46618407
 30
0.0
 11
137.76110522
 21
94.46618407
 31
0.0
  0
LINE
  5
3FE
100
AcDbEntity
  8
0
  6
CONTINUOUS
 62
       7
100
AcDbLine
 10
142.76110522
 20
91.46618407
 30
0.0
 11
142.76110522
 21
94.46618407
 31
0.0
  0
LINE
  5
3FF
100
AcDbEntity
  8
0
  6
CONTINUOUS
 62
       7
100
AcDbLine
 10
137.76110522
 20
91.46618407
 30
0.0
 11
142.76110522
 21
91.46618407
 31
0.0
  0
LINE
  5
400
100
AcDbEntity
  8
0
  6
CONTINUOUS
 62
       7
100
AcDbLine
 10
137.76110522
 20
94.46618407
 30
0.0
 11
142.76110522
 21
94.46618407
 31
0.0
  0
LINE
  5
401
100
AcDbEntity
  8
0
  6
CONTINUOUS
 62
       7
100
AcDbLine
 10
138.26110522
 20
91.96618407
 30
0.0
 11
142.26110522
 21
91.96618407
 31
0.0
  0
LINE
  5
402
100
AcDbEntity
  8
0
  6
CONTINUOUS
 62
       7
100
AcDbLine
 10
138.26110522
 20
93.96618407
 30
0.0
 11
142.26110522
 21
93.96618407
 31
0.0
  0
LINE
  5
403
100
AcDbEntity
  8
0
  6
CONTINUOUS
 62
       7
100
AcDbLine
 10
138.26110522
 20
91.96618407
 30
0.0
 11
138.26110522
 21
93.96618407
 31
0.0
  0
LINE
  5
404
100
AcDbEntity
  8
0
  6
CONTINUOUS
 62
       7
100
AcDbLine
 10
142.26110522
 20
91.96618407
 30
0.0
 11
142.26110522
 21
93.96618407
 31
0.0
  0
ARC
  5
405
100
AcDbEntity
  8
0
  6
CONTINUOUS
 62
       7
100
AcDbCircle
 10
130.26110522
 20
79.96618407
 30
0.0
 40
0.5
100
AcDbArc
 50
180.0
 51
270.0
  0
ARC
  5
406
100
AcDbEntity
  8
0
  6
CONTINUOUS
 62
       7
100
AcDbCircle
 10
150.26110522
 20
79.96618407
 30
0.0
 40
0.5
100
AcDbArc
 50
270.0
 51
0.0
  0
ARC
  5
407
100
AcDbEntity
  8
0
  6
CONTINUOUS
 62
       7
100
AcDbCircle
 10
150.26110522
 20
105.96618407
 30
0.0
 40
0.5
100
AcDbArc
 50
0.0
 51
90.0
  0
ARC
  5
408
100
AcDbEntity
  8
0
  6
CONTINUOUS
 62
       7
100
AcDbCircle
 10
130.26110522
 20
105.96618407
 30
0.0
 40
0.5
100
AcDbArc
 50
90.0
 51
180.0
  0
ARC
  5
409
100
AcDbEntity
  8
0
  6
CONTINUOUS
 62
       7
100
AcDbCircle
 10
130.76110522
 20
80.46618407
 30
0.0
 40
0.5
100
AcDbArc
 50
180.0
 51
270.0
  0
ARC
  5
40A
100
AcDbEntity
  8
0
  6
CONTINUOUS
 62
       7
100
AcDbCircle
 10
149.76110522
 20
80.46618407
 30
0.0
 40
0.5
100
AcDbArc
 50
270.0
 51
0.0
  0
ARC
  5
40B
100
AcDbEntity
  8
0
  6
CONTINUOUS
 62
       7
100
AcDbCircle
 10
149.76110522
 20
105.46618407
 30
0.0
 40
0.5
100
AcDbArc
 50
0.0
 51
90.0
  0
ARC
  5
40C
100
AcDbEntity
  8
0
  6
CONTINUOUS
 62
       7
100
AcDbCircle
 10
130.76110522
 20
105.46618407
 30
0.0
 40
0.5
100
AcDbArc
 50
90.0
 51
180.0
  0
LINE
  5
40D
100
AcDbEntity
  8
0
  6
CONTINUOUS
 62
       7
100
AcDbLine
 10
130.76110522
 20
79.96618407
 30
0.0
 11
149.76110522
 21
79.96618407
 31
0.0
  0
LINE
  5
40E
100
AcDbEntity
  8
0
  6
CONTINUOUS
 62
       7
100
AcDbLine
 10
130.76110522
 20
105.96618407
 30
0.0
 11
149.76110522
 21
105.96618407
 31
0.0
  0
LINE
  5
40F
100
AcDbEntity
  8
0
  6
CONTINUOUS
 62
       7
100
AcDbLine
 10
130.26110522
 20
106.46618407
 30
0.0
 11
137.26110522
 21
106.46618407
 31
0.0
  0
LINE
  5
410
100
AcDbEntity
  8
0
  6
CONTINUOUS
 62
       7
100
AcDbLine
 10
130.26110522
 20
79.46618407
 30
0.0
 11
150.26110522
 21
79.46618407
 31
0.0
  0
LINE
  5
411
100
AcDbEntity
  8
0
  6
CONTINUOUS
 62
       7
100
AcDbLine
 10
129.76110522
 20
79.96618407
 30
0.0
 11
129.76110522
 21
105.96618407
 31
0.0
  0
LINE
  5
412
100
AcDbEntity
  8
0
  6
CONTINUOUS
 62
       7
100
AcDbLine
 10
150.76110522
 20
79.96618407
 30
0.0
 11
150.76110522
 21
105.96618407
 31
0.0
  0
LINE
  5
413
100
AcDbEntity
  8
0
  6
CONTINUOUS
 62
       7
100
AcDbLine
 10
130.26110522
 20
80.46618407
 30
0.0
 11
130.26110522
 21
105.46618407
 31
0.0
  0
LINE
  5
414
100
AcDbEntity
  8
0
  6
CONTINUOUS
 62
       7
100
AcDbLine
 10
150.26110522
 20
80.46618407
 30
0.0
 11
150.26110522
 21
105.46618407
 31
0.0
  0
LINE
  5
415
100
AcDbEntity
  8
0
  6
CONTINUOUS
 62
       2
100
AcDbLine
 10
128.907675
 20
92.96618407
 30
0.0
 11
151.68000314
 21
92.96618407
 31
0.0
  0
LINE
  5
416
100
AcDbEntity
  8
0
  6
CONTINUOUS
 62
       7
100
AcDbLine
 10
137.76110522
 20
107.96618407
 30
0.0
 11
147.76110522
 21
107.96618407
 31
0.0
  0
LINE
  5
417
100
AcDbEntity
  8
0
  6
CONTINUOUS
 62
       7
100
AcDbLine
 10
141.96110522
 20
120.11671338
 30
0.0
 11
141.96110522
 21
113.95963989
 31
0.0
  0
LINE
  5
418
100
AcDbEntity
  8
0
  6
CONTINUOUS
 62
       7
100
AcDbLine
 10
139.56110522
 20
120.11671338
 30
0.0
 11
139.56110522
 21
115.00963989
 31
0.0
  0
LINE
  5
419
100
AcDbEntity
  8
0
  6
CONTINUOUS
 62
       7
100
AcDbLine
 10
139.5611052
 20
120.11671338
 30
0.0
 11
141.96110518
 21
120.11671338
 31
0.0
  0
LINE
  5
41A
100
AcDbEntity
  8
0
  6
CENTER
 62
       2
100
AcDbLine
 10
139.56110522
 20
115.00963989
 30
0.0
 11
141.96110522
 21
113.95963989
 31
0.0
  0
LINE
  5
41B
100
AcDbEntity
  8
0
  6
CONTINUOUS
 62
       7
100
AcDbLine
 10
141.14110522
 20
130.11671338
 30
0.0
 11
141.14110522
 21
120.11671338
 31
0.0
  0
LINE
  5
41C
100
AcDbEntity
  8
0
  6
CONTINUOUS
 62
       7
100
AcDbLine
 10
140.38110522
 20
130.11671338
 30
0.0
 11
140.38110522
 21
120.11671338
 31
0.0
  0
LINE
  5
41D
100
AcDbEntity
  8
0
  6
CONTINUOUS
 62
       7
100
AcDbLine
 10
140.38110522
 20
130.11671338
 30
0.0
 11
141.14110522
 21
130.11671338
 31
0.0
  0
LINE
  5
41E
100
AcDbEntity
  8
0
  6
CENTER
 62
       2
100
AcDbLine
 10
139.56110522
 20
112.8299444
 30
0.0
 11
141.96110522
 21
111.7799444
 31
0.0
  0
LINE
  5
41F
100
AcDbEntity
  8
0
  6
CONTINUOUS
 62
       7
100
AcDbLine
 10
141.96110522
 20
111.7799444
 30
0.0
 11
141.96110522
 21
107.96618407
 31
0.0
  0
LINE
  5
420
100
AcDbEntity
  8
0
  6
CONTINUOUS
 62
       7
100
AcDbLine
 10
139.56110522
 20
112.8299444
 30
0.0
 11
139.56110522
 21
107.96618407
 31
0.0
  0
LINE
  5
421
100
AcDbEntity
  8
0
  6
CONTINUOUS
 62
       7
100
AcDbLine
 10
145.96110522
 20
120.11671338
 30
0.0
 11
145.96110522
 21
113.95963989
 31
0.0
  0
LINE
  5
422
100
AcDbEntity
  8
0
  6
CONTINUOUS
 62
       7
100
AcDbLine
 10
143.56110522
 20
120.11671338
 30
0.0
 11
143.56110522
 21
115.00963989
 31
0.0
  0
LINE
  5
423
100
AcDbEntity
  8
0
  6
CONTINUOUS
 62
       7
100
AcDbLine
 10
143.5611052
 20
120.11671338
 30
0.0
 11
145.96110518
 21
120.11671338
 31
0.0
  0
LINE
  5
424
100
AcDbEntity
  8
0
  6
CENTER
 62
       2
100
AcDbLine
 10
143.56110522
 20
115.00963989
 30
0.0
 11
145.96110522
 21
113.95963989
 31
0.0
  0
LINE
  5
425
100
AcDbEntity
  8
0
  6
CONTINUOUS
 62
       7
100
AcDbLine
 10
145.14110522
 20
130.11671338
 30
0.0
 11
145.14110522
 21
120.11671338
 31
0.0
  0
LINE
  5
426
100
AcDbEntity
  8
0
  6
CONTINUOUS
 62
       7
100
AcDbLine
 10
144.38110522
 20
130.11671338
 30
0.0
 11
144.38110522
 21
120.11671338
 31
0.0
  0
LINE
  5
427
100
AcDbEntity
  8
0
  6
CONTINUOUS
 62
       7
100
AcDbLine
 10
144.38110522
 20
130.11671338
 30
0.0
 11
145.14110522
 21
130.11671338
 31
0.0
  0
LINE
  5
428
100
AcDbEntity
  8
0
  6
CENTER
 62
       2
100
AcDbLine
 10
143.56110522
 20
112.8299444
 30
0.0
 11
145.96110522
 21
111.7799444
 31
0.0
  0
LINE
  5
429
100
AcDbEntity
  8
0
  6
CONTINUOUS
 62
       7
100
AcDbLine
 10
145.96110522
 20
111.7799444
 30
0.0
 11
145.96110522
 21
107.96618407
 31
0.0
  0
LINE
  5
42A
100
AcDbEntity
  8
0
  6
CONTINUOUS
 62
       7
100
AcDbLine
 10
143.56110522
 20
112.8299444
 30
0.0
 11
143.56110522
 21
107.96618407
 31
0.0
  0
ARC
  5
42B
100
AcDbEntity
  8
0
  6
CONTINUOUS
 62
       7
100
AcDbCircle
 10
147.76110522
 20
107.46618407
 30
0.0
 40
0.5
100
AcDbArc
 50
0.0
 51
90.0
  0
ARC
  5
42C
100
AcDbEntity
  8
0
  6
CONTINUOUS
 62
       7
100
AcDbCircle
 10
137.76110522
 20
107.46618407
 30
0.0
 40
0.5
100
AcDbArc
 50
90.0
 51
180.0
  0
LINE
  5
42D
100
AcDbEntity
  8
0
  6
CONTINUOUS
 62
       7
100
AcDbLine
 10
181.76110522
 20
77.46618407
 30
0.0
 11
154.76110522
 21
77.46618407
 31
0.0
  0
LINE
  5
42E
100
AcDbEntity
  8
0
  6
CONTINUOUS
 62
       7
100
AcDbLine
 10
176.26110522
 20
105.96618407
 30
0.0
 11
176.26110522
 21
107.46618407
 31
0.0
  0
LINE
  5
42F
100
AcDbEntity
  8
0
  6
CONTINUOUS
 62
       7
100
AcDbLine
 10
165.26110522
 20
105.96618407
 30
0.0
 11
165.26110522
 21
107.46618407
 31
0.0
  0
LINE
  5
430
100
AcDbEntity
  8
0
  6
CONTINUOUS
 62
       2
100
AcDbLine
 10
172.76110522
 20
106.85064104
 30
0.0
 11
172.76110522
 21
130.71359622
 31
0.0
  0
LINE
  5
431
100
AcDbEntity
  8
0
  6
CONTINUOUS
 62
       2
100
AcDbLine
 10
168.76110522
 20
106.85064104
 30
0.0
 11
168.76110522
 21
130.71359622
 31
0.0
  0
LINE
  5
432
100
AcDbEntity
  8
0
  6
CONTINUOUS
 62
       7
100
AcDbLine
 10
176.26110522
 20
106.46618407
 30
0.0
 11
178.26110522
 21
106.46618407
 31
0.0
  0
LINE
  5
433
100
AcDbEntity
  8
0
  6
CONTINUOUS
 62
       7
100
AcDbLine
 10
174.76110523
 20
86.96618407
 30
0.0
 11
178.26110523
 21
86.96618407
 31
0.0
  0
LINE
  5
434
100
AcDbEntity
  8
0
  6
CONTINUOUS
 62
       7
100
AcDbLine
 10
171.76110522
 20
79.96618411
 30
0.0
 11
171.76110522
 21
83.96618407
 31
0.0
  0
LINE
  5
435
100
AcDbEntity
  8
0
  6
CONTINUOUS
 62
       7
100
AcDbLine
 10
164.76110522
 20
101.96618327
 30
0.0
 11
164.76110522
 21
105.96618411
 31
0.0
  0
LINE
  5
436
100
AcDbEntity
  8
0
  6
CONTINUOUS
 62
       7
100
AcDbLine
 10
158.26110523
 20
98.96618323
 30
0.0
 11
161.76110523
 21
98.96618323
 31
0.0
  0
ARC
  5
437
100
AcDbEntity
  8
0
  6
CONTINUOUS
 62
       7
100
AcDbCircle
 10
174.76110522
 20
83.96618407
 30
0.0
 40
3.0
100
AcDbArc
 50
90.0
 51
180.0
  0
ARC
  5
438
100
AcDbEntity
  8
0
  6
CONTINUOUS
 62
       7
100
AcDbCircle
 10
161.76110522
 20
101.96618323
 30
0.0
 40
3.0
100
AcDbArc
 50
270.0
 51
0.0
  0
LINE
  5
439
100
AcDbEntity
  8
0
  6
CONTINUOUS
 62
       7
100
AcDbLine
 10
160.70044485
 20
100.90552379
 30
0.0
 11
162.82176533
 21
103.0268441
 31
0.0
  0
LINE
  5
43A
100
AcDbEntity
  8
0
  6
CONTINUOUS
 62
       7
100
AcDbLine
 10
160.70044477
 20
103.02684376
 30
0.0
 11
162.82176507
 21
100.90552328
 31
0.0
  0
CIRCLE
  5
43B
100
AcDbEntity
  8
0
  6
CONTINUOUS
 62
       7
100
AcDbCircle
 10
161.76110522
 20
101.96618382
 30
0.0
 40
2.79999924
  0
LINE
  5
43C
100
AcDbEntity
  8
0
  6
CONTINUOUS
 62
       7
100
AcDbLine
 10
173.70044485
 20
82.90552379
 30
0.0
 11
175.82176533
 21
85.0268441
 31
0.0
  0
LINE
  5
43D
100
AcDbEntity
  8
0
  6
CONTINUOUS
 62
       7
100
AcDbLine
 10
173.70044477
 20
85.02684376
 30
0.0
 11
175.82176507
 21
82.90552328
 31
0.0
  0
CIRCLE
  5
43E
100
AcDbEntity
  8
0
  6
CONTINUOUS
 62
       7
100
AcDbCircle
 10
174.76110522
 20
83.96618382
 30
0.0
 40
2.79999924
  0
LINE
  5
43F
100
AcDbEntity
  8
0
  6
CONTINUOUS
 62
       2
100
AcDbLine
 10
161.76110522
 20
98.26472918
 30
0.0
 11
161.76110522
 21
105.59752465
 31
0.0
  0
LINE
  5
440
100
AcDbEntity
  8
0
  6
CONTINUOUS
 62
       2
100
AcDbLine
 10
174.76110522
 20
80.39831481
 30
0.0
 11
174.76110522
 21
87.73111028
 31
0.0
  0
LINE
  5
441
100
AcDbEntity
  8
0
  6
CONTINUOUS
 62
       2
100
AcDbLine
 10
171.01094892
 20
83.96618407
 30
0.0
 11
178.05276044
 21
83.96618407
 31
0.0
  0
LINE
  5
442
100
AcDbEntity
  8
0
  6
CONTINUOUS
 62
       2
100
AcDbLine
 10
158.55683597
 20
101.96618407
 30
0.0
 11
165.48225392
 21
101.96618407
 31
0.0
  0
LINE
  5
443
100
AcDbEntity
  8
0
  6
CONTINUOUS
 62
       7
100
AcDbLine
 10
166.26110522
 20
93.96618407
 30
0.0
 11
165.76110522
 21
94.46618407
 31
0.0
  0
LINE
  5
444
100
AcDbEntity
  8
0
  6
CONTINUOUS
 62
       7
100
AcDbLine
 10
165.76110522
 20
91.46618407
 30
0.0
 11
166.26110522
 21
91.96618407
 31
0.0
  0
LINE
  5
445
100
AcDbEntity
  8
0
  6
CONTINUOUS
 62
       7
100
AcDbLine
 10
170.26110522
 20
91.96618407
 30
0.0
 11
170.76110522
 21
91.46618407
 31
0.0
  0
LINE
  5
446
100
AcDbEntity
  8
0
  6
CONTINUOUS
 62
       7
100
AcDbLine
 10
170.26110522
 20
93.96618407
 30
0.0
 11
170.76110522
 21
94.46618407
 31
0.0
  0
LINE
  5
447
100
AcDbEntity
  8
0
  6
CONTINUOUS
 62
       7
100
AcDbLine
 10
165.76110522
 20
91.46618407
 30
0.0
 11
165.76110522
 21
94.46618407
 31
0.0
  0
LINE
  5
448
100
AcDbEntity
  8
0
  6
CONTINUOUS
 62
       7
100
AcDbLine
 10
170.76110522
 20
91.46618407
 30
0.0
 11
170.76110522
 21
94.46618407
 31
0.0
  0
LINE
  5
449
100
AcDbEntity
  8
0
  6
CONTINUOUS
 62
       7
100
AcDbLine
 10
165.76110522
 20
91.46618407
 30
0.0
 11
170.76110522
 21
91.46618407
 31
0.0
  0
LINE
  5
44A
100
AcDbEntity
  8
0
  6
CONTINUOUS
 62
       7
100
AcDbLine
 10
165.76110522
 20
94.46618407
 30
0.0
 11
170.76110522
 21
94.46618407
 31
0.0
  0
LINE
  5
44B
100
AcDbEntity
  8
0
  6
CONTINUOUS
 62
       7
100
AcDbLine
 10
166.26110522
 20
91.96618407
 30
0.0
 11
170.26110522
 21
91.96618407
 31
0.0
  0
LINE
  5
44C
100
AcDbEntity
  8
0
  6
CONTINUOUS
 62
       7
100
AcDbLine
 10
166.26110522
 20
93.96618407
 30
0.0
 11
170.26110522
 21
93.96618407
 31
0.0
  0
LINE
  5
44D
100
AcDbEntity
  8
0
  6
CONTINUOUS
 62
       7
100
AcDbLine
 10
166.26110522
 20
91.96618407
 30
0.0
 11
166.26110522
 21
93.96618407
 31
0.0
  0
LINE
  5
44E
100
AcDbEntity
  8
0
  6
CONTINUOUS
 62
       7
100
AcDbLine
 10
170.26110522
 20
91.96618407
 30
0.0
 11
170.26110522
 21
93.96618407
 31
0.0
  0
ARC
  5
44F
100
AcDbEntity
  8
0
  6
CONTINUOUS
 62
       7
100
AcDbCircle
 10
158.26110522
 20
79.96618407
 30
0.0
 40
0.5
100
AcDbArc
 50
180.0
 51
270.0
  0
ARC
  5
450
100
AcDbEntity
  8
0
  6
CONTINUOUS
 62
       7
100
AcDbCircle
 10
178.26110522
 20
79.96618407
 30
0.0
 40
0.5
100
AcDbArc
 50
270.0
 51
0.0
  0
ARC
  5
451
100
AcDbEntity
  8
0
  6
CONTINUOUS
 62
       7
100
AcDbCircle
 10
178.26110522
 20
105.96618407
 30
0.0
 40
0.5
100
AcDbArc
 50
0.0
 51
90.0
  0
ARC
  5
452
100
AcDbEntity
  8
0
  6
CONTINUOUS
 62
       7
100
AcDbCircle
 10
158.26110522
 20
105.96618407
 30
0.0
 40
0.5
100
AcDbArc
 50
90.0
 51
180.0
  0
ARC
  5
453
100
AcDbEntity
  8
0
  6
CONTINUOUS
 62
       7
100
AcDbCircle
 10
158.76110522
 20
80.46618407
 30
0.0
 40
0.5
100
AcDbArc
 50
180.0
 51
270.0
  0
ARC
  5
454
100
AcDbEntity
  8
0
  6
CONTINUOUS
 62
       7
100
AcDbCircle
 10
177.76110522
 20
80.46618407
 30
0.0
 40
0.5
100
AcDbArc
 50
270.0
 51
0.0
  0
ARC
  5
455
100
AcDbEntity
  8
0
  6
CONTINUOUS
 62
       7
100
AcDbCircle
 10
177.76110522
 20
105.46618407
 30
0.0
 40
0.5
100
AcDbArc
 50
0.0
 51
90.0
  0
ARC
  5
456
100
AcDbEntity
  8
0
  6
CONTINUOUS
 62
       7
100
AcDbCircle
 10
158.76110522
 20
105.46618407
 30
0.0
 40
0.5
100
AcDbArc
 50
90.0
 51
180.0
  0
LINE
  5
457
100
AcDbEntity
  8
0
  6
CONTINUOUS
 62
       7
100
AcDbLine
 10
158.76110522
 20
79.96618407
 30
0.0
 11
177.76110522
 21
79.96618407
 31
0.0
  0
LINE
  5
458
100
AcDbEntity
  8
0
  6
CONTINUOUS
 62
       7
100
AcDbLine
 10
158.76110522
 20
105.96618407
 30
0.0
 11
177.76110522
 21
105.96618407
 31
0.0
  0
LINE
  5
459
100
AcDbEntity
  8
0
  6
CONTINUOUS
 62
       7
100
AcDbLine
 10
158.26110522
 20
106.46618407
 30
0.0
 11
165.26110522
 21
106.46618407
 31
0.0
  0
LINE
  5
45A
100
AcDbEntity
  8
0
  6
CONTINUOUS
 62
       7
100
AcDbLine
 10
158.26110522
 20
79.46618407
 30
0.0
 11
178.26110522
 21
79.46618407
 31
0.0
  0
LINE
  5
45B
100
AcDbEntity
  8
0
  6
CONTINUOUS
 62
       7
100
AcDbLine
 10
157.76110522
 20
79.96618407
 30
0.0
 11
157.76110522
 21
105.96618407
 31
0.0
  0
LINE
  5
45C
100
AcDbEntity
  8
0
  6
CONTINUOUS
 62
       7
100
AcDbLine
 10
178.76110522
 20
79.96618407
 30
0.0
 11
178.76110522
 21
105.96618407
 31
0.0
  0
LINE
  5
45D
100
AcDbEntity
  8
0
  6
CONTINUOUS
 62
       7
100
AcDbLine
 10
158.26110522
 20
80.46618407
 30
0.0
 11
158.26110522
 21
105.46618407
 31
0.0
  0
LINE
  5
45E
100
AcDbEntity
  8
0
  6
CONTINUOUS
 62
       7
100
AcDbLine
 10
178.26110522
 20
80.46618407
 30
0.0
 11
178.26110522
 21
105.46618407
 31
0.0
  0
LINE
  5
45F
100
AcDbEntity
  8
0
  6
CONTINUOUS
 62
       2
100
AcDbLine
 10
156.907675
 20
92.96618407
 30
0.0
 11
179.68000314
 21
92.96618407
 31
0.0
  0
LINE
  5
460
100
AcDbEntity
  8
0
  6
CONTINUOUS
 62
       7
100
AcDbLine
 10
165.76110522
 20
107.96618407
 30
0.0
 11
175.76110522
 21
107.96618407
 31
0.0
  0
LINE
  5
461
100
AcDbEntity
  8
0
  6
CONTINUOUS
 62
       7
100
AcDbLine
 10
169.96110522
 20
120.11671338
 30
0.0
 11
169.96110522
 21
113.95963989
 31
0.0
  0
LINE
  5
462
100
AcDbEntity
  8
0
  6
CONTINUOUS
 62
       7
100
AcDbLine
 10
167.56110522
 20
120.11671338
 30
0.0
 11
167.56110522
 21
115.00963989
 31
0.0
  0
LINE
  5
463
100
AcDbEntity
  8
0
  6
CONTINUOUS
 62
       7
100
AcDbLine
 10
167.5611052
 20
120.11671338
 30
0.0
 11
169.96110518
 21
120.11671338
 31
0.0
  0
LINE
  5
464
100
AcDbEntity
  8
0
  6
CENTER
 62
       2
100
AcDbLine
 10
167.56110522
 20
115.00963989
 30
0.0
 11
169.96110522
 21
113.95963989
 31
0.0
  0
LINE
  5
465
100
AcDbEntity
  8
0
  6
CONTINUOUS
 62
       7
100
AcDbLine
 10
169.14110522
 20
130.11671338
 30
0.0
 11
169.14110522
 21
120.11671338
 31
0.0
  0
LINE
  5
466
100
AcDbEntity
  8
0
  6
CONTINUOUS
 62
       7
100
AcDbLine
 10
168.38110522
 20
130.11671338
 30
0.0
 11
168.38110522
 21
120.11671338
 31
0.0
  0
LINE
  5
467
100
AcDbEntity
  8
0
  6
CONTINUOUS
 62
       7
100
AcDbLine
 10
168.38110522
 20
130.11671338
 30
0.0
 11
169.14110522
 21
130.11671338
 31
0.0
  0
LINE
  5
468
100
AcDbEntity
  8
0
  6
CENTER
 62
       2
100
AcDbLine
 10
167.56110522
 20
112.8299444
 30
0.0
 11
169.96110522
 21
111.7799444
 31
0.0
  0
LINE
  5
469
100
AcDbEntity
  8
0
  6
CONTINUOUS
 62
       7
100
AcDbLine
 10
169.96110522
 20
111.7799444
 30
0.0
 11
169.96110522
 21
107.96618407
 31
0.0
  0
LINE
  5
46A
100
AcDbEntity
  8
0
  6
CONTINUOUS
 62
       7
100
AcDbLine
 10
167.56110522
 20
112.8299444
 30
0.0
 11
167.56110522
 21
107.96618407
 31
0.0
  0
LINE
  5
46B
100
AcDbEntity
  8
0
  6
CONTINUOUS
 62
       7
100
AcDbLine
 10
173.96110522
 20
120.11671338
 30
0.0
 11
173.96110522
 21
113.95963989
 31
0.0
  0
LINE
  5
46C
100
AcDbEntity
  8
0
  6
CONTINUOUS
 62
       7
100
AcDbLine
 10
171.56110522
 20
120.11671338
 30
0.0
 11
171.56110522
 21
115.00963989
 31
0.0
  0
LINE
  5
46D
100
AcDbEntity
  8
0
  6
CONTINUOUS
 62
       7
100
AcDbLine
 10
171.5611052
 20
120.11671338
 30
0.0
 11
173.96110518
 21
120.11671338
 31
0.0
  0
LINE
  5
46E
100
AcDbEntity
  8
0
  6
CENTER
 62
       2
100
AcDbLine
 10
171.56110522
 20
115.00963989
 30
0.0
 11
173.96110522
 21
113.95963989
 31
0.0
  0
LINE
  5
46F
100
AcDbEntity
  8
0
  6
CONTINUOUS
 62
       7
100
AcDbLine
 10
173.14110522
 20
130.11671338
 30
0.0
 11
173.14110522
 21
120.11671338
 31
0.0
  0
LINE
  5
470
100
AcDbEntity
  8
0
  6
CONTINUOUS
 62
       7
100
AcDbLine
 10
172.38110522
 20
130.11671338
 30
0.0
 11
172.38110522
 21
120.11671338
 31
0.0
  0
LINE
  5
471
100
AcDbEntity
  8
0
  6
CONTINUOUS
 62
       7
100
AcDbLine
 10
172.38110522
 20
130.11671338
 30
0.0
 11
173.14110522
 21
130.11671338
 31
0.0
  0
LINE
  5
472
100
AcDbEntity
  8
0
  6
CENTER
 62
       2
100
AcDbLine
 10
171.56110522
 20
112.8299444
 30
0.0
 11
173.96110522
 21
111.7799444
 31
0.0
  0
LINE
  5
473
100
AcDbEntity
  8
0
  6
CONTINUOUS
 62
       7
100
AcDbLine
 10
173.96110522
 20
111.7799444
 30
0.0
 11
173.96110522
 21
107.96618407
 31
0.0
  0
LINE
  5
474
100
AcDbEntity
  8
0
  6
CONTINUOUS
 62
       7
100
AcDbLine
 10
171.56110522
 20
112.8299444
 30
0.0
 11
171.56110522
 21
107.96618407
 31
0.0
  0
ARC
  5
475
100
AcDbEntity
  8
0
  6
CONTINUOUS
 62
       7
100
AcDbCircle
 10
175.76110522
 20
107.46618407
 30
0.0
 40
0.5
100
AcDbArc
 50
0.0
 51
90.0
  0
ARC
  5
476
100
AcDbEntity
  8
0
  6
CONTINUOUS
 62
       7
100
AcDbCircle
 10
165.76110522
 20
107.46618407
 30
0.0
 40
0.5
100
AcDbArc
 50
90.0
 51
180.0
  0
LINE
  5
477
100
AcDbEntity
  8
0
  6
CONTINUOUS
 62
       7
100
AcDbLine
 10
169.96110522
 20
109.46618407
 30
0.0
 11
171.56110522
 21
109.46618407
 31
0.0
  0
LINE
  5
478
100
AcDbEntity
  8
0
  6
CONTINUOUS
 62
       7
100
AcDbLine
 10
173.96110522
 20
109.46618407
 30
0.0
 11
177.46110522
 21
109.46618407
 31
0.0
  0
LINE
  5
479
100
AcDbEntity
  8
0
  6
CONTINUOUS
 62
       7
100
AcDbLine
 10
173.96110522
 20
108.46618407
 30
0.0
 11
181.76110522
 21
108.46618407
 31
0.0
  0
LINE
  5
47A
100
AcDbEntity
  8
0
  6
CONTINUOUS
 62
       7
100
AcDbLine
 10
169.96110522
 20
108.46618407
 30
0.0
 11
171.56110522
 21
108.46618407
 31
0.0
  0
LINE
  5
47B
100
AcDbEntity
  8
0
  6
CONTINUOUS
 62
       7
100
AcDbLine
 10
141.96110522
 20
109.46618407
 30
0.0
 11
143.56110522
 21
109.46618407
 31
0.0
  0
LINE
  5
47C
100
AcDbEntity
  8
0
  6
CONTINUOUS
 62
       7
100
AcDbLine
 10
145.96110522
 20
109.46618407
 30
0.0
 11
149.46110522
 21
109.46618407
 31
0.0
  0
LINE
  5
47D
100
AcDbEntity
  8
0
  6
CONTINUOUS
 62
       7
100
AcDbLine
 10
145.96110522
 20
108.46618407
 30
0.0
 11
153.76110522
 21
108.46618407
 31
0.0
  0
LINE
  5
47E
100
AcDbEntity
  8
0
  6
CONTINUOUS
 62
       7
100
AcDbLine
 10
141.96110522
 20
108.46618407
 30
0.0
 11
143.56110522
 21
108.46618407
 31
0.0
  0
LINE
  5
47F
100
AcDbEntity
  8
0
  6
CONTINUOUS
 62
       7
100
AcDbLine
 10
113.96110522
 20
109.46618407
 30
0.0
 11
115.56110522
 21
109.46618407
 31
0.0
  0
LINE
  5
480
100
AcDbEntity
  8
0
  6
CONTINUOUS
 62
       7
100
AcDbLine
 10
117.96110522
 20
109.46618407
 30
0.0
 11
121.46110522
 21
109.46618407
 31
0.0
  0
LINE
  5
481
100
AcDbEntity
  8
0
  6
CONTINUOUS
 62
       7
100
AcDbLine
 10
117.96110522
 20
108.46618407
 30
0.0
 11
125.76110522
 21
108.46618407
 31
0.0
  0
LINE
  5
482
100
AcDbEntity
  8
0
  6
CONTINUOUS
 62
       7
100
AcDbLine
 10
113.96110522
 20
108.46618407
 30
0.0
 11
115.56110522
 21
108.46618407
 31
0.0
  0
LINE
  5
483
100
AcDbEntity
  8
0
  6
CONTINUOUS
 62
       7
100
AcDbLine
 10
85.96110522
 20
109.46618407
 30
0.0
 11
87.56110522
 21
109.46618407
 31
0.0
  0
LINE
  5
484
100
AcDbEntity
  8
0
  6
CONTINUOUS
 62
       7
100
AcDbLine
 10
89.96110522
 20
109.46618407
 30
0.0
 11
93.46110522
 21
109.46618407
 31
0.0
  0
LINE
  5
485
100
AcDbEntity
  8
0
  6
CONTINUOUS
 62
       7
100
AcDbLine
 10
89.96110522
 20
108.46618407
 30
0.0
 11
97.76110522
 21
108.46618407
 31
0.0
  0
LINE
  5
486
100
AcDbEntity
  8
0
  6
CONTINUOUS
 62
       7
100
AcDbLine
 10
85.96110522
 20
108.46618407
 30
0.0
 11
87.56110522
 21
108.46618407
 31
0.0
  0
LINE
  5
487
100
AcDbEntity
  8
0
  6
CONTINUOUS
 62
       7
100
AcDbLine
 10
57.96110522
 20
109.46618407
 30
0.0
 11
59.56110522
 21
109.46618407
 31
0.0
  0
LINE
  5
488
100
AcDbEntity
  8
0
  6
CONTINUOUS
 62
       7
100
AcDbLine
 10
61.96110522
 20
109.46618407
 30
0.0
 11
65.46110522
 21
109.46618407
 31
0.0
  0
LINE
  5
489
100
AcDbEntity
  8
0
  6
CONTINUOUS
 62
       7
100
AcDbLine
 10
61.96110522
 20
108.46618407
 30
0.0
 11
69.76110522
 21
108.46618407
 31
0.0
  0
LINE
  5
48A
100
AcDbEntity
  8
0
  6
CONTINUOUS
 62
       7
100
AcDbLine
 10
57.96110522
 20
108.46618407
 30
0.0
 11
59.56110522
 21
108.46618407
 31
0.0
  0
LINE
  5
48B
100
AcDbEntity
  8
0
  6
CONTINUOUS
 62
       7
100
AcDbLine
 10
33.96110522
 20
109.46618407
 30
0.0
 11
37.46110522
 21
109.46618407
 31
0.0
  0
LINE
  5
48C
100
AcDbEntity
  8
0
  6
CONTINUOUS
 62
       7
100
AcDbLine
 10
33.96110522
 20
108.46618407
 30
0.0
 11
41.76110522
 21
108.46618407
 31
0.0
  0
LINE
  5
48D
100
AcDbEntity
  8
0
  6
CONTINUOUS
 62
       7
100
AcDbLine
 10
29.96110522
 20
109.46618407
 30
0.0
 11
31.56110522
 21
109.46618407
 31
0.0
  0
LINE
  5
48E
100
AcDbEntity
  8
0
  6
CONTINUOUS
 62
       7
100
AcDbLine
 10
29.96110522
 20
108.46618407
 30
0.0
 11
31.56110522
 21
108.46618407
 31
0.0
  0
LINE
  5
48F
100
AcDbEntity
  8
0
  6
CONTINUOUS
 62
       2
100
AcDbLine
 10
-125.19889478
 20
38.88362691
 30
0.0
 11
-118.23889478
 21
38.88362691
 31
0.0
  0
LINE
  5
490
100
AcDbEntity
  8
0
  6
CONTINUOUS
 62
       2
100
AcDbLine
 10
-121.73889478
 20
42.78362691
 30
0.0
 11
-121.73889478
 21
35.04362691
 31
0.0
  0
ARC
  5
491
100
AcDbEntity
  8
0
  6
CONTINUOUS
 62
       7
100
AcDbCircle
 10
-121.73889478
 20
38.88362691
 30
0.0
 40
2.2
100
AcDbArc
 50
284.39802899
 51
190.93800487
  0
LINE
  5
492
100
AcDbEntity
  8
0
  6
CONTINUOUS
 62
       7
100
AcDbLine
 10
-103.95889478
 20
13.46618407
 30
0.0
 11
-103.95889478
 21
10.46618407
 31
0.0
  0
LINE
  5
493
100
AcDbEntity
  8
0
  6
CONTINUOUS
 62
       7
100
AcDbLine
 10
-111.45889478
 20
13.46618407
 30
0.0
 11
-111.45889478
 21
10.46618407
 31
0.0
  0
SPLINE
  5
494
100
AcDbEntity
  8
0
  6
CONTINUOUS
 62
       7
100
AcDbSpline
210
0.0
220
0.0
230
1.0
 70
       0
 71
       3
 72
       0
 73
       0
 74
       3
 44
0.000001
 12
0.044732937069683
 22
-0.998998981151192
 32
0.0
 13
0.9997729095822832
 23
0.0213103088991196
 33
0.0
 11
-110.21889478463441
 21
12.466184068981562
 31
0.0
 11
-109.89889478463439
 21
11.306184068981565
 31
0.0
 11
-107.71889478463441
 21
10.466184068981562
 31
0.0
  0
SPLINE
  5
495
100
AcDbEntity
  8
0
  6
CONTINUOUS
 62
       7
100
AcDbSpline
210
0.0
220
0.0
230
1.0
 70
       0
 71
       3
 72
       0
 73
       0
 74
       3
 44
0.000001
 12
-0.0447329360651052
 22
-0.9989989811961748
 32
0.0
 13
-0.9997729095680374
 23
0.0213103095674552
 33
0.0
 11
-105.21889478463441
 21
12.466184068981562
 31
0.0
 11
-105.53889478463441
 21
11.306184068981565
 31
0.0
 11
-107.71889478463441
 21
10.466184068981562
 31
0.0
  0
LINE
  5
496
100
AcDbEntity
  8
0
  6
CONTINUOUS
 62
       7
100
AcDbLine
 10
-110.21889478
 20
13.46618407
 30
0.0
 11
-110.21889478
 21
12.46618407
 31
0.0
  0
LINE
  5
497
100
AcDbEntity
  8
0
  6
CONTINUOUS
 62
       7
100
AcDbLine
 10
-105.21889478
 20
13.46618407
 30
0.0
 11
-105.21889478
 21
12.46618407
 31
0.0
  0
LINE
  5
498
100
AcDbEntity
  8
0
  6
CONTINUOUS
 62
       7
100
AcDbLine
 10
-110.21889478
 20
12.46618407
 30
0.0
 11
-105.21889478
 21
12.46618407
 31
0.0
  0
LINE
  5
499
100
AcDbEntity
  8
0
  6
CONTINUOUS
 62
       7
100
AcDbLine
 10
-111.45889478
 20
13.46618407
 30
0.0
 11
-103.95889478
 21
13.46618407
 31
0.0
  0
MTEXT
  5
49A
100
AcDbEntity
  8
0
  6
CONTINUOUS
 62
       7
100
AcDbMText
 10
-268.27500006
 20
178.6500001
 30
0.0
 40
6.30000019
 41
0.0
 71
       1
 72
       1
  1
\W1.071;\A1;MODEL:BM6U
  0
LINE
  5
49B
100
AcDbEntity
  8
0
  6
CONTINUOUS
 62
       7
100
AcDbLine
 10
282.09985352
 20
195.5
 30
0.0
 11
282.09985352
 21
-195.0
 31
0.0
  0
LINE
  5
49C
100
AcDbEntity
  8
0
  6
CONTINUOUS
 62
       7
100
AcDbLine
 10
-281.25
 20
195.5
 30
0.0
 11
282.09985352
 21
195.5
 31
0.0
  0
LINE
  5
49D
100
AcDbEntity
  8
0
  6
CONTINUOUS
 62
       7
100
AcDbLine
 10
-281.25
 20
195.5
 30
0.0
 11
-281.25
 21
-195.0
 31
0.0
  0
LINE
  5
49E
100
AcDbEntity
  8
0
  6
CONTINUOUS
 62
       7
100
AcDbLine
 10
-281.25
 20
-195.0
 30
0.0
 11
282.09985352
 21
-195.0
 31
0.0
  0
ENDSEC
  0
SECTION
  2
OBJECTS
  0
DICTIONARY
  5
19
100
AcDbDictionary
  3
ACAD_GROUP
350
1A
  3
ACAD_MLINESTYLE
350
1B
  0
DICTIONARY
  5
1A
102
{ACAD_REACTORS
330
19
102
}
100
AcDbDictionary
  0
DICTIONARY
  5
1B
102
{ACAD_REACTORS
330
19
102
}
100
AcDbDictionary
  3
STANDARD
350
1C
  0
MLINESTYLE
  5
1C
102
{ACAD_REACTORS
330
1B
102
}
100
AcDbMlineStyle
  2
Standard
 70
       0
  3

 62
       0
 51
90.0
 52
90.0
 71
       2
 49
0.5
 62
     256
  6
ByLayer
 49
-0.5
 62
     256
  6
ByLayer
  0
ENDSEC
  0
EOF
