  0
SECTION
  2
HEADER
  9
$ACADVER
  1
AC1009
  9
$DWGCODEPAGE
  3
dos932
  9
$INSBASE
 10
0.0
 20
0.0
 30
0.0
  9
$EXTMIN
 10
-281.25
 20
-195.0
 30
0.0
  9
$EXTMAX
 10
282.09985352
 20
195.5
 30
0.0
  9
$LIMMIN
 10
-297.0
 20
-210.0
  9
$LIMMAX
 10
297.0
 20
210.0
  9
$ORTHOMODE
 70
       0
  9
$REGENMODE
 70
       1
  9
$FILLMODE
 70
       1
  9
$QTEXTMODE
 70
       0
  9
$MIRRTEXT
 70
       1
  9
$DRAGMODE
 70
       2
  9
$LTSCALE
 40
1.0
  9
$OSMODE
 70
       0
  9
$ATTMODE
 70
       1
  9
$TEXTSIZE
 40
3.20000005
  9
$TRACEWID
 40
0.05
  9
$TEXTSTYLE
  7
MX_NOTE_STANDARD
  9
$CLAYER
  8
0
  9
$CELTYPE
  6
CONTINUOUS
  9
$CECOLOR
 62
     256
  9
$DIMSCALE
 40
1.0
  9
$DIMASZ
 40
2.5
  9
$DIMEXO
 40
1.5
  9
$DIMDLI
 40
3.75
  9
$DIMRND
 40
0.0
  9
$DIMDLE
 40
0.0
  9
$DIMEXE
 40
1.5
  9
$DIMTP
 40
0.0
  9
$DIMTM
 40
0.0
  9
$DIMTXT
 40
3.20000005
  9
$DIMCEN
 40
2.5
  9
$DIMTSZ
 40
0.0
  9
$DIMTOL
 70
       0
  9
$DIMLIM
 70
       0
  9
$DIMTIH
 70
       0
  9
$DIMTOH
 70
       0
  9
$DIMSE1
 70
       0
  9
$DIMSE2
 70
       0
  9
$DIMTAD
 70
       1
  9
$DIMZIN
 70
       8
  9
$DIMBLK
  1

  9
$DIMASO
 70
       1
  9
$DIMSHO
 70
       1
  9
$DIMPOST
  1

  9
$DIMAPOST
  1

  9
$DIMALT
 70
       0
  9
$DIMALTD
 70
       4
  9
$DIMALTF
 40
0.03937008
  9
$DIMLFAC
 40
1.0
  9
$DIMTOFL
 70
       1
  9
$DIMTVP
 40
0.0
  9
$DIMTIX
 70
       0
  9
$DIMSOXD
 70
       0
  9
$DIMSAH
 70
       1
  9
$DIMBLK1
  1
_OPEN30
  9
$DIMBLK2
  1
_OPEN30
  9
$DIMSTYLE
  2
MXDIMSTYLE
  9
$DIMCLRD
 70
       0
  9
$DIMCLRE
 70
       0
  9
$DIMCLRT
 70
       0
  9
$DIMTFAC
 40
1.0
  9
$DIMGAP
 40
1.0
  9
$LUNITS
 70
       2
  9
$LUPREC
 70
       4
  9
$AXISMODE
 70
       0
  9
$AXISUNIT
 10
0.0
 20
0.0
  9
$SKETCHINC
 40
0.1
  9
$FILLETRAD
 40
0.0
  9
$AUNITS
 70
       0
  9
$AUPREC
 70
       0
  9
$MENU
  1
acad
  9
$ELEVATION
 40
0.0
  9
$PELEVATION
 40
0.0
  9
$THICKNESS
 40
0.0
  9
$LIMCHECK
 70
       0
  9
$BLIPMODE
 70
       1
  9
$CHAMFERA
 40
0.0
  9
$CHAMFERB
 40
0.0
  9
$SKPOLY
 70
       0
  9
$TDCREATE
 40
2454196.694074074
  9
$TDUPDATE
 40
2454196.694074074
  9
$TDINDWG
 40
0.0000000000
  9
$TDUSRTIMER
 40
0.0000000000
  9
$USRTIMER
 70
       1
  9
$ANGBASE
 50
0.0
  9
$ANGDIR
 70
       0
  9
$PDMODE
 70
       0
  9
$PDSIZE
 40
0.0
  9
$PLINEWID
 40
0.0
  9
$COORDS
 70
       1
  9
$SPLFRAME
 70
       0
  9
$SPLINETYPE
 70
       6
  9
$SPLINESEGS
 70
       8
  9
$ATTDIA
 70
       0
  9
$ATTREQ
 70
       1
  9
$HANDLING
 70
       1
  9
$HANDSEED
  5
2DC
  9
$SURFTAB1
 70
       6
  9
$SURFTAB2
 70
       6
  9
$SURFTYPE
 70
       6
  9
$SURFU
 70
       6
  9
$SURFV
 70
       6
  9
$UCSNAME
  2

  9
$UCSORG
 10
0.0
 20
0.0
 30
0.0
  9
$UCSXDIR
 10
1.0
 20
0.0
 30
0.0
  9
$UCSYDIR
 10
0.0
 20
1.0
 30
0.0
  9
$PUCSNAME
  2

  9
$PUCSORG
 10
0.0
 20
0.0
 30
0.0
  9
$PUCSXDIR
 10
1.0
 20
0.0
 30
0.0
  9
$PUCSYDIR
 10
0.0
 20
1.0
 30
0.0
  9
$USERI1
 70
       0
  9
$USERI2
 70
       0
  9
$USERI3
 70
       0
  9
$USERI4
 70
       0
  9
$USERI5
 70
       0
  9
$USERR1
 40
0.0
  9
$USERR2
 40
0.0
  9
$USERR3
 40
0.0
  9
$USERR4
 40
0.0
  9
$USERR5
 40
0.0
  9
$WORLDVIEW
 70
       1
  9
$SHADEDGE
 70
       3
  9
$SHADEDIF
 70
      70
  9
$TILEMODE
 70
       1
  9
$MAXACTVP
 70
      16
  9
$PINSBASE
 10
0.0
 20
0.0
 30
0.0
  9
$PLIMCHECK
 70
       0
  9
$PEXTMIN
 10
1.00000000E+20
 20
1.00000000E+20
 30
1.00000000E+20
  9
$PEXTMAX
 10
-1.00000000E+20
 20
-1.00000000E+20
 30
-1.00000000E+20
  9
$PLIMMIN
 10
0.0
 20
0.0
  9
$PLIMMAX
 10
12.0
 20
9.0
  9
$UNITMODE
 70
       0
  9
$VISRETAIN
 70
       0
  9
$PLINEGEN
 70
       1
  9
$PSLTSCALE
 70
       0
  9
$TREEDEPTH
 70
    3020
  0
ENDSEC
  0
SECTION
  2
TABLES
  0
TABLE
  2
VPORT
 70
       1
  0
VPORT
  2
*ACTIVE
 70
       0
 10
0.0
 20
0.0
 11
1.0
 21
1.0
 12
0.0
 22
0.0
 13
0.0
 23
0.0
 14
1.0
 24
1.0
 15
0.0
 25
0.0
 16
0.0
 26
0.0
 36
1.0
 17
0.0
 27
0.0
 37
0.0
 40
424.2
 41
1.73205081
 42
50.0
 43
0.0
 44
0.0
 50
0.0
 51
0.0
 71
       0
 72
     100
 73
       1
 74
       1
 75
       0
 76
       0
 77
       0
 78
       0
  0
ENDTAB
  0
TABLE
  2
LTYPE
 70
       2
  0
LTYPE
  2
CONTINUOUS
 70
      64
  3
Solid line
 72
      65
 73
       0
 40
0.0
  0
LTYPE
  2
PHANTOM
 70
      64
  3
Phantom ______  __  __  ______  __  __  ______
 72
      65
 73
       6
 40
63.5
 49
31.75
 49
-6.35
 49
6.35
 49
-6.35
 49
6.35
 49
-6.35
  0
ENDTAB
  0
TABLE
  2
LAYER
 70
       2
  0
LAYER
  2
0
 70
       0
 62
       7
  6
CONTINUOUS
  0
LAYER
  2
DEFPOINTS
 70
       0
 62
       7
  6
CONTINUOUS
  0
ENDTAB
  0
TABLE
  2
STYLE
 70
       1
  0
STYLE
  2
MX_NOTE_STANDARD
 70
       0
 40
0.0
 41
1.0
 50
0.0
 71
       0
 42
3.20000005
  3
txt.shx
  4
extfont.shx
  0
ENDTAB
  0
TABLE
  2
VIEW
 70
       0
  0
ENDTAB
  0
TABLE
  2
UCS
 70
       0
  0
ENDTAB
  0
TABLE
  2
APPID
 70
       1
  0
APPID
  2
ACAD
 70
       0
  0
ENDTAB
  0
TABLE
  2
DIMSTYLE
 70
       1
  0
DIMSTYLE
  2
MXDIMSTYLE
 70
       0
  3

  4

  5

  6
_OPEN30
  7
_OPEN30
 40
1.0
 41
2.5
 42
1.5
 43
3.75
 44
1.5
 45
0.0
 46
0.0
 47
0.0
 48
0.0
 71
       0
 72
       0
 73
       0
 74
       0
 75
       0
 76
       0
 77
       1
 78
       8
140
3.20000005
141
2.5
142
0.0
143
0.03937008
144
1.0
145
0.0
146
1.0
147
1.0
170
       0
171
       4
172
       1
173
       1
174
       0
175
       0
176
       0
177
       0
178
       0
  0
ENDTAB
  0
ENDSEC
  0
SECTION
  2
BLOCKS
  0
BLOCK
  8
0
  6
BYBLOCK
 62
       0
  5
1F
  2
_OPEN30
 70
       2
 10
0.0
 20
0.0
 30
0.0
  3
_OPEN30
  0
LINE
  8
0
  6
BYBLOCK
 62
       0
  5
20
 10
-1.0
 20
0.267949
 30
0.0
 11
0.0
 21
0.0
 31
0.0
  0
LINE
  8
0
  6
BYBLOCK
 62
       0
  5
21
 10
0.0
 20
0.0
 30
0.0
 11
-1.0
 21
-0.267949
 31
0.0
  0
LINE
  8
0
  6
BYBLOCK
 62
       0
  5
22
 10
0.0
 20
0.0
 30
0.0
 11
-1.0
 21
0.0
 31
0.0
  0
ENDBLK
  8
0
  6
BYBLOCK
 62
       0
  5
23
  0
ENDSEC
  0
SECTION
  2
ENTITIES
  0
ARC
  8
0
  6
CONTINUOUS
 62
       7
  5
24
 10
134.91682692
 20
20.87908618
 30
0.0
 40
5.01220483
 50
236.62709847
 51
246.60127906
  0
LINE
  8
0
  6
PHANTOM
 62
       2
  5
26
 10
28.9025412
 20
63.57906758
 30
0.0
 11
28.9025412
 21
92.57906758
 31
0.0
  0
LINE
  8
0
  6
PHANTOM
 62
       2
  5
27
 10
8.9025412
 20
63.57906758
 30
0.0
 11
8.9025412
 21
92.57906758
 31
0.0
  0
LINE
  8
0
  6
PHANTOM
 62
       2
  5
28
 10
-75.0974588
 20
63.57906758
 30
0.0
 11
-75.0974588
 21
92.57906758
 31
0.0
  0
LINE
  8
0
  6
PHANTOM
 62
       2
  5
29
 10
-95.0974588
 20
63.57906758
 30
0.0
 11
-95.0974588
 21
92.57906758
 31
0.0
  0
LINE
  8
0
  6
PHANTOM
 62
       2
  5
2A
 10
8.9025412
 20
92.57906758
 30
0.0
 11
28.9025412
 21
92.57906758
 31
0.0
  0
LINE
  8
0
  6
PHANTOM
 62
       2
  5
2B
 10
-95.0974588
 20
92.57906758
 30
0.0
 11
-75.0974588
 21
92.57906758
 31
0.0
  0
LINE
  8
0
  6
CONTINUOUS
 62
       7
  5
2C
 10
-95.0974588
 20
-92.92093264
 30
0.0
 11
-75.0974588
 21
-92.92093264
 31
0.0
  0
LINE
  8
0
  6
PHANTOM
 62
       2
  5
2D
 10
-93.5974588
 20
-120.62093264
 30
0.0
 11
-86.5974588
 21
-120.62093264
 31
0.0
  0
LINE
  8
0
  6
PHANTOM
 62
       2
  5
2E
 10
-83.5974588
 20
-120.62093264
 30
0.0
 11
-76.5974588
 21
-120.62093264
 31
0.0
  0
LINE
  8
0
  6
PHANTOM
 62
       2
  5
2F
 10
-83.5974588
 20
-119.92093264
 30
0.0
 11
-83.5974588
 21
-120.62093264
 31
0.0
  0
LINE
  8
0
  6
PHANTOM
 62
       2
  5
30
 10
-76.5974588
 20
-119.92093264
 30
0.0
 11
-76.5974588
 21
-120.62093264
 31
0.0
  0
LINE
  8
0
  6
PHANTOM
 62
       2
  5
31
 10
-86.5974588
 20
-119.92093264
 30
0.0
 11
-86.5974588
 21
-120.62093264
 31
0.0
  0
LINE
  8
0
  6
PHANTOM
 62
       2
  5
32
 10
-93.5974588
 20
-119.92093264
 30
0.0
 11
-93.5974588
 21
-120.62093264
 31
0.0
  0
LINE
  8
0
  6
PHANTOM
 62
       2
  5
33
 10
-80.0974588
 20
-123.21382048
 30
0.0
 11
-78.62028863
 21
-121.73665031
 31
0.0
  0
LINE
  8
0
  6
PHANTOM
 62
       2
  5
34
 10
-80.0974588
 20
-123.21382048
 30
0.0
 11
-81.57462897
 21
-121.73665031
 31
0.0
  0
LINE
  8
0
  6
PHANTOM
 62
       2
  5
35
 10
-90.0974588
 20
-123.21382048
 30
0.0
 11
-88.62028863
 21
-121.73665031
 31
0.0
  0
LINE
  8
0
  6
PHANTOM
 62
       2
  5
36
 10
-90.0974588
 20
-123.21382048
 30
0.0
 11
-91.57462897
 21
-121.73665031
 31
0.0
  0
ARC
  8
0
  6
PHANTOM
 62
       2
  5
37
 10
-80.0974588
 20
-119.55514557
 30
0.0
 40
3.65867491
 50
196.93604788
 51
343.06395212
  0
ARC
  8
0
  6
PHANTOM
 62
       2
  5
38
 10
-90.0974588
 20
-119.55514557
 30
0.0
 40
3.65867491
 50
196.93604788
 51
343.06395212
  0
LINE
  8
0
  6
PHANTOM
 62
       2
  5
39
 10
-90.0974588
 20
-124.05272328
 30
0.0
 11
-90.0974588
 21
-115.56601474
 31
0.0
  0
LINE
  8
0
  6
PHANTOM
 62
       2
  5
3A
 10
-80.0974588
 20
-124.05272328
 30
0.0
 11
-80.0974588
 21
-115.56601474
 31
0.0
  0
CIRCLE
  8
0
  6
PHANTOM
 62
       2
  5
3B
 10
-85.0974588
 20
-139.92093264
 30
0.0
 40
2.75
  0
LINE
  8
0
  6
PHANTOM
 62
       2
  5
3C
 10
-91.0974588
 20
-139.92093264
 30
0.0
 11
-79.0974588
 21
-139.92093264
 31
0.0
  0
LINE
  8
0
  6
PHANTOM
 62
       2
  5
3D
 10
-91.0974588
 20
-159.92093264
 30
0.0
 11
-79.0974588
 21
-159.92093264
 31
0.0
  0
LINE
  8
0
  6
PHANTOM
 62
       2
  5
3E
 10
-76.0974588
 20
-169.92093264
 30
0.0
 11
-75.0974588
 21
-168.92093264
 31
0.0
  0
LINE
  8
0
  6
PHANTOM
 62
       2
  5
3F
 10
-94.0974588
 20
-169.92093264
 30
0.0
 11
-95.0974588
 21
-168.92093264
 31
0.0
  0
LINE
  8
0
  6
PHANTOM
 62
       2
  5
40
 10
-94.0974588
 20
-169.92093264
 30
0.0
 11
-76.0974588
 21
-169.92093264
 31
0.0
  0
CIRCLE
  8
0
  6
PHANTOM
 62
       2
  5
41
 10
-85.0974588
 20
-159.92093264
 30
0.0
 40
2.75
  0
LINE
  8
0
  6
PHANTOM
 62
       2
  5
42
 10
-75.0974588
 20
-168.92093264
 30
0.0
 11
-75.0974588
 21
-119.92093264
 31
0.0
  0
LINE
  8
0
  6
PHANTOM
 62
       2
  5
43
 10
-95.0974588
 20
-168.92093264
 30
0.0
 11
-95.0974588
 21
-119.92093264
 31
0.0
  0
LINE
  8
0
  6
PHANTOM
 62
       2
  5
44
 10
-85.0974588
 20
-172.92093264
 30
0.0
 11
-85.0974588
 21
-119.92093264
 31
0.0
  0
LINE
  8
0
  6
CONTINUOUS
 62
       7
  5
45
 10
-75.0974588
 20
-43.92093264
 30
0.0
 11
-75.0974588
 21
-92.92093264
 31
0.0
  0
CIRCLE
  8
0
  6
CONTINUOUS
 62
       7
  5
46
 10
-85.0974588
 20
-73.42093264
 30
0.0
 40
2.75
  0
LINE
  8
0
  6
CONTINUOUS
 62
       2
  5
47
 10
-91.0974588
 20
-73.42093264
 30
0.0
 11
-79.0974588
 21
-73.42093264
 31
0.0
  0
LINE
  8
0
  6
CONTINUOUS
 62
       7
  5
48
 10
-94.0974588
 20
-43.42093264
 30
0.0
 11
-76.0974588
 21
-43.42093264
 31
0.0
  0
LINE
  8
0
  6
CONTINUOUS
 62
       2
  5
49
 10
-91.0974588
 20
-53.42093264
 30
0.0
 11
-79.0974588
 21
-53.42093264
 31
0.0
  0
LINE
  8
0
  6
CONTINUOUS
 62
       7
  5
4A
 10
-94.0974588
 20
-43.42093264
 30
0.0
 11
-95.0974588
 21
-44.42093264
 31
0.0
  0
LINE
  8
0
  6
CONTINUOUS
 62
       7
  5
4B
 10
-76.0974588
 20
-43.42093264
 30
0.0
 11
-75.0974588
 21
-44.42093264
 31
0.0
  0
LINE
  8
0
  6
CONTINUOUS
 62
       7
  5
4C
 10
-95.0974588
 20
-44.42093264
 30
0.0
 11
-95.0974588
 21
-92.92093264
 31
0.0
  0
CIRCLE
  8
0
  6
CONTINUOUS
 62
       7
  5
4D
 10
-85.0974588
 20
-53.42093264
 30
0.0
 40
2.75
  0
LINE
  8
0
  6
CONTINUOUS
 62
       2
  5
4E
 10
-85.0974588
 20
-40.42093264
 30
0.0
 11
-85.0974588
 21
-126.59322736
 31
0.0
  0
LINE
  8
0
  6
PHANTOM
 62
       2
  5
4F
 10
13.9025412
 20
-123.21382048
 30
0.0
 11
12.42537103
 21
-121.73665031
 31
0.0
  0
LINE
  8
0
  6
PHANTOM
 62
       2
  5
50
 10
13.9025412
 20
-123.21382048
 30
0.0
 11
15.37971137
 21
-121.73665031
 31
0.0
  0
LINE
  8
0
  6
PHANTOM
 62
       2
  5
51
 10
20.4025412
 20
-120.62093264
 30
0.0
 11
27.4025412
 21
-120.62093264
 31
0.0
  0
ARC
  8
0
  6
PHANTOM
 62
       2
  5
52
 10
23.9025412
 20
-119.55514557
 30
0.0
 40
3.65867491
 50
196.93604788
 51
343.06395212
  0
LINE
  8
0
  6
PHANTOM
 62
       2
  5
53
 10
23.9025412
 20
-123.21382048
 30
0.0
 11
22.42537103
 21
-121.73665031
 31
0.0
  0
LINE
  8
0
  6
PHANTOM
 62
       2
  5
54
 10
23.9025412
 20
-123.21382048
 30
0.0
 11
25.37971137
 21
-121.73665031
 31
0.0
  0
ARC
  8
0
  6
PHANTOM
 62
       2
  5
55
 10
13.9025412
 20
-119.55514557
 30
0.0
 40
3.65867491
 50
196.93604788
 51
343.06395212
  0
LINE
  8
0
  6
PHANTOM
 62
       2
  5
56
 10
10.4025412
 20
-120.62093264
 30
0.0
 11
17.4025412
 21
-120.62093264
 31
0.0
  0
CIRCLE
  8
0
  6
PHANTOM
 62
       2
  5
57
 10
18.9025412
 20
-159.92093264
 30
0.0
 40
2.75
  0
LINE
  8
0
  6
PHANTOM
 62
       2
  5
58
 10
9.9025412
 20
-169.92093264
 30
0.0
 11
27.9025412
 21
-169.92093264
 31
0.0
  0
LINE
  8
0
  6
PHANTOM
 62
       2
  5
59
 10
9.9025412
 20
-169.92093264
 30
0.0
 11
8.9025412
 21
-168.92093264
 31
0.0
  0
LINE
  8
0
  6
PHANTOM
 62
       2
  5
5A
 10
27.9025412
 20
-169.92093264
 30
0.0
 11
28.9025412
 21
-168.92093264
 31
0.0
  0
LINE
  8
0
  6
PHANTOM
 62
       2
  5
5B
 10
12.9025412
 20
-159.92093264
 30
0.0
 11
24.9025412
 21
-159.92093264
 31
0.0
  0
LINE
  8
0
  6
PHANTOM
 62
       2
  5
5C
 10
12.9025412
 20
-139.92093264
 30
0.0
 11
24.9025412
 21
-139.92093264
 31
0.0
  0
CIRCLE
  8
0
  6
PHANTOM
 62
       2
  5
5D
 10
18.9025412
 20
-139.92093264
 30
0.0
 40
2.75
  0
LINE
  8
0
  6
PHANTOM
 62
       2
  5
5E
 10
28.9025412
 20
-168.92093264
 30
0.0
 11
28.9025412
 21
-119.92093264
 31
0.0
  0
LINE
  8
0
  6
PHANTOM
 62
       2
  5
5F
 10
8.9025412
 20
-168.92093264
 30
0.0
 11
8.9025412
 21
-119.92093264
 31
0.0
  0
LINE
  8
0
  6
PHANTOM
 62
       2
  5
60
 10
18.9025412
 20
-172.92093264
 30
0.0
 11
18.9025412
 21
-119.92093264
 31
0.0
  0
LINE
  8
0
  6
PHANTOM
 62
       2
  5
61
 10
20.4025412
 20
-119.92093264
 30
0.0
 11
20.4025412
 21
-120.62093264
 31
0.0
  0
LINE
  8
0
  6
PHANTOM
 62
       2
  5
62
 10
27.4025412
 20
-119.92093264
 30
0.0
 11
27.4025412
 21
-120.62093264
 31
0.0
  0
LINE
  8
0
  6
PHANTOM
 62
       2
  5
63
 10
17.4025412
 20
-119.92093264
 30
0.0
 11
17.4025412
 21
-120.62093264
 31
0.0
  0
LINE
  8
0
  6
PHANTOM
 62
       2
  5
64
 10
10.4025412
 20
-119.92093264
 30
0.0
 11
10.4025412
 21
-120.62093264
 31
0.0
  0
LINE
  8
0
  6
PHANTOM
 62
       2
  5
65
 10
13.9025412
 20
-124.05272328
 30
0.0
 11
13.9025412
 21
-115.56601474
 31
0.0
  0
LINE
  8
0
  6
PHANTOM
 62
       2
  5
66
 10
23.9025412
 20
-124.05272328
 30
0.0
 11
23.9025412
 21
-115.56601474
 31
0.0
  0
CIRCLE
  8
0
  6
CONTINUOUS
 62
       7
  5
67
 10
18.9025412
 20
-72.92093264
 30
0.0
 40
2.75
  0
CIRCLE
  8
0
  6
CONTINUOUS
 62
       7
  5
68
 10
18.9025412
 20
-52.92093264
 30
0.0
 40
2.75
  0
LINE
  8
0
  6
CONTINUOUS
 62
       2
  5
69
 10
12.9025412
 20
-72.92093264
 30
0.0
 11
24.9025412
 21
-72.92093264
 31
0.0
  0
LINE
  8
0
  6
CONTINUOUS
 62
       2
  5
6A
 10
12.9025412
 20
-52.92093264
 30
0.0
 11
24.9025412
 21
-52.92093264
 31
0.0
  0
LINE
  8
0
  6
CONTINUOUS
 62
       7
  5
6B
 10
9.9025412
 20
-42.92093264
 30
0.0
 11
8.9025412
 21
-43.92093264
 31
0.0
  0
LINE
  8
0
  6
CONTINUOUS
 62
       7
  5
6C
 10
27.9025412
 20
-42.92093264
 30
0.0
 11
28.9025412
 21
-43.92093264
 31
0.0
  0
LINE
  8
0
  6
CONTINUOUS
 62
       7
  5
6D
 10
9.9025412
 20
-42.92093264
 30
0.0
 11
27.9025412
 21
-42.92093264
 31
0.0
  0
LINE
  8
0
  6
CONTINUOUS
 62
       7
  5
6E
 10
8.9025412
 20
-43.92093264
 30
0.0
 11
8.9025412
 21
-92.92093264
 31
0.0
  0
LINE
  8
0
  6
CONTINUOUS
 62
       7
  5
6F
 10
28.9025412
 20
-43.92093264
 30
0.0
 11
28.9025412
 21
-92.92093264
 31
0.0
  0
LINE
  8
0
  6
CONTINUOUS
 62
       2
  5
70
 10
18.9025412
 20
-39.92093264
 30
0.0
 11
18.9025412
 21
-126.09322736
 31
0.0
  0
LINE
  8
0
  6
CONTINUOUS
 62
       7
  5
71
 10
-46.59745872
 20
64.07906621
 30
0.0
 11
-47.59745888
 21
64.07906621
 31
0.0
  0
LINE
  8
0
  6
CONTINUOUS
 62
       7
  5
72
 10
-18.59745872
 20
64.07906621
 30
0.0
 11
-19.59745888
 21
64.07906621
 31
0.0
  0
LINE
  8
0
  6
CONTINUOUS
 62
       7
  5
73
 10
8.9025412
 20
42.57906896
 30
0.0
 11
8.4025412
 21
42.57906896
 31
0.0
  0
LINE
  8
0
  6
CONTINUOUS
 62
       7
  5
74
 10
-18.59745872
 20
42.07906758
 30
0.0
 11
-19.59745888
 21
42.07906758
 31
0.0
  0
LINE
  8
0
  6
CONTINUOUS
 62
       7
  5
75
 10
-46.59745872
 20
42.07906758
 30
0.0
 11
-47.59745888
 21
42.07906758
 31
0.0
  0
LINE
  8
0
  6
CONTINUOUS
 62
       7
  5
76
 10
-74.59745872
 20
42.07906758
 30
0.0
 11
-75.0974588
 21
42.07906758
 31
0.0
  0
LINE
  8
0
  6
CONTINUOUS
 62
       7
  5
77
 10
-95.09745885
 20
64.07906758
 30
0.0
 11
-74.59745872
 21
64.07906758
 31
0.0
  0
LINE
  8
0
  6
CONTINUOUS
 62
       7
  5
78
 10
-75.0974588
 20
13.07906758
 30
0.0
 11
-75.0974588
 21
64.07906758
 31
0.0
  0
CIRCLE
  8
0
  6
CONTINUOUS
 62
       7
  5
79
 10
-90.0974588
 20
58.57906758
 30
0.0
 40
3.0
  0
LINE
  8
0
  6
CONTINUOUS
 62
       7
  5
7A
 10
-88.62743438
 20
57.12895009
 30
0.0
 11
-91.50743438
 21
60.00895009
 31
0.0
  0
LINE
  8
0
  6
CONTINUOUS
 62
       7
  5
7B
 10
-88.64743438
 20
60.02895009
 30
0.0
 11
-91.66743438
 21
57.00895009
 31
0.0
  0
LINE
  8
0
  6
CONTINUOUS
 62
       7
  5
7C
 10
-95.0974588
 20
64.07906758
 30
0.0
 11
-95.0974588
 21
13.07906758
 31
0.0
  0
LINE
  8
0
  6
CONTINUOUS
 62
       7
  5
7D
 10
-75.0974588
 20
13.07906758
 30
0.0
 11
-95.0974588
 21
13.07906758
 31
0.0
  0
LINE
  8
0
  6
CONTINUOUS
 62
       7
  5
7E
 10
-75.0974588
 20
16.27906758
 30
0.0
 11
-95.0974588
 21
16.27906758
 31
0.0
  0
CIRCLE
  8
0
  6
CONTINUOUS
 62
       7
  5
7F
 10
-80.0974588
 20
47.57906758
 30
0.0
 40
3.0
  0
LINE
  8
0
  6
CONTINUOUS
 62
       7
  5
80
 10
-78.62743438
 20
46.12895009
 30
0.0
 11
-81.50743438
 21
49.00895009
 31
0.0
  0
LINE
  8
0
  6
CONTINUOUS
 62
       7
  5
81
 10
-78.64743438
 20
49.02895009
 30
0.0
 11
-81.66743438
 21
46.00895009
 31
0.0
  0
LINE
  8
0
  6
CONTINUOUS
 62
       2
  5
82
 10
-85.0974588
 20
95.57906758
 30
0.0
 11
-85.0974588
 21
8.75083897
 31
0.0
  0
LINE
  8
0
  6
CONTINUOUS
 62
       7
  5
83
 10
15.37256562
 20
57.12895009
 30
0.0
 11
12.49256562
 21
60.00895009
 31
0.0
  0
LINE
  8
0
  6
CONTINUOUS
 62
       7
  5
84
 10
15.35256562
 20
60.02895009
 30
0.0
 11
12.33256562
 21
57.00895009
 31
0.0
  0
CIRCLE
  8
0
  6
CONTINUOUS
 62
       7
  5
85
 10
13.9025412
 20
58.57906758
 30
0.0
 40
3.0
  0
LINE
  8
0
  6
CONTINUOUS
 62
       2
  5
86
 10
18.9025412
 20
95.57906758
 30
0.0
 11
18.9025412
 21
8.75083897
 31
0.0
  0
LINE
  8
0
  6
CONTINUOUS
 62
       7
  5
87
 10
8.9025412
 20
64.07906758
 30
0.0
 11
8.9025412
 21
13.07906758
 31
0.0
  0
LINE
  8
0
  6
CONTINUOUS
 62
       7
  5
88
 10
25.35256562
 20
49.02895009
 30
0.0
 11
22.33256562
 21
46.00895009
 31
0.0
  0
LINE
  8
0
  6
CONTINUOUS
 62
       7
  5
89
 10
25.37256562
 20
46.12895009
 30
0.0
 11
22.49256562
 21
49.00895009
 31
0.0
  0
LINE
  8
0
  6
CONTINUOUS
 62
       7
  5
8A
 10
28.9025412
 20
16.27906758
 30
0.0
 11
8.9025412
 21
16.27906758
 31
0.0
  0
LINE
  8
0
  6
CONTINUOUS
 62
       7
  5
8B
 10
28.9025412
 20
13.07906758
 30
0.0
 11
8.9025412
 21
13.07906758
 31
0.0
  0
CIRCLE
  8
0
  6
CONTINUOUS
 62
       7
  5
8C
 10
23.9025412
 20
47.57906758
 30
0.0
 40
3.0
  0
LINE
  8
0
  6
CONTINUOUS
 62
       7
  5
8D
 10
28.9025412
 20
13.07906758
 30
0.0
 11
28.9025412
 21
64.07906758
 31
0.0
  0
LINE
  8
0
  6
CONTINUOUS
 62
       7
  5
8E
 10
8.4025412
 20
64.07906758
 30
0.0
 11
28.9025412
 21
64.07906758
 31
0.0
  0
LINE
  8
0
  6
PHANTOM
 62
       2
  5
8F
 10
230.40254109
 20
88.87906758
 30
0.0
 11
185.60254109
 21
88.87906758
 31
0.0
  0
LINE
  8
0
  6
PHANTOM
 62
       2
  5
90
 10
184.40254109
 20
92.07906758
 30
0.0
 11
230.40254109
 21
92.07906758
 31
0.0
  0
LINE
  8
0
  6
PHANTOM
 62
       2
  5
91
 10
230.40254109
 20
92.07906758
 30
0.0
 11
230.40254109
 21
88.87906758
 31
0.0
  0
ARC
  8
0
  6
PHANTOM
 62
       2
  5
92
 10
185.60254109
 20
86.87906758
 30
0.0
 40
2.0
 50
90.0
 51
180.0
  0
ARC
  8
0
  6
PHANTOM
 62
       2
  5
93
 10
184.40254109
 20
88.07906758
 30
0.0
 40
4.0
 50
90.0
 51
180.0
  0
LINE
  8
0
  6
PHANTOM
 62
       2
  5
94
 10
180.40254109
 20
41.07906758
 30
0.0
 11
180.40254109
 21
88.07906758
 31
0.0
  0
LINE
  8
0
  6
PHANTOM
 62
       2
  5
95
 10
183.60254109
 20
41.07906758
 30
0.0
 11
180.40254109
 21
41.07906758
 31
0.0
  0
LINE
  8
0
  6
PHANTOM
 62
       2
  5
96
 10
186.89542893
 20
58.57906758
 30
0.0
 11
185.41825876
 21
60.05623775
 31
0.0
  0
LINE
  8
0
  6
PHANTOM
 62
       2
  5
97
 10
186.89542893
 20
58.57906758
 30
0.0
 11
185.41825876
 21
57.10189741
 31
0.0
  0
LINE
  8
0
  6
PHANTOM
 62
       2
  5
98
 10
183.60254109
 20
50.07906758
 30
0.0
 11
184.30254109
 21
50.07906758
 31
0.0
  0
LINE
  8
0
  6
PHANTOM
 62
       2
  5
99
 10
186.89542893
 20
46.57906758
 30
0.0
 11
185.41825876
 21
45.10189741
 31
0.0
  0
LINE
  8
0
  6
PHANTOM
 62
       2
  5
9A
 10
186.89542893
 20
46.57906758
 30
0.0
 11
185.41825876
 21
48.05623775
 31
0.0
  0
LINE
  8
0
  6
PHANTOM
 62
       2
  5
9B
 10
184.30254109
 20
55.07906758
 30
0.0
 11
183.60254109
 21
55.07906758
 31
0.0
  0
LINE
  8
0
  6
PHANTOM
 62
       2
  5
9C
 10
184.30254109
 20
55.07906758
 30
0.0
 11
184.30254109
 21
62.07906758
 31
0.0
  0
ARC
  8
0
  6
PHANTOM
 62
       2
  5
9D
 10
183.23675402
 20
46.57906758
 30
0.0
 40
3.65867491
 50
286.93604788
 51
73.06395212
  0
LINE
  8
0
  6
PHANTOM
 62
       2
  5
9E
 10
184.30254109
 20
43.07906758
 30
0.0
 11
184.30254109
 21
50.07906758
 31
0.0
  0
ARC
  8
0
  6
PHANTOM
 62
       2
  5
9F
 10
183.23675402
 20
58.57906758
 30
0.0
 40
3.65867491
 50
286.93604788
 51
73.06395212
  0
LINE
  8
0
  6
PHANTOM
 62
       2
  5
A0
 10
187.73433173
 20
58.57906758
 30
0.0
 11
179.24762319
 21
58.57906758
 31
0.0
  0
LINE
  8
0
  6
PHANTOM
 62
       2
  5
A1
 10
187.73433173
 20
46.57906758
 30
0.0
 11
179.24762319
 21
46.57906758
 31
0.0
  0
LINE
  8
0
  6
PHANTOM
 62
       2
  5
A2
 10
183.60254109
 20
86.87906758
 30
0.0
 11
183.60254109
 21
41.07906758
 31
0.0
  0
LINE
  8
0
  6
CONTINUOUS
 62
       7
  5
A3
 10
150.20254109
 20
64.07906758
 30
0.0
 11
153.40254109
 21
64.07906758
 31
0.0
  0
LINE
  8
0
  6
CONTINUOUS
 62
       7
  5
A4
 10
150.20254109
 20
18.27906758
 30
0.0
 11
150.20254109
 21
64.07906758
 31
0.0
  0
ARC
  8
0
  6
CONTINUOUS
 62
       7
  5
A5
 10
149.40254109
 20
17.07906758
 30
0.0
 40
4.0
 50
270.0
 51
0.0
  0
ARC
  8
0
  6
CONTINUOUS
 62
       7
  5
A6
 10
148.20254109
 20
18.27906758
 30
0.0
 40
2.0
 50
270.0
 51
0.0
  0
LINE
  8
0
  6
CONTINUOUS
 62
       7
  5
A7
 10
103.40254109
 20
13.07906758
 30
0.0
 11
103.40254109
 21
16.27906758
 31
0.0
  0
LINE
  8
0
  6
CONTINUOUS
 62
       7
  5
A8
 10
149.40254109
 20
13.07906758
 30
0.0
 11
103.40254109
 21
13.07906758
 31
0.0
  0
LINE
  8
0
  6
CONTINUOUS
 62
       7
  5
A9
 10
103.40254109
 20
16.27906758
 30
0.0
 11
148.20254109
 21
16.27906758
 31
0.0
  0
TEXT
  8
0
  6
CONTINUOUS
 62
       7
  5
AA
 10
-265.83030763
 20
131.58478426
 30
0.0
 40
6.0
  1
Stn.1～2:200E1-2-39 DC24V
 41
1.10091743
  7
MX_NOTE_STANDARD
  0
TEXT
  8
0
  6
CONTINUOUS
 62
       7
  5
AB
 10
-265.77395503
 20
123.58478426
 30
0.0
 40
6.0
  1
Stn.3  :M200E1-11-39 DC24V
 41
1.15727003
  7
MX_NOTE_STANDARD
  0
LINE
  8
0
  6
CONTINUOUS
 62
       7
  5
AC
 10
77.87396991
 20
84.30763926
 30
0.0
 11
77.87396991
 21
130.16478192
 31
0.0
  0
LINE
  8
0
  6
CONTINUOUS
 62
       7
  5
AD
 10
-18.5974588
 20
-54.92093264
 30
0.0
 11
8.4025412
 21
-54.92093264
 31
0.0
  0
ARC
  8
0
  6
CONTINUOUS
 62
       7
  5
AE
 10
-5.0974588
 20
-23.42093263
 30
0.0
 40
9.0
 50
51.05755873
 51
128.94244127
  0
LINE
  8
0
  6
CONTINUOUS
 62
       7
  5
AF
 10
-15.0974588
 20
-44.40664663
 30
0.0
 11
4.9025412
 21
-44.40664663
 31
0.0
  0
LINE
  8
0
  6
CONTINUOUS
 62
       7
  5
B0
 10
-13.5974588
 20
-16.40664663
 30
0.0
 11
3.4025412
 21
-16.40664663
 31
0.0
  0
LINE
  8
0
  6
CONTINUOUS
 62
       7
  5
B1
 10
-15.0974588
 20
-17.90664663
 30
0.0
 11
-15.0974588
 21
-45.92093235
 31
0.0
  0
LINE
  8
0
  6
CONTINUOUS
 62
       7
  5
B2
 10
4.9025412
 20
-17.90664663
 30
0.0
 11
4.9025412
 21
-45.92093235
 31
0.0
  0
ARC
  8
0
  6
CONTINUOUS
 62
       7
  5
B3
 10
-13.5974588
 20
-17.90664663
 30
0.0
 40
1.5
 50
90.0
 51
180.0
  0
ARC
  8
0
  6
CONTINUOUS
 62
       7
  5
B4
 10
3.4025412
 20
-17.90664663
 30
0.0
 40
1.5
 50
0.0
 51
90.0
  0
LINE
  8
0
  6
CONTINUOUS
 62
       7
  5
B5
 10
-18.5974588
 20
-45.92093235
 30
0.0
 11
8.4025412
 21
-45.92093235
 31
0.0
  0
LINE
  8
0
  6
CONTINUOUS
 62
       2
  5
B6
 10
-5.0974588
 20
-12.49911821
 30
0.0
 11
-5.0974588
 21
-95.85910383
 31
0.0
  0
LINE
  8
0
  6
CONTINUOUS
 62
       2
  5
B7
 10
-10.33703864
 20
-73.42093264
 30
0.0
 11
-27.5974588
 21
-73.42093264
 31
0.0
  0
CIRCLE
  8
0
  6
CONTINUOUS
 62
       7
  5
B8
 10
-5.0974588
 20
115.77470399
 30
0.0
 40
3.5
  0
LINE
  8
0
  6
CONTINUOUS
 62
       2
  5
B9
 10
-0.13547582
 20
115.77906813
 30
0.0
 11
-9.90686653
 21
115.77906813
 31
0.0
  0
CIRCLE
  8
0
  6
CONTINUOUS
 62
       7
  5
BA
 10
-5.09734858
 20
115.77899838
 30
0.0
 40
2.99998963
  0
LINE
  8
0
  6
CONTINUOUS
 62
       7
  5
BB
 10
-6.51167236
 20
114.36485457
 30
0.0
 11
-3.68324524
 21
117.19328169
 31
0.0
  0
LINE
  8
0
  6
CONTINUOUS
 62
       7
  5
BC
 10
-6.49974216
 20
117.20511209
 30
0.0
 11
-3.68089005
 21
114.36721369
 31
0.0
  0
LINE
  8
0
  6
CONTINUOUS
 62
       7
  5
BD
 10
-18.59745872
 20
85.57906763
 30
0.0
 11
-18.59745872
 21
132.77906795
 31
0.0
  0
LINE
  8
0
  6
CONTINUOUS
 62
       7
  5
BE
 10
8.40254112
 20
101.7790682
 30
0.0
 11
-18.59745872
 21
101.7790682
 31
0.0
  0
ARC
  8
0
  6
CONTINUOUS
 62
       7
  5
BF
 10
3.38401646
 20
103.2790682
 30
0.0
 40
1.5
 50
270.0
 51
0.0
  0
ARC
  8
0
  6
CONTINUOUS
 62
       7
  5
C0
 10
-13.61598344
 20
103.2790682
 30
0.0
 40
1.5
 50
180.0
 51
270.0
  0
ARC
  8
0
  6
CONTINUOUS
 62
       7
  5
C1
 10
2.89322113
 20
140.78827267
 30
0.0
 40
0.99083809
 50
359.46772749
 51
90.53227251
  0
LINE
  8
0
  6
CONTINUOUS
 62
       7
  5
C2
 10
3.90254115
 20
133.77906795
 30
0.0
 11
4.90254114
 21
132.77906795
 31
0.0
  0
LINE
  8
0
  6
CONTINUOUS
 62
       2
  5
C3
 10
1.88401648
 20
144.77906799
 30
0.0
 11
1.88401648
 21
141.779068
 31
0.0
  0
LINE
  8
0
  6
CONTINUOUS
 62
       7
  5
C4
 10
1.88401648
 20
146.77906798
 30
0.0
 11
1.88401648
 21
144.77906799
 31
0.0
  0
LINE
  8
0
  6
CONTINUOUS
 62
       7
  5
C5
 10
2.88401647
 20
151.77906795
 30
0.0
 11
2.88401647
 21
146.77906798
 31
0.0
  0
LINE
  8
0
  6
CONTINUOUS
 62
       7
  5
C6
 10
3.88401647
 20
140.77906801
 30
0.0
 11
3.88401647
 21
129.69328162
 31
0.0
  0
ARC
  8
0
  6
CONTINUOUS
 62
       7
  5
C7
 10
3.38401646
 20
128.27906806
 30
0.0
 40
1.5
 50
0.0
 51
90.0
  0
LINE
  8
0
  6
CONTINUOUS
 62
       7
  5
C8
 10
2.92106585
 20
144.20171772
 30
0.0
 11
2.92106585
 21
141.779068
 31
0.0
  0
LINE
  8
0
  6
CONTINUOUS
 62
       7
  5
C9
 10
1.92106586
 20
144.77906799
 30
0.0
 11
2.92106585
 21
144.20171772
 31
0.0
  0
LINE
  8
0
  6
CONTINUOUS
 62
       7
  5
CA
 10
3.88401647
 20
132.77906795
 30
0.0
 11
8.40254112
 21
132.77906795
 31
0.0
  0
ARC
  8
0
  6
CONTINUOUS
 62
       7
  5
CB
 10
-13.10653265
 20
140.76961721
 30
0.0
 40
1.00949504
 50
90.53640571
 51
179.46359429
  0
LINE
  8
0
  6
CONTINUOUS
 62
       7
  5
CC
 10
-13.11598345
 20
151.77906795
 30
0.0
 11
-13.11598345
 21
146.77906798
 31
0.0
  0
LINE
  8
0
  6
CONTINUOUS
 62
       7
  5
CD
 10
-13.11598345
 20
144.20171772
 30
0.0
 11
-13.11598345
 21
141.779068
 31
0.0
  0
LINE
  8
0
  6
CONTINUOUS
 62
       2
  5
CE
 10
-12.11598345
 20
144.77906799
 30
0.0
 11
-12.11598345
 21
141.779068
 31
0.0
  0
LINE
  8
0
  6
CONTINUOUS
 62
       7
  5
CF
 10
-12.11598345
 20
146.77906798
 30
0.0
 11
-12.11598345
 21
144.77906799
 31
0.0
  0
LINE
  8
0
  6
CONTINUOUS
 62
       7
  5
D0
 10
-12.11598345
 20
144.77906799
 30
0.0
 11
-13.11598345
 21
144.20171772
 31
0.0
  0
LINE
  8
0
  6
CONTINUOUS
 62
       7
  5
D1
 10
-13.11598345
 20
151.77906795
 30
0.0
 11
2.88401647
 21
151.77906795
 31
0.0
  0
LINE
  8
0
  6
CONTINUOUS
 62
       7
  5
D2
 10
2.88401647
 20
146.77906798
 30
0.0
 11
-13.11598345
 21
146.77906798
 31
0.0
  0
LINE
  8
0
  6
CONTINUOUS
 62
       7
  5
D3
 10
1.88401648
 20
144.77906799
 30
0.0
 11
-12.11598345
 21
144.77906799
 31
0.0
  0
LINE
  8
0
  6
CONTINUOUS
 62
       7
  5
D4
 10
2.88401647
 20
141.779068
 30
0.0
 11
-13.11598345
 21
141.779068
 31
0.0
  0
ARC
  8
0
  6
CONTINUOUS
 62
       7
  5
D5
 10
-13.61598344
 20
128.27906806
 30
0.0
 40
1.5
 50
90.0
 51
180.0
  0
LINE
  8
0
  6
CONTINUOUS
 62
       7
  5
D6
 10
-14.09745874
 20
133.77906795
 30
0.0
 11
-15.09745874
 21
132.77906795
 31
0.0
  0
LINE
  8
0
  6
CONTINUOUS
 62
       7
  5
D7
 10
-14.11598344
 20
140.77906801
 30
0.0
 11
-14.11598344
 21
129.69328162
 31
0.0
  0
LINE
  8
0
  6
CONTINUOUS
 62
       7
  5
D8
 10
3.38401646
 20
129.77906806
 30
0.0
 11
-13.61598344
 21
129.77906806
 31
0.0
  0
POLYLINE
  8
0
  6
CONTINUOUS
 62
       7
  5
D9
 66
       1
 10
0.0
 20
0.0
 30
0.0
  0
VERTEX
  8
0
  6
CONTINUOUS
 62
       7
  5
255
 10
2.38401647
 20
129.77906806
 30
0.0
  0
VERTEX
  8
0
  6
CONTINUOUS
 62
       7
  5
256
 10
1.42586137
 20
129.48748038
 30
0.0
  0
VERTEX
  8
0
  6
CONTINUOUS
 62
       7
  5
257
 10
0.5125033
 20
128.96428792
 30
0.0
  0
VERTEX
  8
0
  6
CONTINUOUS
 62
       7
  5
258
 10
-0.36166218
 20
128.28046761
 30
0.0
  0
VERTEX
  8
0
  6
CONTINUOUS
 62
       7
  5
259
 10
-1.2022395
 20
127.50699635
 30
0.0
  0
VERTEX
  8
0
  6
CONTINUOUS
 62
       7
  5
25A
 10
-2.01483309
 20
126.71485107
 30
0.0
  0
VERTEX
  8
0
  6
CONTINUOUS
 62
       7
  5
25B
 10
-2.80504738
 20
125.97500869
 30
0.0
  0
VERTEX
  8
0
  6
CONTINUOUS
 62
       7
  5
25C
 10
-3.57848681
 20
125.35844611
 30
0.0
  0
VERTEX
  8
0
  6
CONTINUOUS
 62
       7
  5
25D
 10
-4.3407558
 20
124.93614027
 30
0.0
  0
VERTEX
  8
0
  6
CONTINUOUS
 62
       7
  5
25E
 10
-5.0974588
 20
124.77906806
 30
0.0
  0
VERTEX
  8
0
  6
CONTINUOUS
 62
       7
  5
25F
 10
-5.85419596
 20
124.93456711
 30
0.0
  0
VERTEX
  8
0
  6
CONTINUOUS
 62
       7
  5
260
 10
-6.61655036
 20
125.35541778
 30
0.0
  0
VERTEX
  8
0
  6
CONTINUOUS
 62
       7
  5
261
 10
-7.39010082
 20
125.97076116
 30
0.0
  0
VERTEX
  8
0
  6
CONTINUOUS
 62
       7
  5
262
 10
-8.18042615
 20
126.70973831
 30
0.0
  0
VERTEX
  8
0
  6
CONTINUOUS
 62
       7
  5
263
 10
-8.99310514
 20
127.5014903
 30
0.0
  0
VERTEX
  8
0
  6
CONTINUOUS
 62
       7
  5
264
 10
-9.83371662
 20
128.2751582
 30
0.0
  0
VERTEX
  8
0
  6
CONTINUOUS
 62
       7
  5
265
 10
-10.7078394
 20
128.95988308
 30
0.0
  0
VERTEX
  8
0
  6
CONTINUOUS
 62
       7
  5
266
 10
-11.62105227
 20
129.48480601
 30
0.0
  0
VERTEX
  8
0
  6
CONTINUOUS
 62
       7
  5
267
 10
-12.57893406
 20
129.77906806
 30
0.0
  0
SEQEND
  8
0
  6
CONTINUOUS
 62
       7
  5
268
  0
POLYLINE
  8
0
  6
CONTINUOUS
 62
       7
  5
DA
 66
       1
 10
0.0
 20
0.0
 30
0.0
  0
VERTEX
  8
0
  6
CONTINUOUS
 62
       7
  5
269
 10
2.38401647
 20
129.77906806
 30
0.0
  0
VERTEX
  8
0
  6
CONTINUOUS
 62
       7
  5
26A
 10
1.42586137
 20
129.48748038
 30
0.0
  0
VERTEX
  8
0
  6
CONTINUOUS
 62
       7
  5
26B
 10
0.5125033
 20
128.96428792
 30
0.0
  0
VERTEX
  8
0
  6
CONTINUOUS
 62
       7
  5
26C
 10
-0.36166218
 20
128.28046761
 30
0.0
  0
VERTEX
  8
0
  6
CONTINUOUS
 62
       7
  5
26D
 10
-1.2022395
 20
127.50699635
 30
0.0
  0
VERTEX
  8
0
  6
CONTINUOUS
 62
       7
  5
26E
 10
-2.01483309
 20
126.71485107
 30
0.0
  0
VERTEX
  8
0
  6
CONTINUOUS
 62
       7
  5
26F
 10
-2.80504738
 20
125.97500869
 30
0.0
  0
VERTEX
  8
0
  6
CONTINUOUS
 62
       7
  5
270
 10
-3.57848681
 20
125.35844611
 30
0.0
  0
VERTEX
  8
0
  6
CONTINUOUS
 62
       7
  5
271
 10
-4.3407558
 20
124.93614027
 30
0.0
  0
VERTEX
  8
0
  6
CONTINUOUS
 62
       7
  5
272
 10
-5.0974588
 20
124.77906806
 30
0.0
  0
VERTEX
  8
0
  6
CONTINUOUS
 62
       7
  5
273
 10
-5.85419596
 20
124.93456711
 30
0.0
  0
VERTEX
  8
0
  6
CONTINUOUS
 62
       7
  5
274
 10
-6.61655036
 20
125.35541778
 30
0.0
  0
VERTEX
  8
0
  6
CONTINUOUS
 62
       7
  5
275
 10
-7.39010082
 20
125.97076116
 30
0.0
  0
VERTEX
  8
0
  6
CONTINUOUS
 62
       7
  5
276
 10
-8.18042615
 20
126.70973831
 30
0.0
  0
VERTEX
  8
0
  6
CONTINUOUS
 62
       7
  5
277
 10
-8.99310514
 20
127.5014903
 30
0.0
  0
VERTEX
  8
0
  6
CONTINUOUS
 62
       7
  5
278
 10
-9.83371662
 20
128.2751582
 30
0.0
  0
VERTEX
  8
0
  6
CONTINUOUS
 62
       7
  5
279
 10
-10.7078394
 20
128.95988308
 30
0.0
  0
VERTEX
  8
0
  6
CONTINUOUS
 62
       7
  5
27A
 10
-11.62105227
 20
129.48480601
 30
0.0
  0
VERTEX
  8
0
  6
CONTINUOUS
 62
       7
  5
27B
 10
-12.57893406
 20
129.77906806
 30
0.0
  0
SEQEND
  8
0
  6
CONTINUOUS
 62
       7
  5
27C
  0
LINE
  8
0
  6
CONTINUOUS
 62
       7
  5
DB
 10
-18.59745872
 20
132.77906795
 30
0.0
 11
-14.11598344
 21
132.77906795
 31
0.0
  0
LINE
  8
0
  6
CONTINUOUS
 62
       7
  5
DC
 10
8.40254112
 20
85.57906763
 30
0.0
 11
8.40254112
 21
132.77906795
 31
0.0
  0
LINE
  8
0
  6
CONTINUOUS
 62
       7
  5
DD
 10
4.88401646
 20
128.27906806
 30
0.0
 11
4.88401646
 21
103.2790682
 31
0.0
  0
LINE
  8
0
  6
CONTINUOUS
 62
       7
  5
DE
 10
-15.11598344
 20
128.27906806
 30
0.0
 11
-15.11598344
 21
103.2790682
 31
0.0
  0
LINE
  8
0
  6
CONTINUOUS
 62
       7
  5
DF
 10
75.87396992
 20
131.66478192
 30
0.0
 11
77.83820826
 21
126.75418608
 31
0.0
  0
LINE
  8
0
  6
CONTINUOUS
 62
       2
  5
E0
 10
109.78813589
 20
117.40763913
 30
0.0
 11
75.2698867
 21
117.40763913
 31
0.0
  0
LINE
  8
0
  6
CONTINUOUS
 62
       7
  5
E1
 10
94.13111269
 20
132.57906758
 30
0.0
 11
93.87396983
 21
132.57906758
 31
0.0
  0
LINE
  8
0
  6
CONTINUOUS
 62
       7
  5
E2
 10
75.64539849
 20
132.57906758
 30
0.0
 11
75.87396992
 21
132.57906758
 31
0.0
  0
LINE
  8
0
  6
CONTINUOUS
 62
       7
  5
E3
 10
79.37396991
 20
103.4076392
 30
0.0
 11
116.38825543
 21
103.4076392
 31
0.0
  0
ARC
  8
0
  6
CONTINUOUS
 62
       7
  5
E4
 10
79.37396991
 20
104.9076392
 30
0.0
 40
1.5
 50
180.0
 51
270.0
  0
ARC
  8
0
  6
CONTINUOUS
 62
       7
  5
E5
 10
79.37396991
 20
130.16478192
 30
0.0
 40
1.5
 50
90.0
 51
180.0
  0
LINE
  8
0
  6
CONTINUOUS
 62
       7
  5
E6
 10
75.87396992
 20
131.66478192
 30
0.0
 11
107.38825548
 21
131.66478192
 31
0.0
  0
ARC
  8
0
  6
CONTINUOUS
 62
       7
  5
E7
 10
93.37396983
 20
142.67906757
 30
0.0
 40
0.5
 50
0.0
 51
90.0
  0
LINE
  8
0
  6
CONTINUOUS
 62
       7
  5
E8
 10
92.87396984
 20
143.09335329
 30
0.0
 11
92.87396984
 21
146.17906756
 31
0.0
  0
LINE
  8
0
  6
CONTINUOUS
 62
       7
  5
E9
 10
91.87396984
 20
146.17906756
 30
0.0
 11
91.87396984
 21
148.17906755
 31
0.0
  0
LINE
  8
0
  6
CONTINUOUS
 62
       7
  5
EA
 10
94.13111269
 20
148.17906755
 30
0.0
 11
94.13111269
 21
153.17906752
 31
0.0
  0
LINE
  8
0
  6
CONTINUOUS
 62
       2
  5
EB
 10
91.87396984
 20
143.12192472
 30
0.0
 11
91.87396984
 21
146.17906756
 31
0.0
  0
LINE
  8
0
  6
CONTINUOUS
 62
       7
  5
EC
 10
93.87396983
 20
131.66478192
 30
0.0
 11
93.87396983
 21
142.67906757
 31
0.0
  0
ARC
  8
0
  6
CONTINUOUS
 62
       7
  5
ED
 10
76.37396992
 20
142.67906757
 30
0.0
 40
0.5
 50
90.0
 51
180.0
  0
LINE
  8
0
  6
CONTINUOUS
 62
       7
  5
EE
 10
76.87396992
 20
143.09335329
 30
0.0
 11
76.87396992
 21
146.17906756
 31
0.0
  0
LINE
  8
0
  6
CONTINUOUS
 62
       7
  5
EF
 10
77.87396991
 20
146.17906756
 30
0.0
 11
77.87396991
 21
148.17906755
 31
0.0
  0
LINE
  8
0
  6
CONTINUOUS
 62
       7
  5
F0
 10
75.64539849
 20
148.17906755
 30
0.0
 11
75.64539849
 21
153.17906752
 31
0.0
  0
LINE
  8
0
  6
CONTINUOUS
 62
       7
  5
F1
 10
80.2739699
 20
153.17906752
 30
0.0
 11
80.2739699
 21
148.17906755
 31
0.0
  0
LINE
  8
0
  6
CONTINUOUS
 62
       7
  5
F2
 10
89.50254128
 20
153.17906752
 30
0.0
 11
89.50254128
 21
148.17906755
 31
0.0
  0
LINE
  8
0
  6
CONTINUOUS
 62
       2
  5
F3
 10
77.87396991
 20
143.12192472
 30
0.0
 11
77.87396991
 21
146.17906756
 31
0.0
  0
LINE
  8
0
  6
CONTINUOUS
 62
       7
  5
F4
 10
94.13111269
 20
153.17906752
 30
0.0
 11
75.64539849
 21
153.17906752
 31
0.0
  0
LINE
  8
0
  6
CONTINUOUS
 62
       7
  5
F5
 10
94.13111269
 20
148.17906755
 30
0.0
 11
75.64539849
 21
148.17906755
 31
0.0
  0
LINE
  8
0
  6
CONTINUOUS
 62
       7
  5
F6
 10
76.87396992
 20
146.17906756
 30
0.0
 11
92.87396984
 21
146.17906756
 31
0.0
  0
LINE
  8
0
  6
CONTINUOUS
 62
       7
  5
F7
 10
76.37396992
 20
143.17906757
 30
0.0
 11
93.37396983
 21
143.17906757
 31
0.0
  0
LINE
  8
0
  6
CONTINUOUS
 62
       7
  5
F8
 10
75.87396992
 20
131.66478192
 30
0.0
 11
75.87396992
 21
142.67906757
 31
0.0
  0
LINE
  8
0
  6
CONTINUOUS
 62
       2
  5
F9
 10
84.87396988
 20
126.66478192
 30
0.0
 11
84.87396988
 21
158.94866808
 31
0.0
  0
LINE
  8
0
  6
CONTINUOUS
 62
       7
  5
FA
 10
144.9025412
 20
134.17906752
 30
0.0
 11
143.9025412
 21
135.17906752
 31
0.0
  0
LINE
  8
0
  6
CONTINUOUS
 62
       7
  5
FB
 10
153.40254109
 20
134.17906752
 30
0.0
 11
153.40254109
 21
38.00200465
 31
0.0
  0
LINE
  8
0
  6
CONTINUOUS
 62
       7
  5
FC
 10
124.9025412
 20
134.17906752
 30
0.0
 11
125.9025412
 21
135.17906752
 31
0.0
  0
LINE
  8
0
  6
CONTINUOUS
 62
       7
  5
FD
 10
123.38825548
 20
134.17906752
 30
0.0
 11
123.38825548
 21
131.37906752
 31
0.0
  0
ARC
  8
0
  6
CONTINUOUS
 62
       7
  5
FE
 10
119.88825548
 20
129.07904883
 30
0.0
 40
5.01220483
 50
56.62709847
 51
123.37290153
  0
LINE
  8
0
  6
CONTINUOUS
 62
       7
  5
FF
 10
122.9025412
 20
132.09335323
 30
0.0
 11
122.9025412
 21
131.37906752
 31
0.0
  0
LINE
  8
0
  6
CONTINUOUS
 62
       7
  5
100
 10
122.9025412
 20
132.09335323
 30
0.0
 11
116.9025412
 21
132.09335323
 31
0.0
  0
LINE
  8
0
  6
CONTINUOUS
 62
       7
  5
101
 10
116.9025412
 20
131.99335282
 30
0.0
 11
116.9025412
 21
131.27906711
 31
0.0
  0
LINE
  8
0
  6
CONTINUOUS
 62
       7
  5
102
 10
117.13111262
 20
133.2647818
 30
0.0
 11
117.13111262
 21
132.09335323
 31
0.0
  0
LINE
  8
0
  6
CONTINUOUS
 62
       7
  5
103
 10
122.64539834
 20
133.2647818
 30
0.0
 11
122.64539834
 21
132.09335323
 31
0.0
  0
LINE
  8
0
  6
CONTINUOUS
 62
       2
  5
104
 10
119.9025412
 20
135.4647818
 30
0.0
 11
119.9025412
 21
130.37906752
 31
0.0
  0
LINE
  8
0
  6
CONTINUOUS
 62
       7
  5
105
 10
123.38825548
 20
131.37906752
 30
0.0
 11
116.38825548
 21
131.37906752
 31
0.0
  0
LINE
  8
0
  6
CONTINUOUS
 62
       7
  5
106
 10
116.41682691
 20
134.17906752
 30
0.0
 11
116.41682691
 21
131.37906752
 31
0.0
  0
LINE
  8
0
  6
CONTINUOUS
 62
       7
  5
107
 10
116.40254131
 20
134.07906711
 30
0.0
 11
116.40254131
 21
131.27906711
 31
0.0
  0
LINE
  8
0
  6
CONTINUOUS
 62
       7
  5
108
 10
143.9025412
 20
135.17906752
 30
0.0
 11
125.9025412
 21
135.17906752
 31
0.0
  0
LINE
  8
0
  6
CONTINUOUS
 62
       7
  5
109
 10
153.38825549
 20
134.17906752
 30
0.0
 11
107.38825548
 21
134.17906752
 31
0.0
  0
LINE
  8
0
  6
CONTINUOUS
 62
       2
  5
10A
 10
134.9025412
 20
138.34866815
 30
0.0
 11
134.9025412
 21
8.75083897
 31
0.0
  0
ARC
  8
0
  6
CONTINUOUS
 62
       7
  5
10B
 10
152.90254109
 20
16.07906752
 30
0.0
 40
0.5
 50
297.43215449
 51
0.0
  0
LINE
  8
0
  6
CONTINUOUS
 62
       7
  5
10C
 10
131.63647089
 20
18.5790675
 30
0.0
 11
138.16005388
 21
18.5790675
 31
0.0
  0
LINE
  8
0
  6
CONTINUOUS
 62
       7
  5
10D
 10
132.15968406
 20
16.69335321
 30
0.0
 11
132.15968406
 21
17.86478179
 31
0.0
  0
LINE
  8
0
  6
CONTINUOUS
 62
       7
  5
10E
 10
137.67396977
 20
16.69335321
 30
0.0
 11
137.67396977
 21
17.86478179
 31
0.0
  0
LINE
  8
0
  6
CONTINUOUS
 62
       7
  5
10F
 10
137.9025412
 20
17.86478179
 30
0.0
 11
137.9025412
 21
18.5790675
 31
0.0
  0
LINE
  8
0
  6
CONTINUOUS
 62
       7
  5
110
 10
131.9025412
 20
17.86478179
 30
0.0
 11
137.9025412
 21
17.86478179
 31
0.0
  0
LINE
  8
0
  6
CONTINUOUS
 62
       7
  5
111
 10
131.9025412
 20
17.86478179
 30
0.0
 11
131.9025412
 21
18.5790675
 31
0.0
  0
ARC
  8
0
  6
CONTINUOUS
 62
       7
  5
112
 10
134.91682692
 20
20.87908618
 30
0.0
 40
5.01220483
 50
293.39872097
 51
303.37290153
  0
ARC
  8
0
  6
CONTINUOUS
 62
       7
  5
113
 10
131.64450606
 20
18.08710267
 30
0.0
 40
0.49203044
 50
89.06428243
 51
180.93571757
  0
ARC
  8
0
  6
CONTINUOUS
 62
       7
  5
114
 10
138.15629753
 20
18.08282386
 30
0.0
 40
0.49625786
 50
359.56630381
 51
90.43369619
  0
LINE
  8
0
  6
CONTINUOUS
 62
       7
  5
115
 10
138.65254117
 20
18.0790675
 30
0.0
 11
138.65254117
 21
16.27906758
 31
0.0
  0
LINE
  8
0
  6
CONTINUOUS
 62
       7
  5
116
 10
131.15254123
 20
18.0790675
 30
0.0
 11
131.15254123
 21
16.27906758
 31
0.0
  0
LINE
  8
0
  6
CONTINUOUS
 62
       7
  5
117
 10
150.20254109
 20
20.57906749
 30
0.0
 11
116.40254133
 21
20.57906749
 31
0.0
  0
LINE
  8
0
  6
CONTINUOUS
 62
       7
  5
118
 10
153.40254109
 20
38.00200465
 30
0.0
 11
153.40254109
 21
16.07906752
 31
0.0
  0
LINE
  8
0
  6
CONTINUOUS
 62
       7
  5
119
 10
116.40254131
 20
103.4076392
 30
0.0
 11
116.40254131
 21
16.27906758
 31
0.0
  0
LINE
  8
0
  6
CONTINUOUS
 62
       2
  5
11A
 10
-15.0974588
 20
64.57970236
 30
0.0
 11
4.9025412
 21
64.57970233
 31
0.0
  0
LINE
  8
0
  6
CONTINUOUS
 62
       2
  5
11B
 10
11.0025412
 20
-73.42093264
 30
0.0
 11
0.10943705
 21
-73.42093264
 31
0.0
  0
LINE
  8
0
  6
CONTINUOUS
 62
       7
  5
11C
 10
-95.0974588
 20
-119.92093264
 30
0.0
 11
28.9025412
 21
-119.92093264
 31
0.0
  0
LINE
  8
0
  6
CONTINUOUS
 62
       7
  5
11D
 10
8.9025412
 20
-92.92093264
 30
0.0
 11
8.9025412
 21
-119.92093264
 31
0.0
  0
LINE
  8
0
  6
CONTINUOUS
 62
       7
  5
11E
 10
-75.0974588
 20
-92.92093264
 30
0.0
 11
-75.0974588
 21
-119.92093264
 31
0.0
  0
LINE
  8
0
  6
CONTINUOUS
 62
       7
  5
11F
 10
28.9025412
 20
-92.92093264
 30
0.0
 11
28.9025412
 21
-119.92093264
 31
0.0
  0
LINE
  8
0
  6
CONTINUOUS
 62
       7
  5
120
 10
-95.0974588
 20
-92.92093264
 30
0.0
 11
-95.0974588
 21
-119.92093264
 31
0.0
  0
LINE
  8
0
  6
CONTINUOUS
 62
       7
  5
121
 10
149.50254109
 20
50.57906764
 30
0.0
 11
150.20254109
 21
50.57906764
 31
0.0
  0
LINE
  8
0
  6
CONTINUOUS
 62
       2
  5
122
 10
189.67477427
 20
53.07906764
 30
0.0
 11
145.20254109
 21
53.07906764
 31
0.0
  0
LINE
  8
0
  6
CONTINUOUS
 62
       2
  5
123
 10
168.90254109
 20
62.05906764
 30
0.0
 11
168.90254109
 21
43.89906764
 31
0.0
  0
LINE
  8
0
  6
CONTINUOUS
 62
       7
  5
124
 10
180.40254109
 20
42.57906764
 30
0.0
 11
153.40254109
 21
42.57906764
 31
0.0
  0
LINE
  8
0
  6
CONTINUOUS
 62
       7
  5
125
 10
180.40254109
 20
63.57906764
 30
0.0
 11
153.40254109
 21
63.57906764
 31
0.0
  0
LINE
  8
0
  6
CONTINUOUS
 62
       7
  5
126
 10
149.50254109
 20
50.57906764
 30
0.0
 11
149.50254109
 21
43.57906764
 31
0.0
  0
LINE
  8
0
  6
CONTINUOUS
 62
       7
  5
127
 10
150.20254109
 20
43.57906764
 30
0.0
 11
149.50254109
 21
43.57906764
 31
0.0
  0
LINE
  8
0
  6
CONTINUOUS
 62
       7
  5
128
 10
149.50254109
 20
62.57906764
 30
0.0
 11
149.50254109
 21
55.57906764
 31
0.0
  0
LINE
  8
0
  6
CONTINUOUS
 62
       7
  5
129
 10
150.20254109
 20
62.57906764
 30
0.0
 11
149.50254109
 21
62.57906764
 31
0.0
  0
LINE
  8
0
  6
CONTINUOUS
 62
       7
  5
12A
 10
180.40254109
 20
63.57906764
 30
0.0
 11
180.40254109
 21
42.57906764
 31
0.0
  0
CIRCLE
  8
0
  6
CONTINUOUS
 62
       7
  5
12B
 10
168.91254719
 20
53.08907985
 30
0.0
 40
5.5
  0
CIRCLE
  8
0
  6
CONTINUOUS
 62
       2
  5
12C
 10
168.91254719
 20
53.08907985
 30
0.0
 40
6.5
  0
ARC
  8
0
  6
CONTINUOUS
 62
       7
  5
12D
 10
150.56832816
 20
47.07906764
 30
0.0
 40
3.65867491
 50
106.93604788
 51
253.06395212
  0
ARC
  8
0
  6
CONTINUOUS
 62
       7
  5
12E
 10
150.56832816
 20
59.07906764
 30
0.0
 40
3.65867491
 50
106.93604788
 51
253.06395212
  0
LINE
  8
0
  6
CONTINUOUS
 62
       7
  5
12F
 10
150.20254109
 20
55.57906764
 30
0.0
 11
149.50254109
 21
55.57906764
 31
0.0
  0
LINE
  8
0
  6
CONTINUOUS
 62
       2
  5
130
 10
146.07075045
 20
59.07906764
 30
0.0
 11
154.55745899
 21
59.07906764
 31
0.0
  0
LINE
  8
0
  6
CONTINUOUS
 62
       2
  5
131
 10
146.07075045
 20
47.07906764
 30
0.0
 11
154.55745899
 21
47.07906764
 31
0.0
  0
LINE
  8
0
  6
CONTINUOUS
 62
       7
  5
132
 10
146.90965325
 20
59.07906764
 30
0.0
 11
148.38682342
 21
60.55623781
 31
0.0
  0
LINE
  8
0
  6
CONTINUOUS
 62
       7
  5
133
 10
146.90965325
 20
59.07906764
 30
0.0
 11
148.38682342
 21
57.60189747
 31
0.0
  0
LINE
  8
0
  6
CONTINUOUS
 62
       7
  5
134
 10
146.90965325
 20
47.07906764
 30
0.0
 11
148.38682342
 21
48.55623781
 31
0.0
  0
LINE
  8
0
  6
CONTINUOUS
 62
       7
  5
135
 10
146.90965325
 20
47.07906764
 30
0.0
 11
148.38682342
 21
45.60189747
 31
0.0
  0
LINE
  8
0
  6
CONTINUOUS
 62
       7
  5
136
 10
105.87396977
 20
82.80763926
 30
0.0
 11
105.87396977
 21
131.66478192
 31
0.0
  0
LINE
  8
0
  6
CONTINUOUS
 62
       7
  5
137
 10
79.37396991
 20
82.80763926
 30
0.0
 11
116.38825543
 21
82.80763926
 31
0.0
  0
ARC
  8
0
  6
CONTINUOUS
 62
       7
  5
138
 10
79.37396991
 20
84.30763926
 30
0.0
 40
1.5
 50
180.0
 51
270.0
  0
LINE
  8
0
  6
CONTINUOUS
 62
       7
  5
139
 10
75.87396992
 20
111.16107318
 30
0.0
 11
75.87396992
 21
122.07906763
 31
0.0
  0
ARC
  8
0
  6
CONTINUOUS
 62
       7
  5
13A
 10
76.37396992
 20
111.16107318
 30
0.0
 40
0.5
 50
180.0
 51
201.80140949
  0
LINE
  8
0
  6
CONTINUOUS
 62
       7
  5
13B
 10
75.90973158
 20
110.97537784
 30
0.0
 11
77.87396991
 21
106.064782
 31
0.0
  0
LINE
  8
0
  6
CONTINUOUS
 62
       7
  5
13C
 10
75.87396992
 20
111.06478198
 30
0.0
 11
77.87396991
 21
111.06478198
 31
0.0
  0
LINE
  8
0
  6
CONTINUOUS
 62
       2
  5
13D
 10
109.78813589
 20
96.80763919
 30
0.0
 11
75.2698867
 21
96.80763919
 31
0.0
  0
ARC
  8
0
  6
CONTINUOUS
 62
       7
  5
13E
 10
76.37396992
 20
122.07906763
 30
0.0
 40
0.5
 50
90.0
 51
180.0
  0
LINE
  8
0
  6
CONTINUOUS
 62
       7
  5
13F
 10
76.37396992
 20
122.57906763
 30
0.0
 11
77.87396991
 21
122.57906763
 31
0.0
  0
LINE
  8
0
  6
CONTINUOUS
 62
       7
  5
140
 10
76.87396992
 20
122.57906763
 30
0.0
 11
76.87396992
 21
125.57906762
 31
0.0
  0
LINE
  8
0
  6
CONTINUOUS
 62
       7
  5
141
 10
76.87396992
 20
125.57906762
 30
0.0
 11
77.87396991
 21
125.57906762
 31
0.0
  0
LINE
  8
0
  6
CONTINUOUS
 62
       7
  5
142
 10
75.64539849
 20
127.57906761
 30
0.0
 11
75.64539849
 21
132.57906758
 31
0.0
  0
LINE
  8
0
  6
CONTINUOUS
 62
       7
  5
143
 10
77.50825564
 20
127.57906761
 30
0.0
 11
75.64539849
 21
127.57906761
 31
0.0
  0
LINE
  8
0
  6
CONTINUOUS
 62
       7
  5
144
 10
94.13111269
 20
131.66478192
 30
0.0
 11
94.13111269
 21
132.57906758
 31
0.0
  0
LINE
  8
0
  6
CONTINUOUS
 62
       2
  5
145
 10
77.87396991
 20
122.52192478
 30
0.0
 11
77.87396991
 21
125.57906762
 31
0.0
  0
LINE
  8
0
  6
CONTINUOUS
 62
       7
  5
146
 10
107.38825548
 20
134.17906752
 30
0.0
 11
107.38825548
 21
82.80763926
 31
0.0
  0
LINE
  8
0
  6
CONTINUOUS
 62
       7
  5
147
 10
8.4025412
 20
-92.92093264
 30
0.0
 11
8.4025412
 21
-45.92093235
 31
0.0
  0
LINE
  8
0
  6
CONTINUOUS
 62
       7
  5
148
 10
-18.5974588
 20
-92.92093264
 30
0.0
 11
-18.5974588
 21
-45.92093235
 31
0.0
  0
LINE
  8
0
  6
CONTINUOUS
 62
       7
  5
149
 10
8.4025412
 20
-91.92093264
 30
0.0
 11
-18.5974588
 21
-91.92093264
 31
0.0
  0
LINE
  8
0
  6
CONTINUOUS
 62
       2
  5
14A
 10
5.4025412
 20
-56.56093264
 30
0.0
 11
5.4025412
 21
-64.76093264
 31
0.0
  0
LINE
  8
0
  6
CONTINUOUS
 62
       2
  5
14B
 10
-15.5974588
 20
-81.72093264
 30
0.0
 11
-15.5974588
 21
-89.50093264
 31
0.0
  0
LINE
  8
0
  6
CONTINUOUS
 62
       2
  5
14C
 10
-11.7174588
 20
-85.92093264
 30
0.0
 11
-19.7574588
 21
-85.92093264
 31
0.0
  0
LINE
  8
0
  6
CONTINUOUS
 62
       2
  5
14D
 10
9.4025412
 20
-60.92093264
 30
0.0
 11
1.5225412
 21
-60.92093264
 31
0.0
  0
LINE
  8
0
  6
CONTINUOUS
 62
       7
  5
14E
 10
8.4025412
 20
-69.92093264
 30
0.0
 11
4.9025412
 21
-69.92093264
 31
0.0
  0
LINE
  8
0
  6
CONTINUOUS
 62
       7
  5
14F
 10
8.4025412
 20
-76.92093264
 30
0.0
 11
4.9025412
 21
-76.92093264
 31
0.0
  0
LINE
  8
0
  6
CONTINUOUS
 62
       7
  5
150
 10
-15.0974588
 20
-76.92093264
 30
0.0
 11
-18.5974588
 21
-76.92093264
 31
0.0
  0
LINE
  8
0
  6
CONTINUOUS
 62
       7
  5
151
 10
-15.0974588
 20
-69.92093264
 30
0.0
 11
-18.5974588
 21
-69.92093264
 31
0.0
  0
LINE
  8
0
  6
CONTINUOUS
 62
       2
  5
152
 10
4.9025412
 20
-77.20093264
 30
0.0
 11
4.9025412
 21
-69.50093264
 31
0.0
  0
LINE
  8
0
  6
CONTINUOUS
 62
       2
  5
153
 10
-15.0974588
 20
-77.46093264
 30
0.0
 11
-15.0974588
 21
-69.40093264
 31
0.0
  0
LINE
  8
0
  6
CONTINUOUS
 62
       7
  5
154
 10
3.7025412
 20
-74.62093264
 30
0.0
 11
6.1825412
 21
-72.16093264
 31
0.0
  0
LINE
  8
0
  6
CONTINUOUS
 62
       7
  5
155
 10
6.0625412
 20
-74.56093264
 30
0.0
 11
3.6425412
 21
-72.14093264
 31
0.0
  0
LINE
  8
0
  6
CONTINUOUS
 62
       7
  5
156
 10
-13.8974588
 20
-74.62093264
 30
0.0
 11
-16.3574588
 21
-72.16093264
 31
0.0
  0
LINE
  8
0
  6
CONTINUOUS
 62
       7
  5
157
 10
-16.2374588
 20
-74.56093264
 30
0.0
 11
-13.8174588
 21
-72.14093264
 31
0.0
  0
CIRCLE
  8
0
  6
CONTINUOUS
 62
       2
  5
158
 10
5.40252899
 20
-60.93094027
 30
0.0
 40
2.0
  0
CIRCLE
  8
0
  6
CONTINUOUS
 62
       2
  5
159
 10
-15.59744049
 20
-85.93093264
 30
0.0
 40
2.0
  0
CIRCLE
  8
0
  6
CONTINUOUS
 62
       7
  5
15A
 10
5.40252899
 20
-60.93094027
 30
0.0
 40
1.5
  0
CIRCLE
  8
0
  6
CONTINUOUS
 62
       7
  5
15B
 10
-15.59744049
 20
-85.93093264
 30
0.0
 40
1.5
  0
ARC
  8
0
  6
CONTINUOUS
 62
       7
  5
15C
 10
4.9025412
 20
-73.42093264
 30
0.0
 40
3.5
 50
90.0
 51
270.0
  0
ARC
  8
0
  6
CONTINUOUS
 62
       7
  5
15D
 10
-15.0974588
 20
-73.42093264
 30
0.0
 40
3.5
 50
270.0
 51
90.0
  0
CIRCLE
  8
0
  6
CONTINUOUS
 62
       7
  5
15E
 10
4.90254425
 20
-73.41093264
 30
0.0
 40
2.5
  0
CIRCLE
  8
0
  6
CONTINUOUS
 62
       7
  5
15F
 10
-15.09747101
 20
-73.41093264
 30
0.0
 40
2.5
  0
LINE
  8
0
  6
CONTINUOUS
 62
       7
  5
160
 10
28.9025412
 20
-92.92093264
 30
0.0
 11
-75.0974588
 21
-92.92093264
 31
0.0
  0
LINE
  8
0
  6
CONTINUOUS
 62
       7
  5
161
 10
150.20254109
 20
34.77906761
 30
0.0
 11
117.2025412
 21
34.77906761
 31
0.0
  0
LINE
  8
0
  6
CONTINUOUS
 62
       7
  5
162
 10
138.6425412
 20
37.77906761
 30
0.0
 11
131.1425412
 21
37.77906761
 31
0.0
  0
LINE
  8
0
  6
CONTINUOUS
 62
       7
  5
163
 10
131.1425412
 20
37.77906761
 30
0.0
 11
131.1425412
 21
34.77906761
 31
0.0
  0
LINE
  8
0
  6
CONTINUOUS
 62
       7
  5
164
 10
138.6425412
 20
37.77906761
 30
0.0
 11
138.6425412
 21
34.77906761
 31
0.0
  0
LINE
  8
0
  6
CONTINUOUS
 62
       7
  5
165
 10
153.4025412
 20
85.57906761
 30
0.0
 11
116.4025412
 21
85.57906761
 31
0.0
  0
LINE
  8
0
  6
CONTINUOUS
 62
       7
  5
166
 10
153.4025412
 20
87.57906761
 30
0.0
 11
116.4025412
 21
87.57906761
 31
0.0
  0
LINE
  8
0
  6
CONTINUOUS
 62
       7
  5
167
 10
150.20254109
 20
39.77906761
 30
0.0
 11
116.4025412
 21
39.77906761
 31
0.0
  0
LINE
  8
0
  6
CONTINUOUS
 62
       2
  5
168
 10
119.4025412
 20
64.57906761
 30
0.0
 11
113.4025412
 21
64.57906761
 31
0.0
  0
LINE
  8
0
  6
CONTINUOUS
 62
       2
  5
169
 10
124.9625412
 20
74.07906761
 30
0.0
 11
116.6625412
 21
74.07906761
 31
0.0
  0
LINE
  8
0
  6
CONTINUOUS
 62
       2
  5
16A
 10
152.3825412
 20
63.07906761
 30
0.0
 11
144.4625412
 21
63.07906761
 31
0.0
  0
LINE
  8
0
  6
CONTINUOUS
 62
       2
  5
16B
 10
120.9025412
 20
69.95906761
 30
0.0
 11
120.9025412
 21
78.57906761
 31
0.0
  0
LINE
  8
0
  6
CONTINUOUS
 62
       2
  5
16C
 10
148.9025412
 20
58.55906761
 30
0.0
 11
148.9025412
 21
67.93906761
 31
0.0
  0
LINE
  8
0
  6
CONTINUOUS
 62
       7
  5
16D
 10
137.4025412
 20
36.77906761
 30
0.0
 11
132.4025412
 21
36.77906761
 31
0.0
  0
LINE
  8
0
  6
CONTINUOUS
 62
       7
  5
16E
 10
132.4025412
 20
37.77906761
 30
0.0
 11
132.4025412
 21
36.77906761
 31
0.0
  0
LINE
  8
0
  6
CONTINUOUS
 62
       7
  5
16F
 10
137.4025412
 20
37.77906761
 30
0.0
 11
137.4025412
 21
36.77906761
 31
0.0
  0
ARC
  8
0
  6
CONTINUOUS
 62
       7
  5
170
 10
117.19756899
 20
35.57409541
 30
0.0
 40
0.79504334
 50
179.64166943
 51
270.35833057
  0
ARC
  8
0
  6
CONTINUOUS
 62
       7
  5
171
 10
148.89254502
 20
63.07907982
 30
0.0
 40
2.19999886
 50
27.03534918
 51
235.26515254
  0
CIRCLE
  8
0
  6
CONTINUOUS
 62
       7
  5
172
 10
120.8925412
 20
74.07907982
 30
0.0
 40
2.19999886
  0
POLYLINE
  8
0
  6
CONTINUOUS
 62
       7
  5
173
 66
       1
 10
0.0
 20
0.0
 30
0.0
  0
VERTEX
  8
0
  6
CONTINUOUS
 62
       7
  5
27D
 10
137.4025412
 20
36.77906761
 30
0.0
  0
VERTEX
  8
0
  6
CONTINUOUS
 62
       7
  5
27E
 10
137.32010222
 20
36.17245645
 30
0.0
  0
VERTEX
  8
0
  6
CONTINUOUS
 62
       7
  5
27F
 10
137.0825412
 20
35.61906761
 30
0.0
  0
VERTEX
  8
0
  6
CONTINUOUS
 62
       7
  5
280
 10
136.49646387
 20
35.11629424
 30
0.0
  0
VERTEX
  8
0
  6
CONTINUOUS
 62
       7
  5
281
 10
135.71665267
 20
34.84881903
 30
0.0
  0
VERTEX
  8
0
  6
CONTINUOUS
 62
       7
  5
282
 10
134.9025412
 20
34.77906761
 30
0.0
  0
SEQEND
  8
0
  6
CONTINUOUS
 62
       7
  5
283
  0
POLYLINE
  8
0
  6
CONTINUOUS
 62
       7
  5
174
 66
       1
 10
0.0
 20
0.0
 30
0.0
  0
VERTEX
  8
0
  6
CONTINUOUS
 62
       7
  5
284
 10
132.4025412
 20
36.77906761
 30
0.0
  0
VERTEX
  8
0
  6
CONTINUOUS
 62
       7
  5
285
 10
132.48497928
 20
36.17245776
 30
0.0
  0
VERTEX
  8
0
  6
CONTINUOUS
 62
       7
  5
286
 10
132.7225412
 20
35.61906761
 30
0.0
  0
VERTEX
  8
0
  6
CONTINUOUS
 62
       7
  5
287
 10
133.30862063
 20
35.11629122
 30
0.0
  0
VERTEX
  8
0
  6
CONTINUOUS
 62
       7
  5
288
 10
134.08843082
 20
34.84881752
 30
0.0
  0
VERTEX
  8
0
  6
CONTINUOUS
 62
       7
  5
289
 10
134.9025412
 20
34.77906761
 30
0.0
  0
SEQEND
  8
0
  6
CONTINUOUS
 62
       7
  5
28A
  0
LINE
  8
0
  6
CONTINUOUS
 62
       7
  5
175
 10
116.4025412
 20
50.73906761
 30
0.0
 11
119.4025412
 21
50.73906761
 31
0.0
  0
LINE
  8
0
  6
CONTINUOUS
 62
       7
  5
176
 10
116.4025412
 20
45.43906761
 30
0.0
 11
119.4025412
 21
45.43906761
 31
0.0
  0
LINE
  8
0
  6
CONTINUOUS
 62
       7
  5
177
 10
119.4025412
 20
50.73906761
 30
0.0
 11
119.4025412
 21
45.43906761
 31
0.0
  0
LINE
  8
0
  6
CONTINUOUS
 62
       2
  5
178
 10
114.39618937
 20
48.07906761
 30
0.0
 11
120.99984542
 21
48.07906761
 31
0.0
  0
ARC
  8
0
  6
CONTINUOUS
 62
       7
  5
179
 10
122.15654089
 20
48.07906761
 30
0.0
 40
5.265
 50
149.65383187
 51
210.09428909
  0
LINE
  8
0
  6
CONTINUOUS
 62
       7
  5
17A
 10
-18.5974588
 20
85.57906763
 30
0.0
 11
-18.5974588
 21
60.06904251
 31
0.0
  0
LINE
  8
0
  6
CONTINUOUS
 62
       7
  5
17B
 10
8.4025412
 20
85.57906763
 30
0.0
 11
8.4025412
 21
50.06904251
 31
0.0
  0
LINE
  8
0
  6
CONTINUOUS
 62
       7
  5
17C
 10
-17.7974588
 20
34.77906763
 30
0.0
 11
7.6025412
 21
34.77906763
 31
0.0
  0
LINE
  8
0
  6
CONTINUOUS
 62
       7
  5
17D
 10
-18.5974588
 20
85.57906763
 30
0.0
 11
8.4025412
 21
85.57906763
 31
0.0
  0
LINE
  8
0
  6
CONTINUOUS
 62
       7
  5
17E
 10
-18.5974588
 20
87.57906763
 30
0.0
 11
8.4025412
 21
87.57906763
 31
0.0
  0
LINE
  8
0
  6
CONTINUOUS
 62
       7
  5
17F
 10
-18.5974588
 20
39.77906763
 30
0.0
 11
8.2425412
 21
39.77906763
 31
0.0
  0
ARC
  8
0
  6
CONTINUOUS
 62
       7
  5
180
 10
-17.79241558
 20
35.58411086
 30
0.0
 40
0.80505902
 50
180.35892688
 51
269.64107312
  0
ARC
  8
0
  6
CONTINUOUS
 62
       7
  5
181
 10
7.60752857
 20
35.57408026
 30
0.0
 40
0.79502827
 50
269.64056983
 51
0.35943017
  0
ARC
  8
0
  6
CONTINUOUS
 62
       7
  5
182
 10
5.39939979
 20
48.0764957
 30
0.0
 40
3.99685941
 50
179.96313087
 51
318.70965086
  0
ARC
  8
0
  6
CONTINUOUS
 62
       7
  5
183
 10
-15.60744946
 20
58.08906763
 30
0.0
 40
3.99532926
 50
221.55008523
 51
138.44991477
  0
ARC
  8
0
  6
CONTINUOUS
 62
       7
  5
184
 10
5.40599723
 20
48.08418334
 30
0.0
 40
4.0034593
 50
41.54036827
 51
180.07321375
  0
CIRCLE
  8
0
  6
CONTINUOUS
 62
       2
  5
185
 10
-5.10748932
 20
64.57907984
 30
0.0
 40
6.75
  0
CIRCLE
  8
0
  6
CONTINUOUS
 62
       7
  5
186
 10
-5.10748932
 20
64.57907984
 30
0.0
 40
5.5
  0
LINE
  8
0
  6
CONTINUOUS
 62
       7
  5
187
 10
-17.06117088
 20
56.61535611
 30
0.0
 11
-14.13374776
 21
59.54277898
 31
0.0
  0
LINE
  8
0
  6
CONTINUOUS
 62
       7
  5
188
 10
-17.06116933
 20
59.54277828
 30
0.0
 11
-14.13374827
 21
56.61535698
 31
0.0
  0
CIRCLE
  8
0
  6
CONTINUOUS
 62
       7
  5
189
 10
-15.5974588
 20
58.07906763
 30
0.0
 40
3.6
  0
LINE
  8
0
  6
CONTINUOUS
 62
       7
  5
18A
 10
-18.5974588
 20
56.08909276
 30
0.0
 11
-18.5974588
 21
35.57906763
 31
0.0
  0
CIRCLE
  8
0
  6
CONTINUOUS
 62
       7
  5
18B
 10
5.4025412
 20
48.07906763
 30
0.0
 40
3.6
  0
LINE
  8
0
  6
CONTINUOUS
 62
       7
  5
18C
 10
3.93883067
 20
49.54277828
 30
0.0
 11
6.86625173
 21
46.61535698
 31
0.0
  0
LINE
  8
0
  6
CONTINUOUS
 62
       7
  5
18D
 10
3.93882912
 20
46.61535611
 30
0.0
 11
6.86625224
 21
49.54277898
 31
0.0
  0
LINE
  8
0
  6
CONTINUOUS
 62
       7
  5
18E
 10
8.4025412
 20
46.08909276
 30
0.0
 11
8.4025412
 21
35.56909289
 31
0.0
  0
LINE
  8
0
  6
CONTINUOUS
 62
       2
  5
18F
 10
-5.0974588
 20
156.77906795
 30
0.0
 11
-5.0974588
 21
29.77906763
 31
0.0
  0
LINE
  8
0
  6
CONTINUOUS
 62
       2
  5
190
 10
-101.18171101
 20
53.07906758
 30
0.0
 11
33.9025412
 21
53.07906758
 31
0.0
  0
LINE
  8
0
  6
CONTINUOUS
 62
       2
  5
191
 10
-33.0974588
 20
139.207749
 30
0.0
 11
-33.0974588
 21
10.57906758
 31
0.0
  0
LINE
  8
0
  6
CONTINUOUS
 62
       2
  5
192
 10
-61.0974588
 20
139.207749
 30
0.0
 11
-61.0974588
 21
10.57906758
 31
0.0
  0
LINE
  8
0
  6
CONTINUOUS
 62
       7
  5
193
 10
-46.5974588
 20
-91.92093264
 30
0.0
 11
-19.5974588
 21
-91.92093264
 31
0.0
  0
LINE
  8
0
  6
CONTINUOUS
 62
       7
  5
194
 10
-74.5974588
 20
-91.92093264
 30
0.0
 11
-47.5974588
 21
-91.92093264
 31
0.0
  0
LINE
  8
0
  6
CONTINUOUS
 62
       7
  5
195
 10
-52.2974588
 20
-74.62093264
 30
0.0
 11
-49.8174588
 21
-72.16093264
 31
0.0
  0
LINE
  8
0
  6
CONTINUOUS
 62
       7
  5
196
 10
-49.9374588
 20
-74.56093264
 30
0.0
 11
-52.3574588
 21
-72.14093264
 31
0.0
  0
ARC
  8
0
  6
CONTINUOUS
 62
       7
  5
197
 10
-51.0974588
 20
-73.42093264
 30
0.0
 40
3.5
 50
90.0
 51
270.0
  0
CIRCLE
  8
0
  6
CONTINUOUS
 62
       7
  5
198
 10
-51.09745575
 20
-73.41093264
 30
0.0
 40
2.5
  0
LINE
  8
0
  6
CONTINUOUS
 62
       2
  5
199
 10
-51.0974588
 20
-78.42093264
 30
0.0
 11
-51.0974588
 21
-68.92093264
 31
0.0
  0
ARC
  8
0
  6
CONTINUOUS
 62
       7
  5
19A
 10
-61.0974588
 20
-23.42093263
 30
0.0
 40
9.0
 50
51.05755873
 51
128.94244127
  0
CIRCLE
  8
0
  6
CONTINUOUS
 62
       7
  5
19B
 10
-71.09746185
 20
-73.43093264
 30
0.0
 40
2.5
  0
ARC
  8
0
  6
CONTINUOUS
 62
       7
  5
19C
 10
-71.0974588
 20
-73.42093264
 30
0.0
 40
3.5
 50
270.0
 51
90.0
  0
LINE
  8
0
  6
CONTINUOUS
 62
       7
  5
19D
 10
-72.2574588
 20
-72.28093264
 30
0.0
 11
-69.8374588
 21
-74.70093264
 31
0.0
  0
LINE
  8
0
  6
CONTINUOUS
 62
       7
  5
19E
 10
-69.8974588
 20
-72.22093264
 30
0.0
 11
-72.3774588
 21
-74.68093264
 31
0.0
  0
LINE
  8
0
  6
CONTINUOUS
 62
       2
  5
19F
 10
-71.0974588
 20
-68.92093264
 30
0.0
 11
-71.0974588
 21
-78.42093264
 31
0.0
  0
LINE
  8
0
  6
CONTINUOUS
 62
       7
  5
1A0
 10
-74.5974588
 20
-45.92093235
 30
0.0
 11
-47.5974588
 21
-45.92093235
 31
0.0
  0
LINE
  8
0
  6
CONTINUOUS
 62
       7
  5
1A1
 10
-74.5974588
 20
-54.92093264
 30
0.0
 11
-47.5974588
 21
-54.92093264
 31
0.0
  0
LINE
  8
0
  6
CONTINUOUS
 62
       7
  5
1A2
 10
-74.5974588
 20
-69.92093264
 30
0.0
 11
-71.0974588
 21
-69.92093264
 31
0.0
  0
LINE
  8
0
  6
CONTINUOUS
 62
       7
  5
1A3
 10
-71.0974588
 20
-44.40664663
 30
0.0
 11
-51.0974588
 21
-44.40664663
 31
0.0
  0
LINE
  8
0
  6
CONTINUOUS
 62
       7
  5
1A4
 10
-69.5974588
 20
-16.40664663
 30
0.0
 11
-52.5974588
 21
-16.40664663
 31
0.0
  0
LINE
  8
0
  6
CONTINUOUS
 62
       7
  5
1A5
 10
-71.0974588
 20
-17.90664663
 30
0.0
 11
-71.0974588
 21
-45.92093235
 31
0.0
  0
LINE
  8
0
  6
CONTINUOUS
 62
       7
  5
1A6
 10
-51.0974588
 20
-17.90664663
 30
0.0
 11
-51.0974588
 21
-45.92093235
 31
0.0
  0
LINE
  8
0
  6
CONTINUOUS
 62
       2
  5
1A7
 10
-47.5974877
 20
-60.92093264
 30
0.0
 11
-53.59745432
 21
-60.92093264
 31
0.0
  0
LINE
  8
0
  6
CONTINUOUS
 62
       7
  5
1A8
 10
-47.5974588
 20
-69.92093264
 30
0.0
 11
-51.0974588
 21
-69.92093264
 31
0.0
  0
CIRCLE
  8
0
  6
CONTINUOUS
 62
       2
  5
1A9
 10
-50.59747101
 20
-60.93094027
 30
0.0
 40
2.0
  0
LINE
  8
0
  6
CONTINUOUS
 62
       2
  5
1AA
 10
-50.5974588
 20
-57.93094027
 30
0.0
 11
-50.5974588
 21
-63.93094027
 31
0.0
  0
CIRCLE
  8
0
  6
CONTINUOUS
 62
       7
  5
1AB
 10
-50.59747101
 20
-60.93094027
 30
0.0
 40
1.5
  0
ARC
  8
0
  6
CONTINUOUS
 62
       7
  5
1AC
 10
-69.5974588
 20
-17.90664663
 30
0.0
 40
1.5
 50
90.0
 51
180.0
  0
ARC
  8
0
  6
CONTINUOUS
 62
       7
  5
1AD
 10
-52.5974588
 20
-17.90664663
 30
0.0
 40
1.5
 50
0.0
 51
90.0
  0
LINE
  8
0
  6
CONTINUOUS
 62
       2
  5
1AE
 10
-75.5974588
 20
-73.42093264
 30
0.0
 11
-66.5974588
 21
-73.42093264
 31
0.0
  0
LINE
  8
0
  6
CONTINUOUS
 62
       2
  5
1AF
 10
-74.5974299
 20
-85.92093264
 30
0.0
 11
-68.59746329
 21
-85.92093264
 31
0.0
  0
LINE
  8
0
  6
CONTINUOUS
 62
       7
  5
1B0
 10
-74.5974588
 20
-76.92093264
 30
0.0
 11
-71.0974588
 21
-76.92093264
 31
0.0
  0
CIRCLE
  8
0
  6
CONTINUOUS
 62
       7
  5
1B1
 10
-71.59744659
 20
-85.91092501
 30
0.0
 40
1.5
  0
CIRCLE
  8
0
  6
CONTINUOUS
 62
       2
  5
1B2
 10
-71.59744659
 20
-85.91092501
 30
0.0
 40
2.0
  0
LINE
  8
0
  6
CONTINUOUS
 62
       7
  5
1B3
 10
-47.5974588
 20
-76.92093264
 30
0.0
 11
-51.0974588
 21
-76.92093264
 31
0.0
  0
LINE
  8
0
  6
CONTINUOUS
 62
       7
  5
1B4
 10
-19.5974588
 20
-76.92093264
 30
0.0
 11
-23.0974588
 21
-76.92093264
 31
0.0
  0
CIRCLE
  8
0
  6
CONTINUOUS
 62
       2
  5
1B5
 10
-43.59744659
 20
-85.91092501
 30
0.0
 40
2.0
  0
CIRCLE
  8
0
  6
CONTINUOUS
 62
       7
  5
1B6
 10
-43.59744659
 20
-85.91092501
 30
0.0
 40
1.5
  0
LINE
  8
0
  6
CONTINUOUS
 62
       7
  5
1B7
 10
-46.5974588
 20
-76.92093264
 30
0.0
 11
-43.0974588
 21
-76.92093264
 31
0.0
  0
LINE
  8
0
  6
CONTINUOUS
 62
       2
  5
1B8
 10
-46.5974299
 20
-85.92093264
 30
0.0
 11
-40.59746329
 21
-85.92093264
 31
0.0
  0
ARC
  8
0
  6
CONTINUOUS
 62
       7
  5
1B9
 10
-24.5974588
 20
-17.90664663
 30
0.0
 40
1.5
 50
0.0
 51
90.0
  0
ARC
  8
0
  6
CONTINUOUS
 62
       7
  5
1BA
 10
-41.5974588
 20
-17.90664663
 30
0.0
 40
1.5
 50
90.0
 51
180.0
  0
CIRCLE
  8
0
  6
CONTINUOUS
 62
       7
  5
1BB
 10
-22.59747101
 20
-60.93094027
 30
0.0
 40
1.5
  0
LINE
  8
0
  6
CONTINUOUS
 62
       2
  5
1BC
 10
-22.5974588
 20
-57.93094027
 30
0.0
 11
-22.5974588
 21
-63.93094027
 31
0.0
  0
CIRCLE
  8
0
  6
CONTINUOUS
 62
       2
  5
1BD
 10
-22.59747101
 20
-60.93094027
 30
0.0
 40
2.0
  0
LINE
  8
0
  6
CONTINUOUS
 62
       7
  5
1BE
 10
-19.5974588
 20
-69.92093264
 30
0.0
 11
-23.0974588
 21
-69.92093264
 31
0.0
  0
LINE
  8
0
  6
CONTINUOUS
 62
       2
  5
1BF
 10
-19.5974877
 20
-60.92093264
 30
0.0
 11
-25.59745432
 21
-60.92093264
 31
0.0
  0
LINE
  8
0
  6
CONTINUOUS
 62
       7
  5
1C0
 10
-23.0974588
 20
-17.90664663
 30
0.0
 11
-23.0974588
 21
-45.92093235
 31
0.0
  0
LINE
  8
0
  6
CONTINUOUS
 62
       7
  5
1C1
 10
-43.0974588
 20
-17.90664663
 30
0.0
 11
-43.0974588
 21
-45.92093235
 31
0.0
  0
LINE
  8
0
  6
CONTINUOUS
 62
       7
  5
1C2
 10
-41.5974588
 20
-16.40664663
 30
0.0
 11
-24.5974588
 21
-16.40664663
 31
0.0
  0
LINE
  8
0
  6
CONTINUOUS
 62
       7
  5
1C3
 10
-43.0974588
 20
-44.40664663
 30
0.0
 11
-23.0974588
 21
-44.40664663
 31
0.0
  0
LINE
  8
0
  6
CONTINUOUS
 62
       7
  5
1C4
 10
-46.5974588
 20
-69.92093264
 30
0.0
 11
-43.0974588
 21
-69.92093264
 31
0.0
  0
LINE
  8
0
  6
CONTINUOUS
 62
       7
  5
1C5
 10
-46.5974588
 20
-54.92093264
 30
0.0
 11
-19.5974588
 21
-54.92093264
 31
0.0
  0
LINE
  8
0
  6
CONTINUOUS
 62
       7
  5
1C6
 10
-46.5974588
 20
-45.92093235
 30
0.0
 11
-19.5974588
 21
-45.92093235
 31
0.0
  0
LINE
  8
0
  6
CONTINUOUS
 62
       2
  5
1C7
 10
-43.0974588
 20
-68.92093264
 30
0.0
 11
-43.0974588
 21
-78.42093264
 31
0.0
  0
LINE
  8
0
  6
CONTINUOUS
 62
       7
  5
1C8
 10
-41.8974588
 20
-72.22093264
 30
0.0
 11
-44.3774588
 21
-74.68093264
 31
0.0
  0
LINE
  8
0
  6
CONTINUOUS
 62
       7
  5
1C9
 10
-44.2574588
 20
-72.28093264
 30
0.0
 11
-41.8374588
 21
-74.70093264
 31
0.0
  0
ARC
  8
0
  6
CONTINUOUS
 62
       7
  5
1CA
 10
-43.0974588
 20
-73.42093264
 30
0.0
 40
3.5
 50
270.0
 51
90.0
  0
CIRCLE
  8
0
  6
CONTINUOUS
 62
       7
  5
1CB
 10
-43.09746185
 20
-73.43093264
 30
0.0
 40
2.5
  0
ARC
  8
0
  6
CONTINUOUS
 62
       7
  5
1CC
 10
-33.0974588
 20
-23.42093263
 30
0.0
 40
9.0
 50
51.05755873
 51
128.94244127
  0
LINE
  8
0
  6
CONTINUOUS
 62
       2
  5
1CD
 10
-23.0974588
 20
-78.42093264
 30
0.0
 11
-23.0974588
 21
-68.92093264
 31
0.0
  0
CIRCLE
  8
0
  6
CONTINUOUS
 62
       7
  5
1CE
 10
-23.09745575
 20
-73.41093264
 30
0.0
 40
2.5
  0
ARC
  8
0
  6
CONTINUOUS
 62
       7
  5
1CF
 10
-23.0974588
 20
-73.42093264
 30
0.0
 40
3.5
 50
90.0
 51
270.0
  0
LINE
  8
0
  6
CONTINUOUS
 62
       7
  5
1D0
 10
-21.9374588
 20
-74.56093264
 30
0.0
 11
-24.3574588
 21
-72.14093264
 31
0.0
  0
LINE
  8
0
  6
CONTINUOUS
 62
       7
  5
1D1
 10
-24.2974588
 20
-74.62093264
 30
0.0
 11
-21.8174588
 21
-72.16093264
 31
0.0
  0
LINE
  8
0
  6
CONTINUOUS
 62
       2
  5
1D2
 10
-55.5974588
 20
-73.42093264
 30
0.0
 11
-38.5974588
 21
-73.42093264
 31
0.0
  0
LINE
  8
0
  6
CONTINUOUS
 62
       2
  5
1D3
 10
-43.5974588
 20
-88.91092501
 30
0.0
 11
-43.5974588
 21
-82.91092501
 31
0.0
  0
LINE
  8
0
  6
CONTINUOUS
 62
       2
  5
1D4
 10
-33.0974588
 20
-12.49911821
 30
0.0
 11
-33.0974588
 21
-95.85910383
 31
0.0
  0
LINE
  8
0
  6
CONTINUOUS
 62
       7
  5
1D5
 10
-46.5974588
 20
-45.92093235
 30
0.0
 11
-46.5974588
 21
-92.92093264
 31
0.0
  0
LINE
  8
0
  6
CONTINUOUS
 62
       7
  5
1D6
 10
-19.5974588
 20
-45.92093235
 30
0.0
 11
-19.5974588
 21
-92.92093264
 31
0.0
  0
LINE
  8
0
  6
CONTINUOUS
 62
       2
  5
1D7
 10
-61.0974588
 20
-12.49911821
 30
0.0
 11
-61.0974588
 21
-95.85910383
 31
0.0
  0
LINE
  8
0
  6
CONTINUOUS
 62
       2
  5
1D8
 10
-71.5974588
 20
-88.91092501
 30
0.0
 11
-71.5974588
 21
-82.91092501
 31
0.0
  0
LINE
  8
0
  6
CONTINUOUS
 62
       7
  5
1D9
 10
-74.5974588
 20
-45.92093235
 30
0.0
 11
-74.5974588
 21
-92.92093264
 31
0.0
  0
LINE
  8
0
  6
CONTINUOUS
 62
       7
  5
1DA
 10
-47.5974588
 20
-45.92093235
 30
0.0
 11
-47.5974588
 21
-92.92093264
 31
0.0
  0
LINE
  8
0
  6
CONTINUOUS
 62
       7
  5
1DB
 10
-45.79745872
 20
15.57906758
 30
0.0
 11
-20.39745888
 21
15.57906758
 31
0.0
  0
ARC
  8
0
  6
CONTINUOUS
 62
       7
  5
1DC
 10
-20.3924715
 20
16.37408021
 30
0.0
 40
0.79502827
 50
269.64056983
 51
0.35943017
  0
ARC
  8
0
  6
CONTINUOUS
 62
       7
  5
1DD
 10
-73.7924155
 20
16.3841108
 30
0.0
 40
0.80505902
 50
180.35892688
 51
269.64107312
  0
LINE
  8
0
  6
CONTINUOUS
 62
       7
  5
1DE
 10
-74.59745872
 20
56.08909133
 30
0.0
 11
-74.59745872
 21
16.37906758
 31
0.0
  0
LINE
  8
0
  6
CONTINUOUS
 62
       7
  5
1DF
 10
-46.59745872
 20
16.07906736
 30
0.0
 11
-47.59745888
 21
16.07906736
 31
0.0
  0
ARC
  8
0
  6
CONTINUOUS
 62
       7
  5
1E0
 10
-48.3924715
 20
16.37408021
 30
0.0
 40
0.79502827
 50
269.64056983
 51
0.35943017
  0
ARC
  8
0
  6
CONTINUOUS
 62
       7
  5
1E1
 10
-45.7924155
 20
16.3841108
 30
0.0
 40
0.80505902
 50
180.35892688
 51
269.64107312
  0
LINE
  8
0
  6
CONTINUOUS
 62
       7
  5
1E2
 10
-73.79745872
 20
15.57906758
 30
0.0
 11
-48.39745888
 21
15.57906758
 31
0.0
  0
LINE
  8
0
  6
CONTINUOUS
 62
       7
  5
1E3
 10
-19.59745888
 20
46.0890914
 30
0.0
 11
-19.59745888
 21
16.36909284
 31
0.0
  0
ARC
  8
0
  6
CONTINUOUS
 62
       7
  5
1E4
 10
-52.61598354
 20
84.07906783
 30
0.0
 40
1.5
 50
270.0
 51
0.0
  0
CIRCLE
  8
0
  6
CONTINUOUS
 62
       7
  5
1E5
 10
-50.59745887
 20
48.07906628
 30
0.0
 40
3.6
  0
ARC
  8
0
  6
CONTINUOUS
 62
       7
  5
1E6
 10
-50.5874682
 20
48.06906739
 30
0.0
 40
3.99532923
 50
41.55008523
 51
318.44991477
  0
LINE
  8
0
  6
CONTINUOUS
 62
       7
  5
1E7
 10
-52.06117095
 20
46.61535475
 30
0.0
 11
-49.13374783
 21
49.54277763
 31
0.0
  0
LINE
  8
0
  6
CONTINUOUS
 62
       7
  5
1E8
 10
-52.0611694
 20
49.54277693
 30
0.0
 11
-49.13374835
 21
46.61535563
 31
0.0
  0
CIRCLE
  8
0
  6
CONTINUOUS
 62
       7
  5
1E9
 10
-61.0932016
 20
41.57844502
 30
0.0
 40
5.75000044
  0
CIRCLE
  8
0
  6
CONTINUOUS
 62
       2
  5
1EA
 10
-61.0932016
 20
41.57844502
 30
0.0
 40
6.49999972
  0
ARC
  8
0
  6
CONTINUOUS
 62
       7
  5
1EB
 10
-24.61598354
 20
84.07906783
 30
0.0
 40
1.5
 50
270.0
 51
0.0
  0
ARC
  8
0
  6
CONTINUOUS
 62
       7
  5
1EC
 10
-41.61598344
 20
84.07906783
 30
0.0
 40
1.5
 50
180.0
 51
270.0
  0
CIRCLE
  8
0
  6
CONTINUOUS
 62
       7
  5
1ED
 10
-43.59745872
 20
58.07906621
 30
0.0
 40
3.6
  0
ARC
  8
0
  6
CONTINUOUS
 62
       7
  5
1EE
 10
-43.59431732
 20
58.08163926
 30
0.0
 40
3.99685939
 50
221.29034914
 51
138.70965086
  0
LINE
  8
0
  6
CONTINUOUS
 62
       7
  5
1EF
 10
-45.06116925
 20
59.54277686
 30
0.0
 11
-42.1337482
 21
56.61535556
 31
0.0
  0
LINE
  8
0
  6
CONTINUOUS
 62
       7
  5
1F0
 10
-45.0611708
 20
56.61535468
 30
0.0
 11
-42.13374768
 21
59.54277756
 31
0.0
  0
CIRCLE
  8
0
  6
CONTINUOUS
 62
       7
  5
1F1
 10
-33.0932016
 20
41.57844502
 30
0.0
 40
5.75000044
  0
CIRCLE
  8
0
  6
CONTINUOUS
 62
       2
  5
1F2
 10
-33.0932016
 20
41.57844502
 30
0.0
 40
6.49999972
  0
LINE
  8
0
  6
CONTINUOUS
 62
       7
  5
1F3
 10
-24.0611694
 20
49.54277693
 30
0.0
 11
-21.13374835
 21
46.61535563
 31
0.0
  0
LINE
  8
0
  6
CONTINUOUS
 62
       7
  5
1F4
 10
-24.06117095
 20
46.61535475
 30
0.0
 11
-21.13374783
 21
49.54277763
 31
0.0
  0
LINE
  8
0
  6
CONTINUOUS
 62
       2
  5
1F5
 10
-69.74745874
 20
41.57906758
 30
0.0
 11
-19.59745888
 21
41.57906751
 31
0.0
  0
LINE
  8
0
  6
CONTINUOUS
 62
       7
  5
1F6
 10
-46.59745872
 20
20.57906755
 30
0.0
 11
-19.59745888
 21
20.57906755
 31
0.0
  0
ARC
  8
0
  6
CONTINUOUS
 62
       7
  5
1F7
 10
-22.5874682
 20
48.06906739
 30
0.0
 40
3.99532923
 50
41.55008523
 51
318.44991477
  0
CIRCLE
  8
0
  6
CONTINUOUS
 62
       7
  5
1F8
 10
-22.59745887
 20
48.07906628
 30
0.0
 40
3.6
  0
LINE
  8
0
  6
CONTINUOUS
 62
       7
  5
1F9
 10
-46.59745872
 20
56.08909133
 30
0.0
 11
-46.59745872
 21
16.37906758
 31
0.0
  0
LINE
  8
0
  6
CONTINUOUS
 62
       7
  5
1FA
 10
-46.59745872
 20
68.37906727
 30
0.0
 11
-19.59745888
 21
68.37906727
 31
0.0
  0
LINE
  8
0
  6
CONTINUOUS
 62
       7
  5
1FB
 10
-46.59745872
 20
66.37906728
 30
0.0
 11
-19.59745888
 21
66.37906728
 31
0.0
  0
LINE
  8
0
  6
CONTINUOUS
 62
       7
  5
1FC
 10
-19.59745888
 20
82.57906783
 30
0.0
 11
-46.59745872
 21
82.57906783
 31
0.0
  0
LINE
  8
0
  6
CONTINUOUS
 62
       7
  5
1FD
 10
-74.59745872
 20
20.57906755
 30
0.0
 11
-47.59745888
 21
20.57906755
 31
0.0
  0
LINE
  8
0
  6
CONTINUOUS
 62
       7
  5
1FE
 10
-47.59745888
 20
46.0890914
 30
0.0
 11
-47.59745888
 21
16.36909284
 31
0.0
  0
ARC
  8
0
  6
CONTINUOUS
 62
       7
  5
1FF
 10
-71.59431732
 20
58.08163926
 30
0.0
 40
3.99685939
 50
221.29034914
 51
138.70965086
  0
CIRCLE
  8
0
  6
CONTINUOUS
 62
       7
  5
200
 10
-71.59745872
 20
58.07906621
 30
0.0
 40
3.6
  0
LINE
  8
0
  6
CONTINUOUS
 62
       7
  5
201
 10
-73.06116925
 20
59.54277686
 30
0.0
 11
-70.1337482
 21
56.61535556
 31
0.0
  0
LINE
  8
0
  6
CONTINUOUS
 62
       7
  5
202
 10
-73.0611708
 20
56.61535468
 30
0.0
 11
-70.13374768
 21
59.54277756
 31
0.0
  0
LINE
  8
0
  6
CONTINUOUS
 62
       7
  5
203
 10
-74.59745872
 20
68.37906727
 30
0.0
 11
-47.59745888
 21
68.37906727
 31
0.0
  0
LINE
  8
0
  6
CONTINUOUS
 62
       7
  5
204
 10
-74.59745872
 20
66.37906728
 30
0.0
 11
-47.59745888
 21
66.37906728
 31
0.0
  0
LINE
  8
0
  6
CONTINUOUS
 62
       7
  5
205
 10
-47.59745888
 20
82.57906783
 30
0.0
 11
-74.59745872
 21
82.57906783
 31
0.0
  0
ARC
  8
0
  6
CONTINUOUS
 62
       7
  5
206
 10
-69.61598344
 20
84.07906783
 30
0.0
 40
1.5
 50
180.0
 51
270.0
  0
POLYLINE
  8
0
  6
CONTINUOUS
 62
       7
  5
207
 66
       1
 10
0.0
 20
0.0
 30
0.0
  0
VERTEX
  8
0
  6
CONTINUOUS
 62
       7
  5
28B
 10
-53.61598353
 20
110.57906769
 30
0.0
  0
VERTEX
  8
0
  6
CONTINUOUS
 62
       7
  5
28C
 10
-54.57413863
 20
110.28748001
 30
0.0
  0
VERTEX
  8
0
  6
CONTINUOUS
 62
       7
  5
28D
 10
-55.4874967
 20
109.76428755
 30
0.0
  0
VERTEX
  8
0
  6
CONTINUOUS
 62
       7
  5
28E
 10
-56.36166218
 20
109.08046724
 30
0.0
  0
VERTEX
  8
0
  6
CONTINUOUS
 62
       7
  5
28F
 10
-57.2022395
 20
108.30699598
 30
0.0
  0
VERTEX
  8
0
  6
CONTINUOUS
 62
       7
  5
290
 10
-58.01483309
 20
107.51485071
 30
0.0
  0
VERTEX
  8
0
  6
CONTINUOUS
 62
       7
  5
291
 10
-58.80504738
 20
106.77500832
 30
0.0
  0
VERTEX
  8
0
  6
CONTINUOUS
 62
       7
  5
292
 10
-59.57848681
 20
106.15844575
 30
0.0
  0
VERTEX
  8
0
  6
CONTINUOUS
 62
       7
  5
293
 10
-60.3407558
 20
105.7361399
 30
0.0
  0
VERTEX
  8
0
  6
CONTINUOUS
 62
       7
  5
294
 10
-61.0974588
 20
105.57906769
 30
0.0
  0
VERTEX
  8
0
  6
CONTINUOUS
 62
       7
  5
295
 10
-61.85419596
 20
105.73456674
 30
0.0
  0
VERTEX
  8
0
  6
CONTINUOUS
 62
       7
  5
296
 10
-62.61655036
 20
106.15541742
 30
0.0
  0
VERTEX
  8
0
  6
CONTINUOUS
 62
       7
  5
297
 10
-63.39010082
 20
106.77076079
 30
0.0
  0
VERTEX
  8
0
  6
CONTINUOUS
 62
       7
  5
298
 10
-64.18042615
 20
107.50973794
 30
0.0
  0
VERTEX
  8
0
  6
CONTINUOUS
 62
       7
  5
299
 10
-64.99310514
 20
108.30148993
 30
0.0
  0
VERTEX
  8
0
  6
CONTINUOUS
 62
       7
  5
29A
 10
-65.83371662
 20
109.07515783
 30
0.0
  0
VERTEX
  8
0
  6
CONTINUOUS
 62
       7
  5
29B
 10
-66.7078394
 20
109.75988271
 30
0.0
  0
VERTEX
  8
0
  6
CONTINUOUS
 62
       7
  5
29C
 10
-67.62105227
 20
110.28480564
 30
0.0
  0
VERTEX
  8
0
  6
CONTINUOUS
 62
       7
  5
29D
 10
-68.57893406
 20
110.57906769
 30
0.0
  0
SEQEND
  8
0
  6
CONTINUOUS
 62
       7
  5
29E
  0
CIRCLE
  8
0
  6
CONTINUOUS
 62
       7
  5
208
 10
-61.0974588
 20
96.57470362
 30
0.0
 40
3.5
  0
POLYLINE
  8
0
  6
CONTINUOUS
 62
       7
  5
209
 66
       1
 10
0.0
 20
0.0
 30
0.0
  0
VERTEX
  8
0
  6
CONTINUOUS
 62
       7
  5
29F
 10
-53.61598353
 20
110.57906769
 30
0.0
  0
VERTEX
  8
0
  6
CONTINUOUS
 62
       7
  5
2A0
 10
-54.57413863
 20
110.28748001
 30
0.0
  0
VERTEX
  8
0
  6
CONTINUOUS
 62
       7
  5
2A1
 10
-55.4874967
 20
109.76428755
 30
0.0
  0
VERTEX
  8
0
  6
CONTINUOUS
 62
       7
  5
2A2
 10
-56.36166218
 20
109.08046724
 30
0.0
  0
VERTEX
  8
0
  6
CONTINUOUS
 62
       7
  5
2A3
 10
-57.2022395
 20
108.30699598
 30
0.0
  0
VERTEX
  8
0
  6
CONTINUOUS
 62
       7
  5
2A4
 10
-58.01483309
 20
107.51485071
 30
0.0
  0
VERTEX
  8
0
  6
CONTINUOUS
 62
       7
  5
2A5
 10
-58.80504738
 20
106.77500832
 30
0.0
  0
VERTEX
  8
0
  6
CONTINUOUS
 62
       7
  5
2A6
 10
-59.57848681
 20
106.15844575
 30
0.0
  0
VERTEX
  8
0
  6
CONTINUOUS
 62
       7
  5
2A7
 10
-60.3407558
 20
105.7361399
 30
0.0
  0
VERTEX
  8
0
  6
CONTINUOUS
 62
       7
  5
2A8
 10
-61.0974588
 20
105.57906769
 30
0.0
  0
VERTEX
  8
0
  6
CONTINUOUS
 62
       7
  5
2A9
 10
-61.85419596
 20
105.73456674
 30
0.0
  0
VERTEX
  8
0
  6
CONTINUOUS
 62
       7
  5
2AA
 10
-62.61655036
 20
106.15541742
 30
0.0
  0
VERTEX
  8
0
  6
CONTINUOUS
 62
       7
  5
2AB
 10
-63.39010082
 20
106.77076079
 30
0.0
  0
VERTEX
  8
0
  6
CONTINUOUS
 62
       7
  5
2AC
 10
-64.18042615
 20
107.50973794
 30
0.0
  0
VERTEX
  8
0
  6
CONTINUOUS
 62
       7
  5
2AD
 10
-64.99310514
 20
108.30148993
 30
0.0
  0
VERTEX
  8
0
  6
CONTINUOUS
 62
       7
  5
2AE
 10
-65.83371662
 20
109.07515783
 30
0.0
  0
VERTEX
  8
0
  6
CONTINUOUS
 62
       7
  5
2AF
 10
-66.7078394
 20
109.75988271
 30
0.0
  0
VERTEX
  8
0
  6
CONTINUOUS
 62
       7
  5
2B0
 10
-67.62105227
 20
110.28480564
 30
0.0
  0
VERTEX
  8
0
  6
CONTINUOUS
 62
       7
  5
2B1
 10
-68.57893406
 20
110.57906769
 30
0.0
  0
SEQEND
  8
0
  6
CONTINUOUS
 62
       7
  5
2B2
  0
ARC
  8
0
  6
CONTINUOUS
 62
       7
  5
20A
 10
-69.61598344
 20
109.07906769
 30
0.0
 40
1.5
 50
90.0
 51
180.0
  0
LINE
  8
0
  6
CONTINUOUS
 62
       7
  5
20B
 10
-74.59745872
 20
113.57906758
 30
0.0
 11
-70.11598344
 21
113.57906758
 31
0.0
  0
LINE
  8
0
  6
CONTINUOUS
 62
       2
  5
20C
 10
-56.08375462
 20
96.57906776
 30
0.0
 11
-66.27542019
 21
96.57906776
 31
0.0
  0
LINE
  8
0
  6
CONTINUOUS
 62
       7
  5
20D
 10
-52.61598354
 20
110.57906769
 30
0.0
 11
-69.61598344
 21
110.57906769
 31
0.0
  0
LINE
  8
0
  6
CONTINUOUS
 62
       7
  5
20E
 10
-53.11598353
 20
122.57906763
 30
0.0
 11
-69.11598345
 21
122.57906763
 31
0.0
  0
LINE
  8
0
  6
CONTINUOUS
 62
       7
  5
20F
 10
-54.11598352
 20
125.57906762
 30
0.0
 11
-68.11598345
 21
125.57906762
 31
0.0
  0
LINE
  8
0
  6
CONTINUOUS
 62
       7
  5
210
 10
-53.11598353
 20
127.57906761
 30
0.0
 11
-69.11598345
 21
127.57906761
 31
0.0
  0
LINE
  8
0
  6
CONTINUOUS
 62
       7
  5
211
 10
-69.11598345
 20
132.57906758
 30
0.0
 11
-53.11598353
 21
132.57906758
 31
0.0
  0
LINE
  8
0
  6
CONTINUOUS
 62
       7
  5
212
 10
-62.51826685
 20
98.00511172
 30
0.0
 11
-59.69941474
 21
95.16721332
 31
0.0
  0
LINE
  8
0
  6
CONTINUOUS
 62
       7
  5
213
 10
-62.53019705
 20
95.1648542
 30
0.0
 11
-59.70176993
 21
97.99328133
 31
0.0
  0
LINE
  8
0
  6
CONTINUOUS
 62
       7
  5
214
 10
-70.09745874
 20
114.57906758
 30
0.0
 11
-71.09745874
 21
113.57906758
 31
0.0
  0
CIRCLE
  8
0
  6
CONTINUOUS
 62
       7
  5
215
 10
-61.09734858
 20
96.57899801
 30
0.0
 40
2.99998963
  0
ARC
  8
0
  6
CONTINUOUS
 62
       7
  5
216
 10
-69.10653265
 20
121.56961684
 30
0.0
 40
1.00949504
 50
90.53640571
 51
179.46359429
  0
LINE
  8
0
  6
CONTINUOUS
 62
       7
  5
217
 10
-70.11598344
 20
121.57906764
 30
0.0
 11
-70.11598344
 21
110.49328125
 31
0.0
  0
LINE
  8
0
  6
CONTINUOUS
 62
       7
  5
218
 10
-69.11598345
 20
132.57906758
 30
0.0
 11
-69.11598345
 21
127.57906761
 31
0.0
  0
LINE
  8
0
  6
CONTINUOUS
 62
       7
  5
219
 10
-69.11598345
 20
125.00171735
 30
0.0
 11
-69.11598345
 21
122.57906763
 31
0.0
  0
LINE
  8
0
  6
CONTINUOUS
 62
       2
  5
21A
 10
-68.11598345
 20
125.57906762
 30
0.0
 11
-68.11598345
 21
122.57906763
 31
0.0
  0
LINE
  8
0
  6
CONTINUOUS
 62
       7
  5
21B
 10
-68.11598345
 20
127.57906761
 30
0.0
 11
-68.11598345
 21
125.57906762
 31
0.0
  0
LINE
  8
0
  6
CONTINUOUS
 62
       7
  5
21C
 10
-68.11598345
 20
125.57906762
 30
0.0
 11
-69.11598345
 21
125.00171735
 31
0.0
  0
LINE
  8
0
  6
CONTINUOUS
 62
       7
  5
21D
 10
-52.11598353
 20
113.57906758
 30
0.0
 11
-47.59745888
 21
113.57906758
 31
0.0
  0
ARC
  8
0
  6
CONTINUOUS
 62
       7
  5
21E
 10
-53.10677887
 20
121.5882723
 30
0.0
 40
0.99083809
 50
359.46772749
 51
90.53227251
  0
LINE
  8
0
  6
CONTINUOUS
 62
       7
  5
21F
 10
-52.09745885
 20
114.57906758
 30
0.0
 11
-51.09745886
 21
113.57906758
 31
0.0
  0
LINE
  8
0
  6
CONTINUOUS
 62
       2
  5
220
 10
-54.11598352
 20
125.57906762
 30
0.0
 11
-54.11598352
 21
122.57906763
 31
0.0
  0
LINE
  8
0
  6
CONTINUOUS
 62
       7
  5
221
 10
-54.11598352
 20
127.57906761
 30
0.0
 11
-54.11598352
 21
125.57906762
 31
0.0
  0
LINE
  8
0
  6
CONTINUOUS
 62
       7
  5
222
 10
-53.11598353
 20
132.57906758
 30
0.0
 11
-53.11598353
 21
127.57906761
 31
0.0
  0
LINE
  8
0
  6
CONTINUOUS
 62
       7
  5
223
 10
-52.11598353
 20
121.57906764
 30
0.0
 11
-52.11598353
 21
110.49328125
 31
0.0
  0
ARC
  8
0
  6
CONTINUOUS
 62
       7
  5
224
 10
-52.61598354
 20
109.07906769
 30
0.0
 40
1.5
 50
0.0
 51
90.0
  0
LINE
  8
0
  6
CONTINUOUS
 62
       7
  5
225
 10
-53.07893415
 20
125.00171735
 30
0.0
 11
-53.07893415
 21
122.57906763
 31
0.0
  0
LINE
  8
0
  6
CONTINUOUS
 62
       7
  5
226
 10
-54.07893414
 20
125.57906762
 30
0.0
 11
-53.07893415
 21
125.00171735
 31
0.0
  0
POLYLINE
  8
0
  6
CONTINUOUS
 62
       7
  5
227
 66
       1
 10
0.0
 20
0.0
 30
0.0
  0
VERTEX
  8
0
  6
CONTINUOUS
 62
       7
  5
2B3
 10
-25.61598353
 20
110.57906769
 30
0.0
  0
VERTEX
  8
0
  6
CONTINUOUS
 62
       7
  5
2B4
 10
-26.57413863
 20
110.28748001
 30
0.0
  0
VERTEX
  8
0
  6
CONTINUOUS
 62
       7
  5
2B5
 10
-27.4874967
 20
109.76428755
 30
0.0
  0
VERTEX
  8
0
  6
CONTINUOUS
 62
       7
  5
2B6
 10
-28.36166218
 20
109.08046724
 30
0.0
  0
VERTEX
  8
0
  6
CONTINUOUS
 62
       7
  5
2B7
 10
-29.2022395
 20
108.30699598
 30
0.0
  0
VERTEX
  8
0
  6
CONTINUOUS
 62
       7
  5
2B8
 10
-30.01483309
 20
107.51485071
 30
0.0
  0
VERTEX
  8
0
  6
CONTINUOUS
 62
       7
  5
2B9
 10
-30.80504738
 20
106.77500832
 30
0.0
  0
VERTEX
  8
0
  6
CONTINUOUS
 62
       7
  5
2BA
 10
-31.57848681
 20
106.15844575
 30
0.0
  0
VERTEX
  8
0
  6
CONTINUOUS
 62
       7
  5
2BB
 10
-32.3407558
 20
105.7361399
 30
0.0
  0
VERTEX
  8
0
  6
CONTINUOUS
 62
       7
  5
2BC
 10
-33.0974588
 20
105.57906769
 30
0.0
  0
VERTEX
  8
0
  6
CONTINUOUS
 62
       7
  5
2BD
 10
-33.85419596
 20
105.73456674
 30
0.0
  0
VERTEX
  8
0
  6
CONTINUOUS
 62
       7
  5
2BE
 10
-34.61655036
 20
106.15541742
 30
0.0
  0
VERTEX
  8
0
  6
CONTINUOUS
 62
       7
  5
2BF
 10
-35.39010082
 20
106.77076079
 30
0.0
  0
VERTEX
  8
0
  6
CONTINUOUS
 62
       7
  5
2C0
 10
-36.18042615
 20
107.50973794
 30
0.0
  0
VERTEX
  8
0
  6
CONTINUOUS
 62
       7
  5
2C1
 10
-36.99310514
 20
108.30148993
 30
0.0
  0
VERTEX
  8
0
  6
CONTINUOUS
 62
       7
  5
2C2
 10
-37.83371662
 20
109.07515783
 30
0.0
  0
VERTEX
  8
0
  6
CONTINUOUS
 62
       7
  5
2C3
 10
-38.7078394
 20
109.75988271
 30
0.0
  0
VERTEX
  8
0
  6
CONTINUOUS
 62
       7
  5
2C4
 10
-39.62105227
 20
110.28480564
 30
0.0
  0
VERTEX
  8
0
  6
CONTINUOUS
 62
       7
  5
2C5
 10
-40.57893406
 20
110.57906769
 30
0.0
  0
SEQEND
  8
0
  6
CONTINUOUS
 62
       7
  5
2C6
  0
CIRCLE
  8
0
  6
CONTINUOUS
 62
       7
  5
228
 10
-33.0974588
 20
96.57470362
 30
0.0
 40
3.5
  0
POLYLINE
  8
0
  6
CONTINUOUS
 62
       7
  5
229
 66
       1
 10
0.0
 20
0.0
 30
0.0
  0
VERTEX
  8
0
  6
CONTINUOUS
 62
       7
  5
2C7
 10
-25.61598353
 20
110.57906769
 30
0.0
  0
VERTEX
  8
0
  6
CONTINUOUS
 62
       7
  5
2C8
 10
-26.57413863
 20
110.28748001
 30
0.0
  0
VERTEX
  8
0
  6
CONTINUOUS
 62
       7
  5
2C9
 10
-27.4874967
 20
109.76428755
 30
0.0
  0
VERTEX
  8
0
  6
CONTINUOUS
 62
       7
  5
2CA
 10
-28.36166218
 20
109.08046724
 30
0.0
  0
VERTEX
  8
0
  6
CONTINUOUS
 62
       7
  5
2CB
 10
-29.2022395
 20
108.30699598
 30
0.0
  0
VERTEX
  8
0
  6
CONTINUOUS
 62
       7
  5
2CC
 10
-30.01483309
 20
107.51485071
 30
0.0
  0
VERTEX
  8
0
  6
CONTINUOUS
 62
       7
  5
2CD
 10
-30.80504738
 20
106.77500832
 30
0.0
  0
VERTEX
  8
0
  6
CONTINUOUS
 62
       7
  5
2CE
 10
-31.57848681
 20
106.15844575
 30
0.0
  0
VERTEX
  8
0
  6
CONTINUOUS
 62
       7
  5
2CF
 10
-32.3407558
 20
105.7361399
 30
0.0
  0
VERTEX
  8
0
  6
CONTINUOUS
 62
       7
  5
2D0
 10
-33.0974588
 20
105.57906769
 30
0.0
  0
VERTEX
  8
0
  6
CONTINUOUS
 62
       7
  5
2D1
 10
-33.85419596
 20
105.73456674
 30
0.0
  0
VERTEX
  8
0
  6
CONTINUOUS
 62
       7
  5
2D2
 10
-34.61655036
 20
106.15541742
 30
0.0
  0
VERTEX
  8
0
  6
CONTINUOUS
 62
       7
  5
2D3
 10
-35.39010082
 20
106.77076079
 30
0.0
  0
VERTEX
  8
0
  6
CONTINUOUS
 62
       7
  5
2D4
 10
-36.18042615
 20
107.50973794
 30
0.0
  0
VERTEX
  8
0
  6
CONTINUOUS
 62
       7
  5
2D5
 10
-36.99310514
 20
108.30148993
 30
0.0
  0
VERTEX
  8
0
  6
CONTINUOUS
 62
       7
  5
2D6
 10
-37.83371662
 20
109.07515783
 30
0.0
  0
VERTEX
  8
0
  6
CONTINUOUS
 62
       7
  5
2D7
 10
-38.7078394
 20
109.75988271
 30
0.0
  0
VERTEX
  8
0
  6
CONTINUOUS
 62
       7
  5
2D8
 10
-39.62105227
 20
110.28480564
 30
0.0
  0
VERTEX
  8
0
  6
CONTINUOUS
 62
       7
  5
2D9
 10
-40.57893406
 20
110.57906769
 30
0.0
  0
SEQEND
  8
0
  6
CONTINUOUS
 62
       7
  5
2DA
  0
LINE
  8
0
  6
CONTINUOUS
 62
       2
  5
22A
 10
-28.13547582
 20
96.57906776
 30
0.0
 11
-37.90686653
 21
96.57906776
 31
0.0
  0
LINE
  8
0
  6
CONTINUOUS
 62
       7
  5
22B
 10
-24.61598354
 20
110.57906769
 30
0.0
 11
-41.61598344
 21
110.57906769
 31
0.0
  0
CIRCLE
  8
0
  6
CONTINUOUS
 62
       7
  5
22C
 10
-33.09734858
 20
96.57899801
 30
0.0
 40
2.99998963
  0
LINE
  8
0
  6
CONTINUOUS
 62
       7
  5
22D
 10
-42.11598344
 20
121.57906764
 30
0.0
 11
-42.11598344
 21
110.49328125
 31
0.0
  0
LINE
  8
0
  6
CONTINUOUS
 62
       7
  5
22E
 10
-42.09745874
 20
114.57906758
 30
0.0
 11
-43.09745874
 21
113.57906758
 31
0.0
  0
LINE
  8
0
  6
CONTINUOUS
 62
       7
  5
22F
 10
-46.59745872
 20
113.57906758
 30
0.0
 11
-42.11598344
 21
113.57906758
 31
0.0
  0
ARC
  8
0
  6
CONTINUOUS
 62
       7
  5
230
 10
-41.61598344
 20
109.07906769
 30
0.0
 40
1.5
 50
90.0
 51
180.0
  0
LINE
  8
0
  6
CONTINUOUS
 62
       7
  5
231
 10
-25.11598353
 20
122.57906763
 30
0.0
 11
-41.11598345
 21
122.57906763
 31
0.0
  0
LINE
  8
0
  6
CONTINUOUS
 62
       7
  5
232
 10
-26.11598352
 20
125.57906762
 30
0.0
 11
-40.11598345
 21
125.57906762
 31
0.0
  0
LINE
  8
0
  6
CONTINUOUS
 62
       7
  5
233
 10
-25.11598353
 20
127.57906761
 30
0.0
 11
-41.11598345
 21
127.57906761
 31
0.0
  0
LINE
  8
0
  6
CONTINUOUS
 62
       7
  5
234
 10
-41.11598345
 20
132.57906758
 30
0.0
 11
-25.11598353
 21
132.57906758
 31
0.0
  0
LINE
  8
0
  6
CONTINUOUS
 62
       7
  5
235
 10
-40.11598345
 20
125.57906762
 30
0.0
 11
-41.11598345
 21
125.00171735
 31
0.0
  0
LINE
  8
0
  6
CONTINUOUS
 62
       7
  5
236
 10
-40.11598345
 20
127.57906761
 30
0.0
 11
-40.11598345
 21
125.57906762
 31
0.0
  0
LINE
  8
0
  6
CONTINUOUS
 62
       2
  5
237
 10
-40.11598345
 20
125.57906762
 30
0.0
 11
-40.11598345
 21
122.57906763
 31
0.0
  0
LINE
  8
0
  6
CONTINUOUS
 62
       7
  5
238
 10
-41.11598345
 20
125.00171735
 30
0.0
 11
-41.11598345
 21
122.57906763
 31
0.0
  0
LINE
  8
0
  6
CONTINUOUS
 62
       7
  5
239
 10
-41.11598345
 20
132.57906758
 30
0.0
 11
-41.11598345
 21
127.57906761
 31
0.0
  0
ARC
  8
0
  6
CONTINUOUS
 62
       7
  5
23A
 10
-41.10653265
 20
121.56961684
 30
0.0
 40
1.00949504
 50
90.53640571
 51
179.46359429
  0
LINE
  8
0
  6
CONTINUOUS
 62
       7
  5
23B
 10
-24.11598353
 20
113.57906758
 30
0.0
 11
-19.59745888
 21
113.57906758
 31
0.0
  0
LINE
  8
0
  6
CONTINUOUS
 62
       7
  5
23C
 10
-26.07893414
 20
125.57906762
 30
0.0
 11
-25.07893415
 21
125.00171735
 31
0.0
  0
LINE
  8
0
  6
CONTINUOUS
 62
       7
  5
23D
 10
-25.07893415
 20
125.00171735
 30
0.0
 11
-25.07893415
 21
122.57906763
 31
0.0
  0
ARC
  8
0
  6
CONTINUOUS
 62
       7
  5
23E
 10
-24.61598354
 20
109.07906769
 30
0.0
 40
1.5
 50
0.0
 51
90.0
  0
LINE
  8
0
  6
CONTINUOUS
 62
       7
  5
23F
 10
-24.11598353
 20
121.57906764
 30
0.0
 11
-24.11598353
 21
110.49328125
 31
0.0
  0
LINE
  8
0
  6
CONTINUOUS
 62
       7
  5
240
 10
-25.11598353
 20
132.57906758
 30
0.0
 11
-25.11598353
 21
127.57906761
 31
0.0
  0
LINE
  8
0
  6
CONTINUOUS
 62
       7
  5
241
 10
-26.11598352
 20
127.57906761
 30
0.0
 11
-26.11598352
 21
125.57906762
 31
0.0
  0
LINE
  8
0
  6
CONTINUOUS
 62
       2
  5
242
 10
-26.11598352
 20
125.57906762
 30
0.0
 11
-26.11598352
 21
122.57906763
 31
0.0
  0
LINE
  8
0
  6
CONTINUOUS
 62
       7
  5
243
 10
-24.09745885
 20
114.57906758
 30
0.0
 11
-23.09745886
 21
113.57906758
 31
0.0
  0
ARC
  8
0
  6
CONTINUOUS
 62
       7
  5
244
 10
-25.10677887
 20
121.5882723
 30
0.0
 40
0.99083809
 50
359.46772749
 51
90.53227251
  0
LINE
  8
0
  6
CONTINUOUS
 62
       7
  5
245
 10
-34.51167236
 20
95.1648542
 30
0.0
 11
-31.68324524
 21
97.99328133
 31
0.0
  0
LINE
  8
0
  6
CONTINUOUS
 62
       7
  5
246
 10
-34.49974216
 20
98.00511172
 30
0.0
 11
-31.68089005
 21
95.16721332
 31
0.0
  0
LINE
  8
0
  6
CONTINUOUS
 62
       7
  5
247
 10
-19.59745888
 20
50.06904339
 30
0.0
 11
-19.59745888
 21
113.57906758
 31
0.0
  0
LINE
  8
0
  6
CONTINUOUS
 62
       7
  5
248
 10
-23.11598354
 20
109.07906769
 30
0.0
 11
-23.11598354
 21
84.07906783
 31
0.0
  0
LINE
  8
0
  6
CONTINUOUS
 62
       7
  5
249
 10
-43.11598344
 20
109.07906769
 30
0.0
 11
-43.11598344
 21
84.07906783
 31
0.0
  0
LINE
  8
0
  6
CONTINUOUS
 62
       7
  5
24A
 10
-46.59745872
 20
60.06904332
 30
0.0
 11
-46.59745872
 21
113.57906758
 31
0.0
  0
LINE
  8
0
  6
CONTINUOUS
 62
       7
  5
24B
 10
-47.59745888
 20
50.06904339
 30
0.0
 11
-47.59745888
 21
113.57906758
 31
0.0
  0
LINE
  8
0
  6
CONTINUOUS
 62
       7
  5
24C
 10
-71.11598344
 20
109.07906769
 30
0.0
 11
-71.11598344
 21
84.07906783
 31
0.0
  0
LINE
  8
0
  6
CONTINUOUS
 62
       7
  5
24D
 10
-74.59745872
 20
60.06904332
 30
0.0
 11
-74.59745872
 21
113.57906758
 31
0.0
  0
LINE
  8
0
  6
CONTINUOUS
 62
       7
  5
24E
 10
-51.11598354
 20
109.07906769
 30
0.0
 11
-51.11598354
 21
84.07906783
 31
0.0
  0
TEXT
  8
0
  6
CONTINUOUS
 62
       7
  5
24F
 10
-268.27500006
 20
167.3499999
 30
0.0
 40
6.30000019
  1
MODEL:BM3L
 41
1.07142857
  7
MX_NOTE_STANDARD
 11
-268.27500006
 21
170.5
 31
0.0
 73
       2
  0
LINE
  8
0
  6
CONTINUOUS
 62
       7
  5
250
 10
282.09985352
 20
195.5
 30
0.0
 11
282.09985352
 21
-195.0
 31
0.0
  0
LINE
  8
0
  6
CONTINUOUS
 62
       7
  5
251
 10
-281.25
 20
195.5
 30
0.0
 11
282.09985352
 21
195.5
 31
0.0
  0
LINE
  8
0
  6
CONTINUOUS
 62
       7
  5
252
 10
-281.25
 20
195.5
 30
0.0
 11
-281.25
 21
-195.0
 31
0.0
  0
LINE
  8
0
  6
CONTINUOUS
 62
       7
  5
253
 10
-281.25
 20
-195.0
 30
0.0
 11
282.09985352
 21
-195.0
 31
0.0
  0
ENDSEC
  0
EOF
