  0
SECTION
  2
HEADER
  9
$ACADVER
  1
AC1009
  9
$DWGCODEPAGE
  3
dos932
  9
$INSBASE
 10
0.0
 20
0.0
 30
0.0
  9
$EXTMIN
 10
-138.3999939
 20
-94.80000305
 30
0.0
  9
$EXTMAX
 10
138.3500061
 20
94.5
 30
0.0
  9
$LIMMIN
 10
-138.3999939
 20
-94.80000305
  9
$LIMMAX
 10
138.3500061
 20
94.5
  9
$ORTHOMODE
 70
       0
  9
$REGENMODE
 70
       1
  9
$FILLMODE
 70
       1
  9
$QTEXTMODE
 70
       0
  9
$MIRRTEXT
 70
       1
  9
$DRAGMODE
 70
       2
  9
$LTSCALE
 40
1.0
  9
$OSMODE
 70
       0
  9
$ATTMODE
 70
       1
  9
$TEXTSIZE
 40
3.20000005
  9
$TRACEWID
 40
0.05
  9
$TEXTSTYLE
  7
MX_NOTE_STANDARD
  9
$CLAYER
  8
0
  9
$CELTYPE
  6
CONTINUOUS
  9
$CECOLOR
 62
     256
  9
$DIMSCALE
 40
1.0
  9
$DIMASZ
 40
2.5
  9
$DIMEXO
 40
1.5
  9
$DIMDLI
 40
3.75
  9
$DIMRND
 40
0.0
  9
$DIMDLE
 40
0.0
  9
$DIMEXE
 40
1.5
  9
$DIMTP
 40
0.0
  9
$DIMTM
 40
0.0
  9
$DIMTXT
 40
3.20000005
  9
$DIMCEN
 40
2.5
  9
$DIMTSZ
 40
0.0
  9
$DIMTOL
 70
       0
  9
$DIMLIM
 70
       0
  9
$DIMTIH
 70
       0
  9
$DIMTOH
 70
       0
  9
$DIMSE1
 70
       0
  9
$DIMSE2
 70
       0
  9
$DIMTAD
 70
       1
  9
$DIMZIN
 70
       8
  9
$DIMBLK
  1

  9
$DIMASO
 70
       1
  9
$DIMSHO
 70
       1
  9
$DIMPOST
  1

  9
$DIMAPOST
  1

  9
$DIMALT
 70
       0
  9
$DIMALTD
 70
       4
  9
$DIMALTF
 40
0.03937008
  9
$DIMLFAC
 40
1.0
  9
$DIMTOFL
 70
       1
  9
$DIMTVP
 40
0.0
  9
$DIMTIX
 70
       0
  9
$DIMSOXD
 70
       0
  9
$DIMSAH
 70
       0
  9
$DIMBLK1
  1

  9
$DIMBLK2
  1

  9
$DIMSTYLE
  2
MXDIMSTYLE
  9
$DIMCLRD
 70
       0
  9
$DIMCLRE
 70
       0
  9
$DIMCLRT
 70
       0
  9
$DIMTFAC
 40
1.0
  9
$DIMGAP
 40
1.0
  9
$LUNITS
 70
       2
  9
$LUPREC
 70
       4
  9
$AXISMODE
 70
       0
  9
$AXISUNIT
 10
0.0
 20
0.0
  9
$SKETCHINC
 40
0.1
  9
$FILLETRAD
 40
0.0
  9
$AUNITS
 70
       0
  9
$AUPREC
 70
       0
  9
$MENU
  1
acad
  9
$ELEVATION
 40
0.0
  9
$PELEVATION
 40
0.0
  9
$THICKNESS
 40
0.0
  9
$LIMCHECK
 70
       0
  9
$BLIPMODE
 70
       1
  9
$CHAMFERA
 40
0.0
  9
$CHAMFERB
 40
0.0
  9
$SKPOLY
 70
       0
  9
$TDCREATE
 40
2453762.361458333
  9
$TDUPDATE
 40
2453762.361458333
  9
$TDINDWG
 40
0.0000000000
  9
$TDUSRTIMER
 40
0.0000000000
  9
$USRTIMER
 70
       1
  9
$ANGBASE
 50
0.0
  9
$ANGDIR
 70
       0
  9
$PDMODE
 70
       0
  9
$PDSIZE
 40
0.0
  9
$PLINEWID
 40
0.0
  9
$COORDS
 70
       1
  9
$SPLFRAME
 70
       0
  9
$SPLINETYPE
 70
       6
  9
$SPLINESEGS
 70
       8
  9
$ATTDIA
 70
       0
  9
$ATTREQ
 70
       1
  9
$HANDLING
 70
       1
  9
$HANDSEED
  5
66
  9
$SURFTAB1
 70
       6
  9
$SURFTAB2
 70
       6
  9
$SURFTYPE
 70
       6
  9
$SURFU
 70
       6
  9
$SURFV
 70
       6
  9
$UCSNAME
  2

  9
$UCSORG
 10
0.0
 20
0.0
 30
0.0
  9
$UCSXDIR
 10
1.0
 20
0.0
 30
0.0
  9
$UCSYDIR
 10
0.0
 20
1.0
 30
0.0
  9
$PUCSNAME
  2

  9
$PUCSORG
 10
0.0
 20
0.0
 30
0.0
  9
$PUCSXDIR
 10
1.0
 20
0.0
 30
0.0
  9
$PUCSYDIR
 10
0.0
 20
1.0
 30
0.0
  9
$USERI1
 70
       0
  9
$USERI2
 70
       0
  9
$USERI3
 70
       0
  9
$USERI4
 70
       0
  9
$USERI5
 70
       0
  9
$USERR1
 40
0.0
  9
$USERR2
 40
0.0
  9
$USERR3
 40
0.0
  9
$USERR4
 40
0.0
  9
$USERR5
 40
0.0
  9
$WORLDVIEW
 70
       1
  9
$SHADEDGE
 70
       3
  9
$SHADEDIF
 70
      70
  9
$TILEMODE
 70
       1
  9
$MAXACTVP
 70
      16
  9
$PINSBASE
 10
0.0
 20
0.0
 30
0.0
  9
$PLIMCHECK
 70
       0
  9
$PEXTMIN
 10
1.00000000E+20
 20
1.00000000E+20
 30
1.00000000E+20
  9
$PEXTMAX
 10
-1.00000000E+20
 20
-1.00000000E+20
 30
-1.00000000E+20
  9
$PLIMMIN
 10
0.0
 20
0.0
  9
$PLIMMAX
 10
12.0
 20
9.0
  9
$UNITMODE
 70
       0
  9
$VISRETAIN
 70
       0
  9
$PLINEGEN
 70
       1
  9
$PSLTSCALE
 70
       0
  9
$TREEDEPTH
 70
    3020
  9
$DWGCODEPAGE
  3
dos932
  0
ENDSEC
  0
SECTION
  2
TABLES
  0
TABLE
  2
VPORT
 70
       1
  0
VPORT
  2
*ACTIVE
 70
       0
 10
0.0
 20
0.0
 11
1.0
 21
1.0
 12
-0.0249939
 22
-0.15000153
 13
0.0
 23
0.0
 14
1.0
 24
1.0
 15
0.0
 25
0.0
 16
0.0
 26
0.0
 36
1.0
 17
0.0
 27
0.0
 37
0.0
 40
191.19300308
 41
1.73205081
 42
50.0
 43
0.0
 44
0.0
 50
0.0
 51
0.0
 71
       0
 72
     100
 73
       1
 74
       1
 75
       0
 76
       0
 77
       0
 78
       0
  0
ENDTAB
  0
TABLE
  2
LTYPE
 70
       2
  0
LTYPE
  2
CONTINUOUS
 70
      64
  3
Solid line
 72
      65
 73
       0
 40
0.0
  0
LTYPE
  2
DASHED
 70
      64
  3
Dashed __ __ __ __ __ __ __ __ __ __ __ __ __ _
 72
      65
 73
       2
 40
4.0
 49
2.0
 49
-2.0
  0
ENDTAB
  0
TABLE
  2
LAYER
 70
       2
  0
LAYER
  2
0
 70
       0
 62
       7
  6
CONTINUOUS
  0
LAYER
  2
DEFPOINTS
 70
       0
 62
       7
  6
CONTINUOUS
  0
ENDTAB
  0
TABLE
  2
STYLE
 70
       1
  0
STYLE
  2
MX_NOTE_STANDARD
 70
       0
 40
0.0
 41
1.0
 50
0.0
 71
       0
 42
3.20000005
  3
txt.shx
  4
extfont.shx
  0
ENDTAB
  0
TABLE
  2
VIEW
 70
       0
  0
ENDTAB
  0
TABLE
  2
UCS
 70
       0
  0
ENDTAB
  0
TABLE
  2
APPID
 70
       1
  0
APPID
  2
ACAD
 70
       0
  0
ENDTAB
  0
TABLE
  2
DIMSTYLE
 70
       1
  0
DIMSTYLE
  2
MXDIMSTYLE
 70
       0
  3

  4

  5

  6

  7

 40
1.0
 41
2.5
 42
1.5
 43
3.75
 44
1.5
 45
0.0
 46
0.0
 47
0.0
 48
0.0
 71
       0
 72
       0
 73
       0
 74
       0
 75
       0
 76
       0
 77
       1
 78
       8
140
3.20000005
141
2.5
142
0.0
143
0.03937008
144
1.0
145
0.0
146
1.0
147
1.0
170
       0
171
       4
172
       1
173
       0
174
       0
175
       0
176
       0
177
       0
178
       0
  0
ENDTAB
  0
ENDSEC
  0
SECTION
  2
BLOCKS
  0
ENDSEC
  0
SECTION
  2
ENTITIES
  0
LINE
  8
0
  6
CONTINUOUS
 62
       7
  5
1E
 10
10.0
 20
-4.04
 30
0.0
 11
13.5
 21
-2.018
 31
0.0
  0
LINE
  8
0
  6
CONTINUOUS
 62
       7
  5
1F
 10
6.5
 20
-2.018
 30
0.0
 11
10.0
 21
-4.04
 31
0.0
  0
LINE
  8
0
  6
CONTINUOUS
 62
       7
  5
20
 10
6.5
 20
2.022
 30
0.0
 11
6.5
 21
-2.018
 31
0.0
  0
LINE
  8
0
  6
CONTINUOUS
 62
       7
  5
21
 10
10.0
 20
4.042
 30
0.0
 11
6.5
 21
2.022
 31
0.0
  0
LINE
  8
0
  6
CONTINUOUS
 62
       7
  5
22
 10
13.5
 20
2.022
 30
0.0
 11
10.0
 21
4.042
 31
0.0
  0
LINE
  8
0
  6
CONTINUOUS
 62
       7
  5
23
 10
13.5
 20
-2.018
 30
0.0
 11
13.5
 21
2.022
 31
0.0
  0
LINE
  8
0
  6
CONTINUOUS
 62
       2
  5
24
 10
10.0
 20
4.44464635
 30
0.0
 11
10.0
 21
-4.44464635
 31
0.0
  0
LINE
  8
0
  6
CONTINUOUS
 62
       2
  5
25
 10
14.44464635
 20
0.0
 30
0.0
 11
5.55535365
 21
0.0
 31
0.0
  0
CIRCLE
  8
0
  6
CONTINUOUS
 62
       7
  5
26
 10
10.0
 20
0.00133359
 30
0.0
 40
3.5
  0
LINE
  8
0
  6
CONTINUOUS
 62
       2
  5
27
 10
-9.36
 20
0.0
 30
0.0
 11
-24.002
 21
0.0
 31
0.0
  0
LINE
  8
0
  6
CONTINUOUS
 62
       7
  5
28
 10
-23.36
 20
2.0
 30
0.0
 11
-23.36
 21
-2.0
 31
0.0
  0
LINE
  8
0
  6
CONTINUOUS
 62
       7
  5
29
 10
-19.36
 20
-3.9
 30
0.0
 11
-19.36
 21
3.9
 31
0.0
  0
LINE
  8
0
  6
CONTINUOUS
 62
       7
  5
2A
 10
-16.86
 20
-3.5
 30
0.0
 11
-16.86
 21
3.5
 31
0.0
  0
LINE
  8
0
  6
CONTINUOUS
 62
       7
  5
2B
 10
-20.0
 20
2.0
 30
0.0
 11
-20.86
 21
2.0
 31
0.0
  0
LINE
  8
0
  6
CONTINUOUS
 62
       7
  5
2C
 10
-20.0
 20
-2.0
 30
0.0
 11
-20.86
 21
-2.0
 31
0.0
  0
LINE
  8
0
  6
CONTINUOUS
 62
       7
  5
2D
 10
-20.86
 20
-2.498
 30
0.0
 11
-20.86
 21
2.5
 31
0.0
  0
LINE
  8
0
  6
CONTINUOUS
 62
       7
  5
2E
 10
-20.86
 20
2.5
 30
0.0
 11
-22.86
 21
2.5
 31
0.0
  0
LINE
  8
0
  6
CONTINUOUS
 62
       7
  5
2F
 10
-17.17176915
 20
-4.04
 30
0.0
 11
-19.04823085
 21
-4.04
 31
0.0
  0
LINE
  8
0
  6
DASHED
 62
       2
  5
31
 10
-9.86
 20
0.9
 30
0.0
 11
-23.36
 21
0.9
 31
0.0
  0
LINE
  8
0
  6
DASHED
 62
       2
  5
32
 10
-9.86
 20
-0.9
 30
0.0
 11
-23.36
 21
-0.9
 31
0.0
  0
LINE
  8
0
  6
CONTINUOUS
 62
       7
  5
33
 10
-14.66
 20
1.4
 30
0.0
 11
-16.36
 21
1.4
 31
0.0
  0
LINE
  8
0
  6
CONTINUOUS
 62
       7
  5
34
 10
-17.17292385
 20
4.042
 30
0.0
 11
-19.04707615
 21
4.042
 31
0.0
  0
LINE
  8
0
  6
CONTINUOUS
 62
       2
  5
35
 10
-20.86
 20
2.1
 30
0.0
 11
-23.26
 21
2.1
 31
0.0
  0
LINE
  8
0
  6
CONTINUOUS
 62
       7
  5
36
 10
-14.66
 20
-1.4
 30
0.0
 11
-16.36
 21
-1.4
 31
0.0
  0
LINE
  8
0
  6
CONTINUOUS
 62
       7
  5
37
 10
-22.86
 20
2.5
 30
0.0
 11
-23.36
 21
2.0
 31
0.0
  0
ARC
  8
0
  6
CONTINUOUS
 62
       7
  5
38
 10
-16.36083134
 20
-1.89916866
 30
0.0
 40
0.49916935
 50
89.904577
 51
180.095423
  0
ARC
  8
0
  6
CONTINUOUS
 62
       7
  5
39
 10
-16.35916728
 20
1.90083272
 30
0.0
 40
0.50083342
 50
180.09526434
 51
269.90473566
  0
LINE
  8
0
  6
CONTINUOUS
 62
       7
  5
3A
 10
-20.0
 20
-3.9
 30
0.0
 11
-20.0
 21
3.9
 31
0.0
  0
LINE
  8
0
  6
CONTINUOUS
 62
       7
  5
3B
 10
-19.36
 20
3.9
 30
0.0
 11
-20.0
 21
3.9
 31
0.0
  0
LINE
  8
0
  6
CONTINUOUS
 62
       7
  5
3C
 10
-19.36
 20
-3.9
 30
0.0
 11
-20.0
 21
-3.9
 31
0.0
  0
ARC
  8
0
  6
CONTINUOUS
 62
       7
  5
3D
 10
-18.64934475
 20
3.03155798
 30
0.0
 40
1.7893448
 50
325.65286965
 51
0.01415369
  0
ARC
  8
0
  6
CONTINUOUS
 62
       7
  5
3E
 10
-23.54739688
 20
0.002
 30
0.0
 40
6.68775638
 50
342.41955829
 51
17.58044171
  0
LINE
  8
0
  6
CONTINUOUS
 62
       7
  5
3F
 10
-19.046
 20
2.022
 30
0.0
 11
-17.172
 21
2.022
 31
0.0
  0
ARC
  8
0
  6
CONTINUOUS
 62
       7
  5
40
 10
-17.57147731
 20
3.03422587
 30
0.0
 40
1.78852407
 50
180.07130612
 51
214.46870151
  0
ARC
  8
0
  6
CONTINUOUS
 62
       7
  5
41
 10
-12.67259823
 20
0.002
 30
0.0
 40
6.68585447
 50
162.41439407
 51
197.58560593
  0
ARC
  8
0
  6
CONTINUOUS
 62
       7
  5
42
 10
-17.57109969
 20
-3.03034326
 30
0.0
 40
1.78890184
 50
145.53504356
 51
179.92494881
  0
LINE
  8
0
  6
CONTINUOUS
 62
       7
  5
43
 10
-19.046
 20
-2.018
 30
0.0
 11
-17.172
 21
-2.018
 31
0.0
  0
ARC
  8
0
  6
CONTINUOUS
 62
       7
  5
44
 10
-18.64971947
 20
-3.02767374
 30
0.0
 40
1.7897195
 50
359.98955504
 51
34.34342162
  0
LINE
  8
0
  6
CONTINUOUS
 62
       7
  5
45
 10
-22.86
 20
2.5
 30
0.0
 11
-22.86
 21
-2.498
 31
0.0
  0
LINE
  8
0
  6
CONTINUOUS
 62
       7
  5
46
 10
-20.86
 20
-2.5
 30
0.0
 11
-22.86
 21
-2.5
 31
0.0
  0
LINE
  8
0
  6
CONTINUOUS
 62
       2
  5
47
 10
-20.86
 20
-2.1
 30
0.0
 11
-23.26
 21
-2.1
 31
0.0
  0
LINE
  8
0
  6
CONTINUOUS
 62
       7
  5
48
 10
-22.86
 20
-2.5
 30
0.0
 11
-23.36
 21
-2.0
 31
0.0
  0
LINE
  8
0
  6
CONTINUOUS
 62
       7
  5
49
 10
-14.66
 20
-1.75
 30
0.0
 11
-14.66
 21
1.75
 31
0.0
  0
LINE
  8
0
  6
CONTINUOUS
 62
       7
  5
4A
 10
-14.24494864
 20
1.75
 30
0.0
 11
-14.66
 21
1.75
 31
0.0
  0
LINE
  8
0
  6
CONTINUOUS
 62
       7
  5
4B
 10
-12.26
 20
1.4
 30
0.0
 11
-14.24494864
 21
1.75
 31
0.0
  0
LINE
  8
0
  6
CONTINUOUS
 62
       7
  5
4C
 10
-14.24494864
 20
-1.75
 30
0.0
 11
-14.66
 21
-1.75
 31
0.0
  0
LINE
  8
0
  6
CONTINUOUS
 62
       7
  5
4D
 10
-12.26
 20
-1.4
 30
0.0
 11
-14.24494864
 21
-1.75
 31
0.0
  0
LINE
  8
0
  6
CONTINUOUS
 62
       7
  5
4E
 10
-14.24494864
 20
-1.75
 30
0.0
 11
-14.24494864
 21
1.75
 31
0.0
  0
LINE
  8
0
  6
CONTINUOUS
 62
       7
  5
4F
 10
-12.26
 20
-1.75
 30
0.0
 11
-12.26
 21
1.75
 31
0.0
  0
LINE
  8
0
  6
CONTINUOUS
 62
       7
  5
50
 10
-10.27317591
 20
1.47285406
 30
0.0
 11
-11.84494864
 21
1.75
 31
0.0
  0
LINE
  8
0
  6
CONTINUOUS
 62
       7
  5
51
 10
-11.84494864
 20
-1.75
 30
0.0
 11
-11.84494864
 21
1.75
 31
0.0
  0
LINE
  8
0
  6
CONTINUOUS
 62
       7
  5
52
 10
-11.84494864
 20
1.75
 30
0.0
 11
-12.26
 21
1.75
 31
0.0
  0
LINE
  8
0
  6
CONTINUOUS
 62
       7
  5
53
 10
-11.84494864
 20
-1.75
 30
0.0
 11
-12.26
 21
-1.75
 31
0.0
  0
LINE
  8
0
  6
CONTINUOUS
 62
       7
  5
54
 10
-10.27317591
 20
-1.47285406
 30
0.0
 11
-11.84494864
 21
-1.75
 31
0.0
  0
LINE
  8
0
  6
CONTINUOUS
 62
       7
  5
55
 10
-9.86
 20
-0.98045018
 30
0.0
 11
-9.86
 21
0.98045018
 31
0.0
  0
ARC
  8
0
  6
CONTINUOUS
 62
       7
  5
56
 10
-10.36
 20
0.98045018
 30
0.0
 40
0.5
 50
360.0
 51
80.0
  0
ARC
  8
0
  6
CONTINUOUS
 62
       7
  5
57
 10
-10.36
 20
-0.98045018
 30
0.0
 40
0.5
 50
280.0
 51
0.0
  0
CIRCLE
  8
0
  6
CONTINUOUS
 62
       7
  5
58
 10
10.0
 20
0.0
 30
0.0
 40
1.75
  0
CIRCLE
  8
0
  6
CONTINUOUS
 62
       7
  5
59
 10
10.0
 20
0.0
 30
0.0
 40
0.9
  0
CIRCLE
  8
0
  6
CONTINUOUS
 62
       7
  5
5A
 10
10.0
 20
0.0
 30
0.0
 40
1.47285406
  0
LINE
  8
0
  6
CONTINUOUS
 62
       7
  5
5B
 10
-17.17292385
 20
4.042
 30
0.0
 11
-16.86
 21
3.5
 31
0.0
  0
LINE
  8
0
  6
CONTINUOUS
 62
       7
  5
5C
 10
-19.36
 20
3.5
 30
0.0
 11
-19.04707615
 21
4.042
 31
0.0
  0
LINE
  8
0
  6
CONTINUOUS
 62
       7
  5
5D
 10
-16.86
 20
-3.5
 30
0.0
 11
-17.17176915
 21
-4.04
 31
0.0
  0
LINE
  8
0
  6
CONTINUOUS
 62
       7
  5
5E
 10
-19.04823085
 20
-4.04
 30
0.0
 11
-19.36
 21
-3.5
 31
0.0
  0
LINE
  8
0
  6
CONTINUOUS
 62
       7
  5
5F
 10
-138.3999939
 20
94.5
 30
0.0
 11
138.3500061
 21
94.5
 31
0.0
  0
LINE
  8
0
  6
CONTINUOUS
 62
       7
  5
60
 10
138.3500061
 20
94.5
 30
0.0
 11
138.3500061
 21
-94.80000305
 31
0.0
  0
LINE
  8
0
  6
CONTINUOUS
 62
       7
  5
61
 10
-138.3999939
 20
-94.80000305
 30
0.0
 11
138.3500061
 21
-94.80000305
 31
0.0
  0
LINE
  8
0
  6
CONTINUOUS
 62
       7
  5
62
 10
-138.3999939
 20
94.5
 30
0.0
 11
-138.3999939
 21
-94.80000305
 31
0.0
  0
TEXT
  8
0
  6
CONTINUOUS
 62
       7
  5
63
 10
-129.42399391
 20
72.89999998
 30
0.0
 40
3.20000005
  1
MODEL:BF5
 41
1.08
  7
MX_NOTE_STANDARD
 11
-129.42399391
 21
74.5
 31
0.0
 73
       2
  0
ENDSEC
  0
EOF
