  0
SECTION
  2
HEADER
  9
$ACADVER
  1
AC1003
  9
$EXTMIN
 10
-1.94250000E+02
 20
-1.33500000E+02
  9
$EXTMAX
 10
1.94800003E+02
 20
1.32600006E+02
  9
$LIMMIN
 10
-1.94251000E+02
 20
-1.33501000E+02
  9
$LIMMAX
 10
1.94801003E+02
 20
1.32601006E+02
  9
$SNAPUNIT
 10
1
 20
1
  9
$SNAPBASE
 10
0
 20
0
  9
$GRIDMODE
 70
0
  9
$GRIDUNIT
 10
0
 20
0
  9
$LTSCALE
 40
6.48416672E+00
  9
$TEXTSIZE
 40
3.2
  9
$DIMTAD
 70
0
  9
$LUNITS
 70
2
  9
$LUPREC
 70
4
  9
$FILLETRAD
 40
0
  9
$AUNITS
 70
0
  9
$AUPREC
 70
0
  0
ENDSEC
  0
SECTION
  2
TABLES
  0
TABLE
  2
LTYPE
 70
2
  0
LTYPE
  2
CONTINUOUS
 70
64
  3
Solid-Line
 72
65
 73
0
 40
0
  0
LTYPE
  2
DASHED
 70
64
  3
DASHED
 72
65
 73
2
 40
.75
 49
.5
 49
-.25
  0
LTYPE
  2
HIDDEN
 70
64
  3
HIDDEN
 72
65
 73
2
 40
.375
 49
.25
 49
-.125
  0
LTYPE
  2
CENTER
 70
64
  3
CENTER
 72
65
 73
4
 40
2
 49
1.25
 49
-.25
 49
.25
 49
-.25
  0
LTYPE
  2
PHANTOM
 70
64
  3
PHANTOM
 72
65
 73
6
 40
2.5
 49
1.25
 49
-.25
 49
.25
 49
-.25
 49
.25
 49
-.25
  0
ENDTAB
  0
TABLE
  2
LAYER
 70
1
  0
LAYER
  2
0
 70
0
 62
7
  6
CONTINUOUS
 0
ENDTAB
  0
TABLE
  2
STYLE
 70
2
  0
STYLE
  2
MONOTXT
 70
0
 40
0
 41
1
 50
0
 71
0
 42
.2
  3
monotxt
  0
STYLE
  2
BIGFONT
 70
0
 40
0
 41
1
 50
0
 71
0
 42
.2
  3
txt
  4
bigfont
  0
ENDTAB
  0
ENDSEC
  0
SECTION
  2
BLOCKS
  0
BLOCK
  8
0
  2
ARROW
 70
10
 10
0
 20
0
  0
POLYLINE
  8
0
  6
CONTINUOUS
 62
0
 66
1
  0
VERTEX
  8
0
  6
CONTINUOUS
 62
0
 10
3.21127505E+00
 20
8.60458555E-01
  0
VERTEX
  8
0
  6
CONTINUOUS
 62
0
 10
0.0
 20
0.0
  0
VERTEX
  8
0
  6
CONTINUOUS
 62
0
 10
3.21127505E+00
 20
-8.60458555E-01
  0
SEQEND
  8
0
  0
ENDBLK
  8
0
  0
ENDSEC
  0
SECTION
  2
ENTITIES
  0
LINE
  8
0
  6
PHANTOM
 10
-7.76933144E+00
 20
1.49649995E+01
 11
-7.76933144E+00
 21
6.02631813E+01
  0
ARC
  8
0
 62
4
 10
-5.41727430E+01
 20
3.13149997E+01
 40
3.50000191E-01
 50
1.80000031E+02
 51
2.69999969E+02
  0
ARC
  8
0
 62
4
 10
-5.41727430E+01
 20
3.76149993E+01
 40
3.50000191E-01
 50
9.00000311E+01
 51
1.79999969E+02
  0
LINE
  8
0
 62
4
 10
-5.41727432E+01
 20
3.79649995E+01
 11
-5.41727432E+01
 21
3.09649995E+01
  0
LINE
  8
0
 62
4
 10
-5.45227432E+01
 20
3.76149995E+01
 11
-5.45227432E+01
 21
3.13149995E+01
  0
ARC
  8
0
 62
4
 10
-5.28727403E+01
 20
3.13149997E+01
 40
3.50000191E-01
 50
2.70000031E+02
 51
3.59999969E+02
  0
ARC
  8
0
 62
4
 10
-5.28727403E+01
 20
3.76149993E+01
 40
3.50000191E-01
 50
3.12237134E-05
 51
8.99999687E+01
  0
LINE
  8
0
 62
4
 10
-5.28727401E+01
 20
3.79649995E+01
 11
-5.28727401E+01
 21
3.09649995E+01
  0
LINE
  8
0
 62
4
 10
-5.25227401E+01
 20
3.76149995E+01
 11
-5.25227401E+01
 21
3.13149995E+01
  0
LINE
  8
0
 62
6
 10
2.00526306E+01
 20
2.94649995E+01
 11
2.17846815E+01
 21
3.24649995E+01
  0
LINE
  8
0
 62
6
 10
-9.97517111E+00
 20
3.64649995E+01
 11
-8.24312031E+00
 21
3.94649995E+01
  0
LINE
  8
0
 62
4
 10
5.31659969E+00
 20
2.80256597E+01
 11
7.43792004E+00
 21
2.59043393E+01
  0
LINE
  8
0
 62
4
 10
-2.06834003E+01
 20
4.30256597E+01
 11
-1.85620800E+01
 21
4.09043393E+01
  0
LINE
  8
0
 62
4
 10
-2.06834003E+01
 20
4.09043393E+01
 11
-1.85620800E+01
 21
4.30256597E+01
  0
LINE
  8
0
 62
4
 10
5.31659969E+00
 20
2.59043393E+01
 11
7.43792004E+00
 21
2.80256597E+01
  0
LINE
  8
0
  6
CENTER
 62
2
 10
-6.21227401E+01
 20
3.44649995E+01
 11
6.98772599E+01
 21
3.44649995E+01
  0
LINE
  8
0
 62
7
 10
6.68772599E+01
 20
4.64649995E+01
 11
6.68772599E+01
 21
2.24649995E+01
  0
LINE
  8
0
 62
7
 10
-3.61227401E+01
 20
4.64649995E+01
 11
-3.61227401E+01
 21
1.49649995E+01
  0
LINE
  8
0
 62
7
 10
-3.61227401E+01
 20
4.64649995E+01
 11
-2.33727401E+01
 21
4.64649995E+01
  0
LINE
  8
0
 62
7
 10
-4.36227401E+01
 20
4.29649995E+01
 11
-3.76227401E+01
 21
4.29649995E+01
  0
LINE
  8
0
 62
7
 10
-4.36227401E+01
 20
2.29649995E+01
 11
-3.76227401E+01
 21
2.29649995E+01
  0
LINE
  8
0
 62
7
 10
-3.01227401E+01
 20
2.24649995E+01
 11
2.62725986E+00
 21
2.24649995E+01
  0
LINE
  8
0
 62
7
 10
-4.36227401E+01
 20
4.29649995E+01
 11
-4.36227401E+01
 21
2.29649995E+01
  0
LINE
  8
0
 62
7
 10
-3.76227401E+01
 20
4.29649995E+01
 11
-3.76227401E+01
 21
2.29649995E+01
  0
LINE
  8
0
 62
7
 10
-3.01227401E+01
 20
4.64649995E+01
 11
-3.01227401E+01
 21
3.99649995E+01
  0
LINE
  8
0
 62
7
 10
-3.29227401E+01
 20
2.89649995E+01
 11
-3.29227401E+01
 21
2.19649995E+01
  0
LINE
  8
0
 62
7
 10
-3.61227401E+01
 20
2.89649995E+01
 11
-3.29227401E+01
 21
2.89649995E+01
  0
LINE
  8
0
 62
7
 10
-3.59227401E+01
 20
2.82149995E+01
 11
-3.29227401E+01
 21
2.82149995E+01
  0
LINE
  8
0
 62
7
 10
-3.59227401E+01
 20
2.82149995E+01
 11
-3.59227401E+01
 21
2.27149995E+01
  0
LINE
  8
0
 62
7
 10
-3.59227401E+01
 20
2.27149995E+01
 11
-3.29227401E+01
 21
2.27149995E+01
  0
LINE
  8
0
 62
7
 10
-3.76227401E+01
 20
2.69649995E+01
 11
-3.61227401E+01
 21
2.69649995E+01
  0
LINE
  8
0
 62
7
 10
-3.76227401E+01
 20
2.39649995E+01
 11
-3.61227401E+01
 21
2.39649995E+01
  0
LINE
  8
0
 62
4
 10
-4.76227401E+01
 20
3.64649995E+01
 11
-4.76227401E+01
 21
3.24649995E+01
  0
LINE
  8
0
 62
4
 10
-4.71227401E+01
 20
3.59649995E+01
 11
-4.36227401E+01
 21
3.59649995E+01
  0
LINE
  8
0
 62
4
 10
-4.71227401E+01
 20
3.29649995E+01
 11
-4.36227401E+01
 21
3.29649995E+01
  0
LINE
  8
0
 62
4
 10
-4.71227401E+01
 20
3.19649995E+01
 11
-4.36227401E+01
 21
3.19649995E+01
  0
LINE
  8
0
 62
4
 10
-4.71227401E+01
 20
3.69649995E+01
 11
-4.36227401E+01
 21
3.69649995E+01
  0
LINE
  8
0
 62
4
 10
-4.76227401E+01
 20
3.64649995E+01
 11
-4.71227401E+01
 21
3.69649995E+01
  0
LINE
  8
0
 62
4
 10
-4.76227401E+01
 20
3.24649995E+01
 11
-4.71227401E+01
 21
3.19649995E+01
  0
LINE
  8
0
 62
4
 10
-4.71227401E+01
 20
3.69649995E+01
 11
-4.71227401E+01
 21
3.59649995E+01
  0
LINE
  8
0
 62
4
 10
-4.71227401E+01
 20
3.29649995E+01
 11
-4.71227401E+01
 21
3.19649995E+01
  0
LINE
  8
0
 62
7
 10
-3.76227401E+01
 20
3.69649995E+01
 11
-3.71227401E+01
 21
3.69649995E+01
  0
LINE
  8
0
 62
7
 10
-3.76227401E+01
 20
3.19649995E+01
 11
-3.71227401E+01
 21
3.19649995E+01
  0
LINE
  8
0
 62
6
 10
-4.71227401E+01
 20
3.59649995E+01
 11
-4.36227401E+01
 21
3.29649995E+01
  0
LINE
  8
0
 62
6
 10
-4.71227401E+01
 20
3.29649995E+01
 11
-4.36227401E+01
 21
3.59649995E+01
  0
LINE
  8
0
  6
CENTER
 62
2
 10
8.37725986E+00
 20
4.24649995E+01
 11
1.73772599E+01
 21
4.24649995E+01
  0
LINE
  8
0
  6
CENTER
 62
2
 10
1.28772599E+01
 20
4.69649995E+01
 11
1.28772599E+01
 21
3.79649995E+01
  0
LINE
  8
0
  6
CENTER
 62
2
 10
8.37725986E+00
 20
2.64649995E+01
 11
1.73772599E+01
 21
2.64649995E+01
  0
LINE
  8
0
  6
CENTER
 62
2
 10
1.28772599E+01
 20
2.19649995E+01
 11
1.28772599E+01
 21
3.09649995E+01
  0
LINE
  8
0
 62
4
 10
-5.91227401E+01
 20
3.59649995E+01
 11
-5.91227401E+01
 21
3.29649995E+01
  0
LINE
  8
0
 62
4
 10
-4.91227401E+01
 20
3.64649995E+01
 11
-4.91227401E+01
 21
3.24649995E+01
  0
LINE
  8
0
 62
4
 10
-5.86227401E+01
 20
3.24649995E+01
 11
-5.45227401E+01
 21
3.24649995E+01
  0
LINE
  8
0
 62
4
 10
-5.86227401E+01
 20
3.64649995E+01
 11
-5.45227401E+01
 21
3.64649995E+01
  0
LINE
  8
0
 62
4
 10
-5.91227401E+01
 20
3.59649995E+01
 11
-5.86227401E+01
 21
3.64649995E+01
  0
LINE
  8
0
 62
4
 10
-5.91227401E+01
 20
3.29649995E+01
 11
-5.86227401E+01
 21
3.24649995E+01
  0
LINE
  8
0
 62
4
 10
-5.86227401E+01
 20
3.64649995E+01
 11
-5.86227401E+01
 21
3.24649995E+01
  0
LINE
  8
0
 62
6
 10
-5.89727401E+01
 20
3.61149995E+01
 11
-5.45227401E+01
 21
3.61149995E+01
  0
LINE
  8
0
 62
6
 10
-5.89727401E+01
 20
3.28149995E+01
 11
-5.45227401E+01
 21
3.28149995E+01
  0
LINE
  8
0
 62
6
 10
-4.91227401E+01
 20
3.61149995E+01
 11
-4.85227401E+01
 21
3.64649995E+01
  0
LINE
  8
0
 62
6
 10
-4.91227401E+01
 20
3.28149995E+01
 11
-4.85227401E+01
 21
3.24649995E+01
  0
LINE
  8
0
 62
4
 10
-5.01227401E+01
 20
3.64649995E+01
 11
-4.76227401E+01
 21
3.64649995E+01
  0
LINE
  8
0
 62
6
 10
-5.01227401E+01
 20
3.61149995E+01
 11
-4.91227401E+01
 21
3.61149995E+01
  0
LINE
  8
0
 62
6
 10
-5.01227401E+01
 20
3.28149995E+01
 11
-4.91227401E+01
 21
3.28149995E+01
  0
LINE
  8
0
 62
4
 10
-5.01227401E+01
 20
3.24649995E+01
 11
-4.76227401E+01
 21
3.24649995E+01
  0
LINE
  8
0
 62
4
 10
-5.41727401E+01
 20
3.94649995E+01
 11
-5.41727401E+01
 21
2.94649995E+01
  0
LINE
  8
0
 62
4
 10
-5.28727401E+01
 20
3.94649995E+01
 11
-5.28727401E+01
 21
2.94649995E+01
  0
LINE
  8
0
 62
4
 10
-5.41727401E+01
 20
3.94649995E+01
 11
-5.28727401E+01
 21
3.94649995E+01
  0
LINE
  8
0
 62
4
 10
-5.41727401E+01
 20
2.94649995E+01
 11
-5.28727401E+01
 21
2.94649995E+01
  0
LINE
  8
0
 62
4
 10
-5.22127401E+01
 20
3.85149995E+01
 11
-5.04427401E+01
 21
3.85149995E+01
  0
LINE
  8
0
 62
4
 10
-5.25227401E+01
 20
3.79649995E+01
 11
-5.22127401E+01
 21
3.85149995E+01
  0
LINE
  8
0
 62
4
 10
-5.25227401E+01
 20
3.79649995E+01
 11
-5.25227401E+01
 21
3.09649995E+01
  0
LINE
  8
0
 62
4
 10
-5.22127401E+01
 20
3.64949995E+01
 11
-5.04427401E+01
 21
3.64949995E+01
  0
LINE
  8
0
 62
4
 10
-5.22127401E+01
 20
3.24449995E+01
 11
-5.04427401E+01
 21
3.24449995E+01
  0
LINE
  8
0
 62
4
 10
-5.22127401E+01
 20
3.04249995E+01
 11
-5.04427401E+01
 21
3.04249995E+01
  0
LINE
  8
0
 62
4
 10
-5.25227401E+01
 20
3.09649995E+01
 11
-5.22127401E+01
 21
3.04249995E+01
  0
LINE
  8
0
 62
4
 10
-5.01227401E+01
 20
3.09649995E+01
 11
-5.04427401E+01
 21
3.04249995E+01
  0
LINE
  8
0
 62
4
 10
-5.01227401E+01
 20
3.79649995E+01
 11
-5.04427401E+01
 21
3.85149995E+01
  0
LINE
  8
0
 62
4
 10
-5.01227401E+01
 20
3.79649995E+01
 11
-5.01227401E+01
 21
3.09649995E+01
  0
LINE
  8
0
 62
7
 10
-3.68227401E+01
 20
3.84649995E+01
 11
-3.71227401E+01
 21
3.83849995E+01
  0
LINE
  8
0
 62
7
 10
-3.68227401E+01
 20
3.04649995E+01
 11
-3.71227401E+01
 21
3.05449995E+01
  0
LINE
  8
0
 62
7
 10
-3.71227401E+01
 20
3.83849995E+01
 11
-3.71227401E+01
 21
3.05449995E+01
  0
LINE
  8
0
 62
7
 10
-3.68227401E+01
 20
3.04649995E+01
 11
-3.61227401E+01
 21
3.04649995E+01
  0
LINE
  8
0
 62
7
 10
-3.68227401E+01
 20
3.84649995E+01
 11
-3.61227401E+01
 21
3.84649995E+01
  0
LINE
  8
0
 62
4
 10
-3.28727401E+01
 20
3.99649995E+01
 11
-2.33727401E+01
 21
3.99649995E+01
  0
LINE
  8
0
 62
4
 10
-3.28727401E+01
 20
3.59649995E+01
 11
-2.33727401E+01
 21
3.59649995E+01
  0
LINE
  8
0
 62
4
 10
-3.28727401E+01
 20
3.99649995E+01
 11
-3.28727401E+01
 21
3.59649995E+01
  0
LINE
  8
0
 62
4
 10
-1.08727401E+01
 20
3.99649995E+01
 11
-1.08727401E+01
 21
3.59649995E+01
  0
LINE
  8
0
 62
4
 10
-1.58727401E+01
 20
4.74649995E+01
 11
-1.58727401E+01
 21
3.51649995E+01
  0
LINE
  8
0
 62
4
 10
-2.33727401E+01
 20
4.74649995E+01
 11
-2.33727401E+01
 21
3.51649995E+01
  0
LINE
  8
0
 62
4
 10
-2.26227401E+01
 20
4.46649995E+01
 11
-2.26227401E+01
 21
4.29249995E+01
  0
LINE
  8
0
 62
4
 10
-1.66227401E+01
 20
4.46649995E+01
 11
-1.66227401E+01
 21
4.29249995E+01
  0
LINE
  8
0
 62
4
 10
-1.58727401E+01
 20
3.59649995E+01
 11
-1.08727401E+01
 21
3.59649995E+01
  0
LINE
  8
0
 62
4
 10
-1.58727401E+01
 20
3.99649995E+01
 11
-1.08727401E+01
 21
3.99649995E+01
  0
LINE
  8
0
 62
4
 10
-2.33727401E+01
 20
4.74649995E+01
 11
-1.58727401E+01
 21
4.74649995E+01
  0
LINE
  8
0
 62
4
 10
-2.33727401E+01
 20
4.59649995E+01
 11
-1.58727401E+01
 21
4.59649995E+01
  0
LINE
  8
0
 62
4
 10
-2.26227401E+01
 20
3.59649995E+01
 11
-1.66227401E+01
 21
3.59649995E+01
  0
LINE
  8
0
 62
4
 10
-2.26227401E+01
 20
4.46649995E+01
 11
-2.12527401E+01
 21
4.46649995E+01
  0
LINE
  8
0
 62
4
 10
-2.11227401E+01
 20
4.51649995E+01
 11
-1.81227401E+01
 21
4.51649995E+01
  0
LINE
  8
0
 62
4
 10
-2.11227401E+01
 20
4.51649995E+01
 11
-2.11227401E+01
 21
4.47349995E+01
  0
LINE
  8
0
 62
4
 10
-1.81227401E+01
 20
4.51649995E+01
 11
-1.81227401E+01
 21
4.47349995E+01
  0
LINE
  8
0
 62
4
 10
-2.33727401E+01
 20
3.51649995E+01
 11
-1.58727401E+01
 21
3.51649995E+01
  0
LINE
  8
0
 62
4
 10
-2.26227401E+01
 20
4.10049995E+01
 11
-2.26227401E+01
 21
3.59649995E+01
  0
LINE
  8
0
 62
4
 10
-1.80027401E+01
 20
4.46649995E+01
 11
-1.66227401E+01
 21
4.46649995E+01
  0
LINE
  8
0
 62
4
 10
-1.66227401E+01
 20
4.10049995E+01
 11
-1.66227401E+01
 21
3.59649995E+01
  0
LINE
  8
0
 62
4
 10
-6.87274014E+00
 20
2.89649995E+01
 11
2.62725986E+00
 21
2.89649995E+01
  0
LINE
  8
0
 62
4
 10
-6.87274014E+00
 20
3.29649995E+01
 11
2.62725986E+00
 21
3.29649995E+01
  0
LINE
  8
0
 62
4
 10
-6.87274014E+00
 20
2.89649995E+01
 11
-6.87274014E+00
 21
3.29649995E+01
  0
LINE
  8
0
 62
4
 10
1.51272599E+01
 20
2.89649995E+01
 11
1.51272599E+01
 21
3.29649995E+01
  0
LINE
  8
0
 62
4
 10
1.51272599E+01
 20
2.94649995E+01
 11
2.00526306E+01
 21
2.94649995E+01
  0
LINE
  8
0
 62
4
 10
1.51272599E+01
 20
3.24649995E+01
 11
2.17846815E+01
 21
3.24649995E+01
  0
LINE
  8
0
 62
4
 10
1.01272599E+01
 20
2.14649995E+01
 11
1.01272599E+01
 21
3.37649995E+01
  0
LINE
  8
0
 62
4
 10
2.62725986E+00
 20
2.14649995E+01
 11
2.62725986E+00
 21
3.37649995E+01
  0
LINE
  8
0
 62
4
 10
3.37725986E+00
 20
2.42649995E+01
 11
3.37725986E+00
 21
2.60049995E+01
  0
LINE
  8
0
 62
4
 10
9.37725986E+00
 20
2.42649995E+01
 11
9.37725986E+00
 21
2.60049995E+01
  0
LINE
  8
0
 62
4
 10
1.01272599E+01
 20
3.29649995E+01
 11
1.51272599E+01
 21
3.29649995E+01
  0
LINE
  8
0
 62
4
 10
1.01272599E+01
 20
2.89649995E+01
 11
1.51272599E+01
 21
2.89649995E+01
  0
LINE
  8
0
 62
4
 10
2.62725986E+00
 20
2.14649995E+01
 11
1.01272599E+01
 21
2.14649995E+01
  0
LINE
  8
0
 62
4
 10
2.62725986E+00
 20
2.29649995E+01
 11
1.01272599E+01
 21
2.29649995E+01
  0
LINE
  8
0
 62
4
 10
3.37725986E+00
 20
3.29649995E+01
 11
9.37725986E+00
 21
3.29649995E+01
  0
LINE
  8
0
 62
4
 10
3.37725986E+00
 20
2.42649995E+01
 11
4.74725986E+00
 21
2.42649995E+01
  0
LINE
  8
0
 62
4
 10
4.87725986E+00
 20
2.37649995E+01
 11
7.87725986E+00
 21
2.37649995E+01
  0
LINE
  8
0
 62
4
 10
4.87725986E+00
 20
2.37649995E+01
 11
4.87725986E+00
 21
2.41949995E+01
  0
LINE
  8
0
 62
4
 10
7.87725986E+00
 20
2.37649995E+01
 11
7.87725986E+00
 21
2.41949995E+01
  0
LINE
  8
0
 62
4
 10
2.62725986E+00
 20
3.37649995E+01
 11
1.01272599E+01
 21
3.37649995E+01
  0
LINE
  8
0
 62
4
 10
3.37725986E+00
 20
2.79249995E+01
 11
3.37725986E+00
 21
3.29649995E+01
  0
LINE
  8
0
 62
4
 10
7.99725986E+00
 20
2.42649995E+01
 11
9.37725986E+00
 21
2.42649995E+01
  0
LINE
  8
0
 62
4
 10
9.37725986E+00
 20
2.79249995E+01
 11
9.37725986E+00
 21
3.29649995E+01
  0
LINE
  8
0
 62
4
 10
-1.08727401E+01
 20
3.94649995E+01
 11
-8.24312031E+00
 21
3.94649995E+01
  0
LINE
  8
0
 62
4
 10
-1.08727401E+01
 20
3.64649995E+01
 11
-9.97517111E+00
 21
3.64649995E+01
  0
LINE
  8
0
 62
4
 10
-3.18727401E+01
 20
3.99649995E+01
 11
-3.18727401E+01
 21
3.59649995E+01
  0
LINE
  8
0
 62
4
 10
-5.87274014E+00
 20
2.89649995E+01
 11
-5.87274014E+00
 21
3.29649995E+01
  0
LINE
  8
0
 62
7
 10
-3.01227401E+01
 20
3.59649995E+01
 11
-3.01227401E+01
 21
1.49649995E+01
  0
LINE
  8
0
 62
7
 10
-1.58727401E+01
 20
4.64649995E+01
 11
6.68772599E+01
 21
4.64649995E+01
  0
LINE
  8
0
 62
7
 10
1.01272599E+01
 20
2.24649995E+01
 11
6.68772599E+01
 21
2.24649995E+01
  0
LINE
  8
0
  6
DASHED
 62
6
 10
-5.91227401E+01
 20
3.52149995E+01
 11
-5.41727401E+01
 21
3.52149995E+01
  0
LINE
  8
0
  6
DASHED
 62
6
 10
-5.91227401E+01
 20
3.37149995E+01
 11
-5.41727401E+01
 21
3.37149995E+01
  0
LINE
  8
0
  6
DASHED
 62
2
 10
-3.61227401E+01
 20
2.02149995E+01
 11
-3.01227401E+01
 21
2.02149995E+01
  0
LINE
  8
0
  6
CENTER
 62
2
 10
-3.81227401E+01
 20
1.84649995E+01
 11
-2.81227401E+01
 21
1.84649995E+01
  0
LINE
  8
0
  6
DASHED
 62
2
 10
-3.61227401E+01
 20
1.67149995E+01
 11
-3.01227401E+01
 21
1.67149995E+01
  0
LINE
  8
0
 62
7
 10
-3.61227401E+01
 20
1.49649995E+01
 11
-3.01227401E+01
 21
1.49649995E+01
  0
LINE
  8
0
 62
7
 10
-3.61227401E+01
 20
2.19649995E+01
 11
-3.29227401E+01
 21
2.19649995E+01
  0
ARC
  8
0
 62
4
 10
-4.51227401E+01
 20
3.44649995E+01
 40
2.50000000E+00
 50
1.43130102E+02
 51
2.16869898E+02
  0
CIRCLE
  8
0
 62
7
 10
1.28772599E+01
 20
4.24649995E+01
 40
1.75000000E+00
  0
CIRCLE
  8
0
 62
7
 10
1.28772599E+01
 20
4.24649995E+01
 40
3.00000000E+00
  0
CIRCLE
  8
0
 62
7
 10
1.28772599E+01
 20
2.64649995E+01
 40
1.75000000E+00
  0
ARC
  8
0
 62
7
 10
1.28778470E+01
 20
2.64656995E+01
 40
3.00067491E+00
 50
1.23600894E+02
 51
1.56442028E+02
  0
ARC
  8
0
 62
4
 10
-5.07344840E+01
 20
3.75067725E+01
 40
1.79134747E+00
 50
1.54605128E+02
 51
2.14389176E+02
  0
ARC
  8
0
 62
4
 10
-4.58353543E+01
 20
3.44699995E+01
 40
6.69116394E+00
 50
1.62383888E+02
 51
1.97616113E+02
  0
ARC
  8
0
 62
4
 10
-5.07337298E+01
 20
3.14331672E+01
 40
1.79200339E+00
 50
1.45622879E+02
 51
2.05382818E+02
  0
ARC
  8
0
 62
4
 10
-5.19118209E+01
 20
3.14339482E+01
 40
1.78337407E+00
 50
3.34457763E+02
 51
3.45365399E+01
  0
ARC
  8
0
 62
4
 10
-5.68101504E+01
 20
3.44699995E+01
 40
6.68165683E+00
 50
3.42357999E+02
 51
1.76420005E+01
  0
ARC
  8
0
 62
4
 10
-5.19110630E+01
 20
3.75059912E+01
 40
1.78271600E+00
 50
3.25451229E+02
 51
2.55544679E+01
  0
CIRCLE
  8
0
 62
4
 10
-1.96227401E+01
 20
4.19649995E+01
 40
3.14999962E+00
  0
CIRCLE
  8
0
 62
4
 10
6.37725986E+00
 20
2.69649995E+01
 40
3.14999962E+00
  0
ARC
  8
0
 62
7
 10
1.28768529E+01
 20
2.64646582E+01
 40
2.99592219E+00
 50
2.03396551E+02
 51
5.65722887E+01
  0
LINE
  8
0
  6
PHANTOM
 10
3.22306686E+01
 20
1.49649995E+01
 11
3.22306686E+01
 21
6.02631813E+01
  0
CIRCLE
  8
0
 62
4
 10
-1.19122740E+02
 20
3.44649995E+01
 40
2.00000000E+00
  0
CIRCLE
  8
0
 62
4
 10
-1.19122740E+02
 20
3.44649995E+01
 40
3.50000000E+00
  0
LINE
  8
0
  6
CENTER
 62
2
 10
-1.19122740E+02
 20
4.94649995E+01
 11
-1.19122740E+02
 21
1.19649995E+01
  0
LINE
  8
0
  6
CENTER
 62
2
 10
-1.29122740E+02
 20
3.44649995E+01
 11
-1.09122740E+02
 21
3.44649995E+01
  0
LINE
  8
0
 62
7
 10
-1.12122740E+02
 20
4.64649995E+01
 11
-1.12122740E+02
 21
1.49649995E+01
  0
LINE
  8
0
 62
7
 10
-1.26122740E+02
 20
4.64649995E+01
 11
-1.26122740E+02
 21
1.49649995E+01
  0
LINE
  8
0
 62
7
 10
-1.26122740E+02
 20
4.64649995E+01
 11
-1.12122740E+02
 21
4.64649995E+01
  0
LINE
  8
0
 62
7
 10
-1.12622740E+02
 20
4.29649995E+01
 11
-1.12622740E+02
 21
2.29649995E+01
  0
LINE
  8
0
 62
7
 10
-1.25622740E+02
 20
4.29649995E+01
 11
-1.25622740E+02
 21
2.29649995E+01
  0
LINE
  8
0
 62
7
 10
-1.25622740E+02
 20
2.29649995E+01
 11
-1.12622740E+02
 21
2.29649995E+01
  0
LINE
  8
0
  6
CENTER
 62
2
 10
-1.25622740E+02
 20
2.54649995E+01
 11
-1.20622740E+02
 21
2.54649995E+01
  0
LINE
  8
0
  6
CENTER
 62
2
 10
-1.23122740E+02
 20
2.79649995E+01
 11
-1.23122740E+02
 21
2.29649995E+01
  0
LINE
  8
0
 62
7
 10
-1.25622740E+02
 20
4.29649995E+01
 11
-1.12622740E+02
 21
4.29649995E+01
  0
LINE
  8
0
 62
7
 10
-1.12122740E+02
 20
2.89649995E+01
 11
-1.12622740E+02
 21
2.89649995E+01
  0
LINE
  8
0
 62
7
 10
-1.12122740E+02
 20
2.89649995E+01
 11
-1.12622740E+02
 21
2.89649995E+01
  0
LINE
  8
0
 62
7
 10
-1.24372740E+02
 20
4.41949995E+01
 11
-1.24372740E+02
 21
4.29649995E+01
  0
LINE
  8
0
 62
7
 10
-1.21872740E+02
 20
4.41949995E+01
 11
-1.21872740E+02
 21
4.29649995E+01
  0
LINE
  8
0
 62
7
 10
-1.24372740E+02
 20
4.41949995E+01
 11
-1.23122740E+02
 21
4.49049995E+01
  0
LINE
  8
0
 62
7
 10
-1.23122740E+02
 20
4.49049995E+01
 11
-1.21872740E+02
 21
4.41949995E+01
  0
LINE
  8
0
  6
CENTER
 62
2
 10
-1.23122740E+02
 20
4.79649995E+01
 11
-1.23122740E+02
 21
4.09649995E+01
  0
LINE
  8
0
  6
CENTER
 62
2
 10
-1.27622740E+02
 20
4.34649995E+01
 11
-1.18622740E+02
 21
4.34649995E+01
  0
LINE
  8
0
 62
4
 10
-1.14122740E+02
 20
4.74649995E+01
 11
-1.14122740E+02
 21
4.64649995E+01
  0
LINE
  8
0
 62
4
 10
-1.06622740E+02
 20
4.59649995E+01
 11
-1.06622740E+02
 21
3.51649995E+01
  0
LINE
  8
0
 62
4
 10
-1.14122740E+02
 20
4.74649995E+01
 11
-1.10742740E+02
 21
4.74649995E+01
  0
LINE
  8
0
 62
4
 10
-1.06622740E+02
 20
4.59649995E+01
 11
-1.10742740E+02
 21
4.74649995E+01
  0
LINE
  8
0
 62
4
 10
-1.11622740E+02
 20
3.51649995E+01
 11
-1.06622740E+02
 21
3.51649995E+01
  0
LINE
  8
0
 62
4
 10
-1.11622740E+02
 20
3.59649995E+01
 11
-1.11622740E+02
 21
3.51649995E+01
  0
LINE
  8
0
 62
4
 10
-1.12122740E+02
 20
3.99649995E+01
 11
-1.08122740E+02
 21
3.99649995E+01
  0
LINE
  8
0
 62
7
 10
-1.12122740E+02
 20
3.59649995E+01
 11
-1.08122740E+02
 21
3.59649995E+01
  0
LINE
  8
0
 62
4
 10
-1.08122740E+02
 20
3.99649995E+01
 11
-1.08122740E+02
 21
3.59649995E+01
  0
LINE
  8
0
 62
6
 10
-1.08122740E+02
 20
3.99649995E+01
 11
-1.12122740E+02
 21
3.59649995E+01
  0
LINE
  8
0
 62
6
 10
-1.12122740E+02
 20
3.99649995E+01
 11
-1.08122740E+02
 21
3.59649995E+01
  0
LINE
  8
0
 62
4
 10
-1.06622740E+02
 20
2.29649995E+01
 11
-1.06622740E+02
 21
3.37649995E+01
  0
LINE
  8
0
 62
4
 10
-1.12122740E+02
 20
2.14649995E+01
 11
-1.10742740E+02
 21
2.14649995E+01
  0
LINE
  8
0
 62
4
 10
-1.06622740E+02
 20
2.29649995E+01
 11
-1.10742740E+02
 21
2.14649995E+01
  0
LINE
  8
0
 62
4
 10
-1.11622740E+02
 20
3.37649995E+01
 11
-1.06622740E+02
 21
3.37649995E+01
  0
LINE
  8
0
 62
4
 10
-1.11622740E+02
 20
3.29649995E+01
 11
-1.11622740E+02
 21
3.37649995E+01
  0
LINE
  8
0
 62
4
 10
-1.12122740E+02
 20
2.89649995E+01
 11
-1.08122740E+02
 21
2.89649995E+01
  0
LINE
  8
0
 62
4
 10
-1.12122740E+02
 20
3.29649995E+01
 11
-1.08122740E+02
 21
3.29649995E+01
  0
LINE
  8
0
 62
4
 10
-1.08122740E+02
 20
2.89649995E+01
 11
-1.08122740E+02
 21
3.29649995E+01
  0
LINE
  8
0
 62
6
 10
-1.08122740E+02
 20
2.89649995E+01
 11
-1.12122740E+02
 21
3.29649995E+01
  0
LINE
  8
0
 62
6
 10
-1.12122740E+02
 20
2.89649995E+01
 11
-1.08122740E+02
 21
3.29649995E+01
  0
LINE
  8
0
 62
4
 10
-1.06062740E+02
 20
3.88149995E+01
 11
-1.06622740E+02
 21
3.88149995E+01
  0
LINE
  8
0
 62
4
 10
-1.06062740E+02
 20
4.51149995E+01
 11
-1.06622740E+02
 21
4.51149995E+01
  0
LINE
  8
0
 62
4
 10
-1.06062740E+02
 20
2.38149995E+01
 11
-1.06622740E+02
 21
2.38149995E+01
  0
LINE
  8
0
 62
4
 10
-1.06062740E+02
 20
3.01149995E+01
 11
-1.06622740E+02
 21
3.01149995E+01
  0
LINE
  8
0
 62
7
 10
-1.19622740E+02
 20
4.64649995E+01
 11
-1.19622740E+02
 21
4.34649995E+01
  0
LINE
  8
0
 62
7
 10
-1.26122740E+02
 20
3.99649995E+01
 11
-1.25622740E+02
 21
3.99649995E+01
  0
LINE
  8
0
 62
7
 10
-1.15122740E+02
 20
2.19649995E+01
 11
-1.12122740E+02
 21
2.19649995E+01
  0
LINE
  8
0
  6
CENTER
 62
2
 10
-1.23122740E+02
 20
2.14649995E+01
 11
-1.23122740E+02
 21
1.54649995E+01
  0
LINE
  8
0
  6
CENTER
 62
2
 10
-1.26122740E+02
 20
1.84649995E+01
 11
-1.20122740E+02
 21
1.84649995E+01
  0
LINE
  8
0
  6
CENTER
 62
2
 10
-1.12122740E+02
 20
1.84649995E+01
 11
-1.18122740E+02
 21
1.84649995E+01
  0
LINE
  8
0
  6
CENTER
 62
2
 10
-1.15122740E+02
 20
2.14649995E+01
 11
-1.15122740E+02
 21
1.54649995E+01
  0
LINE
  8
0
 62
7
 10
-1.26122740E+02
 20
1.49649995E+01
 11
-1.12122740E+02
 21
1.49649995E+01
  0
CIRCLE
  8
0
 62
7
 10
-1.23122740E+02
 20
2.54649995E+01
 40
1.50000000E+00
  0
CIRCLE
  8
0
 62
4
 10
-1.19122740E+02
 20
3.44649995E+01
 40
2.00000000E+00
  0
CIRCLE
  8
0
 62
6
 10
-1.19122740E+02
 20
3.44649995E+01
 40
1.64999962E+00
  0
CIRCLE
  8
0
 62
4
 10
-1.19122740E+02
 20
3.44649995E+01
 40
1.00000000E+00
  0
CIRCLE
  8
0
 62
4
 10
-1.19122740E+02
 20
3.44649995E+01
 40
5.00000000E+00
  0
ARC
  8
0
 62
7
 10
-1.23118533E+02
 20
4.34655173E+01
 40
2.75169650E+00
 50
3.49519886E+02
 51
2.04486451E+02
  0
ARC
  8
0
 62
7
 10
-1.23117740E+02
 20
4.34650006E+01
 40
2.40749373E+00
 50
3.48013260E+02
 51
1.91986740E+02
  0
ARC
  8
0
 62
7
 10
-1.15117740E+02
 20
2.54650189E+01
 40
2.74974944E+00
 50
2.45392389E+02
 51
2.94607611E+02
  0
ARC
  8
0
 62
7
 10
-1.15122744E+02
 20
2.54699995E+01
 40
2.74973554E+00
 50
3.35392256E+02
 51
2.46077441E+01
  0
ARC
  8
0
 62
4
 10
-1.09622740E+02
 20
4.19649995E+01
 40
4.99895989E+00
 50
3.25101877E+02
 51
3.48981236E+01
  0
ARC
  8
0
 62
4
 10
-1.06072597E+02
 20
3.94811114E+01
 40
6.66184865E-01
 50
2.70847740E+02
 51
3.25627151E+02
  0
ARC
  8
0
 62
4
 10
-1.06072597E+02
 20
4.44488876E+01
 40
6.66184865E-01
 50
3.43728490E+01
 51
8.91522599E+01
  0
ARC
  8
0
 62
4
 10
-1.09622742E+02
 20
2.69699995E+01
 40
5.00182385E+00
 50
3.25054915E+02
 51
3.49450853E+01
  0
ARC
  8
0
 62
4
 10
-1.06072601E+02
 20
2.44811203E+01
 40
6.66193824E-01
 50
2.70848139E+02
 51
3.25626752E+02
  0
ARC
  8
0
 62
4
 10
-1.06067050E+02
 20
2.94459739E+01
 40
6.69039514E-01
 50
3.55539199E+01
 51
8.96309294E+01
  0
ARC
  8
0
 62
7
 10
-1.23125422E+02
 20
4.34242604E+01
 40
3.50291899E+00
 50
3.52466372E+02
 51
6.66367013E-01
  0
ARC
  8
0
 62
7
 10
-1.15114590E+02
 20
2.54616857E+01
 40
3.49669566E+00
 50
2.25562369E+02
 51
2.69866456E+02
  0
CIRCLE
  8
0
 62
7
 10
-1.23122740E+02
 20
1.84649995E+01
 40
1.75000000E+00
  0
CIRCLE
  8
0
 62
7
 10
-1.15122740E+02
 20
1.84649995E+01
 40
1.75000000E+00
  0
LINE
  8
0
  6
CENTER
 62
2
 10
1.20877260E+02
 20
4.94649995E+01
 11
1.20877260E+02
 21
1.19649995E+01
  0
LINE
  8
0
 62
7
 10
1.13877260E+02
 20
4.64649995E+01
 11
1.13877260E+02
 21
1.49649995E+01
  0
LINE
  8
0
 62
7
 10
1.27877260E+02
 20
4.64649995E+01
 11
1.27877260E+02
 21
1.49649995E+01
  0
LINE
  8
0
 62
7
 10
1.13877260E+02
 20
2.24649995E+01
 11
1.27877260E+02
 21
2.24649995E+01
  0
LINE
  8
0
 62
7
 10
1.13877260E+02
 20
4.64649995E+01
 11
1.27877260E+02
 21
4.64649995E+01
  0
LINE
  8
0
 62
4
 10
1.15877260E+02
 20
4.74649995E+01
 11
1.15877260E+02
 21
4.64649995E+01
  0
LINE
  8
0
 62
4
 10
1.08377260E+02
 20
4.59649995E+01
 11
1.08377260E+02
 21
3.51649995E+01
  0
LINE
  8
0
 62
4
 10
1.15877260E+02
 20
4.74649995E+01
 11
1.12497260E+02
 21
4.74649995E+01
  0
LINE
  8
0
 62
4
 10
1.08377260E+02
 20
4.59649995E+01
 11
1.12497260E+02
 21
4.74649995E+01
  0
LINE
  8
0
 62
4
 10
1.13377260E+02
 20
3.51649995E+01
 11
1.08377260E+02
 21
3.51649995E+01
  0
LINE
  8
0
 62
4
 10
1.13377260E+02
 20
3.59649995E+01
 11
1.13377260E+02
 21
3.51649995E+01
  0
LINE
  8
0
 62
4
 10
1.13877260E+02
 20
3.99649995E+01
 11
1.09877260E+02
 21
3.99649995E+01
  0
LINE
  8
0
 62
4
 10
1.13877260E+02
 20
3.59649995E+01
 11
1.09877260E+02
 21
3.59649995E+01
  0
LINE
  8
0
 62
4
 10
1.09877260E+02
 20
3.99649995E+01
 11
1.09877260E+02
 21
3.59649995E+01
  0
LINE
  8
0
 62
4
 10
1.08377260E+02
 20
2.29649995E+01
 11
1.08377260E+02
 21
3.37649995E+01
  0
LINE
  8
0
 62
4
 10
1.13877260E+02
 20
2.14649995E+01
 11
1.12497260E+02
 21
2.14649995E+01
  0
LINE
  8
0
 62
4
 10
1.08377260E+02
 20
2.29649995E+01
 11
1.12497260E+02
 21
2.14649995E+01
  0
LINE
  8
0
 62
4
 10
1.13377260E+02
 20
3.37649995E+01
 11
1.08377260E+02
 21
3.37649995E+01
  0
LINE
  8
0
 62
4
 10
1.13377260E+02
 20
3.29649995E+01
 11
1.13377260E+02
 21
3.37649995E+01
  0
LINE
  8
0
 62
4
 10
1.13877260E+02
 20
2.89649995E+01
 11
1.09877260E+02
 21
2.89649995E+01
  0
LINE
  8
0
 62
4
 10
1.13877260E+02
 20
3.29649995E+01
 11
1.09877260E+02
 21
3.29649995E+01
  0
LINE
  8
0
 62
4
 10
1.09877260E+02
 20
2.89649995E+01
 11
1.09877260E+02
 21
3.29649995E+01
  0
LINE
  8
0
 62
4
 10
1.07817260E+02
 20
3.88149995E+01
 11
1.08377260E+02
 21
3.88149995E+01
  0
LINE
  8
0
 62
4
 10
1.07817260E+02
 20
4.51149995E+01
 11
1.08377260E+02
 21
4.51149995E+01
  0
LINE
  8
0
 62
4
 10
1.07817260E+02
 20
2.38149995E+01
 11
1.08377260E+02
 21
2.38149995E+01
  0
LINE
  8
0
 62
4
 10
1.07817260E+02
 20
3.01149995E+01
 11
1.08377260E+02
 21
3.01149995E+01
  0
LINE
  8
0
  6
CENTER
 62
2
 10
1.27877260E+02
 20
2.54649995E+01
 11
1.21877260E+02
 21
2.54649995E+01
  0
LINE
  8
0
  6
CENTER
 62
2
 10
1.24877260E+02
 20
2.24649995E+01
 11
1.24877260E+02
 21
2.84649995E+01
  0
LINE
  8
0
  6
CENTER
 62
2
 10
1.13877260E+02
 20
4.34649995E+01
 11
1.19877260E+02
 21
4.34649995E+01
  0
LINE
  8
0
  6
CENTER
 62
2
 10
1.16877260E+02
 20
4.64649995E+01
 11
1.16877260E+02
 21
4.04649995E+01
  0
LINE
  8
0
 62
7
 10
1.13877260E+02
 20
1.49649995E+01
 11
1.27877260E+02
 21
1.49649995E+01
  0
LINE
  8
0
  6
CENTER
 62
2
 10
1.13877260E+02
 20
1.84649995E+01
 11
1.19877260E+02
 21
1.84649995E+01
  0
LINE
  8
0
  6
CENTER
 62
2
 10
1.27877260E+02
 20
1.84649995E+01
 11
1.21877260E+02
 21
1.84649995E+01
  0
LINE
  8
0
  6
CENTER
 62
2
 10
1.24877260E+02
 20
2.14649995E+01
 11
1.24877260E+02
 21
1.54649995E+01
  0
LINE
  8
0
  6
CENTER
 62
2
 10
1.16877260E+02
 20
2.14649995E+01
 11
1.16877260E+02
 21
1.54649995E+01
  0
ARC
  8
0
 62
4
 10
1.07821569E+02
 20
2.94459739E+01
 40
6.69039514E-01
 50
9.03690709E+01
 51
1.44446080E+02
  0
ARC
  8
0
 62
4
 10
1.11377262E+02
 20
2.69699995E+01
 40
5.00182385E+00
 50
1.45054915E+02
 51
2.14945085E+02
  0
ARC
  8
0
 62
4
 10
1.07827121E+02
 20
2.44811203E+01
 40
6.66193824E-01
 50
2.14373248E+02
 51
2.69151861E+02
  0
ARC
  8
0
 62
4
 10
1.07827116E+02
 20
3.94811114E+01
 40
6.66184865E-01
 50
2.14372849E+02
 51
2.69152260E+02
  0
ARC
  8
0
 62
4
 10
1.07827116E+02
 20
4.44488876E+01
 40
6.66184865E-01
 50
9.08477399E+01
 51
1.45627151E+02
  0
ARC
  8
0
 62
4
 10
1.11377260E+02
 20
4.19649995E+01
 40
4.99895989E+00
 50
1.45101876E+02
 51
2.14898123E+02
  0
CIRCLE
  8
0
 62
4
 10
1.11877260E+02
 20
3.79649985E+01
 40
1.50000000E+00
  0
CIRCLE
  8
0
 62
4
 10
1.11877260E+02
 20
3.09649995E+01
 40
1.50000000E+00
  0
CIRCLE
  8
0
 62
2
 10
1.24877260E+02
 20
2.54649995E+01
 40
1.50000000E+00
  0
CIRCLE
  8
0
 62
7
 10
1.24877260E+02
 20
2.54649995E+01
 40
1.25000000E+00
  0
CIRCLE
  8
0
 62
7
 10
1.16877260E+02
 20
4.34649995E+01
 40
1.25000000E+00
  0
CIRCLE
  8
0
 62
2
 10
1.16877260E+02
 20
4.34649995E+01
 40
1.50000000E+00
  0
CIRCLE
  8
0
 62
7
 10
1.16877260E+02
 20
1.84649995E+01
 40
1.75000000E+00
  0
CIRCLE
  8
0
 62
7
 10
1.24877260E+02
 20
1.84649995E+01
 40
1.75000000E+00
  0
LINE
  8
0
  6
CENTER
 62
2
 10
1.10877260E+02
 20
3.44649995E+01
 11
1.30877260E+02
 21
3.44649995E+01
  0
LINE
  8
0
  6
PHANTOM
 10
-7.76933144E+00
 20
5.02631813E+01
 11
-7.76933144E+00
 21
1.00561363E+02
  0
ARC
  8
0
 62
4
 10
-5.28727403E+01
 20
7.63149997E+01
 40
3.50000191E-01
 50
2.70000031E+02
 51
3.59999969E+02
  0
ARC
  8
0
 62
4
 10
-5.28727403E+01
 20
8.26149993E+01
 40
3.50000191E-01
 50
3.12237134E-05
 51
8.99999687E+01
  0
LINE
  8
0
 62
4
 10
-5.28727401E+01
 20
8.29649995E+01
 11
-5.28727401E+01
 21
7.59649995E+01
  0
LINE
  8
0
 62
4
 10
-5.25227401E+01
 20
8.26149995E+01
 11
-5.25227401E+01
 21
7.63149995E+01
  0
ARC
  8
0
 62
4
 10
-5.41727430E+01
 20
7.63149997E+01
 40
3.50000191E-01
 50
1.80000031E+02
 51
2.69999969E+02
  0
ARC
  8
0
 62
4
 10
-5.41727430E+01
 20
8.26149993E+01
 40
3.50000191E-01
 50
9.00000311E+01
 51
1.79999969E+02
  0
LINE
  8
0
 62
4
 10
-5.41727432E+01
 20
8.29649995E+01
 11
-5.41727432E+01
 21
7.59649995E+01
  0
LINE
  8
0
 62
4
 10
-5.45227432E+01
 20
8.26149995E+01
 11
-5.45227432E+01
 21
7.63149995E+01
  0
LINE
  8
0
 62
4
 10
2.62725986E+00
 20
7.10849995E+01
 11
1.01272599E+01
 21
7.10849995E+01
  0
LINE
  8
0
 62
4
 10
-6.87274014E+00
 20
6.84649995E+01
 11
-6.87274014E+00
 21
7.24649995E+01
  0
LINE
  8
0
 62
4
 10
-5.87274014E+00
 20
7.24649995E+01
 11
-5.87274014E+00
 21
6.84649995E+01
  0
LINE
  8
0
 62
4
 10
-6.87274014E+00
 20
6.84649995E+01
 11
2.62725986E+00
 21
6.84649995E+01
  0
LINE
  8
0
 62
4
 10
1.51272599E+01
 20
6.89649995E+01
 11
2.17846815E+01
 21
6.89649995E+01
  0
LINE
  8
0
 62
4
 10
1.51272599E+01
 20
7.19649995E+01
 11
2.00526306E+01
 21
7.19649995E+01
  0
LINE
  8
0
 62
6
 10
-8.24312031E+00
 20
6.89649995E+01
 11
-9.97517111E+00
 21
7.19649995E+01
  0
LINE
  8
0
 62
6
 10
2.17846815E+01
 20
6.89649995E+01
 11
2.00526306E+01
 21
7.19649995E+01
  0
LINE
  8
0
 62
7
 10
6.68772599E+01
 20
8.64649995E+01
 11
6.68772599E+01
 21
7.24649995E+01
  0
LINE
  8
0
 62
4
 10
-5.91227401E+01
 20
8.09649995E+01
 11
-5.91227401E+01
 21
7.79649995E+01
  0
LINE
  8
0
 62
7
 10
-3.71227401E+01
 20
8.33849995E+01
 11
-3.71227401E+01
 21
7.55449995E+01
  0
LINE
  8
0
 62
7
 10
-3.68227401E+01
 20
7.54649995E+01
 11
-3.61227401E+01
 21
7.54649995E+01
  0
LINE
  8
0
 62
7
 10
-3.68227401E+01
 20
8.34649995E+01
 11
-3.61227401E+01
 21
8.34649995E+01
  0
LINE
  8
0
 62
7
 10
-3.68227401E+01
 20
8.34649995E+01
 11
-3.71227401E+01
 21
8.33849995E+01
  0
LINE
  8
0
 62
7
 10
-3.68227401E+01
 20
7.54649995E+01
 11
-3.71227401E+01
 21
7.55449995E+01
  0
LINE
  8
0
 62
4
 10
-4.91227401E+01
 20
8.14649995E+01
 11
-4.91227401E+01
 21
7.74649995E+01
  0
LINE
  8
0
 62
4
 10
-5.86227401E+01
 20
7.74649995E+01
 11
-5.45227401E+01
 21
7.74649995E+01
  0
LINE
  8
0
 62
4
 10
-5.86227401E+01
 20
8.14649995E+01
 11
-5.45227401E+01
 21
8.14649995E+01
  0
LINE
  8
0
 62
4
 10
-5.91227401E+01
 20
8.09649995E+01
 11
-5.86227401E+01
 21
8.14649995E+01
  0
LINE
  8
0
 62
4
 10
-5.91227401E+01
 20
7.79649995E+01
 11
-5.86227401E+01
 21
7.74649995E+01
  0
LINE
  8
0
 62
4
 10
-5.86227401E+01
 20
8.14649995E+01
 11
-5.86227401E+01
 21
7.74649995E+01
  0
LINE
  8
0
 62
6
 10
-5.89727401E+01
 20
8.11149995E+01
 11
-5.45227401E+01
 21
8.11149995E+01
  0
LINE
  8
0
 62
6
 10
-5.89727401E+01
 20
7.78149995E+01
 11
-5.45227401E+01
 21
7.78149995E+01
  0
LINE
  8
0
 62
6
 10
-4.91227401E+01
 20
8.11149995E+01
 11
-4.85227401E+01
 21
8.14649995E+01
  0
LINE
  8
0
 62
6
 10
-4.91227401E+01
 20
7.78149995E+01
 11
-4.85227401E+01
 21
7.74649995E+01
  0
LINE
  8
0
 62
4
 10
-5.01227401E+01
 20
8.14649995E+01
 11
-4.36227401E+01
 21
8.14649995E+01
  0
LINE
  8
0
 62
6
 10
-5.01227401E+01
 20
8.11149995E+01
 11
-4.91227401E+01
 21
8.11149995E+01
  0
LINE
  8
0
 62
6
 10
-5.01227401E+01
 20
7.78149995E+01
 11
-4.91227401E+01
 21
7.78149995E+01
  0
LINE
  8
0
 62
4
 10
-5.01227401E+01
 20
7.74649995E+01
 11
-4.36227401E+01
 21
7.74649995E+01
  0
LINE
  8
0
 62
4
 10
-5.41727401E+01
 20
8.44649995E+01
 11
-5.41727401E+01
 21
7.44649995E+01
  0
LINE
  8
0
 62
4
 10
-5.28727401E+01
 20
8.44649995E+01
 11
-5.28727401E+01
 21
7.44649995E+01
  0
LINE
  8
0
 62
4
 10
-5.41727401E+01
 20
8.44649995E+01
 11
-5.28727401E+01
 21
8.44649995E+01
  0
LINE
  8
0
 62
4
 10
-5.41727401E+01
 20
7.44649995E+01
 11
-5.28727401E+01
 21
7.44649995E+01
  0
LINE
  8
0
 62
4
 10
-5.25227401E+01
 20
8.29649995E+01
 11
-5.25227401E+01
 21
7.59649995E+01
  0
LINE
  8
0
 62
4
 10
-5.01227401E+01
 20
8.29649995E+01
 11
-5.01227401E+01
 21
7.59649995E+01
  0
LINE
  8
0
 62
7
 10
-4.36227401E+01
 20
8.59649995E+01
 11
-4.36227401E+01
 21
7.29649995E+01
  0
LINE
  8
0
 62
7
 10
-3.76227401E+01
 20
8.59649995E+01
 11
-3.76227401E+01
 21
7.29649995E+01
  0
LINE
  8
0
 62
7
 10
-3.61227401E+01
 20
8.64649995E+01
 11
-3.61227401E+01
 21
7.24649995E+01
  0
LINE
  8
0
 62
7
 10
-3.61227401E+01
 20
7.24649995E+01
 11
-2.33727401E+01
 21
7.24649995E+01
  0
LINE
  8
0
 62
7
 10
-3.01227401E+01
 20
8.64649995E+01
 11
-3.01227401E+01
 21
7.24649995E+01
  0
LINE
  8
0
 62
7
 10
-3.29227401E+01
 20
8.64649995E+01
 11
-3.29227401E+01
 21
7.99649995E+01
  0
LINE
  8
0
 62
7
 10
-3.61227401E+01
 20
7.99649995E+01
 11
-3.29227401E+01
 21
7.99649995E+01
  0
LINE
  8
0
 62
7
 10
-3.59227401E+01
 20
8.62149995E+01
 11
-3.29227401E+01
 21
8.62149995E+01
  0
LINE
  8
0
 62
7
 10
-3.59227401E+01
 20
8.62149995E+01
 11
-3.59227401E+01
 21
8.07149995E+01
  0
LINE
  8
0
 62
7
 10
-3.59227401E+01
 20
8.07149995E+01
 11
-3.29227401E+01
 21
8.07149995E+01
  0
LINE
  8
0
 62
7
 10
-4.36227401E+01
 20
7.29649995E+01
 11
-3.76227401E+01
 21
7.29649995E+01
  0
LINE
  8
0
 62
7
 10
-4.36227401E+01
 20
8.59649995E+01
 11
-3.76227401E+01
 21
8.59649995E+01
  0
LINE
  8
0
  6
CENTER
 62
2
 10
-4.06227401E+01
 20
8.19649995E+01
 11
-4.06227401E+01
 21
7.69649995E+01
  0
LINE
  8
0
 62
7
 10
-4.13727401E+01
 20
7.90249995E+01
 11
-4.06227401E+01
 21
7.85949995E+01
  0
LINE
  8
0
 62
7
 10
-4.06227401E+01
 20
7.85949995E+01
 11
-3.98727401E+01
 21
7.90249995E+01
  0
LINE
  8
0
 62
7
 10
-3.98727401E+01
 20
7.90249995E+01
 11
-3.98727401E+01
 21
7.98949995E+01
  0
LINE
  8
0
 62
7
 10
-3.98727401E+01
 20
7.98949995E+01
 11
-4.06227401E+01
 21
8.03249995E+01
  0
LINE
  8
0
 62
7
 10
-4.06227401E+01
 20
8.03249995E+01
 11
-4.13727401E+01
 21
7.98949995E+01
  0
LINE
  8
0
 62
7
 10
-4.13727401E+01
 20
7.98949995E+01
 11
-4.13727401E+01
 21
7.90249995E+01
  0
LINE
  8
0
 62
4
 10
-4.76227401E+01
 20
8.14649995E+01
 11
-4.76227401E+01
 21
7.74649995E+01
  0
LINE
  8
0
 62
4
 10
-4.71227401E+01
 20
8.14649995E+01
 11
-4.71227401E+01
 21
7.74649995E+01
  0
LINE
  8
0
 62
7
 10
-3.76227401E+01
 20
8.19649995E+01
 11
-3.71227401E+01
 21
8.19649995E+01
  0
LINE
  8
0
 62
7
 10
-3.76227401E+01
 20
7.69649995E+01
 11
-3.71227401E+01
 21
7.69649995E+01
  0
LINE
  8
0
 62
7
 10
-3.76227401E+01
 20
8.49649995E+01
 11
-3.61227401E+01
 21
8.49649995E+01
  0
LINE
  8
0
  6
CENTER
 62
2
 10
1.88772599E+01
 20
8.34649995E+01
 11
1.88772599E+01
 21
7.54649995E+01
  0
LINE
  8
0
  6
CENTER
 62
2
 10
-2.46227401E+01
 20
8.26649995E+01
 11
-2.46227401E+01
 21
7.46649995E+01
  0
LINE
  8
0
  6
CENTER
 62
2
 10
-2.86227401E+01
 20
7.86649995E+01
 11
-2.06227401E+01
 21
7.86649995E+01
  0
LINE
  8
0
  6
CENTER
 62
2
 10
4.68772599E+01
 20
8.34649995E+01
 11
4.68772599E+01
 21
7.54649995E+01
  0
LINE
  8
0
 62
4
 10
2.62725986E+00
 20
7.24649995E+01
 11
2.62725986E+00
 21
6.69649995E+01
  0
LINE
  8
0
 62
4
 10
1.01272599E+01
 20
6.69649995E+01
 11
1.01272599E+01
 21
7.24649995E+01
  0
LINE
  8
0
 62
4
 10
1.51272599E+01
 20
6.84649995E+01
 11
1.51272599E+01
 21
7.24649995E+01
  0
LINE
  8
0
 62
4
 10
-3.28727401E+01
 20
7.24649995E+01
 11
-3.28727401E+01
 21
6.84649995E+01
  0
LINE
  8
0
 62
4
 10
-3.28727401E+01
 20
6.84649995E+01
 11
-2.33727401E+01
 21
6.84649995E+01
  0
LINE
  8
0
 62
4
 10
1.01272599E+01
 20
6.84649995E+01
 11
1.51272599E+01
 21
6.84649995E+01
  0
LINE
  8
0
 62
4
 10
2.62725986E+00
 20
6.69649995E+01
 11
1.01272599E+01
 21
6.69649995E+01
  0
LINE
  8
0
 62
4
 10
3.22725986E+00
 20
6.64049995E+01
 11
3.22725986E+00
 21
6.69649995E+01
  0
LINE
  8
0
 62
4
 10
9.52725986E+00
 20
6.64049995E+01
 11
9.52725986E+00
 21
6.69649995E+01
  0
LINE
  8
0
 62
4
 10
-3.18727401E+01
 20
7.24649995E+01
 11
-3.18727401E+01
 21
6.84649995E+01
  0
LINE
  8
0
 62
4
 10
-1.08727401E+01
 20
7.19649995E+01
 11
-9.97517111E+00
 21
7.19649995E+01
  0
LINE
  8
0
 62
4
 10
-1.08727401E+01
 20
6.89649995E+01
 11
-8.24312031E+00
 21
6.89649995E+01
  0
LINE
  8
0
 62
4
 10
-2.33727401E+01
 20
7.44649995E+01
 11
-2.33727401E+01
 21
6.69649995E+01
  0
LINE
  8
0
 62
4
 10
-1.58727401E+01
 20
7.44649995E+01
 11
-1.58727401E+01
 21
6.69649995E+01
  0
LINE
  8
0
 62
4
 10
-1.08727401E+01
 20
7.24649995E+01
 11
-1.08727401E+01
 21
6.84649995E+01
  0
LINE
  8
0
 62
4
 10
-2.33727401E+01
 20
7.44649995E+01
 11
-1.58727401E+01
 21
7.44649995E+01
  0
LINE
  8
0
 62
4
 10
-1.58727401E+01
 20
6.84649995E+01
 11
-1.08727401E+01
 21
6.84649995E+01
  0
LINE
  8
0
 62
4
 10
-2.33727401E+01
 20
6.69649995E+01
 11
-1.58727401E+01
 21
6.69649995E+01
  0
LINE
  8
0
 62
4
 10
-2.33727401E+01
 20
7.10849995E+01
 11
-1.58727401E+01
 21
7.10849995E+01
  0
LINE
  8
0
 62
4
 10
-2.27727401E+01
 20
6.64049995E+01
 11
-2.27727401E+01
 21
6.69649995E+01
  0
LINE
  8
0
 62
4
 10
-1.64727401E+01
 20
6.64049995E+01
 11
-1.64727401E+01
 21
6.69649995E+01
  0
LINE
  8
0
 62
4
 10
-5.25227401E+01
 20
7.59649995E+01
 11
-5.01227401E+01
 21
7.59649995E+01
  0
LINE
  8
0
 62
4
 10
-5.25227401E+01
 20
8.29649995E+01
 11
-5.01227401E+01
 21
8.29649995E+01
  0
LINE
  8
0
 62
4
 10
-5.22127401E+01
 20
7.94649995E+01
 11
-5.04427401E+01
 21
7.94649995E+01
  0
CIRCLE
  8
0
 62
7
 10
-4.06227401E+01
 20
7.94649995E+01
 40
1.50000000E+00
  0
CIRCLE
  8
0
 62
7
 10
-4.06227401E+01
 20
7.94649995E+01
 40
1.25000000E+00
  0
CIRCLE
  8
0
 62
2
 10
1.88772599E+01
 20
7.94649995E+01
 40
2.50000000E+00
  0
CIRCLE
  8
0
 62
7
 10
1.88772599E+01
 20
7.94649995E+01
 40
2.09999943E+00
  0
CIRCLE
  8
0
 62
2
 10
-2.46227401E+01
 20
7.86649964E+01
 40
2.50000000E+00
  0
CIRCLE
  8
0
 62
7
 10
-2.46227401E+01
 20
7.86649964E+01
 40
2.09999943E+00
  0
CIRCLE
  8
0
 62
2
 10
4.68772599E+01
 20
7.94649995E+01
 40
2.50000000E+00
  0
CIRCLE
  8
0
 62
7
 10
4.68772599E+01
 20
7.94649995E+01
 40
2.09999943E+00
  0
ARC
  8
0
 62
4
 10
6.37225986E+00
 20
6.99650015E+01
 40
5.00182385E+00
 50
2.35054914E+02
 51
3.04945086E+02
  0
ARC
  8
0
 62
4
 10
3.89628250E+00
 20
6.64093075E+01
 40
6.69036508E-01
 50
1.80368939E+02
 51
2.34446212E+02
  0
ARC
  8
0
 62
4
 10
8.86113903E+00
 20
6.64148607E+01
 40
6.66193824E-01
 50
3.04373248E+02
 51
3.59151860E+02
  0
ARC
  8
0
 62
4
 10
-1.96277401E+01
 20
6.99650015E+01
 40
5.00182385E+00
 50
2.35054914E+02
 51
3.04945086E+02
  0
ARC
  8
0
 62
4
 10
-2.21037175E+01
 20
6.64093075E+01
 40
6.69036508E-01
 50
1.80368939E+02
 51
2.34446212E+02
  0
ARC
  8
0
 62
4
 10
-1.71388610E+01
 20
6.64148607E+01
 40
6.66193824E-01
 50
3.04373248E+02
 51
3.59151860E+02
  0
ARC
  8
0
 62
4
 10
-4.74681228E+01
 20
8.12149995E+01
 40
5.05706371E+00
 50
1.59754058E+02
 51
2.00245942E+02
  0
ARC
  8
0
 62
4
 10
-5.51773819E+01
 20
8.12149995E+01
 40
5.04770564E+00
 50
3.39714874E+02
 51
2.02851261E+01
  0
ARC
  8
0
 62
4
 10
-4.74681228E+01
 20
7.77149995E+01
 40
5.05706371E+00
 50
1.59754058E+02
 51
2.00245942E+02
  0
ARC
  8
0
 62
4
 10
-5.51773819E+01
 20
7.77149995E+01
 40
5.04770564E+00
 50
3.39714874E+02
 51
2.02851261E+01
  0
LINE
  8
0
 62
7
 10
-1.58727401E+01
 20
7.24649995E+01
 11
6.68772599E+01
 21
7.24649995E+01
  0
LINE
  8
0
 62
7
 10
-3.61227401E+01
 20
8.64649995E+01
 11
6.68772599E+01
 21
8.64649995E+01
  0
LINE
  8
0
  6
CENTER
 62
2
 10
-6.21227401E+01
 20
7.94649995E+01
 11
6.98772599E+01
 21
7.94649995E+01
  0
LINE
  8
0
  6
PHANTOM
 10
3.22306686E+01
 20
5.02631813E+01
 11
3.22306686E+01
 21
1.00561363E+02
  0
LINE
  8
0
 62
4
 10
-1.49074524E+02
 20
-7.76707492E+01
 11
-1.49074524E+02
 21
-8.26707492E+01
  0
ARC
  8
0
 62
4
 10
-1.61163571E+02
 20
-8.32057492E+01
 40
1.79382470E+00
 50
3.25540045E+02
 51
3.44599544E+01
  0
ARC
  8
0
 62
4
 10
-1.66061883E+02
 20
-8.01707492E+01
 40
6.68962747E+00
 50
3.42424636E+02
 51
1.75753642E+01
  0
ARC
  8
0
 62
4
 10
-1.61163568E+02
 20
-7.71407492E+01
 40
1.79099764E+00
 50
3.25671874E+02
 51
3.43281262E+01
  0
ARC
  8
0
 62
4
 10
-1.67485454E+02
 20
-8.32057492E+01
 40
1.78560603E+00
 50
1.45358872E+02
 51
2.14641128E+02
  0
ARC
  8
0
 62
4
 10
-1.62587143E+02
 20
-8.01707492E+01
 40
6.68011531E+00
 50
1.62398792E+02
 51
1.97601208E+02
  0
ARC
  8
0
 62
4
 10
-1.67485458E+02
 20
-7.71407492E+01
 40
1.78276594E+00
 50
1.45491021E+02
 51
2.14508980E+02
  0
ARC
  8
0
 62
4
 10
-1.51287124E+02
 20
-8.01707492E+01
 40
6.68013276E+00
 50
1.62398839E+02
 51
1.97601161E+02
  0
ARC
  8
0
 62
4
 10
-1.56185437E+02
 20
-7.71396974E+01
 40
1.78337882E+00
 50
1.54457851E+02
 51
2.14536452E+02
  0
ARC
  8
0
 62
4
 10
-1.56185768E+02
 20
-8.32060988E+01
 40
1.78554702E+00
 50
1.45343927E+02
 51
2.05711813E+02
  0
ARC
  8
0
 62
4
 10
-1.57363527E+02
 20
-7.71389174E+01
 40
1.79199759E+00
 50
3.25622773E+02
 51
2.53829241E+01
  0
ARC
  8
0
 62
4
 10
-1.62261917E+02
 20
-8.01707492E+01
 40
6.68965947E+00
 50
3.42424723E+02
 51
1.75752774E+01
  0
ARC
  8
0
 62
4
 10
-1.50574508E+02
 20
-8.01707492E+01
 40
2.50001221E+00
 50
1.43130312E+02
 51
2.16869688E+02
  0
ARC
  8
0
 62
4
 10
-1.57363199E+02
 20
-8.32068746E+01
 40
1.79415492E+00
 50
3.34447945E+02
 51
3.44963155E+01
  0
LINE
  8
0
 62
4
 10
-1.59374524E+02
 20
-7.66707492E+01
 11
-1.59684524E+02
 21
-7.61307492E+01
  0
LINE
  8
0
 62
4
 10
-1.59374524E+02
 20
-8.36707492E+01
 11
-1.59684524E+02
 21
-8.42207492E+01
  0
LINE
  8
0
 62
4
 10
-1.68954524E+02
 20
-8.42207492E+01
 11
-1.59684524E+02
 21
-8.42207492E+01
  0
LINE
  8
0
 62
4
 10
-1.69274524E+02
 20
-8.36707492E+01
 11
-1.68954524E+02
 21
-8.42207492E+01
  0
LINE
  8
0
 62
4
 10
-1.68954524E+02
 20
-8.21907492E+01
 11
-1.59684524E+02
 21
-8.21907492E+01
  0
LINE
  8
0
 62
4
 10
-1.69274524E+02
 20
-7.66707492E+01
 11
-1.68954524E+02
 21
-7.61307492E+01
  0
LINE
  8
0
 62
4
 10
-1.68954524E+02
 20
-7.61307492E+01
 11
-1.59684524E+02
 21
-7.61307492E+01
  0
LINE
  8
0
 62
4
 10
-1.68954524E+02
 20
-7.81507492E+01
 11
-1.59684524E+02
 21
-7.81507492E+01
  0
LINE
  8
0
 62
4
 10
-1.71814524E+02
 20
-7.93607492E+01
 11
-1.71814524E+02
 21
-8.09907492E+01
  0
LINE
  8
0
 62
4
 10
-1.71274524E+02
 20
-8.19207492E+01
 11
-1.71814524E+02
 21
-8.09907492E+01
  0
LINE
  8
0
 62
4
 10
-1.71274524E+02
 20
-7.84207492E+01
 11
-1.71814524E+02
 21
-7.93607492E+01
  0
LINE
  8
0
 62
4
 10
-1.72574524E+02
 20
-8.14207492E+01
 11
-1.71824524E+02
 21
-8.09907492E+01
  0
LINE
  8
0
 62
4
 10
-1.72574524E+02
 20
-7.89207492E+01
 11
-1.71824524E+02
 21
-7.93607492E+01
  0
LINE
  8
0
 62
4
 10
-1.69274524E+02
 20
-7.84207492E+01
 11
-1.71274524E+02
 21
-7.84207492E+01
  0
LINE
  8
0
 62
4
 10
-1.69274524E+02
 20
-8.19207492E+01
 11
-1.71274524E+02
 21
-8.19207492E+01
  0
LINE
  8
0
 62
4
 10
-1.71274524E+02
 20
-7.84207492E+01
 11
-1.71274524E+02
 21
-8.19207492E+01
  0
LINE
  8
0
 62
4
 10
-1.72574524E+02
 20
-7.89207492E+01
 11
-1.72574524E+02
 21
-8.14207492E+01
  0
LINE
  8
0
 62
4
 10
-1.69274524E+02
 20
-7.66707492E+01
 11
-1.69274524E+02
 21
-8.36707492E+01
  0
LINE
  8
0
 62
4
 10
-1.55574524E+02
 20
-7.66707492E+01
 11
-1.55574524E+02
 21
-8.36707492E+01
  0
LINE
  8
0
 62
4
 10
-1.55574524E+02
 20
-7.66707492E+01
 11
-1.55884524E+02
 21
-7.61307492E+01
  0
LINE
  8
0
 62
4
 10
-1.55574524E+02
 20
-8.36707492E+01
 11
-1.55884524E+02
 21
-8.42207492E+01
  0
LINE
  8
0
 62
4
 10
-1.57874524E+02
 20
-8.36707492E+01
 11
-1.57654524E+02
 21
-8.42207492E+01
  0
LINE
  8
0
 62
4
 10
-1.57654524E+02
 20
-8.42207492E+01
 11
-1.55884524E+02
 21
-8.42207492E+01
  0
LINE
  8
0
 62
4
 10
-1.57654524E+02
 20
-8.21907492E+01
 11
-1.55884524E+02
 21
-8.21907492E+01
  0
LINE
  8
0
 62
4
 10
-1.57654524E+02
 20
-7.81507492E+01
 11
-1.55884524E+02
 21
-7.81507492E+01
  0
LINE
  8
0
 62
4
 10
-1.57874524E+02
 20
-7.66707492E+01
 11
-1.57654524E+02
 21
-7.61307492E+01
  0
LINE
  8
0
 62
4
 10
-1.57654524E+02
 20
-7.61307492E+01
 11
-1.55884524E+02
 21
-7.61307492E+01
  0
LINE
  8
0
 62
4
 10
-1.59274524E+02
 20
-8.51707492E+01
 11
-1.57974524E+02
 21
-8.51707492E+01
  0
LINE
  8
0
 62
4
 10
-1.59274524E+02
 20
-7.51707492E+01
 11
-1.57974524E+02
 21
-7.51707492E+01
  0
LINE
  8
0
 62
4
 10
-1.59374524E+02
 20
-7.66853390E+01
 11
-1.59374524E+02
 21
-8.36707492E+01
  0
LINE
  8
0
 62
4
 10
-1.55574524E+02
 20
-8.21707492E+01
 11
-1.53074524E+02
 21
-8.21707492E+01
  0
LINE
  8
0
 62
6
 10
-1.55574524E+02
 20
-8.18207492E+01
 11
-1.54574524E+02
 21
-8.18207492E+01
  0
LINE
  8
0
 62
6
 10
-1.55574524E+02
 20
-7.85207492E+01
 11
-1.54574524E+02
 21
-7.85207492E+01
  0
LINE
  8
0
 62
4
 10
-1.55574524E+02
 20
-7.81707492E+01
 11
-1.53074524E+02
 21
-7.81707492E+01
  0
LINE
  8
0
 62
6
 10
-1.54574524E+02
 20
-8.18207492E+01
 11
-1.53964524E+02
 21
-8.21707492E+01
  0
LINE
  8
0
 62
6
 10
-1.54574524E+02
 20
-7.85207492E+01
 11
-1.53964524E+02
 21
-7.81707492E+01
  0
LINE
  8
0
 62
4
 10
-1.54574524E+02
 20
-7.81707492E+01
 11
-1.54574524E+02
 21
-8.21707492E+01
  0
LINE
  8
0
 62
4
 10
-1.52574524E+02
 20
-8.16707492E+01
 11
-1.52574524E+02
 21
-8.26707492E+01
  0
LINE
  8
0
 62
4
 10
-1.52574524E+02
 20
-7.76707492E+01
 11
-1.52574524E+02
 21
-7.86707492E+01
  0
LINE
  8
0
 62
4
 10
-1.53074524E+02
 20
-8.21707492E+01
 11
-1.52574524E+02
 21
-8.26707492E+01
  0
LINE
  8
0
 62
4
 10
-1.53074524E+02
 20
-7.81707492E+01
 11
-1.52574524E+02
 21
-7.76707492E+01
  0
LINE
  8
0
 62
4
 10
-1.53074524E+02
 20
-7.81707492E+01
 11
-1.53074524E+02
 21
-8.21707492E+01
  0
LINE
  8
0
 62
4
 10
-1.59274524E+02
 20
-7.51707492E+01
 11
-1.59274524E+02
 21
-8.51707492E+01
  0
ARC
  8
0
 62
4
 10
-1.59274523E+02
 20
-7.70207494E+01
 40
3.50000191E-01
 50
9.00000311E+01
 51
1.06601573E+02
  0
ARC
  8
0
 62
4
 10
-1.59274523E+02
 20
-8.33207490E+01
 40
3.50000191E-01
 50
2.53398427E+02
 51
2.69999969E+02
  0
LINE
  8
0
 62
4
 10
-1.57974524E+02
 20
-7.51707492E+01
 11
-1.57974524E+02
 21
-8.51707492E+01
  0
LINE
  8
0
 62
4
 10
-1.52574524E+02
 20
-7.86707492E+01
 11
-1.49074524E+02
 21
-7.86707492E+01
  0
LINE
  8
0
 62
4
 10
-1.52574524E+02
 20
-8.16707492E+01
 11
-1.49074524E+02
 21
-8.16707492E+01
  0
LINE
  8
0
 62
4
 10
-1.52574524E+02
 20
-8.26707492E+01
 11
-1.49074524E+02
 21
-8.26707492E+01
  0
LINE
  8
0
 62
4
 10
-1.52574524E+02
 20
-7.76707492E+01
 11
-1.49074524E+02
 21
-7.76707492E+01
  0
LINE
  8
0
 62
6
 10
-1.52574524E+02
 20
-7.86707492E+01
 11
-1.49074524E+02
 21
-8.16707492E+01
  0
LINE
  8
0
 62
6
 10
-1.52574524E+02
 20
-8.16707492E+01
 11
-1.49074524E+02
 21
-7.86707492E+01
  0
LINE
  8
0
  6
CENTER
 62
6
 10
-1.74374524E+02
 20
-8.01707492E+01
 11
-1.36636380E+02
 21
-8.01707492E+01
  0
LINE
  8
0
 62
4
 10
-5.30745235E+01
 20
-7.76707492E+01
 11
-5.30745235E+01
 21
-8.26707492E+01
  0
LINE
  8
0
 62
4
 10
-5.70745235E+01
 20
-7.81707492E+01
 11
-5.70745235E+01
 21
-8.21707492E+01
  0
LINE
  8
0
 62
4
 10
-5.70745235E+01
 20
-7.81707492E+01
 11
-5.65745235E+01
 21
-7.76707492E+01
  0
LINE
  8
0
 62
4
 10
-5.70745235E+01
 20
-8.21707492E+01
 11
-5.65745235E+01
 21
-8.26707492E+01
  0
LINE
  8
0
 62
4
 10
-5.65745235E+01
 20
-7.76707492E+01
 11
-5.65745235E+01
 21
-7.86707492E+01
  0
LINE
  8
0
 62
4
 10
-5.65745235E+01
 20
-8.16707492E+01
 11
-5.65745235E+01
 21
-8.26707492E+01
  0
LINE
  8
0
 62
4
 10
-5.85745235E+01
 20
-7.81707492E+01
 11
-5.85745235E+01
 21
-8.21707492E+01
  0
LINE
  8
0
 62
6
 10
-5.85745235E+01
 20
-7.85207492E+01
 11
-5.79645235E+01
 21
-7.81707492E+01
  0
LINE
  8
0
 62
6
 10
-5.85745235E+01
 20
-8.18207492E+01
 11
-5.79645235E+01
 21
-8.21707492E+01
  0
LINE
  8
0
 62
4
 10
-5.93745235E+01
 20
-7.81707492E+01
 11
-5.70745235E+01
 21
-7.81707492E+01
  0
LINE
  8
0
 62
6
 10
-5.93745235E+01
 20
-7.85207492E+01
 11
-5.85745235E+01
 21
-7.85207492E+01
  0
LINE
  8
0
 62
6
 10
-5.93745235E+01
 20
-8.18207492E+01
 11
-5.85745235E+01
 21
-8.18207492E+01
  0
LINE
  8
0
 62
4
 10
-5.93745235E+01
 20
-8.21707492E+01
 11
-5.70745235E+01
 21
-8.21707492E+01
  0
LINE
  8
0
 62
4
 10
-6.30745235E+01
 20
-7.51707492E+01
 11
-6.30745235E+01
 21
-8.51707492E+01
  0
LINE
  8
0
 62
4
 10
-6.17745235E+01
 20
-7.51707492E+01
 11
-6.17745235E+01
 21
-8.51707492E+01
  0
LINE
  8
0
 62
4
 10
-6.30745235E+01
 20
-7.51707492E+01
 11
-6.17745235E+01
 21
-7.51707492E+01
  0
LINE
  8
0
 62
4
 10
-6.30745235E+01
 20
-8.51707492E+01
 11
-6.17745235E+01
 21
-8.51707492E+01
  0
LINE
  8
0
 62
4
 10
-6.14545235E+01
 20
-7.61307492E+01
 11
-5.96845235E+01
 21
-7.61307492E+01
  0
LINE
  8
0
 62
4
 10
-6.17745235E+01
 20
-7.66707492E+01
 11
-6.14545235E+01
 21
-7.61307492E+01
  0
LINE
  8
0
 62
4
 10
-6.14545235E+01
 20
-7.81507492E+01
 11
-5.96845235E+01
 21
-7.81507492E+01
  0
LINE
  8
0
 62
4
 10
-6.14545235E+01
 20
-8.21907492E+01
 11
-5.96845235E+01
 21
-8.21907492E+01
  0
LINE
  8
0
 62
4
 10
-6.14545235E+01
 20
-8.42207492E+01
 11
-5.96845235E+01
 21
-8.42207492E+01
  0
LINE
  8
0
 62
4
 10
-6.17745235E+01
 20
-8.36707492E+01
 11
-6.14545235E+01
 21
-8.42207492E+01
  0
LINE
  8
0
 62
4
 10
-5.93745235E+01
 20
-8.36707492E+01
 11
-5.96845235E+01
 21
-8.42207492E+01
  0
LINE
  8
0
 62
4
 10
-5.93745235E+01
 20
-7.66707492E+01
 11
-5.96845235E+01
 21
-7.61307492E+01
  0
LINE
  8
0
 62
4
 10
-5.93745235E+01
 20
-7.66707492E+01
 11
-5.93745235E+01
 21
-8.36707492E+01
  0
LINE
  8
0
 62
4
 10
-7.30745235E+01
 20
-7.66707492E+01
 11
-7.30745235E+01
 21
-8.36707492E+01
  0
LINE
  8
0
 62
4
 10
-7.27545235E+01
 20
-7.81507492E+01
 11
-6.33845235E+01
 21
-7.81507492E+01
  0
LINE
  8
0
 62
4
 10
-7.27545235E+01
 20
-7.61307492E+01
 11
-6.34845235E+01
 21
-7.61307492E+01
  0
LINE
  8
0
 62
4
 10
-7.30745235E+01
 20
-7.66707492E+01
 11
-7.27545235E+01
 21
-7.61307492E+01
  0
LINE
  8
0
 62
4
 10
-7.27545235E+01
 20
-8.21907492E+01
 11
-6.33845235E+01
 21
-8.21907492E+01
  0
LINE
  8
0
 62
4
 10
-7.30745235E+01
 20
-8.36707492E+01
 11
-7.27545235E+01
 21
-8.42207492E+01
  0
LINE
  8
0
 62
4
 10
-7.27545235E+01
 20
-8.42207492E+01
 11
-6.34845235E+01
 21
-8.42207492E+01
  0
LINE
  8
0
 62
4
 10
-6.31745235E+01
 20
-8.36707492E+01
 11
-6.34845235E+01
 21
-8.42207492E+01
  0
LINE
  8
0
 62
4
 10
-6.31745235E+01
 20
-7.66707492E+01
 11
-6.34845235E+01
 21
-7.61307492E+01
  0
ARC
  8
0
 62
4
 10
-6.11631989E+01
 20
-8.32068746E+01
 40
1.79415492E+00
 50
3.34447945E+02
 51
3.44963155E+01
  0
ARC
  8
0
 62
4
 10
-5.45745082E+01
 20
-8.01707492E+01
 40
2.50001221E+00
 50
1.43130312E+02
 51
2.16869688E+02
  0
ARC
  8
0
 62
4
 10
-6.60619167E+01
 20
-8.01707492E+01
 40
6.68965947E+00
 50
3.42424723E+02
 51
1.75752774E+01
  0
ARC
  8
0
 62
4
 10
-6.11635272E+01
 20
-7.71389174E+01
 40
1.79199759E+00
 50
3.25622773E+02
 51
2.53829241E+01
  0
ARC
  8
0
 62
4
 10
-5.99857678E+01
 20
-8.32060988E+01
 40
1.78554702E+00
 50
1.45343927E+02
 51
2.05711813E+02
  0
ARC
  8
0
 62
4
 10
-5.99854372E+01
 20
-7.71396974E+01
 40
1.78337882E+00
 50
1.54457851E+02
 51
2.14536452E+02
  0
ARC
  8
0
 62
4
 10
-5.50871242E+01
 20
-8.01707492E+01
 40
6.68013276E+00
 50
1.62398839E+02
 51
1.97601161E+02
  0
ARC
  8
0
 62
4
 10
-7.12854577E+01
 20
-7.71407492E+01
 40
1.78276594E+00
 50
1.45491021E+02
 51
2.14508980E+02
  0
ARC
  8
0
 62
4
 10
-6.63871425E+01
 20
-8.01707492E+01
 40
6.68011531E+00
 50
1.62398792E+02
 51
1.97601208E+02
  0
ARC
  8
0
 62
4
 10
-7.12854544E+01
 20
-8.32057492E+01
 40
1.78560603E+00
 50
1.45358872E+02
 51
2.14641128E+02
  0
ARC
  8
0
 62
4
 10
-6.49635680E+01
 20
-7.71407492E+01
 40
1.79099764E+00
 50
3.25671874E+02
 51
3.43281262E+01
  0
ARC
  8
0
 62
4
 10
-6.98618831E+01
 20
-8.01707492E+01
 40
6.68962747E+00
 50
3.42424636E+02
 51
1.75753642E+01
  0
ARC
  8
0
 62
4
 10
-6.49635712E+01
 20
-8.32057492E+01
 40
1.79382470E+00
 50
3.25540045E+02
 51
3.44599544E+01
  0
LINE
  8
0
 62
4
 10
-6.31745235E+01
 20
-7.66707492E+01
 11
-6.31745235E+01
 21
-8.36707492E+01
  0
LINE
  8
0
 62
4
 10
-7.53745235E+01
 20
-7.91707492E+01
 11
-7.53745235E+01
 21
-8.11707492E+01
  0
LINE
  8
0
 62
4
 10
-7.58745235E+01
 20
-7.91707492E+01
 11
-7.58745235E+01
 21
-8.11707492E+01
  0
LINE
  8
0
 62
4
 10
-7.50745235E+01
 20
-7.84207492E+01
 11
-7.50745235E+01
 21
-8.19207492E+01
  0
LINE
  8
0
 62
4
 10
-7.53745235E+01
 20
-8.11707492E+01
 11
-7.50745235E+01
 21
-8.19207492E+01
  0
LINE
  8
0
 62
4
 10
-7.50745235E+01
 20
-7.84207492E+01
 11
-7.53745235E+01
 21
-7.91707492E+01
  0
LINE
  8
0
 62
4
 10
-7.64795235E+01
 20
-8.20707492E+01
 11
-7.65745235E+01
 21
-8.20207492E+01
  0
LINE
  8
0
 62
4
 10
-7.64795235E+01
 20
-7.82707492E+01
 11
-7.65745235E+01
 21
-7.83207492E+01
  0
LINE
  8
0
 62
4
 10
-7.58745235E+01
 20
-8.11707492E+01
 11
-7.64795235E+01
 21
-8.20707492E+01
  0
LINE
  8
0
 62
4
 10
-7.64795235E+01
 20
-7.82707492E+01
 11
-7.58745235E+01
 21
-7.91707492E+01
  0
LINE
  8
0
 62
4
 10
-7.53745235E+01
 20
-7.91707492E+01
 11
-7.58745235E+01
 21
-7.91707492E+01
  0
LINE
  8
0
 62
4
 10
-7.53745235E+01
 20
-8.11707492E+01
 11
-7.58745235E+01
 21
-8.11707492E+01
  0
LINE
  8
0
 62
4
 10
-7.30745235E+01
 20
-7.84207492E+01
 11
-7.50745235E+01
 21
-7.84207492E+01
  0
LINE
  8
0
 62
4
 10
-7.30745235E+01
 20
-8.19207492E+01
 11
-7.50745235E+01
 21
-8.19207492E+01
  0
LINE
  8
0
 62
4
 10
-7.65745235E+01
 20
-7.83207492E+01
 11
-7.65745235E+01
 21
-8.20207492E+01
  0
ARC
  8
0
 62
4
 10
-6.30745233E+01
 20
-7.70207494E+01
 40
3.50000191E-01
 50
9.00000311E+01
 51
1.06601573E+02
  0
ARC
  8
0
 62
4
 10
-6.30745233E+01
 20
-8.33207490E+01
 40
3.50000191E-01
 50
2.53398427E+02
 51
2.69999969E+02
  0
LINE
  8
0
  6
CENTER
 62
6
 10
-7.78745235E+01
 20
-8.01707492E+01
 11
-4.07921642E+01
 21
-8.01707492E+01
  0
LINE
  8
0
 62
6
 10
-5.65745235E+01
 20
-8.16707492E+01
 11
-5.30745235E+01
 21
-7.86707492E+01
  0
LINE
  8
0
 62
6
 10
-5.65745235E+01
 20
-7.86707492E+01
 11
-5.30745235E+01
 21
-8.16707492E+01
  0
LINE
  8
0
 62
4
 10
-5.65745235E+01
 20
-7.76707492E+01
 11
-5.30745235E+01
 21
-7.76707492E+01
  0
LINE
  8
0
 62
4
 10
-5.65745235E+01
 20
-8.26707492E+01
 11
-5.30745235E+01
 21
-8.26707492E+01
  0
LINE
  8
0
 62
4
 10
-5.65745235E+01
 20
-8.16707492E+01
 11
-5.30745235E+01
 21
-8.16707492E+01
  0
LINE
  8
0
 62
4
 10
-5.65745235E+01
 20
-7.86707492E+01
 11
-5.30745235E+01
 21
-7.86707492E+01
  0
LINE
  8
0
 62
4
 10
4.59254765E+01
 20
-7.76707492E+01
 11
4.59254765E+01
 21
-8.26707492E+01
  0
LINE
  8
0
 62
4
 10
2.59254765E+01
 20
-7.66707492E+01
 11
2.62454765E+01
 21
-7.61307492E+01
  0
LINE
  8
0
 62
4
 10
2.59254765E+01
 20
-8.36707492E+01
 11
2.62454765E+01
 21
-8.42207492E+01
  0
ARC
  8
0
 62
4
 10
2.77145423E+01
 20
-7.71407492E+01
 40
1.78276594E+00
 50
1.45491021E+02
 51
2.14508980E+02
  0
ARC
  8
0
 62
4
 10
3.26128575E+01
 20
-8.01707492E+01
 40
6.68011531E+00
 50
1.62398792E+02
 51
1.97601208E+02
  0
ARC
  8
0
 62
4
 10
2.77145456E+01
 20
-8.32057492E+01
 40
1.78560603E+00
 50
1.45358872E+02
 51
2.14641128E+02
  0
LINE
  8
0
 62
4
 10
3.59254765E+01
 20
-7.68449245E+01
 11
3.59254765E+01
 21
-8.38449245E+01
  0
ARC
  8
0
 62
4
 10
3.40364288E+01
 20
-8.32057492E+01
 40
1.79382470E+00
 50
3.25540045E+02
 51
3.44599544E+01
  0
ARC
  8
0
 62
4
 10
2.91381169E+01
 20
-8.01707492E+01
 40
6.68962747E+00
 50
3.42424636E+02
 51
1.75753642E+01
  0
ARC
  8
0
 62
4
 10
3.40364320E+01
 20
-7.71407492E+01
 40
1.79099764E+00
 50
3.25671874E+02
 51
3.43281262E+01
  0
ARC
  8
0
 62
4
 10
4.39128758E+01
 20
-8.01707492E+01
 40
6.68013276E+00
 50
1.62398839E+02
 51
1.97601161E+02
  0
ARC
  8
0
 62
4
 10
3.90145628E+01
 20
-7.71396974E+01
 40
1.78337882E+00
 50
1.54457851E+02
 51
2.14536452E+02
  0
ARC
  8
0
 62
4
 10
3.90142322E+01
 20
-8.32060988E+01
 40
1.78554702E+00
 50
1.45343927E+02
 51
2.05711813E+02
  0
ARC
  8
0
 62
4
 10
3.78364728E+01
 20
-7.71389174E+01
 40
1.79199759E+00
 50
3.25622773E+02
 51
2.53829241E+01
  0
ARC
  8
0
 62
4
 10
3.29380833E+01
 20
-8.01707492E+01
 40
6.68965947E+00
 50
3.42424723E+02
 51
1.75752774E+01
  0
ARC
  8
0
 62
4
 10
4.44254918E+01
 20
-8.01707492E+01
 40
2.50001221E+00
 50
1.43130312E+02
 51
2.16869688E+02
  0
ARC
  8
0
 62
4
 10
3.78368011E+01
 20
-8.32068746E+01
 40
1.79415492E+00
 50
3.34447945E+02
 51
3.44963155E+01
  0
LINE
  8
0
 62
4
 10
3.58254765E+01
 20
-7.66707492E+01
 11
3.55154765E+01
 21
-7.61307492E+01
  0
LINE
  8
0
 62
4
 10
3.58254765E+01
 20
-8.36707492E+01
 11
3.55154765E+01
 21
-8.42207492E+01
  0
LINE
  8
0
 62
4
 10
2.62454765E+01
 20
-8.42207492E+01
 11
3.55154765E+01
 21
-8.42207492E+01
  0
LINE
  8
0
 62
4
 10
2.62454765E+01
 20
-8.21907492E+01
 11
3.55154765E+01
 21
-8.21907492E+01
  0
LINE
  8
0
 62
4
 10
2.62454765E+01
 20
-7.61307492E+01
 11
3.55154765E+01
 21
-7.61307492E+01
  0
LINE
  8
0
 62
4
 10
2.62454765E+01
 20
-7.81507492E+01
 11
3.55154765E+01
 21
-7.81507492E+01
  0
LINE
  8
0
 62
4
 10
3.96254765E+01
 20
-7.66707492E+01
 11
3.96254765E+01
 21
-8.36707492E+01
  0
LINE
  8
0
 62
4
 10
3.96254765E+01
 20
-7.66707492E+01
 11
3.93154765E+01
 21
-7.61307492E+01
  0
LINE
  8
0
 62
4
 10
3.96254765E+01
 20
-8.36707492E+01
 11
3.93154765E+01
 21
-8.42207492E+01
  0
LINE
  8
0
 62
4
 10
3.72254765E+01
 20
-8.36707492E+01
 11
3.75454765E+01
 21
-8.42207492E+01
  0
LINE
  8
0
 62
4
 10
3.75454765E+01
 20
-8.42207492E+01
 11
3.93154765E+01
 21
-8.42207492E+01
  0
LINE
  8
0
 62
4
 10
3.75454765E+01
 20
-8.21907492E+01
 11
3.93154765E+01
 21
-8.21907492E+01
  0
LINE
  8
0
 62
4
 10
3.75454765E+01
 20
-7.81507492E+01
 11
3.93154765E+01
 21
-7.81507492E+01
  0
LINE
  8
0
 62
4
 10
3.72254765E+01
 20
-7.66707492E+01
 11
3.75454765E+01
 21
-7.61307492E+01
  0
LINE
  8
0
 62
4
 10
3.75454765E+01
 20
-7.61307492E+01
 11
3.93154765E+01
 21
-7.61307492E+01
  0
LINE
  8
0
 62
4
 10
3.59254765E+01
 20
-8.51707492E+01
 11
3.72254765E+01
 21
-8.51707492E+01
  0
LINE
  8
0
 62
4
 10
3.59254765E+01
 20
-7.51707492E+01
 11
3.72254765E+01
 21
-7.51707492E+01
  0
LINE
  8
0
 62
4
 10
3.72254765E+01
 20
-7.51707492E+01
 11
3.72254765E+01
 21
-8.51707492E+01
  0
LINE
  8
0
 62
4
 10
3.59254765E+01
 20
-7.51707492E+01
 11
3.59254765E+01
 21
-8.51707492E+01
  0
LINE
  8
0
 62
4
 10
3.96254765E+01
 20
-8.21707492E+01
 11
4.19254765E+01
 21
-8.21707492E+01
  0
LINE
  8
0
 62
6
 10
3.96254765E+01
 20
-8.18207492E+01
 11
4.04254765E+01
 21
-8.18207492E+01
  0
LINE
  8
0
 62
6
 10
3.96254765E+01
 20
-7.85207492E+01
 11
4.04254765E+01
 21
-7.85207492E+01
  0
LINE
  8
0
 62
4
 10
3.96254765E+01
 20
-7.81707492E+01
 11
4.19254765E+01
 21
-7.81707492E+01
  0
LINE
  8
0
 62
6
 10
4.04254765E+01
 20
-8.18207492E+01
 11
4.10354765E+01
 21
-8.21707492E+01
  0
LINE
  8
0
 62
6
 10
4.04254765E+01
 20
-7.85207492E+01
 11
4.10354765E+01
 21
-7.81707492E+01
  0
LINE
  8
0
 62
4
 10
4.04254765E+01
 20
-7.81707492E+01
 11
4.04254765E+01
 21
-8.21707492E+01
  0
LINE
  8
0
 62
4
 10
4.24254765E+01
 20
-8.16707492E+01
 11
4.24254765E+01
 21
-8.26707492E+01
  0
LINE
  8
0
 62
4
 10
4.24254765E+01
 20
-7.76707492E+01
 11
4.24254765E+01
 21
-7.86707492E+01
  0
LINE
  8
0
 62
4
 10
4.19254765E+01
 20
-8.21707492E+01
 11
4.24254765E+01
 21
-8.26707492E+01
  0
LINE
  8
0
 62
4
 10
4.19254765E+01
 20
-7.81707492E+01
 11
4.24254765E+01
 21
-7.76707492E+01
  0
LINE
  8
0
 62
4
 10
4.19254765E+01
 20
-7.81707492E+01
 11
4.19254765E+01
 21
-8.21707492E+01
  0
LINE
  8
0
 62
4
 10
2.59254765E+01
 20
-7.66707492E+01
 11
2.59254765E+01
 21
-8.36707492E+01
  0
LINE
  8
0
 62
4
 10
1.99254765E+01
 20
-7.71707492E+01
 11
1.99254765E+01
 21
-8.31707492E+01
  0
LINE
  8
0
 62
4
 10
2.51254765E+01
 20
-7.76707492E+01
 11
2.59254765E+01
 21
-7.81707492E+01
  0
LINE
  8
0
 62
4
 10
2.11254765E+01
 20
-7.83707492E+01
 11
2.11254765E+01
 21
-8.19707492E+01
  0
LINE
  8
0
 62
4
 10
2.29254765E+01
 20
-7.76707492E+01
 11
2.29254765E+01
 21
-8.26707492E+01
  0
LINE
  8
0
 62
4
 10
2.51254765E+01
 20
-7.76707492E+01
 11
2.51254765E+01
 21
-8.26707492E+01
  0
LINE
  8
0
 62
4
 10
2.29254765E+01
 20
-7.76707492E+01
 11
2.11254765E+01
 21
-7.83707492E+01
  0
LINE
  8
0
 62
4
 10
1.99254765E+01
 20
-7.71707492E+01
 11
2.11254765E+01
 21
-7.83707492E+01
  0
LINE
  8
0
 62
4
 10
2.51254765E+01
 20
-7.76707492E+01
 11
2.29254765E+01
 21
-7.76707492E+01
  0
LINE
  8
0
 62
4
 10
2.51254765E+01
 20
-8.26707492E+01
 11
2.29254765E+01
 21
-8.26707492E+01
  0
LINE
  8
0
 62
4
 10
2.29254765E+01
 20
-8.26707492E+01
 11
2.11254765E+01
 21
-8.19707492E+01
  0
LINE
  8
0
 62
4
 10
1.99254765E+01
 20
-8.31707492E+01
 11
2.11254765E+01
 21
-8.19707492E+01
  0
LINE
  8
0
 62
4
 10
2.59254765E+01
 20
-8.21707492E+01
 11
2.51254765E+01
 21
-8.26707492E+01
  0
ARC
  8
0
 62
4
 10
3.59277445E+01
 20
-7.70207494E+01
 40
3.50000191E-01
 50
9.00000311E+01
 51
1.06601573E+02
  0
ARC
  8
0
 62
4
 10
3.59277445E+01
 20
-8.33207490E+01
 40
3.50000191E-01
 50
2.53398427E+02
 51
2.69999969E+02
  0
LINE
  8
0
 62
4
 10
3.58277444E+01
 20
-7.66853390E+01
 11
3.58277444E+01
 21
-8.36561593E+01
  0
LINE
  8
0
  6
CENTER
 62
6
 10
1.85320255E+01
 20
-8.01707492E+01
 11
5.79212774E+01
 21
-8.01707492E+01
  0
LINE
  8
0
 62
6
 10
4.24254765E+01
 20
-8.16707492E+01
 11
4.59254765E+01
 21
-7.86707492E+01
  0
LINE
  8
0
 62
6
 10
4.24254765E+01
 20
-7.86707492E+01
 11
4.59254765E+01
 21
-8.16707492E+01
  0
LINE
  8
0
 62
4
 10
4.24254765E+01
 20
-7.76707492E+01
 11
4.59254765E+01
 21
-7.76707492E+01
  0
LINE
  8
0
 62
4
 10
4.24254765E+01
 20
-8.26707492E+01
 11
4.59254765E+01
 21
-8.26707492E+01
  0
LINE
  8
0
 62
4
 10
4.24254765E+01
 20
-8.16707492E+01
 11
4.59254765E+01
 21
-8.16707492E+01
  0
LINE
  8
0
 62
4
 10
4.24254765E+01
 20
-7.86707492E+01
 11
4.59254765E+01
 21
-7.86707492E+01
  0
LINE
  8
0
 62
4
 10
1.41925476E+02
 20
-7.76707492E+01
 11
1.41925476E+02
 21
-8.26707492E+01
  0
LINE
  8
0
 62
4
 10
1.21925476E+02
 20
-7.66707492E+01
 11
1.22245476E+02
 21
-7.61307492E+01
  0
LINE
  8
0
 62
4
 10
1.21925476E+02
 20
-8.36707492E+01
 11
1.22245476E+02
 21
-8.42207492E+01
  0
ARC
  8
0
 62
4
 10
1.23714542E+02
 20
-7.71407492E+01
 40
1.78276594E+00
 50
1.45491021E+02
 51
2.14508980E+02
  0
ARC
  8
0
 62
4
 10
1.28612857E+02
 20
-8.01707492E+01
 40
6.68011531E+00
 50
1.62398792E+02
 51
1.97601208E+02
  0
ARC
  8
0
 62
4
 10
1.23714546E+02
 20
-8.32057492E+01
 40
1.78560603E+00
 50
1.45358872E+02
 51
2.14641128E+02
  0
LINE
  8
0
 62
4
 10
1.31925476E+02
 20
-7.68449245E+01
 11
1.31925476E+02
 21
-8.38449245E+01
  0
ARC
  8
0
 62
4
 10
1.30036429E+02
 20
-8.32057492E+01
 40
1.79382470E+00
 50
3.25540045E+02
 51
3.44599544E+01
  0
ARC
  8
0
 62
4
 10
1.25138117E+02
 20
-8.01707492E+01
 40
6.68962747E+00
 50
3.42424636E+02
 51
1.75753642E+01
  0
ARC
  8
0
 62
4
 10
1.30036432E+02
 20
-7.71407492E+01
 40
1.79099764E+00
 50
3.25671874E+02
 51
3.43281262E+01
  0
ARC
  8
0
 62
4
 10
1.39912876E+02
 20
-8.01707492E+01
 40
6.68013276E+00
 50
1.62398839E+02
 51
1.97601161E+02
  0
ARC
  8
0
 62
4
 10
1.35014563E+02
 20
-7.71396974E+01
 40
1.78337882E+00
 50
1.54457851E+02
 51
2.14536452E+02
  0
ARC
  8
0
 62
4
 10
1.35014232E+02
 20
-8.32060988E+01
 40
1.78554702E+00
 50
1.45343927E+02
 51
2.05711813E+02
  0
ARC
  8
0
 62
4
 10
1.33836473E+02
 20
-7.71389174E+01
 40
1.79199759E+00
 50
3.25622773E+02
 51
2.53829241E+01
  0
ARC
  8
0
 62
4
 10
1.28938083E+02
 20
-8.01707492E+01
 40
6.68965947E+00
 50
3.42424723E+02
 51
1.75752774E+01
  0
ARC
  8
0
 62
4
 10
1.40425492E+02
 20
-8.01707492E+01
 40
2.50001221E+00
 50
1.43130312E+02
 51
2.16869688E+02
  0
ARC
  8
0
 62
4
 10
1.33836801E+02
 20
-8.32068746E+01
 40
1.79415492E+00
 50
3.34447945E+02
 51
3.44963155E+01
  0
LINE
  8
0
 62
4
 10
1.31825476E+02
 20
-7.66707492E+01
 11
1.31515476E+02
 21
-7.61307492E+01
  0
LINE
  8
0
 62
4
 10
1.31825476E+02
 20
-8.36707492E+01
 11
1.31515476E+02
 21
-8.42207492E+01
  0
LINE
  8
0
 62
4
 10
1.22245476E+02
 20
-8.42207492E+01
 11
1.31515476E+02
 21
-8.42207492E+01
  0
LINE
  8
0
 62
4
 10
1.22245476E+02
 20
-8.21907492E+01
 11
1.31515476E+02
 21
-8.21907492E+01
  0
LINE
  8
0
 62
4
 10
1.22245476E+02
 20
-7.61307492E+01
 11
1.31515476E+02
 21
-7.61307492E+01
  0
LINE
  8
0
 62
4
 10
1.22245476E+02
 20
-7.81507492E+01
 11
1.31515476E+02
 21
-7.81507492E+01
  0
LINE
  8
0
 62
4
 10
1.35625476E+02
 20
-7.66707492E+01
 11
1.35625476E+02
 21
-8.36707492E+01
  0
LINE
  8
0
 62
4
 10
1.35625476E+02
 20
-7.66707492E+01
 11
1.35315476E+02
 21
-7.61307492E+01
  0
LINE
  8
0
 62
4
 10
1.35625476E+02
 20
-8.36707492E+01
 11
1.35315476E+02
 21
-8.42207492E+01
  0
LINE
  8
0
 62
4
 10
1.33225476E+02
 20
-8.36707492E+01
 11
1.33545476E+02
 21
-8.42207492E+01
  0
LINE
  8
0
 62
4
 10
1.33545476E+02
 20
-8.42207492E+01
 11
1.35315476E+02
 21
-8.42207492E+01
  0
LINE
  8
0
 62
4
 10
1.33545476E+02
 20
-8.21907492E+01
 11
1.35315476E+02
 21
-8.21907492E+01
  0
LINE
  8
0
 62
4
 10
1.33545476E+02
 20
-7.81507492E+01
 11
1.35315476E+02
 21
-7.81507492E+01
  0
LINE
  8
0
 62
4
 10
1.33225476E+02
 20
-7.66707492E+01
 11
1.33545476E+02
 21
-7.61307492E+01
  0
LINE
  8
0
 62
4
 10
1.33545476E+02
 20
-7.61307492E+01
 11
1.35315476E+02
 21
-7.61307492E+01
  0
LINE
  8
0
 62
4
 10
1.31925476E+02
 20
-8.51707492E+01
 11
1.33225476E+02
 21
-8.51707492E+01
  0
LINE
  8
0
 62
4
 10
1.31925476E+02
 20
-7.51707492E+01
 11
1.33225476E+02
 21
-7.51707492E+01
  0
LINE
  8
0
 62
4
 10
1.33225476E+02
 20
-7.51707492E+01
 11
1.33225476E+02
 21
-8.51707492E+01
  0
LINE
  8
0
 62
4
 10
1.31925476E+02
 20
-7.51707492E+01
 11
1.31925476E+02
 21
-8.51707492E+01
  0
LINE
  8
0
 62
4
 10
1.35625476E+02
 20
-8.21707492E+01
 11
1.37925476E+02
 21
-8.21707492E+01
  0
LINE
  8
0
 62
6
 10
1.35625476E+02
 20
-8.18207492E+01
 11
1.36425476E+02
 21
-8.18207492E+01
  0
LINE
  8
0
 62
6
 10
1.35625476E+02
 20
-7.85207492E+01
 11
1.36425476E+02
 21
-7.85207492E+01
  0
LINE
  8
0
 62
4
 10
1.35625476E+02
 20
-7.81707492E+01
 11
1.37925476E+02
 21
-7.81707492E+01
  0
LINE
  8
0
 62
6
 10
1.36425476E+02
 20
-8.18207492E+01
 11
1.37035476E+02
 21
-8.21707492E+01
  0
LINE
  8
0
 62
6
 10
1.36425476E+02
 20
-7.85207492E+01
 11
1.37035476E+02
 21
-7.81707492E+01
  0
LINE
  8
0
 62
4
 10
1.36425476E+02
 20
-7.81707492E+01
 11
1.36425476E+02
 21
-8.21707492E+01
  0
LINE
  8
0
 62
4
 10
1.38425476E+02
 20
-8.16707492E+01
 11
1.38425476E+02
 21
-8.26707492E+01
  0
LINE
  8
0
 62
4
 10
1.38425476E+02
 20
-7.76707492E+01
 11
1.38425476E+02
 21
-7.86707492E+01
  0
LINE
  8
0
 62
4
 10
1.37925476E+02
 20
-8.21707492E+01
 11
1.38425476E+02
 21
-8.26707492E+01
  0
LINE
  8
0
 62
4
 10
1.37925476E+02
 20
-7.81707492E+01
 11
1.38425476E+02
 21
-7.76707492E+01
  0
LINE
  8
0
 62
4
 10
1.37925476E+02
 20
-7.81707492E+01
 11
1.37925476E+02
 21
-8.21707492E+01
  0
LINE
  8
0
 62
4
 10
1.21925476E+02
 20
-7.66707492E+01
 11
1.21925476E+02
 21
-8.36707492E+01
  0
LINE
  8
0
 62
4
 10
1.16425476E+02
 20
-7.61707492E+01
 11
1.16425476E+02
 21
-8.41707492E+01
  0
LINE
  8
0
 62
4
 10
1.21425476E+02
 20
-7.74207492E+01
 11
1.21925476E+02
 21
-7.79207492E+01
  0
LINE
  8
0
 62
4
 10
1.18510476E+02
 20
-7.78357492E+01
 11
1.18510476E+02
 21
-8.25057492E+01
  0
LINE
  8
0
 62
4
 10
1.21425476E+02
 20
-7.74207492E+01
 11
1.21425476E+02
 21
-8.29207492E+01
  0
LINE
  8
0
 62
4
 10
1.18925476E+02
 20
-7.74207492E+01
 11
1.18925476E+02
 21
-8.29207492E+01
  0
LINE
  8
0
 62
4
 10
1.16675476E+02
 20
-7.60007492E+01
 11
1.16675476E+02
 21
-8.43407492E+01
  0
LINE
  8
0
 62
4
 10
1.16675476E+02
 20
-7.60007492E+01
 11
1.16425476E+02
 21
-7.61707492E+01
  0
LINE
  8
0
 62
4
 10
1.16675476E+02
 20
-7.60007492E+01
 11
1.18510476E+02
 21
-7.78357492E+01
  0
LINE
  8
0
 62
4
 10
1.18925476E+02
 20
-7.74207492E+01
 11
1.18510476E+02
 21
-7.78357492E+01
  0
LINE
  8
0
 62
4
 10
1.21425476E+02
 20
-7.74207492E+01
 11
1.18925476E+02
 21
-7.74207492E+01
  0
LINE
  8
0
 62
4
 10
1.21425476E+02
 20
-8.29207492E+01
 11
1.21925476E+02
 21
-8.24207492E+01
  0
LINE
  8
0
 62
4
 10
1.16675476E+02
 20
-8.43407492E+01
 11
1.16425476E+02
 21
-8.41707492E+01
  0
LINE
  8
0
 62
4
 10
1.16675476E+02
 20
-8.43407492E+01
 11
1.18510476E+02
 21
-8.25057492E+01
  0
LINE
  8
0
 62
4
 10
1.18510476E+02
 20
-8.25057492E+01
 11
1.18925476E+02
 21
-8.29207492E+01
  0
LINE
  8
0
 62
4
 10
1.21425476E+02
 20
-8.29207492E+01
 11
1.18925476E+02
 21
-8.29207492E+01
  0
ARC
  8
0
 62
4
 10
1.31927745E+02
 20
-7.70207494E+01
 40
3.50000191E-01
 50
9.00000311E+01
 51
1.06601573E+02
  0
ARC
  8
0
 62
4
 10
1.31927745E+02
 20
-8.33207490E+01
 40
3.50000191E-01
 50
2.53398427E+02
 51
2.69999969E+02
  0
LINE
  8
0
 62
4
 10
1.31827744E+02
 20
-7.66853390E+01
 11
1.31827744E+02
 21
-8.36561593E+01
  0
LINE
  8
0
  6
CENTER
 62
6
 10
1.14653650E+02
 20
-8.01707492E+01
 11
1.54349002E+02
 21
-8.01707492E+01
  0
LINE
  8
0
 62
6
 10
1.38425476E+02
 20
-8.16707492E+01
 11
1.41925476E+02
 21
-7.86707492E+01
  0
LINE
  8
0
 62
6
 10
1.38425476E+02
 20
-7.86707492E+01
 11
1.41925476E+02
 21
-8.16707492E+01
  0
LINE
  8
0
 62
4
 10
1.38425476E+02
 20
-7.76707492E+01
 11
1.41925476E+02
 21
-7.76707492E+01
  0
LINE
  8
0
 62
4
 10
1.38425476E+02
 20
-8.26707492E+01
 11
1.41925476E+02
 21
-8.26707492E+01
  0
LINE
  8
0
 62
4
 10
1.38425476E+02
 20
-8.16707492E+01
 11
1.41925476E+02
 21
-8.16707492E+01
  0
LINE
  8
0
 62
4
 10
1.38425476E+02
 20
-7.86707492E+01
 11
1.41925476E+02
 21
-7.86707492E+01
  0
TEXT
  8
0
 62
7
 10
-1.54100000E+02
 20
-2.23000000E+01
 40
3.20000005E+00
  1
-25
 41
1.00000000E+00
  7
MONOTXT
  0
TEXT
  8
0
 62
7
 10
-1.16100000E+02
 20
-2.23000000E+01
 40
3.20000005E+00
  1
-15
 41
1.00000000E+00
  7
MONOTXT
  0
TEXT
  8
0
 62
7
 10
-1.35100000E+02
 20
-2.23000000E+01
 40
3.20000005E+00
  1
-20
 41
1.00000000E+00
  7
MONOTXT
  0
LINE
  8
0
 62
7
 10
-1.89250000E+02
 20
-2.85000000E+01
 11
-4.52500000E+01
 21
-2.85000000E+01
  0
LINE
  8
0
 62
7
 10
-1.89250000E+02
 20
-2.50000000E+00
 11
-4.52500000E+01
 21
-2.50000000E+00
  0
LINE
  8
0
 62
7
 10
-1.89250000E+02
 20
-2.33000000E+01
 11
-4.52500000E+01
 21
-2.33000000E+01
  0
LINE
  8
0
 62
7
 10
-1.89250000E+02
 20
-2.50000000E+00
 11
-1.89250000E+02
 21
-2.85000000E+01
  0
LINE
  8
0
 62
7
 10
-1.59250000E+02
 20
-2.50000000E+00
 11
-1.59250000E+02
 21
-2.85000000E+01
  0
LINE
  8
0
 62
7
 10
-1.40250000E+02
 20
-2.50000000E+00
 11
-1.40250000E+02
 21
-2.85000000E+01
  0
LINE
  8
0
 62
7
 10
-1.21250000E+02
 20
-2.50000000E+00
 11
-1.21250000E+02
 21
-2.85000000E+01
  0
LINE
  8
0
 62
7
 10
-4.52500000E+01
 20
-2.50000000E+00
 11
-4.52500000E+01
 21
-2.85000000E+01
  0
TEXT
  8
0
 62
7
 10
-1.50900000E+02
 20
-1.19000000E+01
 40
3.20000005E+00
  1
5
 41
1.00000000E+00
  7
MONOTXT
  0
TEXT
  8
0
 62
7
 10
-1.33500000E+02
 20
-1.19000000E+01
 40
3.20000005E+00
  1
10
 41
1.00000000E+00
  7
MONOTXT
  0
TEXT
  8
0
 62
7
 10
-1.14500000E+02
 20
-1.19000000E+01
 40
3.20000005E+00
  1
15
 41
1.00000000E+00
  7
MONOTXT
  0
LINE
  8
0
 62
7
 10
-1.02250000E+02
 20
-2.50000000E+00
 11
-1.02250000E+02
 21
-2.85000000E+01
  0
LINE
  8
0
 62
7
 10
-8.32500000E+01
 20
-2.50000000E+00
 11
-8.32500000E+01
 21
-2.85000000E+01
  0
LINE
  8
0
 62
7
 10
-6.42500000E+01
 20
-2.50000000E+00
 11
-6.42500000E+01
 21
-2.85000000E+01
  0
TEXT
  8
0
 62
7
 10
-9.55000000E+01
 20
-1.19000000E+01
 40
3.20000005E+00
  1
20
 41
1.00000000E+00
  7
MONOTXT
  0
TEXT
  8
0
 62
7
 10
-9.71000001E+01
 20
-2.23000000E+01
 40
3.20000005E+00
  1
-10
 41
1.00000000E+00
  7
MONOTXT
  0
TEXT
  8
0
 62
7
 10
-7.65000000E+01
 20
-1.19000000E+01
 40
3.20000005E+00
  1
25
 41
1.00000000E+00
  7
MONOTXT
  0
TEXT
  8
0
 62
7
 10
-7.65000000E+01
 20
-2.23000000E+01
 40
3.20000005E+00
  1
-5
 41
1.00000000E+00
  7
MONOTXT
  0
TEXT
  8
0
 62
7
 10
-5.75000000E+01
 20
-1.19000000E+01
 40
3.20000005E+00
  1
30
 41
1.00000000E+00
  7
MONOTXT
  0
TEXT
  8
0
 62
7
 10
-5.59000000E+01
 20
-2.23000000E+01
 40
3.20000005E+00
  1
0
 41
1.00000000E+00
  7
MONOTXT
  0
TEXT
  8
0
 62
7
 10
-1.75500000E+02
 20
-2.75000000E+01
 40
3.20000005E+00
  1
B
 41
1.00000000E+00
  7
MONOTXT
  0
TEXT
  8
0
 62
7
 10
-1.87587502E+02
 20
-6.42692442E+00
 40
3.20000005E+00
  1
STROKE
 41
1.20000010E+00
  7
MONOTXT
  0
LINE
  8
0
 62
7
 10
-1.89250000E+02
 20
-1.81000000E+01
 11
-4.52500000E+01
 21
-1.81000000E+01
  0
LINE
  8
0
 62
7
 10
-1.89250000E+02
 20
-7.70000000E+00
 11
-1.65218991E+02
 21
-7.70000000E+00
  0
LINE
  8
0
 62
7
 10
-1.65218991E+02
 20
-7.70000000E+00
 11
-1.59250000E+02
 21
-1.81000000E+01
  0
TEXT
  8
0
 62
7
 10
-1.87587501E+02
 20
-1.15059304E+01
 40
3.20000005E+00
  1
STRETCH
 41
1.00000000E+00
  7
MONOTXT
  0
TEXT
  8
0
 62
7
 10
-1.87587501E+02
 20
-1.67059302E+01
 40
3.20000005E+00
  1
  PLACE
 41
1.20689655E+00
  7
MONOTXT
  0
TEXT
  8
0
 62
7
 10
-1.75500000E+02
 20
-2.23000000E+01
 40
3.20000005E+00
  1
A
 41
1.00000000E+00
  7
MONOTXT
  0
TEXT
  8
0
 62
7
 10
-1.54100000E+02
 20
-2.75000000E+01
 40
3.20000005E+00
  1
-12
 41
1.00000000E+00
  7
MONOTXT
  0
TEXT
  8
0
 62
7
 10
-1.35100000E+02
 20
-2.75000000E+01
 40
3.20000005E+00
  1
-10
 41
1.00000000E+00
  7
MONOTXT
  0
TEXT
  8
0
 62
7
 10
-1.14500000E+02
 20
-2.75000000E+01
 40
3.20000005E+00
  1
-5
 41
1.00000000E+00
  7
MONOTXT
  0
TEXT
  8
0
 62
7
 10
-9.39000000E+01
 20
-2.75000000E+01
 40
3.20000005E+00
  1
0
 41
1.00000000E+00
  7
MONOTXT
  0
TEXT
  8
0
 62
7
 10
-7.49000000E+01
 20
-2.75000000E+01
 40
3.20000005E+00
  1
0
 41
1.00000000E+00
  7
MONOTXT
  0
TEXT
  8
0
 62
7
 10
-5.59000000E+01
 20
-2.75000000E+01
 40
3.20000005E+00
  1
0
 41
1.00000000E+00
  7
MONOTXT
  0
TEXT
  8
0
 62
7
 10
-5.65000001E+01
 20
8.99999975E-01
 40
3.20000005E+00
  1
(mm)
 41
1.00000000E+00
  7
MONOTXT
  0
TEXT
  8
0
 62
7
 10
-1.36700000E+02
 20
8.99999975E-01
 40
3.20000005E+00
  1
STRETCH LIST
 41
1.05263158E+00
  7
MONOTXT
  0
TEXT
  8
0
 10
1.30760787E+01
 20
1.03135674E+02
 40
3.20000005E+00
  1
STRETCH LINE B
 41
1.09375000E+00
  7
MONOTXT
  0
TEXT
  8
0
 10
-4.19239213E+01
 20
1.03135674E+02
 40
3.20000005E+00
  1
STRETCH LINE A
 41
1.09375000E+00
  7
MONOTXT
  0
LINE
  8
0
 62
7
 10
1.41925476E+02
 20
-7.16707492E+01
 11
1.41925476E+02
 21
-9.16707492E+01
  0
TEXT
  8
0
 62
6
 10
1.14502668E+02
 20
-5.90946491E+01
 40
3.20000005E+00
  1
PIVOT
 41
1.00000000E+00
  7
MONOTXT
  0
INSERT
  8
0
  2
ARROW
  6
BYBLOCK
 62
6
 10
1.41925476E+02
 20
-8.01707492E+01
 41
1.00000000E+00
 42
1.00000000E+00
 50
1.19999999E+02
  0
POLYLINE
  8
0
 62
6
 66
1
  0
VERTEX
  8
0
 62
6
 10
1.41925476E+02
 20
-8.01707492E+01
  0
VERTEX
  8
0
 62
6
 10
1.30911885E+02
 20
-6.10946490E+01
  0
VERTEX
  8
0
 62
6
 10
1.14152668E+02
 20
-6.10946490E+01
  0
SEQEND
  8
0
  0
TEXT
  8
0
 62
7
 10
1.43738550E+02
 20
-1.08717720E+02
 40
4.50000000E+00
  1
D-8
 41
1.00000000E+00
  7
MONOTXT
  0
LINE
  8
0
 62
7
 10
1.41925476E+02
 20
-7.16707492E+01
 11
1.47925476E+02
 21
-7.16707492E+01
  0
LINE
  8
0
 62
2
 10
1.47925476E+02
 20
-7.16707492E+01
 11
1.44398937E+02
 21
-9.16707492E+01
  0
LINE
  8
0
 62
7
 10
1.41925476E+02
 20
-9.16707492E+01
 11
1.44398937E+02
 21
-9.16707492E+01
  0
TEXT
  8
0
 62
6
 10
1.63648906E+02
 20
-9.61167700E+01
 40
3.20000005E+00
  1
LEVER
 41
1.00000000E+00
  7
MONOTXT
  0
INSERT
  8
0
  2
ARROW
  6
BYBLOCK
 62
6
 10
1.51925476E+02
 20
-8.01707492E+01
 41
1.00000000E+00
 42
1.00000000E+00
 50
3.00000000E+02
  0
POLYLINE
  8
0
 62
6
 66
1
  0
VERTEX
  8
0
 62
6
 10
1.51925476E+02
 20
-8.01707492E+01
  0
VERTEX
  8
0
 62
6
 10
1.62286616E+02
 20
-9.81167699E+01
  0
VERTEX
  8
0
 62
6
 10
1.79298906E+02
 20
-9.81167699E+01
  0
SEQEND
  8
0
  0
LINE
  8
0
 62
7
 10
4.59254765E+01
 20
-7.16707492E+01
 11
4.59254765E+01
 21
-9.16707492E+01
  0
LINE
  8
0
 62
7
 10
4.59254765E+01
 20
-9.16707492E+01
 11
4.83989369E+01
 21
-9.16707492E+01
  0
LINE
  8
0
 62
7
 10
4.59254765E+01
 20
-7.16707492E+01
 11
5.19254765E+01
 21
-7.16707492E+01
  0
TEXT
  8
0
 62
6
 10
1.85026677E+01
 20
-5.90946491E+01
 40
3.20000005E+00
  1
PIVOT
 41
1.00000000E+00
  7
MONOTXT
  0
INSERT
  8
0
  2
ARROW
  6
BYBLOCK
 62
6
 10
4.59254765E+01
 20
-8.01707492E+01
 41
1.00000000E+00
 42
1.00000000E+00
 50
1.20000000E+02
  0
POLYLINE
  8
0
 62
6
 66
1
  0
VERTEX
  8
0
 62
6
 10
4.59254765E+01
 20
-8.01707492E+01
  0
VERTEX
  8
0
 62
6
 10
3.49118849E+01
 20
-6.10946490E+01
  0
VERTEX
  8
0
 62
6
 10
1.81526677E+01
 20
-6.10946490E+01
  0
SEQEND
  8
0
  0
TEXT
  8
0
 62
7
 10
4.67385495E+01
 20
-1.08717720E+02
 40
4.50000000E+00
  1
D-7
 41
1.00000000E+00
  7
MONOTXT
  0
LINE
  8
0
 62
2
 10
5.19254765E+01
 20
-7.16707492E+01
 11
4.83989369E+01
 21
-9.16707492E+01
  0
TEXT
  8
0
 62
6
 10
6.76489057E+01
 20
-9.61167700E+01
 40
3.20000005E+00
  1
LEVER
 41
1.00000000E+00
  7
MONOTXT
  0
INSERT
  8
0
  2
ARROW
  6
BYBLOCK
 62
6
 10
5.59254765E+01
 20
-8.01707492E+01
 41
1.00000000E+00
 42
1.00000000E+00
 50
3.00000000E+02
  0
POLYLINE
  8
0
 62
6
 66
1
  0
VERTEX
  8
0
 62
6
 10
5.59254765E+01
 20
-8.01707492E+01
  0
VERTEX
  8
0
 62
6
 10
6.62866164E+01
 20
-9.81167699E+01
  0
VERTEX
  8
0
 62
6
 10
8.32989059E+01
 20
-9.81167699E+01
  0
SEQEND
  8
0
  0
LINE
  8
0
 62
7
 10
-5.30745235E+01
 20
-7.16707492E+01
 11
-5.30745235E+01
 21
-9.16707492E+01
  0
TEXT
  8
0
 62
6
 10
-8.04973323E+01
 20
-5.90946491E+01
 40
3.20000005E+00
  1
PIVOT
 41
1.00000000E+00
  7
MONOTXT
  0
INSERT
  8
0
  2
ARROW
  6
BYBLOCK
 62
6
 10
-5.30745235E+01
 20
-8.01707492E+01
 41
1.00000000E+00
 42
1.00000000E+00
 50
1.20000000E+02
  0
POLYLINE
  8
0
 62
6
 66
1
  0
VERTEX
  8
0
 62
6
 10
-5.30745235E+01
 20
-8.01707492E+01
  0
VERTEX
  8
0
 62
6
 10
-6.40881151E+01
 20
-6.10946490E+01
  0
VERTEX
  8
0
 62
6
 10
-8.08473323E+01
 20
-6.10946490E+01
  0
SEQEND
  8
0
  0
TEXT
  8
0
 62
7
 10
-5.22614505E+01
 20
-1.08717720E+02
 40
4.50000000E+00
  1
D-6
 41
1.00000000E+00
  7
MONOTXT
  0
LINE
  8
0
 62
7
 10
-5.30745235E+01
 20
-7.16707492E+01
 11
-4.70745235E+01
 21
-7.16707492E+01
  0
LINE
  8
0
 62
2
 10
-4.70745235E+01
 20
-7.16707492E+01
 11
-5.06010631E+01
 21
-9.16707492E+01
  0
LINE
  8
0
 62
7
 10
-5.30745235E+01
 20
-9.16707492E+01
 11
-5.06010631E+01
 21
-9.16707492E+01
  0
TEXT
  8
0
 62
6
 10
-3.13510943E+01
 20
-9.61167700E+01
 40
3.20000005E+00
  1
LEVER
 41
1.00000000E+00
  7
MONOTXT
  0
INSERT
  8
0
  2
ARROW
  6
BYBLOCK
 62
6
 10
-4.30745235E+01
 20
-8.01707492E+01
 41
1.00000000E+00
 42
1.00000000E+00
 50
3.00000000E+02
  0
POLYLINE
  8
0
 62
6
 66
1
  0
VERTEX
  8
0
 62
6
 10
-4.30745235E+01
 20
-8.01707492E+01
  0
VERTEX
  8
0
 62
6
 10
-3.27133836E+01
 20
-9.81167699E+01
  0
VERTEX
  8
0
 62
6
 10
-1.57010941E+01
 20
-9.81167699E+01
  0
SEQEND
  8
0
  0
LINE
  8
0
 62
7
 10
-1.49074524E+02
 20
-7.16707492E+01
 11
-1.49074524E+02
 21
-9.16707492E+01
  0
TEXT
  8
0
 62
6
 10
-1.76497332E+02
 20
-5.90946491E+01
 40
3.20000005E+00
  1
PIVOT
 41
1.00000000E+00
  7
MONOTXT
  0
INSERT
  8
0
  2
ARROW
  6
BYBLOCK
 62
6
 10
-1.49074524E+02
 20
-8.01707492E+01
 41
1.00000000E+00
 42
1.00000000E+00
 50
1.19999999E+02
  0
POLYLINE
  8
0
 62
6
 66
1
  0
VERTEX
  8
0
 62
6
 10
-1.49074524E+02
 20
-8.01707492E+01
  0
VERTEX
  8
0
 62
6
 10
-1.60088115E+02
 20
-6.10946490E+01
  0
VERTEX
  8
0
 62
6
 10
-1.76847332E+02
 20
-6.10946490E+01
  0
SEQEND
  8
0
  0
TEXT
  8
0
 62
7
 10
-1.48261450E+02
 20
-1.08717720E+02
 40
4.50000000E+00
  1
D-5
 41
1.00000000E+00
  7
MONOTXT
  0
LINE
  8
0
 62
7
 10
-1.49074524E+02
 20
-7.16707492E+01
 11
-1.43074524E+02
 21
-7.16707492E+01
  0
LINE
  8
0
 62
2
 10
-1.43074524E+02
 20
-7.16707492E+01
 11
-1.46601063E+02
 21
-9.16707492E+01
  0
LINE
  8
0
 62
7
 10
-1.49074524E+02
 20
-9.16707492E+01
 11
-1.46601063E+02
 21
-9.16707492E+01
  0
TEXT
  8
0
 62
6
 10
-1.27351094E+02
 20
-9.61167700E+01
 40
3.20000005E+00
  1
LEVER
 41
1.00000000E+00
  7
MONOTXT
  0
INSERT
  8
0
  2
ARROW
  6
BYBLOCK
 62
6
 10
-1.39074524E+02
 20
-8.01707492E+01
 41
1.00000000E+00
 42
1.00000000E+00
 50
3.00000000E+02
  0
POLYLINE
  8
0
 62
6
 66
1
  0
VERTEX
  8
0
 62
6
 10
-1.39074524E+02
 20
-8.01707492E+01
  0
VERTEX
  8
0
 62
6
 10
-1.28713384E+02
 20
-9.81167699E+01
  0
VERTEX
  8
0
 62
6
 10
-1.11701094E+02
 20
-9.81167699E+01
  0
SEQEND
  8
0
  0
TEXT
  8
0
 62
7
 10
-5.39083156E+00
 20
5.61044524E+01
 40
4.50000000E+00
  1
D-4
 41
1.00000000E+00
  7
MONOTXT
  0
TEXT
  8
0
 62
7
 10
1.14609168E+02
 20
5.10445239E+00
 40
4.50000000E+00
  1
D-3
 41
1.00000000E+00
  7
MONOTXT
  0
TEXT
  8
0
 62
7
 10
-1.25390832E+02
 20
5.10445239E+00
 40
4.50000000E+00
  1
D-2
 41
1.00000000E+00
  7
MONOTXT
  0
TEXT
  8
0
 62
7
 10
-5.39083156E+00
 20
5.10445239E+00
 40
4.50000000E+00
  1
D-1
 41
1.00000000E+00
  7
MONOTXT
  0
TEXT
  8
0
 62
2
 10
1.42813936E+02
 20
1.43763574E+01
 40
3.20000005E+00
  1
LEVER
 41
1.00000000E+00
  7
MONOTXT
  0
INSERT
  8
0
  2
ARROW
  6
BYBLOCK
 62
2
 10
1.27877260E+02
 20
3.44649995E+01
 41
1.00000000E+00
 42
1.00000000E+00
 50
2.99999999E+02
  0
POLYLINE
  8
0
 62
2
 66
1
  0
VERTEX
  8
0
 62
2
 10
1.27877260E+02
 20
3.44649995E+01
  0
VERTEX
  8
0
 62
2
 10
1.40630143E+02
 20
1.23763575E+01
  0
VERTEX
  8
0
 62
2
 10
1.58463936E+02
 20
1.23763575E+01
  0
SEQEND
  8
0
  0
TEXT
  8
0
 62
2
 10
8.18139357E+01
 20
1.43763574E+01
 40
3.20000005E+00
  1
LEVER
 41
1.00000000E+00
  7
MONOTXT
  0
INSERT
  8
0
  2
ARROW
  6
BYBLOCK
 62
2
 10
6.68772599E+01
 20
3.44649995E+01
 41
1.00000000E+00
 42
1.00000000E+00
 50
3.00000000E+02
  0
POLYLINE
  8
0
 62
2
 66
1
  0
VERTEX
  8
0
 62
2
 10
6.68772599E+01
 20
3.44649995E+01
  0
VERTEX
  8
0
 62
2
 10
7.96301433E+01
 20
1.23763575E+01
  0
VERTEX
  8
0
 62
2
 10
9.74639360E+01
 20
1.23763575E+01
  0
SEQEND
  8
0
  0
TEXT
  8
0
 62
2
 10
8.18139357E+01
 20
5.93763574E+01
 40
3.20000005E+00
  1
LEVER
 41
1.00000000E+00
  7
MONOTXT
  0
INSERT
  8
0
  2
ARROW
  6
BYBLOCK
 62
2
 10
6.68772599E+01
 20
7.94649995E+01
 41
1.00000000E+00
 42
1.00000000E+00
 50
3.00000000E+02
  0
POLYLINE
  8
0
 62
2
 66
1
  0
VERTEX
  8
0
 62
2
 10
6.68772599E+01
 20
7.94649995E+01
  0
VERTEX
  8
0
 62
2
 10
7.96301433E+01
 20
5.73763575E+01
  0
VERTEX
  8
0
 62
2
 10
9.74639360E+01
 20
5.73763575E+01
  0
SEQEND
  8
0
  0
TEXT
  8
0
 62
2
 10
1.36565533E+02
 20
6.11136964E+01
 40
3.20000005E+00
  1
PIVOT
 41
1.00000000E+00
  7
MONOTXT
  0
INSERT
  8
0
  2
ARROW
  6
BYBLOCK
 62
2
 10
1.20877260E+02
 20
3.44649995E+01
 41
1.00000000E+00
 42
1.00000000E+00
 50
5.99999997E+01
  0
POLYLINE
  8
0
 62
2
 66
1
  0
VERTEX
  8
0
 62
2
 10
1.20877260E+02
 20
3.44649995E+01
  0
VERTEX
  8
0
 62
2
 10
1.35108192E+02
 20
5.91136965E+01
  0
VERTEX
  8
0
 62
2
 10
1.52215533E+02
 20
5.91136965E+01
  0
SEQEND
  8
0
  0
TEXT
  8
0
 62
2
 10
-7.46028372E+01
 20
1.06113696E+02
 40
3.20000005E+00
  1
PIVOT
 41
1.00000000E+00
  7
MONOTXT
  0
INSERT
  8
0
  2
ARROW
  6
BYBLOCK
 62
2
 10
-4.36227401E+01
 20
7.94649995E+01
 41
1.00000000E+00
 42
1.00000000E+00
 50
1.20000001E+02
  0
POLYLINE
  8
0
 62
2
 66
1
  0
VERTEX
  8
0
 62
2
 10
-4.36227401E+01
 20
7.94649995E+01
  0
VERTEX
  8
0
 62
2
 10
-5.78536720E+01
 20
1.04113696E+02
  0
VERTEX
  8
0
 62
2
 10
-7.49528372E+01
 20
1.04113696E+02
  0
SEQEND
  8
0
  0
TEXT
  8
0
 62
2
 10
-7.46028372E+01
 20
6.11136964E+01
 40
3.20000005E+00
  1
PIVOT
 41
1.00000000E+00
  7
MONOTXT
  0
INSERT
  8
0
  2
ARROW
  6
BYBLOCK
 62
2
 10
-4.36227401E+01
 20
3.44649995E+01
 41
1.00000000E+00
 42
1.00000000E+00
 50
1.20000000E+02
  0
POLYLINE
  8
0
 62
2
 66
1
  0
VERTEX
  8
0
 62
2
 10
-4.36227401E+01
 20
3.44649995E+01
  0
VERTEX
  8
0
 62
2
 10
-5.78536720E+01
 20
5.91136965E+01
  0
VERTEX
  8
0
 62
2
 10
-7.49528372E+01
 20
5.91136965E+01
  0
SEQEND
  8
0
  0
TEXT
  8
0
 62
2
 10
-9.16860643E+01
 20
1.43763574E+01
 40
3.20000005E+00
  1
LEVER
 41
1.00000000E+00
  7
MONOTXT
  0
INSERT
  8
0
  2
ARROW
  6
BYBLOCK
 62
2
 10
-1.06622740E+02
 20
3.44649995E+01
 41
1.00000000E+00
 42
1.00000000E+00
 50
3.00000000E+02
  0
POLYLINE
  8
0
 62
2
 66
1
  0
VERTEX
  8
0
 62
2
 10
-1.06622740E+02
 20
3.44649995E+01
  0
VERTEX
  8
0
 62
2
 10
-9.38698567E+01
 20
1.23763575E+01
  0
VERTEX
  8
0
 62
2
 10
-7.60360640E+01
 20
1.23763575E+01
  0
SEQEND
  8
0
  0
TEXT
  8
0
 62
2
 10
-1.50102837E+02
 20
6.11136964E+01
 40
3.20000005E+00
  1
PIVOT
 41
1.00000000E+00
  7
MONOTXT
  0
INSERT
  8
0
  2
ARROW
  6
BYBLOCK
 62
2
 10
-1.19122740E+02
 20
3.44649995E+01
 41
1.00000000E+00
 42
1.00000000E+00
 50
1.20000000E+02
  0
POLYLINE
  8
0
 62
2
 66
1
  0
VERTEX
  8
0
 62
2
 10
-1.19122740E+02
 20
3.44649995E+01
  0
VERTEX
  8
0
 62
2
 10
-1.33353672E+02
 20
5.91136965E+01
  0
VERTEX
  8
0
 62
2
 10
-1.50452837E+02
 20
5.91136965E+01
  0
SEQEND
  8
0
  0
TEXT
  8
0
 62
7
 10
1.43318753E+02
 20
-3.76000000E+01
 40
3.20000005E+00
  1
P8
 41
1.00000000E+00
  7
MONOTXT
  0
TEXT
  8
0
 62
7
 10
4.60562519E+01
 20
-3.76000000E+01
 40
3.20000005E+00
  1
P6
 41
1.00000000E+00
  7
MONOTXT
  0
TEXT
  8
0
 62
7
 10
-5.44062490E+01
 20
-3.76000000E+01
 40
3.20000005E+00
  1
P3.5
 41
1.00000000E+00
  7
MONOTXT
  0
TEXT
  8
0
 62
7
 10
-1.48468750E+02
 20
-3.76000000E+01
 40
3.20000005E+00
  1
P2
 41
1.00000000E+00
  7
MONOTXT
  0
LINE
  8
0
 62
7
 10
9.75375023E+01
 20
-3.35000000E+01
 11
9.75375023E+01
 21
-1.33500000E+02
  0
LINE
  8
0
 62
7
 10
-9.69874992E+01
 20
-3.35000000E+01
 11
-9.69874992E+01
 21
-1.33500000E+02
  0
LINE
  8
0
 62
7
 10
2.75001526E-01
 20
-3.35000000E+01
 11
2.75001526E-01
 21
-1.33500000E+02
  0
LINE
  8
0
 62
7
 10
-1.94250000E+02
 20
-3.85000000E+01
 11
1.94800003E+02
 21
-3.85000000E+01
  0
LINE
  8
0
 62
7
 10
-1.94250000E+02
 20
-3.35000000E+01
 11
1.94800003E+02
 21
-3.35000000E+01
  0
TEXT
  8
0
 62
7
 10
-1.85214688E+02
 20
1.05350006E+02
 40
4.50000000E+00
  1
MODEL:BDAVS10*ST(30)-3A
 41
1.00000000E+00
  7
MONOTXT
  0
LINE
  8
0
 62
7
 10
-1.94250000E+02
 20
1.32600006E+02
 11
1.94800003E+02
 21
1.32600006E+02
  0
LINE
  8
0
 62
7
 10
1.94800003E+02
 20
1.32600006E+02
 11
1.94800003E+02
 21
-1.33500000E+02
  0
LINE
  8
0
 62
7
 10
-1.94250000E+02
 20
1.32600006E+02
 11
-1.94250000E+02
 21
-1.33500000E+02
  0
LINE
  8
0
 62
7
 10
-1.94250000E+02
 20
-1.33500000E+02
 11
1.94800003E+02
 21
-1.33500000E+02
  0
LINE
  8
0
 62
7
 10
1.09800003E+02
 20
-1.18500000E+02
 11
1.09800003E+02
 21
-1.33500000E+02
  0
LINE
  8
0
 62
7
 10
1.09800003E+02
 20
-1.18500000E+02
 11
1.94800003E+02
 21
-1.18500000E+02
  0
LINE
  8
0
 62
7
 10
1.09800003E+02
 20
1.32600006E+02
 11
1.09800003E+02
 21
1.17600006E+02
  0
LINE
  8
0
 62
7
 10
1.09800003E+02
 20
1.17600006E+02
 11
1.94800003E+02
 21
1.17600006E+02
  0
LINE
  8
0
 62
7
 10
-1.94250000E+02
 20
1.17600006E+02
 11
-1.09250000E+02
 21
1.17600006E+02
  0
LINE
  8
0
 62
7
 10
-1.09250000E+02
 20
1.32600006E+02
 11
-1.09250000E+02
 21
1.17600006E+02
  0
TEXT
  8
0
 62
7
 10
1.34942863E+02
 20
1.22850006E+02
 40
4.50000000E+00
  1
Ver. 1.0
 41
1.08108085E+00
  7
MONOTXT
  0
TEXT
  8
0
 62
7
 10
1.15249739E+02
 20
-1.29150000E+02
 40
6.29999924E+00
  1
KOGANEI CORP.
 41
1.04838678E+00
  7
MONOTXT
  0
TEXT
  8
0
 62
7
 10
-1.91178750E+02
 20
1.22850006E+02
 40
4.50000000E+00
  1
MULTI MOUNT CYLINDER
 41
9.45626478E-01
  7
MONOTXT
  0
ENDSEC
  0
EOF
