  0
SECTION
  2
HEADER
  9
$ACADVER
  1
AC1002
  9
$INSBASE
 10
0.0
 20
0.0
  9
$EXTMIN
 10
-131.1236
 20
-90.00001
  9
$EXTMAX
 10
131.1236
 20
90.00001
  9
$LIMMIN
 10
0.0
 20
0.0
  9
$LIMMAX
 10
12.0
 20
9.0
  9
$VIEWCTR
 10
10.11492432
 20
0.0
  9
$VIEWSIZE
 40
180.00002
  9
$SNAPMODE
 70
     0
  9
$SNAPUNIT
 10
1.0
 20
1.0
  9
$SNAPBASE
 10
0.0
 20
0.0
  9
$SNAPANG
 50
0.0
  9
$SNAPSTYLE
 70
     0
  9
$SNAPISOPAIR
 70
     0
  9
$GRIDMODE
 70
     0
  9
$GRIDUNIT
 10
0.0
 20
0.0
  9
$ORTHOMODE
 70
     0
  9
$REGENMODE
 70
     1
  9
$FILLMODE
 70
     1
  9
$QTEXTMODE
 70
     0
  9
$DRAGMODE
 70
     2
  9
$LTSCALE
 40
1.0
  9
$OSMODE
 70
     0
  9
$ATTMODE
 70
     1
  9
$TEXTSIZE
 40
0.2
  9
$TRACEWID
 40
0.05
  9
$TEXTSTYLE
  7
AAA
  9
$CLAYER
  8
0
  9
$CELTYPE
  6
BYLAYER
  9
$CECOLOR
 62
   256
  9
$DIMSCALE
 40
1.0
  9
$DIMASZ
 40
0.18
  9
$DIMEXO
 40
0.0625
  9
$DIMDLI
 40
0.38
  9
$DIMRND
 40
0.0
  9
$DIMDLE
 40
0.0
  9
$DIMEXE
 40
0.18
  9
$DIMTP
 40
0.0
  9
$DIMTM
 40
0.0
  9
$DIMTXT
 40
0.18
  9
$DIMCEN
 40
0.09
  9
$DIMTSZ
 40
0.0
  9
$DIMTOL
 70
     0
  9
$DIMLIM
 70
     0
  9
$DIMTIH
 70
     1
  9
$DIMTOH
 70
     1
  9
$DIMSE1
 70
     0
  9
$DIMSE2
 70
     0
  9
$DIMTAD
 70
     0
  9
$DIMZIN
 70
     0
  9
$DIMBLK
  1

  9
$LUNITS
 70
     2
  9
$LUPREC
 70
     4
  9
$AXISMODE
 70
     0
  9
$AXISUNIT
 10
0.0
 20
0.0
  9
$SKETCHINC
 40
0.1
  9
$FILLETRAD
 40
0.0
  9
$AUNITS
 70
     0
  9
$AUPREC
 70
     0
  9
$MENU
  1
ACAD
  9
$ELEVATION
 40
0.0
  9
$THICKNESS
 40
0.0
  9
$VIEWDIR
 10
0.0
 20
0.0
 30
1.0
  9
$LIMCHECK
 70
     0
  9
$BLIPMODE
 70
     1
  9
$CHAMFERA
 40
0.0
  9
$CHAMFERB
 40
0.0
  9
$FASTZOOM
 70
     1
  9
$SKPOLY
 70
     0
  9
$TDCREATE
 40
2447842.5080093089
  9
$TDUPDATE
 40
2447842.5080093089
  9
$TDINDWG
 40
0.0017708333
  9
$TDUSRTIMER
 40
0.0017708333
  9
$USRTIMER
 70
     1
  9
$ANGBASE
 50
0.0
  9
$ANGDIR
 70
     0
  9
$PDMODE
 70
     0
  9
$PDSIZE
 40
0.0
  9
$PLINEWID
 40
0.0
  9
$COORDS
 70
     0
  9
$USERI1
 70
     0
  9
$USERI2
 70
     0
  9
$USERI3
 70
     0
  9
$USERI4
 70
     0
  9
$USERI5
 70
     0
  9
$USERR1
 40
0.0
  9
$USERR2
 40
0.0
  9
$USERR3
 40
0.0
  9
$USERR4
 40
0.0
  9
$USERR5
 40
0.0
  0
ENDSEC
  0
SECTION
  2
TABLES
  0
TABLE
  2
LTYPE
 70
     4
  0
LTYPE
  2
CONTINUOUS
 70
    64
  3
SOLID
 72
    65
 73
     0
 40
0.0
  0
LTYPE
  2
DASHED
 70
    64
  3
DASHED
 72
    65
 73
     2
 40
0.75
 49
0.5
 49
-0.25
  0
LTYPE
  2
CENTER
 70
    64
  3
CENTER
 72
    65
 73
     4
 40
2.0
 49
1.25
 49
-0.25
 49
0.25
 49
-0.25
  0
LTYPE
  2
PHANTOM
 70
    64
  3
PHANTOM
 72
    65
 73
     6
 40
2.5
 49
1.25
 49
-0.25
 49
0.25
 49
-0.25
 49
0.25
 49
-0.25
  0
ENDTAB
  0
TABLE
  2
LAYER
 70
     1
  0
LAYER
  2
0
 70
    64
 62
     7
  6
CONTINUOUS
  0
ENDTAB
  0
TABLE
  2
STYLE
 70
     2
  0
STYLE
  2
AAA
 70
     0
 40
0.0
 41
1.0
 50
0.0
 71
     0
 42
0.2
  3
TXT
  4

  0
STYLE
  2
STANDARD
 70
    64
 40
0.0
 41
1.0
 50
0.0
 71
     0
 42
0.2
  3
TXT
  4
BIGFONT
  0
ENDTAB
  0
TABLE
  2
VIEW
 70
     0
  0
ENDTAB
  0
ENDSEC
  0
SECTION
  2
BLOCKS
  0
ENDSEC
  0
SECTION
  2
ENTITIES
  0
POINT
  8
0
  6
CONTINUOUS
 62
     7
 10
-84.12361
 20
-25.0
  0
POINT
  8
0
  6
CONTINUOUS
 62
     7
 10
-90.12361
 20
-25.0
  0
POINT
  8
0
  6
CONTINUOUS
 62
     7
 10
-14.0
 20
-25.0
  0
POINT
  8
0
  6
CONTINUOUS
 62
     7
 10
24.0
 20
-25.0
  0
POINT
  8
0
  6
CONTINUOUS
 62
     7
 10
-14.0
 20
45.0
  0
POINT
  8
0
  6
CONTINUOUS
 62
     7
 10
24.0
 20
45.0
  0
POINT
  8
0
  6
CONTINUOUS
 62
     7
 10
96.12361
 20
-25.0
  0
POINT
  8
0
  6
CONTINUOUS
 62
     7
 10
90.12361
 20
-25.0
  0
LINE
  8
0
  6
CONTINUOUS
 62
     7
 10
-131.1236
 20
-90.00001
 11
-131.1236
 21
90.00001
  0
LINE
  8
0
  6
CONTINUOUS
 62
     7
 10
131.1236
 20
90.00001
 11
131.1236
 21
-90.00001
  0
LINE
  8
0
  6
CONTINUOUS
 62
     7
 10
-131.1236
 20
-90.00001
 11
131.1236
 21
-90.00001
  0
LINE
  8
0
  6
CONTINUOUS
 62
     7
 10
-131.1236
 20
90.00001
 11
131.1236
 21
90.00001
  0
LINE
  8
0
  6
CONTINUOUS
 62
     7
 10
-131.1236
 20
79.88764
 11
-77.19102
 21
79.88764
  0
LINE
  8
0
  6
CONTINUOUS
 62
     7
 10
-77.19102
 20
79.88764
 11
-77.19102
 21
90.00001
  0
LINE
  8
0
  6
CONTINUOUS
 62
     7
 10
77.19101
 20
-79.88764
 11
131.1236
 21
-79.88764
  0
LINE
  8
0
  6
CONTINUOUS
 62
     7
 10
91.35169
 20
-82.31916
 11
96.53259
 21
-82.31916
  0
LINE
  8
0
  6
CONTINUOUS
 62
     7
 10
91.35169
 20
-86.91354
 11
95.75056
 21
-86.91354
  0
LINE
  8
0
  6
CONTINUOUS
 62
     7
 10
91.35169
 20
-88.08657
 11
97.31461
 21
-88.08657
  0
LINE
  8
0
  6
CONTINUOUS
 62
     7
 10
91.35169
 20
-83.49218
 11
95.75056
 21
-83.49218
  0
LINE
  8
0
  6
CONTINUOUS
 62
     7
 10
91.35169
 20
-82.31916
 11
91.35169
 21
-83.49218
  0
LINE
  8
0
  6
CONTINUOUS
 62
     7
 10
97.31461
 20
-83.10118
 11
97.31461
 21
-88.08657
  0
LINE
  8
0
  6
CONTINUOUS
 62
     7
 10
95.75056
 20
-83.49218
 11
95.75056
 21
-86.91354
  0
LINE
  8
0
  6
CONTINUOUS
 62
     7
 10
98.19438
 20
-82.31916
 11
98.19438
 21
-83.49218
  0
LINE
  8
0
  6
CONTINUOUS
 62
     7
 10
103.7663
 20
-83.49218
 11
103.7663
 21
-87.30457
  0
LINE
  8
0
  6
CONTINUOUS
 62
     7
 10
102.2023
 20
-83.49218
 11
102.2023
 21
-86.91354
  0
LINE
  8
0
  6
CONTINUOUS
 62
     7
 10
91.35169
 20
-86.91354
 11
91.35169
 21
-88.08657
  0
LINE
  8
0
  6
CONTINUOUS
 62
     7
 10
98.19438
 20
-82.31916
 11
99.73978
 21
-82.31916
  0
LINE
  8
0
  6
CONTINUOUS
 62
     7
 10
98.19438
 20
-88.08657
 11
99.4088
 21
-88.08657
  0
LINE
  8
0
  6
CONTINUOUS
 62
     7
 10
98.19463
 20
-88.08676
 11
99.4257
 21
-83.49239
  0
LINE
  8
0
  6
CONTINUOUS
 62
     7
 10
98.19438
 20
-83.49218
 11
99.42545
 21
-83.49218
  0
LINE
  8
0
  6
CONTINUOUS
 62
     7
 10
99.40903
 20
-88.08674
 11
100.6401
 21
-83.49235
  0
LINE
  8
0
  6
CONTINUOUS
 62
     7
 10
101.0292
 20
-86.91354
 11
102.2023
 21
-86.91354
  0
LINE
  8
0
  6
CONTINUOUS
 62
     7
 10
101.0291
 20
-86.91348
 11
101.3434
 21
-88.08647
  0
LINE
  8
0
  6
CONTINUOUS
 62
     7
 10
101.3435
 20
-88.08657
 11
102.9843
 21
-88.08657
  0
LINE
  8
0
  6
CONTINUOUS
 62
     7
 10
100.6399
 20
-83.49218
 11
102.2023
 21
-83.49218
  0
LINE
  8
0
  6
CONTINUOUS
 62
     7
 10
100.9542
 20
-82.31916
 11
102.5933
 21
-82.31916
  0
LINE
  8
0
  6
CONTINUOUS
 62
     7
 10
99.73981
 20
-82.31919
 11
99.97292
 21
-81.44921
  0
LINE
  8
0
  6
CONTINUOUS
 62
     7
 10
100.9542
 20
-82.31916
 11
101.1873
 21
-81.44919
  0
LINE
  8
0
  6
CONTINUOUS
 62
     7
 10
104.7438
 20
-82.31916
 11
106.6011
 21
-82.31916
  0
LINE
  8
0
  6
CONTINUOUS
 62
     7
 10
104.7438
 20
-83.49218
 11
109.3053
 21
-83.49218
  0
LINE
  8
0
  6
CONTINUOUS
 62
     7
 10
106.6011
 20
-88.08657
 11
108.1652
 21
-88.08657
  0
LINE
  8
0
  6
CONTINUOUS
 62
     7
 10
104.7438
 20
-82.31916
 11
104.7438
 21
-83.49218
  0
LINE
  8
0
  6
CONTINUOUS
 62
     7
 10
110.5112
 20
-85.61926
 11
110.5112
 21
-86.91354
  0
LINE
  8
0
  6
CONTINUOUS
 62
     7
 10
104.7437
 20
-86.91345
 11
106.601
 21
-86.04738
  0
LINE
  8
0
  6
CONTINUOUS
 62
     7
 10
104.7438
 20
-85.61927
 11
109.3053
 21
-83.4922
  0
LINE
  8
0
  6
CONTINUOUS
 62
     7
 10
104.7438
 20
-85.61926
 11
104.7438
 21
-86.91354
  0
LINE
  8
0
  6
CONTINUOUS
 62
     7
 10
108.1652
 20
-85.81956
 11
110.5112
 21
-86.91356
  0
LINE
  8
0
  6
CONTINUOUS
 62
     7
 10
109.0154
 20
-84.92177
 11
110.5113
 21
-85.61932
  0
LINE
  8
0
  6
CONTINUOUS
 62
     7
 10
110.5112
 20
-83.10118
 11
110.5112
 21
-83.72594
  0
LINE
  8
0
  6
CONTINUOUS
 62
     7
 10
106.6011
 20
-81.44916
 11
106.6011
 21
-82.31916
  0
LINE
  8
0
  6
CONTINUOUS
 62
     7
 10
108.1652
 20
-81.44916
 11
108.1652
 21
-82.31916
  0
LINE
  8
0
  6
CONTINUOUS
 62
     7
 10
108.1652
 20
-82.31916
 11
109.7292
 21
-82.31916
  0
LINE
  8
0
  6
CONTINUOUS
 62
     7
 10
106.6011
 20
-86.04747
 11
106.6011
 21
-88.08657
  0
LINE
  8
0
  6
CONTINUOUS
 62
     7
 10
108.1652
 20
-85.81956
 11
108.1652
 21
-88.08657
  0
LINE
  8
0
  6
CONTINUOUS
 62
     7
 10
109.0153
 20
-84.92168
 11
110.0597
 21
-84.43469
  0
LINE
  8
0
  6
CONTINUOUS
 62
     7
 10
115.7899
 20
-81.80107
 11
116.9629
 21
-81.80107
  0
LINE
  8
0
  6
CONTINUOUS
 62
     7
 10
111.0
 20
-84.22416
 11
111.0
 21
-85.48656
  0
LINE
  8
0
  6
CONTINUOUS
 62
     7
 10
116.9629
 20
-81.80107
 11
116.9629
 21
-82.31916
  0
LINE
  8
0
  6
CONTINUOUS
 62
     7
 10
115.7899
 20
-81.80107
 11
115.7899
 21
-82.05386
  0
LINE
  8
0
  6
CONTINUOUS
 62
     7
 10
114.2258
 20
-84.20361
 11
114.2258
 21
-88.08657
  0
LINE
  8
0
  6
CONTINUOUS
 62
     7
 10
111.0001
 20
-84.22427
 11
115.5435
 21
-82.41731
  0
LINE
  8
0
  6
CONTINUOUS
 62
     7
 10
111.0
 20
-85.48662
 11
114.2259
 21
-84.20366
  0
LINE
  8
0
  6
CONTINUOUS
 62
     7
 10
114.2258
 20
-88.08657
 11
115.7899
 21
-88.08657
  0
LINE
  8
0
  6
CONTINUOUS
 62
     7
 10
115.7899
 20
-83.58156
 11
115.7899
 21
-88.08657
  0
LINE
  8
0
  6
CONTINUOUS
 62
     7
 10
115.79
 20
-83.58161
 11
116.2235
 21
-83.40919
  0
LINE
  8
0
  6
CONTINUOUS
 62
     7
 10
99.87858
 20
-81.44916
 11
101.1873
 21
-81.44916
  0
LINE
  8
0
  6
CONTINUOUS
 62
     7
 10
103.1309
 20
-81.44916
 11
103.6294
 21
-81.44916
  0
LINE
  8
0
  6
CONTINUOUS
 62
     7
 10
106.6011
 20
-81.44916
 11
108.1652
 21
-81.44916
  0
LINE
  8
0
  6
CONTINUOUS
 62
     7
 10
103.1309
 20
-82.23119
 11
103.6294
 21
-82.23119
  0
LINE
  8
0
  6
CONTINUOUS
 62
     7
 10
103.1309
 20
-81.44916
 11
103.1309
 21
-82.23119
  0
LINE
  8
0
  6
CONTINUOUS
 62
     7
 10
103.6294
 20
-81.44916
 11
103.6294
 21
-82.23119
  0
LINE
  8
0
  6
CONTINUOUS
 62
     7
 10
103.9227
 20
-81.44916
 11
103.9227
 21
-82.23119
  0
LINE
  8
0
  6
CONTINUOUS
 62
     7
 10
104.4799
 20
-81.44916
 11
104.4799
 21
-82.23119
  0
LINE
  8
0
  6
CONTINUOUS
 62
     7
 10
103.9227
 20
-81.44916
 11
104.4799
 21
-81.44916
  0
LINE
  8
0
  6
CONTINUOUS
 62
     7
 10
103.9227
 20
-82.23119
 11
104.4799
 21
-82.23119
  0
LINE
  8
0
  6
CONTINUOUS
 62
     7
 10
77.19101
 20
79.88764
 11
131.1236
 21
79.88764
  0
LINE
  8
0
  6
CONTINUOUS
 62
     7
 10
77.19101
 20
90.00001
 11
77.19101
 21
79.88764
  0
LINE
  8
0
  6
CONTINUOUS
 62
     7
 10
77.19101
 20
-79.88764
 11
77.19101
 21
-90.00001
  0
LINE
  8
0
  6
CONTINUOUS
 62
     2
 10
15.25
 20
47.96507
 11
21.02351
 21
57.96507
  0
LINE
  8
0
  6
CONTINUOUS
 62
     2
 10
21.0235
 20
57.96506
 11
36.73047295
 21
57.96506
  0
LINE
  8
0
  6
CONTINUOUS
 62
     2
 10
-33.77351
 20
-36.5
 11
-45.47929288
 21
-36.5
  0
LINE
  8
0
  6
CONTINUOUS
 62
     2
 10
-28.0
 20
-26.5
 11
-33.77351
 21
-36.50001
  0
LINE
  8
0
  6
CONTINUOUS
 62
     2
 10
8.0
 20
-35.86136
 11
8.0
 21
-46.0
  0
LINE
  8
0
  6
CONTINUOUS
 62
     2
 10
-14.0
 20
-35.0
 11
-14.0
 21
-46.0
  0
LINE
  8
0
  6
CONTINUOUS
 62
     2
 10
-14.0
 20
-15.0
 11
-14.0
 21
-4.0
  0
LINE
  8
0
  6
CONTINUOUS
 62
     2
 10
-29.0
 20
-23.5
 11
-29.0
 21
6.0
  0
LINE
  8
0
  6
CONTINUOUS
 62
     2
 10
24.0
 20
-15.0
 11
24.0
 21
-3.88938
  0
LINE
  8
0
  6
CONTINUOUS
 62
     2
 10
-4.0
 20
48.2
 11
-4.0
 21
62.0
  0
LINE
  8
0
  6
CONTINUOUS
 62
     2
 10
14.0
 20
49.80001
 11
14.0
 21
62.0
  0
LINE
  8
0
  6
CONTINUOUS
 62
     2
 10
-28.99997
 20
5.0
 11
44.0
 21
5.0
  0
LINE
  8
0
  6
CONTINUOUS
 62
     2
 10
-14.0
 20
-5.0
 11
44.0
 21
-5.0
  0
LINE
  8
0
  6
CONTINUOUS
 62
     2
 10
8.0
 20
-45.0
 11
-14.0
 21
-45.0
  0
LINE
  8
0
  6
CONTINUOUS
 62
     2
 10
-4.0
 20
61.0
 11
14.0
 21
61.0
  0
LINE
  8
0
  6
CONTINUOUS
 62
     2
 10
-1.00001
 20
62.09191
 11
-4.00001
 21
61.0
  0
LINE
  8
0
  6
CONTINUOUS
 62
     2
 10
-1.0
 20
59.90811
 11
-4.0
 21
61.00002
  0
LINE
  8
0
  6
CONTINUOUS
 62
     2
 10
-26.00001
 20
6.09191
 11
-29.00001
 21
4.99999
  0
LINE
  8
0
  6
CONTINUOUS
 62
     2
 10
-26.0
 20
3.9081
 11
-29.0
 21
5.00001
  0
LINE
  8
0
  6
CONTINUOUS
 62
     2
 10
-11.0
 20
-3.90809
 11
-14.00001
 21
-5.00001
  0
LINE
  8
0
  6
CONTINUOUS
 62
     2
 10
-11.0
 20
-6.0919
 11
-14.0
 21
-4.99999
  0
LINE
  8
0
  6
CONTINUOUS
 62
     2
 10
5.00001
 20
-43.9081
 11
8.00001
 21
-45.00001
  0
LINE
  8
0
  6
CONTINUOUS
 62
     2
 10
5.0
 20
-46.0919
 11
8.0
 21
-44.99999
  0
LINE
  8
0
  6
CONTINUOUS
 62
     2
 10
21.00001
 20
-3.90809
 11
24.00001
 21
-5.00001
  0
LINE
  8
0
  6
CONTINUOUS
 62
     2
 10
21.0
 20
-6.0919
 11
24.0
 21
-4.99999
  0
LINE
  8
0
  6
CONTINUOUS
 62
     2
 10
41.0
 20
-3.90809
 11
44.0
 21
-5.00001
  0
LINE
  8
0
  6
CONTINUOUS
 62
     2
 10
41.0
 20
-6.09191
 11
44.0
 21
-5.0
  0
LINE
  8
0
  6
CONTINUOUS
 62
     2
 10
11.00001
 20
62.09192
 11
14.00001
 21
61.0
  0
LINE
  8
0
  6
CONTINUOUS
 62
     2
 10
11.0
 20
59.90811
 11
14.0
 21
61.00002
  0
LINE
  8
0
  6
CONTINUOUS
 62
     2
 10
-28.55436
 20
-29.64403
 11
-27.99998
 21
-26.5
  0
LINE
  8
0
  6
CONTINUOUS
 62
     2
 10
-30.44562
 20
-28.55213
 11
-28.0
 21
-26.50002
  0
LINE
  8
0
  6
CONTINUOUS
 62
     2
 10
2.52826
 20
-36.47942
 11
2.25001
 21
-33.29904
  0
LINE
  8
0
  6
CONTINUOUS
 62
     2
 10
4.50747
 20
-35.5565
 11
2.25
 21
-33.29903
  0
LINE
  8
0
  6
CONTINUOUS
 62
     2
 10
15.80438
 20
51.10909
 11
15.25
 21
47.96506
  0
LINE
  8
0
  6
CONTINUOUS
 62
     2
 10
17.69562
 20
50.0172
 11
15.25
 21
47.96508
  0
LINE
  8
0
  6
CONTINUOUS
 62
     7
 10
-103.01900443
 20
-84.28783
 11
-100.30504432
 21
-84.28783
  0
LINE
  8
0
  6
CONTINUOUS
 62
     2
 10
-10.99999
 20
-46.09188
 11
-13.99998
 21
-44.99997
  0
LINE
  8
0
  6
CONTINUOUS
 62
     2
 10
-11.00001
 20
-43.90809
 11
-14.00001
 21
-45.0
  0
LINE
  8
0
  6
CONTINUOUS
 62
     7
 10
-102.26897381
 20
-83.66952921
 11
-100.30498432
 21
-84.28775
  0
LINE
  8
0
  6
CONTINUOUS
 62
     7
 10
-102.26897381
 20
-84.90882968
 11
-100.30505432
 21
-84.28786
  0
LINE
  8
0
  6
CONTINUOUS
 62
     2
 10
2.25
 20
-33.29904
 11
10.77263
 21
-48.06067
  0
LINE
  8
0
  6
CONTINUOUS
 62
     2
 10
10.77263
 20
-48.06066
 11
26.87373031
 21
-48.06066
  0
LINE
  8
0
  6
CONTINUOUS
 62
     2
 10
44.0
 20
-23.20512
 11
44.0
 21
6.0
  0
LINE
  8
0
  6
CONTINUOUS
 62
     2
 10
41.0
 20
3.90809
 11
44.0
 21
5.0
  0
LINE
  8
0
  6
CONTINUOUS
 62
     2
 10
41.0
 20
6.09191
 11
44.00001
 21
4.99999
  0
LINE
  8
0
  6
CONTINUOUS
 62
     2
 10
27.0
 20
-6.0919
 11
24.0
 21
-4.99999
  0
LINE
  8
0
  6
CONTINUOUS
 62
     2
 10
26.99999
 20
-3.90809
 11
23.99999
 21
-5.00001
  0
LINE
  8
0
  6
CONTINUOUS
 62
     2
 10
43.55438
 20
-29.64403
 11
43.0
 21
-26.49999
  0
LINE
  8
0
  6
CONTINUOUS
 62
     2
 10
45.44565
 20
-28.55213
 11
43.00003
 21
-26.50002
  0
LINE
  8
0
  6
CONTINUOUS
 62
     2
 10
43.00002
 20
-26.5
 11
48.77353
 21
-36.5
  0
LINE
  8
0
  6
CONTINUOUS
 62
     2
 10
48.77354
 20
-36.5
 11
61.03834034
 21
-36.5
  0
LINE
  8
0
  6
CONTINUOUS
 62
     7
 10
-14.0
 20
-15.0
 11
-14.0
 21
-35.0
  0
LINE
  8
0
  6
CONTINUOUS
 62
     7
 10
-14.0
 20
-20.0
 11
5.17157
 21
-20.0
  0
LINE
  8
0
  6
CONTINUOUS
 62
     7
 10
24.0
 20
-15.0
 11
24.0
 21
-35.0
  0
LINE
  8
0
  6
CENTER
 62
     2
 10
-32.0
 20
-25.0
 11
47.0
 21
-25.0
  0
LINE
  8
0
  6
CONTINUOUS
 62
     7
 10
-9.0
 20
-15.0
 11
-9.0
 21
-35.0
  0
LINE
  8
0
  6
CONTINUOUS
 62
     7
 10
19.0
 20
-15.0
 11
19.0
 21
-35.0
  0
LINE
  8
0
  6
CONTINUOUS
 62
     7
 10
-11.3
 20
-30.0
 11
5.17157
 21
-30.0
  0
LINE
  8
0
  6
CONTINUOUS
 62
     7
 10
-29.0
 20
-24.0
 11
-29.0
 21
-26.0
  0
LINE
  8
0
  6
CONTINUOUS
 62
     7
 10
-15.0
 20
-22.0
 11
-15.0
 21
-28.0
  0
LINE
  8
0
  6
CONTINUOUS
 62
     7
 10
-15.0
 20
-22.0
 11
-14.0
 21
-22.0
  0
LINE
  8
0
  6
CONTINUOUS
 62
     7
 10
-15.0
 20
-28.0
 11
-14.0
 21
-28.0
  0
LINE
  8
0
  6
CONTINUOUS
 62
     7
 10
-28.5
 20
-23.5
 11
-27.5
 21
-23.5
  0
LINE
  8
0
  6
CONTINUOUS
 62
     7
 10
-28.5
 20
-26.5
 11
-27.5
 21
-26.5
  0
LINE
  8
0
  6
CONTINUOUS
 62
     7
 10
-28.5
 20
-23.5
 11
-29.0
 21
-24.0
  0
LINE
  8
0
  6
CONTINUOUS
 62
     7
 10
-28.49999
 20
-26.5
 11
-28.99999
 21
-26.0
  0
LINE
  8
0
  6
CONTINUOUS
 62
     7
 10
-28.5
 20
-23.5
 11
-28.5
 21
-26.5
  0
LINE
  8
0
  6
CONTINUOUS
 62
     7
 10
-22.0
 20
-23.5
 11
-22.0
 21
-26.5
  0
LINE
  8
0
  6
CONTINUOUS
 62
     7
 10
-28.75
 20
-23.75
 11
-27.5
 21
-23.75
  0
LINE
  8
0
  6
CONTINUOUS
 62
     7
 10
-28.75
 20
-26.25
 11
-27.5
 21
-26.25
  0
LINE
  8
0
  6
CONTINUOUS
 62
     7
 10
-22.0
 20
-23.75002
 11
-21.56699
 21
-23.50002
  0
LINE
  8
0
  6
CONTINUOUS
 62
     7
 10
-22.0
 20
-26.25001
 11
-21.56699
 21
-26.50001
  0
LINE
  8
0
  6
CONTINUOUS
 62
     7
 10
-27.5
 20
-22.25
 11
-27.5
 21
-25.0
  0
LINE
  8
0
  6
CONTINUOUS
 62
     7
 10
-27.25438
 20
-23.41229
 11
-26.6
 21
-23.41229
  0
LINE
  8
0
  6
CONTINUOUS
 62
     7
 10
-27.25438
 20
-21.82458
 11
-26.6
 21
-21.82458
  0
LINE
  8
0
  6
CONTINUOUS
 62
     7
 10
-23.9
 20
-23.5
 11
-21.5
 21
-23.5
  0
LINE
  8
0
  6
CONTINUOUS
 62
     7
 10
-23.9
 20
-23.75
 11
-22.0
 21
-23.75
  0
LINE
  8
0
  6
CONTINUOUS
 62
     7
 10
-23.9
 20
-26.25
 11
-22.0
 21
-26.25
  0
LINE
  8
0
  6
CONTINUOUS
 62
     7
 10
-23.9
 20
-26.5
 11
-21.5
 21
-26.5
  0
LINE
  8
0
  6
CONTINUOUS
 62
     7
 10
-27.5
 20
-22.25001
 11
-27.25438
 21
-21.82458
  0
LINE
  8
0
  6
CONTINUOUS
 62
     7
 10
-27.25438
 20
-26.58772
 11
-26.6
 21
-26.58772
  0
LINE
  8
0
  6
CONTINUOUS
 62
     7
 10
-27.5
 20
-27.75
 11
-27.5
 21
-25.0
  0
LINE
  8
0
  6
CONTINUOUS
 62
     7
 10
-27.5
 20
-27.75001
 11
-27.25438
 21
-28.17543
  0
LINE
  8
0
  6
CONTINUOUS
 62
     7
 10
-27.25438
 20
-28.17543
 11
-26.6
 21
-28.17543
  0
LINE
  8
0
  6
CONTINUOUS
 62
     7
 10
-25.94562
 20
-23.41229
 11
-26.6
 21
-23.41229
  0
LINE
  8
0
  6
CONTINUOUS
 62
     7
 10
-25.7
 20
-22.25
 11
-25.7
 21
-25.0
  0
LINE
  8
0
  6
CONTINUOUS
 62
     7
 10
-25.7
 20
-22.25
 11
-25.94562
 21
-21.82458
  0
LINE
  8
0
  6
CONTINUOUS
 62
     7
 10
-25.94562
 20
-21.82458
 11
-26.6
 21
-21.82458
  0
LINE
  8
0
  6
CONTINUOUS
 62
     7
 10
-25.94562
 20
-26.58772
 11
-26.6
 21
-26.58772
  0
LINE
  8
0
  6
CONTINUOUS
 62
     7
 10
-25.7
 20
-27.75
 11
-25.7
 21
-25.0
  0
LINE
  8
0
  6
CONTINUOUS
 62
     7
 10
-25.7
 20
-27.75
 11
-25.94562
 21
-28.17543
  0
LINE
  8
0
  6
CONTINUOUS
 62
     7
 10
-25.94562
 20
-28.17543
 11
-26.6
 21
-28.17543
  0
LINE
  8
0
  6
CONTINUOUS
 62
     7
 10
-23.9
 20
-22.25
 11
-23.9
 21
-25.0
  0
LINE
  8
0
  6
CONTINUOUS
 62
     7
 10
-24.14562
 20
-23.41229
 11
-24.8
 21
-23.41229
  0
LINE
  8
0
  6
CONTINUOUS
 62
     7
 10
-24.14562
 20
-21.82458
 11
-24.8
 21
-21.82458
  0
LINE
  8
0
  6
CONTINUOUS
 62
     7
 10
-23.9
 20
-22.25
 11
-24.14562
 21
-21.82458
  0
LINE
  8
0
  6
CONTINUOUS
 62
     7
 10
-24.14562
 20
-26.58772
 11
-24.8
 21
-26.58772
  0
LINE
  8
0
  6
CONTINUOUS
 62
     7
 10
-23.9
 20
-27.75
 11
-23.9
 21
-25.0
  0
LINE
  8
0
  6
CONTINUOUS
 62
     7
 10
-23.9
 20
-27.75
 11
-24.14562
 21
-28.17543
  0
LINE
  8
0
  6
CONTINUOUS
 62
     7
 10
-24.14562
 20
-28.17543
 11
-24.8
 21
-28.17543
  0
LINE
  8
0
  6
CONTINUOUS
 62
     7
 10
-25.45438
 20
-23.41229
 11
-24.8
 21
-23.41229
  0
LINE
  8
0
  6
CONTINUOUS
 62
     7
 10
-25.7
 20
-22.25
 11
-25.7
 21
-25.0
  0
LINE
  8
0
  6
CONTINUOUS
 62
     7
 10
-25.7
 20
-22.25
 11
-25.45438
 21
-21.82458
  0
LINE
  8
0
  6
CONTINUOUS
 62
     7
 10
-25.45438
 20
-21.82458
 11
-24.8
 21
-21.82458
  0
LINE
  8
0
  6
CONTINUOUS
 62
     7
 10
-25.45438
 20
-26.58772
 11
-24.8
 21
-26.58772
  0
LINE
  8
0
  6
CONTINUOUS
 62
     7
 10
-25.7
 20
-27.75
 11
-25.7
 21
-25.0
  0
LINE
  8
0
  6
CONTINUOUS
 62
     7
 10
-25.7
 20
-27.75001
 11
-25.45438
 21
-28.17543
  0
LINE
  8
0
  6
CONTINUOUS
 62
     7
 10
-25.45438
 20
-28.17543
 11
-24.8
 21
-28.17543
  0
LINE
  8
0
  6
CONTINUOUS
 62
     7
 10
23.4
 20
-19.4
 11
21.3
 21
-19.4
  0
LINE
  8
0
  6
CONTINUOUS
 62
     7
 10
23.4
 20
-18.8
 11
21.3
 21
-18.8
  0
LINE
  8
0
  6
CONTINUOUS
 62
     7
 10
23.4
 20
-15.6
 11
21.3
 21
-15.6
  0
LINE
  8
0
  6
CONTINUOUS
 62
     7
 10
24.0
 20
-20.5
 11
21.3
 21
-20.5
  0
LINE
  8
0
  6
CONTINUOUS
 62
     7
 10
23.4
 20
-19.75
 11
21.3
 21
-19.75
  0
LINE
  8
0
  6
CONTINUOUS
 62
     7
 10
23.4
 20
-15.25
 11
21.3
 21
-15.25
  0
LINE
  8
0
  6
CONTINUOUS
 62
     7
 10
21.3
 20
-20.5
 11
21.3
 21
-15.0
  0
LINE
  8
0
  6
CONTINUOUS
 62
     7
 10
23.9
 20
-19.25
 11
23.9
 21
-15.75
  0
LINE
  8
0
  6
CONTINUOUS
 62
     7
 10
23.39999
 20
-19.75
 11
23.89999
 21
-19.25
  0
LINE
  8
0
  6
CONTINUOUS
 62
     7
 10
23.4
 20
-15.25001
 11
23.9
 21
-15.75001
  0
LINE
  8
0
  6
CONTINUOUS
 62
     7
 10
23.4
 20
-19.75
 11
23.4
 21
-15.25
  0
LINE
  8
0
  6
CONTINUOUS
 62
     7
 10
23.4
 20
-18.0
 11
21.3
 21
-18.0
  0
LINE
  8
0
  6
CONTINUOUS
 62
     7
 10
23.4
 20
-17.0
 11
21.3
 21
-17.0
  0
LINE
  8
0
  6
CONTINUOUS
 62
     7
 10
23.4
 20
-16.2
 11
21.3
 21
-16.2
  0
LINE
  8
0
  6
CONTINUOUS
 62
     7
 10
-13.4
 20
-34.40001
 11
-11.3
 21
-34.40001
  0
LINE
  8
0
  6
CONTINUOUS
 62
     7
 10
-13.4
 20
-30.6
 11
-11.3
 21
-30.6
  0
LINE
  8
0
  6
CONTINUOUS
 62
     7
 10
-13.4
 20
-31.2
 11
-11.3
 21
-31.2
  0
LINE
  8
0
  6
CONTINUOUS
 62
     7
 10
-14.0
 20
-29.5
 11
-11.3
 21
-29.5
  0
LINE
  8
0
  6
CONTINUOUS
 62
     7
 10
-13.4
 20
-30.25
 11
-11.3
 21
-30.25
  0
LINE
  8
0
  6
CONTINUOUS
 62
     7
 10
-13.4
 20
-34.75
 11
-11.3
 21
-34.75
  0
LINE
  8
0
  6
CONTINUOUS
 62
     7
 10
-11.3
 20
-29.5
 11
-11.3
 21
-35.0
  0
LINE
  8
0
  6
CONTINUOUS
 62
     7
 10
-13.9
 20
-30.75
 11
-13.9
 21
-34.25
  0
LINE
  8
0
  6
CONTINUOUS
 62
     7
 10
-13.4
 20
-30.25
 11
-13.9
 21
-30.75
  0
LINE
  8
0
  6
CONTINUOUS
 62
     7
 10
-13.4
 20
-34.75
 11
-13.9
 21
-34.25
  0
LINE
  8
0
  6
CONTINUOUS
 62
     7
 10
-13.4
 20
-30.25
 11
-13.4
 21
-34.75
  0
LINE
  8
0
  6
CONTINUOUS
 62
     7
 10
-13.4
 20
-32.0
 11
-11.3
 21
-32.0
  0
LINE
  8
0
  6
CONTINUOUS
 62
     7
 10
-13.4
 20
-33.0
 11
-11.3
 21
-33.0
  0
LINE
  8
0
  6
CONTINUOUS
 62
     7
 10
-13.4
 20
-33.8
 11
-11.3
 21
-33.8
  0
LINE
  8
0
  6
CONTINUOUS
 62
     7
 10
10.82843
 20
-30.0
 11
24.0
 21
-30.0
  0
LINE
  8
0
  6
CONTINUOUS
 62
     7
 10
10.82843
 20
-20.0
 11
21.3
 21
-20.0
  0
LINE
  8
0
  6
CENTER
 62
     2
 10
3.0
 20
-31.0
 11
13.0
 21
-31.0
  0
LINE
  8
0
  6
CENTER
 62
     2
 10
3.0
 20
-19.0
 11
13.0
 21
-19.0
  0
LINE
  8
0
  6
CENTER
 62
     2
 10
8.0
 20
-26.0
 11
8.0
 21
-36.0
  0
LINE
  8
0
  6
CENTER
 62
     2
 10
8.0
 20
-14.0
 11
8.0
 21
-24.0
  0
LINE
  8
0
  6
CENTER
 62
     2
 10
-1.5
 20
-18.0
 11
4.5
 21
-18.0
  0
LINE
  8
0
  6
CENTER
 62
     2
 10
-1.5
 20
-32.0
 11
4.5
 21
-32.0
  0
LINE
  8
0
  6
CENTER
 62
     2
 10
1.5
 20
-29.0
 11
1.5
 21
-35.0
  0
LINE
  8
0
  6
CENTER
 62
     2
 10
1.5
 20
-15.0
 11
1.5
 21
-21.0
  0
LINE
  8
0
  6
CONTINUOUS
 62
     7
 10
-21.5
 20
-17.5
 11
-15.5
 21
-17.5
  0
LINE
  8
0
  6
CONTINUOUS
 62
     7
 10
-21.5
 20
-34.5
 11
-15.5
 21
-34.5
  0
LINE
  8
0
  6
CONTINUOUS
 62
     7
 10
-21.5
 20
-17.5
 11
-21.5
 21
-34.5
  0
LINE
  8
0
  6
CONTINUOUS
 62
     7
 10
-15.5
 20
-17.5
 11
-15.5
 21
-34.5
  0
LINE
  8
0
  6
CENTER
 62
     2
 10
-22.0
 20
-21.2
 11
-15.0
 21
-21.2
  0
LINE
  8
0
  6
CENTER
 62
     2
 10
-18.5
 20
-17.7
 11
-18.5
 21
-24.7
  0
LINE
  8
0
  6
CONTINUOUS
 62
     7
 10
-19.5
 20
-21.77735
 11
-18.5
 21
-22.3547
  0
LINE
  8
0
  6
CONTINUOUS
 62
     7
 10
-18.5
 20
-22.35471
 11
-17.5
 21
-21.77736
  0
LINE
  8
0
  6
CONTINUOUS
 62
     7
 10
-17.5
 20
-21.77736
 11
-17.5
 21
-20.62265
  0
LINE
  8
0
  6
CONTINUOUS
 62
     7
 10
-17.5
 20
-20.62265
 11
-18.5
 21
-20.0453
  0
LINE
  8
0
  6
CONTINUOUS
 62
     7
 10
-18.5
 20
-20.04531
 11
-19.5
 21
-20.62266
  0
LINE
  8
0
  6
CONTINUOUS
 62
     7
 10
-19.5
 20
-20.62265
 11
-19.5
 21
-21.77736
  0
LINE
  8
0
  6
CONTINUOUS
 62
     7
 10
-15.5
 20
-23.5
 11
-15.0
 21
-23.5
  0
LINE
  8
0
  6
CONTINUOUS
 62
     7
 10
-15.5
 20
-26.5
 11
-15.0
 21
-26.5
  0
LINE
  8
0
  6
CENTER
 62
     2
 10
-17.0
 20
-32.5
 11
-12.5
 21
-32.5
  0
LINE
  8
0
  6
CONTINUOUS
 62
     7
 10
-15.5
 20
-31.25
 11
-14.0
 21
-31.25
  0
LINE
  8
0
  6
CONTINUOUS
 62
     7
 10
-15.5
 20
-33.75
 11
-14.0
 21
-33.75
  0
LINE
  8
0
  6
CONTINUOUS
 62
     7
 10
44.0
 20
-24.0
 11
44.0
 21
-26.0
  0
LINE
  8
0
  6
CONTINUOUS
 62
     7
 10
43.5
 20
-23.5
 11
42.5
 21
-23.5
  0
LINE
  8
0
  6
CONTINUOUS
 62
     7
 10
43.5
 20
-26.5
 11
42.5
 21
-26.5
  0
LINE
  8
0
  6
CONTINUOUS
 62
     7
 10
43.5
 20
-23.50001
 11
43.99999
 21
-24.0
  0
LINE
  8
0
  6
CONTINUOUS
 62
     7
 10
43.49998
 20
-26.49998
 11
43.99998
 21
-25.99998
  0
LINE
  8
0
  6
CONTINUOUS
 62
     7
 10
43.5
 20
-23.5
 11
43.5
 21
-26.5
  0
LINE
  8
0
  6
CONTINUOUS
 62
     7
 10
37.0
 20
-23.5
 11
37.0
 21
-26.5
  0
LINE
  8
0
  6
CONTINUOUS
 62
     7
 10
43.75
 20
-23.75
 11
42.5
 21
-23.75
  0
LINE
  8
0
  6
CONTINUOUS
 62
     7
 10
43.75
 20
-26.25
 11
42.5
 21
-26.25
  0
LINE
  8
0
  6
CONTINUOUS
 62
     7
 10
36.99999
 20
-23.75001
 11
36.56698
 21
-23.50002
  0
LINE
  8
0
  6
CONTINUOUS
 62
     7
 10
37.0
 20
-26.25
 11
36.56698
 21
-26.5
  0
LINE
  8
0
  6
CONTINUOUS
 62
     7
 10
42.5
 20
-22.25
 11
42.5
 21
-25.0
  0
LINE
  8
0
  6
CONTINUOUS
 62
     7
 10
42.25438
 20
-23.41229
 11
41.6
 21
-23.41229
  0
LINE
  8
0
  6
CONTINUOUS
 62
     7
 10
42.25438
 20
-21.82458
 11
41.6
 21
-21.82458
  0
LINE
  8
0
  6
CONTINUOUS
 62
     7
 10
38.9
 20
-23.5
 11
31.61013
 21
-23.5
  0
LINE
  8
0
  6
CONTINUOUS
 62
     7
 10
38.9
 20
-23.75
 11
37.0
 21
-23.75
  0
LINE
  8
0
  6
CONTINUOUS
 62
     7
 10
38.9
 20
-26.25
 11
37.0
 21
-26.25
  0
LINE
  8
0
  6
CONTINUOUS
 62
     7
 10
38.9
 20
-26.5
 11
30.51823
 21
-26.5
  0
LINE
  8
0
  6
CONTINUOUS
 62
     7
 10
42.5
 20
-22.25001
 11
42.25438
 21
-21.82458
  0
LINE
  8
0
  6
CONTINUOUS
 62
     7
 10
42.25438
 20
-26.58772
 11
41.6
 21
-26.58772
  0
LINE
  8
0
  6
CONTINUOUS
 62
     7
 10
42.5
 20
-27.75
 11
42.5
 21
-25.0
  0
LINE
  8
0
  6
CONTINUOUS
 62
     7
 10
42.50003
 20
-27.75001
 11
42.2544
 21
-28.17544
  0
LINE
  8
0
  6
CONTINUOUS
 62
     7
 10
42.25438
 20
-28.17543
 11
41.6
 21
-28.17543
  0
LINE
  8
0
  6
CONTINUOUS
 62
     7
 10
40.94562
 20
-23.41229
 11
41.6
 21
-23.41229
  0
LINE
  8
0
  6
CONTINUOUS
 62
     7
 10
40.7
 20
-22.25
 11
40.7
 21
-25.0
  0
LINE
  8
0
  6
CONTINUOUS
 62
     7
 10
40.69999
 20
-22.25
 11
40.94561
 21
-21.82458
  0
LINE
  8
0
  6
CONTINUOUS
 62
     7
 10
40.94562
 20
-21.82458
 11
41.6
 21
-21.82458
  0
LINE
  8
0
  6
CONTINUOUS
 62
     7
 10
40.94562
 20
-26.58772
 11
41.6
 21
-26.58772
  0
LINE
  8
0
  6
CONTINUOUS
 62
     7
 10
40.7
 20
-27.75
 11
40.7
 21
-25.0
  0
LINE
  8
0
  6
CONTINUOUS
 62
     7
 10
40.69998
 20
-27.75001
 11
40.9456
 21
-28.17544
  0
LINE
  8
0
  6
CONTINUOUS
 62
     7
 10
40.94562
 20
-28.17543
 11
41.6
 21
-28.17543
  0
LINE
  8
0
  6
CONTINUOUS
 62
     7
 10
38.9
 20
-22.25
 11
38.9
 21
-25.0
  0
LINE
  8
0
  6
CONTINUOUS
 62
     7
 10
39.14561
 20
-23.41229
 11
39.8
 21
-23.41229
  0
LINE
  8
0
  6
CONTINUOUS
 62
     7
 10
39.14561
 20
-21.82458
 11
39.8
 21
-21.82458
  0
LINE
  8
0
  6
CONTINUOUS
 62
     7
 10
38.89999
 20
-22.25
 11
39.14561
 21
-21.82458
  0
LINE
  8
0
  6
CONTINUOUS
 62
     7
 10
39.14561
 20
-26.58772
 11
39.8
 21
-26.58772
  0
LINE
  8
0
  6
CONTINUOUS
 62
     7
 10
38.9
 20
-27.75
 11
38.9
 21
-25.0
  0
LINE
  8
0
  6
CONTINUOUS
 62
     7
 10
38.90002
 20
-27.75
 11
39.14564
 21
-28.17543
  0
LINE
  8
0
  6
CONTINUOUS
 62
     7
 10
39.14561
 20
-28.17543
 11
39.8
 21
-28.17543
  0
LINE
  8
0
  6
CONTINUOUS
 62
     7
 10
40.45438
 20
-23.41229
 11
39.8
 21
-23.41229
  0
LINE
  8
0
  6
CONTINUOUS
 62
     7
 10
40.7
 20
-22.25
 11
40.7
 21
-25.0
  0
LINE
  8
0
  6
CONTINUOUS
 62
     7
 10
40.7
 20
-22.25
 11
40.45438
 21
-21.82458
  0
LINE
  8
0
  6
CONTINUOUS
 62
     7
 10
40.45438
 20
-21.82458
 11
39.8
 21
-21.82458
  0
LINE
  8
0
  6
CONTINUOUS
 62
     7
 10
40.45438
 20
-26.58772
 11
39.8
 21
-26.58772
  0
LINE
  8
0
  6
CONTINUOUS
 62
     7
 10
40.7
 20
-27.75
 11
40.7
 21
-25.0
  0
LINE
  8
0
  6
CONTINUOUS
 62
     7
 10
40.69999
 20
-27.75001
 11
40.45437
 21
-28.17543
  0
LINE
  8
0
  6
CONTINUOUS
 62
     7
 10
40.45438
 20
-28.17543
 11
39.8
 21
-28.17543
  0
LINE
  8
0
  6
CONTINUOUS
 62
     7
 10
25.0
 20
-22.0
 11
25.0
 21
-28.0
  0
LINE
  8
0
  6
CONTINUOUS
 62
     7
 10
24.0
 20
-22.0
 11
25.0
 21
-22.0
  0
LINE
  8
0
  6
CONTINUOUS
 62
     7
 10
24.0
 20
-28.0
 11
25.0
 21
-28.0
  0
LINE
  8
0
  6
CONTINUOUS
 62
     7
 10
-14.0
 20
-15.0
 11
4.60762
 21
-15.0
  0
LINE
  8
0
  6
CONTINUOUS
 62
     7
 10
-14.0
 20
-35.0
 11
-2.67178
 21
-35.0
  0
LINE
  8
0
  6
CONTINUOUS
 62
     7
 10
-1.6076
 20
-35.0
 11
24.0
 21
-35.0
  0
LINE
  8
0
  6
CONTINUOUS
 62
     7
 10
5.6718
 20
-15.0
 11
24.0
 21
-15.0
  0
LINE
  8
0
  6
PHANTOM
 62
     2
 10
-3.03576
 20
-36.00001
 11
4.97157
 21
-14.00001
  0
LINE
  8
0
  6
PHANTOM
 62
     2
 10
-1.97158
 20
-36.00001
 11
6.03575
 21
-14.00001
  0
LINE
  8
0
  6
PHANTOM
 62
     2
 10
29.09006
 20
-27.5
 11
30.90991
 21
-22.5
  0
LINE
  8
0
  6
PHANTOM
 62
     2
 10
30.15424
 20
-27.5
 11
31.97409
 21
-22.5
  0
LINE
  8
0
  6
CONTINUOUS
 62
     7
 10
29.45404
 20
-26.5
 11
25.0
 21
-26.5
  0
LINE
  8
0
  6
CONTINUOUS
 62
     7
 10
30.54594
 20
-23.5
 11
25.0
 21
-23.5
  0
LINE
  8
0
  6
CONTINUOUS
 62
     7
 10
-29.0
 20
46.0
 11
-29.0
 21
44.0
  0
LINE
  8
0
  6
CONTINUOUS
 62
     7
 10
-15.0
 20
48.0
 11
-15.0
 21
42.0
  0
LINE
  8
0
  6
CONTINUOUS
 62
     7
 10
-15.0
 20
48.0
 11
-14.0
 21
48.0
  0
LINE
  8
0
  6
CONTINUOUS
 62
     7
 10
-15.0
 20
42.0
 11
-14.0
 21
42.0
  0
LINE
  8
0
  6
CONTINUOUS
 62
     7
 10
-28.5
 20
46.5
 11
-27.5
 21
46.5
  0
LINE
  8
0
  6
CONTINUOUS
 62
     7
 10
-28.5
 20
43.5
 11
-27.5
 21
43.5
  0
LINE
  8
0
  6
CONTINUOUS
 62
     7
 10
-28.49997
 20
46.50001
 11
-28.99997
 21
46.0
  0
LINE
  8
0
  6
CONTINUOUS
 62
     7
 10
-28.50002
 20
43.49997
 11
-29.00002
 21
43.99997
  0
LINE
  8
0
  6
CONTINUOUS
 62
     7
 10
-28.5
 20
46.5
 11
-28.5
 21
43.5
  0
LINE
  8
0
  6
CONTINUOUS
 62
     7
 10
-22.0
 20
46.5
 11
-22.0
 21
43.5
  0
LINE
  8
0
  6
CONTINUOUS
 62
     7
 10
-28.75
 20
46.25
 11
-27.5
 21
46.25
  0
LINE
  8
0
  6
CONTINUOUS
 62
     7
 10
-28.75
 20
43.75
 11
-27.5
 21
43.75
  0
LINE
  8
0
  6
CONTINUOUS
 62
     7
 10
-22.00003
 20
46.25009
 11
-21.56702
 21
46.50009
  0
LINE
  8
0
  6
CONTINUOUS
 62
     7
 10
-21.99996
 20
43.75008
 11
-21.56694
 21
43.50008
  0
LINE
  8
0
  6
CONTINUOUS
 62
     7
 10
-27.5
 20
47.75
 11
-27.5
 21
45.0
  0
LINE
  8
0
  6
CONTINUOUS
 62
     7
 10
-23.9
 20
46.5
 11
-21.5
 21
46.5
  0
LINE
  8
0
  6
CONTINUOUS
 62
     7
 10
-23.9
 20
46.25
 11
-22.0
 21
46.25
  0
LINE
  8
0
  6
CONTINUOUS
 62
     7
 10
-23.9
 20
43.75
 11
-22.0
 21
43.75
  0
LINE
  8
0
  6
CONTINUOUS
 62
     7
 10
-23.9
 20
43.5
 11
-21.5
 21
43.5
  0
LINE
  8
0
  6
CONTINUOUS
 62
     7
 10
-27.5
 20
42.25
 11
-27.5
 21
45.0
  0
LINE
  8
0
  6
CONTINUOUS
 62
     7
 10
-25.7
 20
47.75
 11
-25.7
 21
45.0
  0
LINE
  8
0
  6
CONTINUOUS
 62
     7
 10
-25.7
 20
42.25
 11
-25.7
 21
45.0
  0
LINE
  8
0
  6
CONTINUOUS
 62
     7
 10
-23.9
 20
47.75
 11
-23.9
 21
45.0
  0
LINE
  8
0
  6
CONTINUOUS
 62
     7
 10
-23.9
 20
42.25
 11
-23.9
 21
45.0
  0
LINE
  8
0
  6
CONTINUOUS
 62
     7
 10
-25.7
 20
47.75
 11
-25.7
 21
45.0
  0
LINE
  8
0
  6
CONTINUOUS
 62
     7
 10
-25.7
 20
42.25
 11
-25.7
 21
45.0
  0
LINE
  8
0
  6
CONTINUOUS
 62
     7
 10
24.0
 20
44.5
 11
21.3
 21
44.5
  0
LINE
  8
0
  6
CONTINUOUS
 62
     7
 10
23.4
 20
43.75
 11
21.3
 21
43.75
  0
LINE
  8
0
  6
CONTINUOUS
 62
     7
 10
23.4
 20
39.25
 11
21.3
 21
39.25
  0
LINE
  8
0
  6
CONTINUOUS
 62
     7
 10
21.3
 20
44.5
 11
21.3
 21
39.0
  0
LINE
  8
0
  6
CONTINUOUS
 62
     7
 10
23.9
 20
43.25
 11
23.9
 21
39.75
  0
LINE
  8
0
  6
CONTINUOUS
 62
     7
 10
23.39989
 20
43.7499
 11
23.89989
 21
43.2499
  0
LINE
  8
0
  6
CONTINUOUS
 62
     7
 10
23.40001
 20
39.24997
 11
23.90001
 21
39.74997
  0
LINE
  8
0
  6
CONTINUOUS
 62
     7
 10
23.4
 20
43.75
 11
23.4
 21
39.25
  0
LINE
  8
0
  6
CONTINUOUS
 62
     7
 10
23.4
 20
42.0
 11
21.3
 21
42.0
  0
LINE
  8
0
  6
CONTINUOUS
 62
     7
 10
23.4
 20
41.0
 11
21.3
 21
41.0
  0
LINE
  8
0
  6
CONTINUOUS
 62
     7
 10
23.4
 20
40.2
 11
21.3
 21
40.2
  0
LINE
  8
0
  6
CONTINUOUS
 62
     7
 10
23.4
 20
42.79999
 11
21.3
 21
42.79999
  0
LINE
  8
0
  6
CONTINUOUS
 62
     7
 10
23.4
 20
43.4
 11
21.3
 21
43.4
  0
LINE
  8
0
  6
CONTINUOUS
 62
     7
 10
23.4
 20
39.59999
 11
21.3
 21
39.59999
  0
LINE
  8
0
  6
CONTINUOUS
 62
     7
 10
-14.0
 20
51.0
 11
-14.0
 21
39.0
  0
LINE
  8
0
  6
CONTINUOUS
 62
     7
 10
24.0
 20
51.0
 11
24.0
 21
39.0
  0
LINE
  8
0
  6
CENTER
 62
     2
 10
-32.0
 20
45.0
 11
47.0
 21
45.0
  0
LINE
  8
0
  6
CONTINUOUS
 62
     7
 10
-9.0
 20
51.0
 11
-9.0
 21
39.0
  0
LINE
  8
0
  6
CONTINUOUS
 62
     7
 10
19.0
 20
51.0
 11
19.0
 21
39.0
  0
LINE
  8
0
  6
CONTINUOUS
 62
     7
 10
-27.5
 20
42.25
 11
-23.9
 21
42.25
  0
LINE
  8
0
  6
CONTINUOUS
 62
     7
 10
-27.5
 20
47.75
 11
-23.9
 21
47.75
  0
LINE
  8
0
  6
CONTINUOUS
 62
     7
 10
-27.25438
 20
45.0
 11
-25.94562
 21
45.0
  0
LINE
  8
0
  6
CONTINUOUS
 62
     7
 10
-24.14562
 20
45.0
 11
-25.45438
 21
45.0
  0
LINE
  8
0
  6
CONTINUOUS
 62
     7
 10
-13.4
 20
50.40001
 11
-11.3
 21
50.40001
  0
LINE
  8
0
  6
CONTINUOUS
 62
     7
 10
-14.0
 20
45.50001
 11
-11.3
 21
45.50001
  0
LINE
  8
0
  6
CONTINUOUS
 62
     7
 10
-13.4
 20
46.25001
 11
-11.3
 21
46.25001
  0
LINE
  8
0
  6
CONTINUOUS
 62
     7
 10
-13.4
 20
50.75001
 11
-11.3
 21
50.75001
  0
LINE
  8
0
  6
CONTINUOUS
 62
     7
 10
-11.3
 20
45.50001
 11
-11.3
 21
51.00001
  0
LINE
  8
0
  6
CONTINUOUS
 62
     7
 10
-13.9
 20
46.75001
 11
-13.9
 21
50.25001
  0
LINE
  8
0
  6
CONTINUOUS
 62
     7
 10
-13.40007
 20
46.24992
 11
-13.90008
 21
46.74992
  0
LINE
  8
0
  6
CONTINUOUS
 62
     7
 10
-13.39996
 20
50.74994
 11
-13.89996
 21
50.24994
  0
LINE
  8
0
  6
CONTINUOUS
 62
     7
 10
-13.4
 20
46.25001
 11
-13.4
 21
50.75001
  0
LINE
  8
0
  6
CONTINUOUS
 62
     7
 10
-13.4
 20
48.00001
 11
-11.3
 21
48.00001
  0
LINE
  8
0
  6
CONTINUOUS
 62
     7
 10
-13.4
 20
49.00001
 11
-11.3
 21
49.00001
  0
LINE
  8
0
  6
CONTINUOUS
 62
     7
 10
-13.4
 20
49.80001
 11
-11.3
 21
49.80001
  0
LINE
  8
0
  6
CONTINUOUS
 62
     7
 10
-13.4
 20
47.20002
 11
-11.3
 21
47.20002
  0
LINE
  8
0
  6
CONTINUOUS
 62
     7
 10
-13.4
 20
46.60001
 11
-11.3
 21
46.60001
  0
LINE
  8
0
  6
CENTER
 62
     2
 10
-8.0
 20
44.2
 11
0.0
 21
44.2
  0
LINE
  8
0
  6
CENTER
 62
     2
 10
10.0
 20
45.80001
 11
18.0
 21
45.80001
  0
LINE
  8
0
  6
CENTER
 62
     2
 10
-4.0
 20
48.2
 11
-4.0
 21
40.2
  0
LINE
  8
0
  6
CENTER
 62
     2
 10
14.0
 20
49.80001
 11
14.0
 21
41.80001
  0
LINE
  8
0
  6
CONTINUOUS
 62
     7
 10
-21.5
 20
50.5
 11
-21.5
 21
45.25
  0
LINE
  8
0
  6
CONTINUOUS
 62
     7
 10
-15.5
 20
50.5
 11
-15.5
 21
45.25
  0
LINE
  8
0
  6
CONTINUOUS
 62
     7
 10
-21.5
 20
50.5
 11
-15.5
 21
50.5
  0
LINE
  8
0
  6
CONTINUOUS
 62
     7
 10
-21.5
 20
39.5
 11
-15.5
 21
39.5
  0
LINE
  8
0
  6
CONTINUOUS
 62
     7
 10
-15.5
 20
46.5
 11
-15.0
 21
46.5
  0
LINE
  8
0
  6
CONTINUOUS
 62
     7
 10
-15.5
 20
43.5
 11
-15.0
 21
43.5
  0
LINE
  8
0
  6
CONTINUOUS
 62
     7
 10
-21.5
 20
45.25
 11
-15.5
 21
45.25
  0
LINE
  8
0
  6
CONTINUOUS
 62
     7
 10
-21.5
 20
44.75
 11
-15.5
 21
44.75
  0
LINE
  8
0
  6
CONTINUOUS
 62
     7
 10
-21.5
 20
44.75
 11
-21.5
 21
39.5
  0
LINE
  8
0
  6
CONTINUOUS
 62
     7
 10
-15.5
 20
44.75
 11
-15.5
 21
39.5
  0
LINE
  8
0
  6
CENTER
 62
     2
 10
-18.5
 20
52.5
 11
-18.5
 21
37.5
  0
LINE
  8
0
  6
CONTINUOUS
 62
     7
 10
-19.8
 20
45.25
 11
-19.8
 21
44.75
  0
LINE
  8
0
  6
CONTINUOUS
 62
     7
 10
-17.2
 20
45.25
 11
-17.2
 21
44.75
  0
LINE
  8
0
  6
CONTINUOUS
 62
     7
 10
-19.575
 20
45.25
 11
-19.575
 21
44.75
  0
LINE
  8
0
  6
CONTINUOUS
 62
     7
 10
-17.425
 20
45.25
 11
-17.425
 21
44.75
  0
LINE
  8
0
  6
CENTER
 62
     2
 10
-17.5
 20
48.5
 11
-12.0
 21
48.5
  0
LINE
  8
0
  6
CONTINUOUS
 62
     7
 10
-15.5
 20
49.75
 11
-14.0
 21
49.75
  0
LINE
  8
0
  6
CONTINUOUS
 62
     7
 10
-15.5
 20
47.25
 11
-15.0
 21
47.25
  0
LINE
  8
0
  6
CONTINUOUS
 62
     7
 10
44.0
 20
46.0
 11
44.0
 21
44.0
  0
LINE
  8
0
  6
CONTINUOUS
 62
     7
 10
43.5
 20
46.5
 11
42.5
 21
46.5
  0
LINE
  8
0
  6
CONTINUOUS
 62
     7
 10
43.5
 20
43.5
 11
42.5
 21
43.5
  0
LINE
  8
0
  6
CONTINUOUS
 62
     7
 10
43.49996
 20
46.5
 11
43.99996
 21
46.0
  0
LINE
  8
0
  6
CONTINUOUS
 62
     7
 10
43.50002
 20
43.49998
 11
44.00002
 21
43.99998
  0
LINE
  8
0
  6
CONTINUOUS
 62
     7
 10
43.5
 20
46.5
 11
43.5
 21
43.5
  0
LINE
  8
0
  6
CONTINUOUS
 62
     7
 10
37.0
 20
46.5
 11
37.0
 21
43.5
  0
LINE
  8
0
  6
CONTINUOUS
 62
     7
 10
43.75
 20
46.25
 11
42.5
 21
46.25
  0
LINE
  8
0
  6
CONTINUOUS
 62
     7
 10
43.75
 20
43.75
 11
42.5
 21
43.75
  0
LINE
  8
0
  6
CONTINUOUS
 62
     7
 10
37.0
 20
46.25003
 11
36.56698
 21
46.50003
  0
LINE
  8
0
  6
CONTINUOUS
 62
     7
 10
36.99995
 20
43.7501
 11
36.56695
 21
43.5001
  0
LINE
  8
0
  6
CONTINUOUS
 62
     7
 10
42.5
 20
47.75
 11
42.5
 21
45.0
  0
LINE
  8
0
  6
CONTINUOUS
 62
     7
 10
38.9
 20
46.5
 11
31.61013
 21
46.5
  0
LINE
  8
0
  6
CONTINUOUS
 62
     7
 10
38.9
 20
46.25
 11
37.0
 21
46.25
  0
LINE
  8
0
  6
CONTINUOUS
 62
     7
 10
38.9
 20
43.75
 11
37.0
 21
43.75
  0
LINE
  8
0
  6
CONTINUOUS
 62
     7
 10
38.9
 20
43.5
 11
30.51822
 21
43.5
  0
LINE
  8
0
  6
CONTINUOUS
 62
     7
 10
42.5
 20
42.25
 11
42.5
 21
45.0
  0
LINE
  8
0
  6
CONTINUOUS
 62
     7
 10
40.7
 20
47.75
 11
40.7
 21
45.0
  0
LINE
  8
0
  6
CONTINUOUS
 62
     7
 10
40.7
 20
42.25
 11
40.7
 21
45.0
  0
LINE
  8
0
  6
CONTINUOUS
 62
     7
 10
38.9
 20
47.75
 11
38.9
 21
45.0
  0
LINE
  8
0
  6
CONTINUOUS
 62
     7
 10
38.9
 20
42.25
 11
38.9
 21
45.0
  0
LINE
  8
0
  6
CONTINUOUS
 62
     7
 10
40.7
 20
47.75
 11
40.7
 21
45.0
  0
LINE
  8
0
  6
CONTINUOUS
 62
     7
 10
40.7
 20
42.25
 11
40.7
 21
45.0
  0
LINE
  8
0
  6
CONTINUOUS
 62
     7
 10
42.5
 20
42.25
 11
38.9
 21
42.25
  0
LINE
  8
0
  6
CONTINUOUS
 62
     7
 10
42.5
 20
47.75
 11
38.9
 21
47.75
  0
LINE
  8
0
  6
CONTINUOUS
 62
     7
 10
42.25438
 20
45.0
 11
40.94562
 21
45.0
  0
LINE
  8
0
  6
CONTINUOUS
 62
     7
 10
39.14561
 20
45.0
 11
40.45438
 21
45.0
  0
LINE
  8
0
  6
CONTINUOUS
 62
     7
 10
25.0
 20
48.0
 11
25.0
 21
42.0
  0
LINE
  8
0
  6
CONTINUOUS
 62
     7
 10
24.0
 20
48.0
 11
25.0
 21
48.0
  0
LINE
  8
0
  6
CONTINUOUS
 62
     7
 10
24.0
 20
42.0
 11
25.0
 21
42.0
  0
LINE
  8
0
  6
PHANTOM
 62
     2
 10
30.15424
 20
42.5
 11
31.97409
 21
47.50001
  0
LINE
  8
0
  6
PHANTOM
 62
     2
 10
29.09007
 20
42.50001
 11
30.90991
 21
47.5
  0
LINE
  8
0
  6
CONTINUOUS
 62
     7
 10
-14.0
 20
51.0
 11
2.59006
 21
51.0
  0
LINE
  8
0
  6
CONTINUOUS
 62
     7
 10
-14.0
 20
39.0
 11
-0.62533
 21
39.0
  0
LINE
  8
0
  6
PHANTOM
 62
     2
 10
2.85801
 20
52.0
 11
-0.89328
 21
38.0
  0
LINE
  8
0
  6
PHANTOM
 62
     2
 10
3.89328
 20
52.00002
 11
0.14199
 21
38.00001
  0
LINE
  8
0
  6
CONTINUOUS
 62
     7
 10
0.40995
 20
39.0
 11
24.0
 21
39.0
  0
LINE
  8
0
  6
CONTINUOUS
 62
     7
 10
3.62533
 20
51.0
 11
24.0
 21
51.0
  0
LINE
  8
0
  6
CONTINUOUS
 62
     7
 10
30.54594
 20
46.5
 11
25.0
 21
46.5
  0
LINE
  8
0
  6
CONTINUOUS
 62
     7
 10
29.45404
 20
43.5
 11
25.0
 21
43.5
  0
LINE
  8
0
  6
CENTER
 62
     2
 10
-90.12361
 20
-12.0
 11
-90.12361
 21
-38.0
  0
LINE
  8
0
  6
CENTER
 62
     2
 10
-98.12361
 20
-25.0
 11
-82.12361
 21
-25.0
  0
LINE
  8
0
  6
DASHED
 62
     7
 10
-95.12361
 20
-20.0
 11
-95.12361
 21
-30.0
  0
LINE
  8
0
  6
DASHED
 62
     7
 10
-85.12361
 20
-20.0
 11
-85.12361
 21
-30.0
  0
LINE
  8
0
  6
DASHED
 62
     7
 10
-85.12361
 20
-20.0
 11
-84.62361
 21
-20.0
  0
LINE
  8
0
  6
CONTINUOUS
 62
     7
 10
-84.12361
 20
-15.0
 11
-84.12361
 21
-20.0
  0
LINE
  8
0
  6
CONTINUOUS
 62
     7
 10
-96.12361
 20
-15.0
 11
-84.12361
 21
-15.0
  0
LINE
  8
0
  6
CONTINUOUS
 62
     7
 10
-96.12361
 20
-15.0
 11
-96.12361
 21
-20.0
  0
LINE
  8
0
  6
CONTINUOUS
 62
     7
 10
-96.12361
 20
-20.0
 11
-95.62361
 21
-20.0
  0
LINE
  8
0
  6
CONTINUOUS
 62
     7
 10
-96.12361
 20
-30.0
 11
-95.62361
 21
-30.0
  0
LINE
  8
0
  6
CONTINUOUS
 62
     7
 10
-96.12361
 20
-30.0
 11
-96.12361
 21
-35.0
  0
LINE
  8
0
  6
CONTINUOUS
 62
     7
 10
-96.12361
 20
-35.0
 11
-84.12361
 21
-35.0
  0
LINE
  8
0
  6
CONTINUOUS
 62
     7
 10
-84.12361
 20
-30.0
 11
-84.12361
 21
-35.0
  0
LINE
  8
0
  6
DASHED
 62
     7
 10
-85.12361
 20
-30.0
 11
-84.62361
 21
-30.0
  0
LINE
  8
0
  6
CONTINUOUS
 62
     7
 10
-89.62361
 20
-34.5
 11
-89.62361
 21
-35.0
  0
LINE
  8
0
  6
CENTER
 62
     2
 10
-93.62361
 20
-13.0
 11
-93.62361
 21
-19.5
  0
LINE
  8
0
  6
CONTINUOUS
 62
     7
 10
-92.62363
 20
-16.92268
 11
-93.62363
 21
-16.34533
  0
LINE
  8
0
  6
CONTINUOUS
 62
     7
 10
-92.62361
 20
-17.5
 11
-92.62361
 21
-16.92265
  0
LINE
  8
0
  6
CONTINUOUS
 62
     7
 10
-94.62361
 20
-16.92265
 11
-94.62361
 21
-17.5
  0
LINE
  8
0
  6
CONTINUOUS
 62
     7
 10
-93.62363
 20
-16.34528
 11
-94.62363
 21
-16.92263
  0
LINE
  8
0
  6
CONTINUOUS
 62
     7
 10
-90.62361
 20
-15.0
 11
-90.62361
 21
-17.5
  0
LINE
  8
0
  6
CONTINUOUS
 62
     7
 10
-84.62361
 20
-17.5
 11
-84.62361
 21
-34.5
  0
LINE
  8
0
  6
CONTINUOUS
 62
     7
 10
-95.62361
 20
-17.5
 11
-95.62361
 21
-34.5
  0
LINE
  8
0
  6
CONTINUOUS
 62
     7
 10
-95.62361
 20
-34.5
 11
-84.62361
 21
-34.5
  0
LINE
  8
0
  6
CONTINUOUS
 62
     7
 10
-89.87361
 20
-17.5
 11
-89.87361
 21
-21.96892
  0
LINE
  8
0
  6
CONTINUOUS
 62
     7
 10
-90.37361
 20
-17.5
 11
-90.37361
 21
-21.96891
  0
LINE
  8
0
  6
DASHED
 62
     7
 10
-95.62361
 20
-20.0
 11
-95.12361
 21
-20.0
  0
LINE
  8
0
  6
DASHED
 62
     7
 10
-95.62361
 20
-30.0
 11
-95.12361
 21
-30.0
  0
LINE
  8
0
  6
CONTINUOUS
 62
     7
 10
-84.62361
 20
-30.0
 11
-84.12361
 21
-30.0
  0
LINE
  8
0
  6
CONTINUOUS
 62
     7
 10
-84.62361
 20
-20.0
 11
-84.12361
 21
-20.0
  0
LINE
  8
0
  6
CONTINUOUS
 62
     7
 10
-95.62361
 20
-17.5
 11
-90.37361
 21
-17.5
  0
LINE
  8
0
  6
CONTINUOUS
 62
     7
 10
-89.87361
 20
-17.5
 11
-84.62361
 21
-17.5
  0
LINE
  8
0
  6
CENTER
 62
     2
 10
-96.12361
 20
-32.5
 11
-91.12361
 21
-32.5
  0
LINE
  8
0
  6
CENTER
 62
     2
 10
-93.62361
 20
-30.0
 11
-93.62361
 21
-35.0
  0
LINE
  8
0
  6
CENTER
 62
     2
 10
-98.12361
 20
-21.2
 11
-82.12361
 21
-21.2
  0
LINE
  8
0
  6
CONTINUOUS
 62
     7
 10
-90.37361
 20
-19.90001
 11
-89.87361
 21
-19.90001
  0
LINE
  8
0
  6
CONTINUOUS
 62
     7
 10
-90.37361
 20
-20.125
 11
-89.87361
 21
-20.125
  0
LINE
  8
0
  6
CONTINUOUS
 62
     7
 10
-92.87363
 20
-26.58772
 11
-90.12363
 21
-28.17544
  0
LINE
  8
0
  6
CONTINUOUS
 62
     7
 10
-90.12362
 20
-28.17543
 11
-87.37361
 21
-26.58772
  0
LINE
  8
0
  6
CONTINUOUS
 62
     7
 10
-87.37361
 20
-26.58772
 11
-87.37361
 21
-23.41229
  0
LINE
  8
0
  6
CONTINUOUS
 62
     7
 10
-87.37364
 20
-23.41233
 11
-90.12364
 21
-21.82461
  0
LINE
  8
0
  6
CONTINUOUS
 62
     7
 10
-90.12362
 20
-21.82456
 11
-92.87361
 21
-23.41227
  0
LINE
  8
0
  6
CONTINUOUS
 62
     7
 10
-92.87361
 20
-23.41228
 11
-92.87361
 21
-26.58771
  0
LINE
  8
0
  6
CONTINUOUS
 62
     7
 10
84.12361
 20
-15.0
 11
84.12361
 21
-20.0
  0
LINE
  8
0
  6
CONTINUOUS
 62
     7
 10
96.12361
 20
-15.0
 11
96.12361
 21
-20.0
  0
LINE
  8
0
  6
CONTINUOUS
 62
     7
 10
84.12361
 20
-15.0
 11
96.12361
 21
-15.0
  0
LINE
  8
0
  6
CONTINUOUS
 62
     7
 10
84.12361
 20
-35.0
 11
96.12361
 21
-35.0
  0
LINE
  8
0
  6
CONTINUOUS
 62
     7
 10
85.12361
 20
-20.0
 11
85.12361
 21
-30.0
  0
LINE
  8
0
  6
CONTINUOUS
 62
     7
 10
95.12361
 20
-20.0
 11
95.12361
 21
-30.0
  0
LINE
  8
0
  6
CONTINUOUS
 62
     7
 10
84.12361
 20
-20.0
 11
85.12361
 21
-20.0
  0
LINE
  8
0
  6
CONTINUOUS
 62
     7
 10
84.12361
 20
-30.0
 11
85.12361
 21
-30.0
  0
LINE
  8
0
  6
CONTINUOUS
 62
     7
 10
84.12361
 20
-30.0
 11
84.12361
 21
-35.0
  0
LINE
  8
0
  6
CONTINUOUS
 62
     7
 10
96.12361
 20
-30.0
 11
96.12361
 21
-35.0
  0
LINE
  8
0
  6
CONTINUOUS
 62
     7
 10
95.12361
 20
-20.0
 11
96.12361
 21
-20.0
  0
LINE
  8
0
  6
CONTINUOUS
 62
     7
 10
95.12361
 20
-30.0
 11
96.12361
 21
-30.0
  0
LINE
  8
0
  6
CONTINUOUS
 62
     7
 10
87.37359
 20
-26.58771
 11
90.1236
 21
-28.17542
  0
LINE
  8
0
  6
CONTINUOUS
 62
     7
 10
90.1236
 20
-28.17546
 11
92.87359
 21
-26.58775
  0
LINE
  8
0
  6
CONTINUOUS
 62
     7
 10
92.87361
 20
-26.58772
 11
92.87361
 21
-23.41229
  0
LINE
  8
0
  6
CONTINUOUS
 62
     7
 10
92.87362
 20
-23.41228
 11
90.12363
 21
-21.82457
  0
LINE
  8
0
  6
CONTINUOUS
 62
     7
 10
90.12364
 20
-21.82463
 11
87.37365
 21
-23.41234
  0
LINE
  8
0
  6
CONTINUOUS
 62
     7
 10
87.37361
 20
-23.41228
 11
87.37361
 21
-26.58771
  0
LINE
  8
0
  6
CENTER
 62
     2
 10
89.12361
 20
-32.5
 11
98.12361
 21
-32.5
  0
LINE
  8
0
  6
CENTER
 62
     2
 10
82.12361
 20
-17.5
 11
91.12361
 21
-17.5
  0
LINE
  8
0
  6
CENTER
 62
     2
 10
86.62361
 20
-13.0
 11
86.62361
 21
-22.0
  0
LINE
  8
0
  6
CENTER
 62
     2
 10
93.62361
 20
-28.0
 11
93.62361
 21
-37.0
  0
LINE
  8
0
  6
CONTINUOUS
 62
     7
 10
85.62362
 20
-18.07733
 11
86.62361
 21
-18.65468
  0
LINE
  8
0
  6
CONTINUOUS
 62
     7
 10
86.62363
 20
-18.65476
 11
87.62365
 21
-18.0774
  0
LINE
  8
0
  6
CONTINUOUS
 62
     7
 10
87.62361
 20
-18.07735
 11
87.62361
 21
-16.92266
  0
LINE
  8
0
  6
CONTINUOUS
 62
     7
 10
87.62366
 20
-16.92262
 11
86.62364
 21
-16.34526
  0
LINE
  8
0
  6
CONTINUOUS
 62
     7
 10
86.62369
 20
-16.34542
 11
85.6237
 21
-16.92276
  0
LINE
  8
0
  6
CONTINUOUS
 62
     7
 10
85.62361
 20
-16.92266
 11
85.62361
 21
-18.07735
  0
LINE
  8
0
  6
CONTINUOUS
 62
     7
 10
92.62361
 20
-31.92265
 11
92.62361
 21
-33.07735
  0
LINE
  8
0
  6
CONTINUOUS
 62
     7
 10
93.62367
 20
-31.34543
 11
92.62368
 21
-31.92278
  0
LINE
  8
0
  6
CONTINUOUS
 62
     7
 10
94.62364
 20
-31.92261
 11
93.62364
 21
-31.34527
  0
LINE
  8
0
  6
CONTINUOUS
 62
     7
 10
94.62361
 20
-33.07735
 11
94.62361
 21
-31.92265
  0
LINE
  8
0
  6
CONTINUOUS
 62
     7
 10
93.62363
 20
-33.65476
 11
94.62363
 21
-33.07741
  0
LINE
  8
0
  6
CONTINUOUS
 62
     7
 10
92.62363
 20
-33.07734
 11
93.62362
 21
-33.65469
  0
LINE
  8
0
  6
CONTINUOUS
 62
     7
 10
93.62361
 20
-29.5
 11
95.12361
 21
-29.5
  0
LINE
  8
0
  6
CONTINUOUS
 62
     7
 10
90.62361
 20
-32.5
 11
90.62361
 21
-35.0
  0
LINE
  8
0
  6
CONTINUOUS
 62
     7
 10
89.62361
 20
-15.0
 11
89.62361
 21
-17.5
  0
LINE
  8
0
  6
CONTINUOUS
 62
     7
 10
85.12361
 20
-20.5
 11
86.62361
 21
-20.5
  0
LINE
  8
0
  6
CENTER
 62
     2
 10
82.12361
 20
-25.0
 11
98.12361
 21
-25.0
  0
LINE
  8
0
  6
CENTER
 62
     2
 10
90.12361
 20
-12.0
 11
90.12361
 21
-38.0
  0
LINE
  8
0
  6
CONTINUOUS
 62
     7
 10
95.62361
 20
-20.0
 11
95.62361
 21
-30.0
  0
LINE
  8
0
  6
CONTINUOUS
 62
     7
 10
84.62361
 20
-20.0
 11
84.62361
 21
-30.0
  0
ARC
  8
0
  6
CONTINUOUS
 62
     7
 10
96.53259
 20
-83.10118
 40
0.78202
 50
0.0
 51
89.99999
  0
ARC
  8
0
  6
CONTINUOUS
 62
     7
 10
102.9843
 20
-87.30457
 40
0.78202
 50
270.0
 51
0.0
  0
ARC
  8
0
  6
CONTINUOUS
 62
     7
 10
102.5933
 20
-83.49218
 40
1.17303
 50
0.0
 51
89.99999
  0
ARC
  8
0
  6
CONTINUOUS
 62
     7
 10
109.7292
 20
-83.10118
 40
0.78202
 50
0.0
 51
89.99999
  0
ARC
  8
0
  6
CONTINUOUS
 62
     7
 10
109.7292
 20
-83.72594
 40
0.78202
 50
295.0
 51
0.0
  0
ARC
  8
0
  6
CONTINUOUS
 62
     7
 10
115.7899
 20
-82.31916
 40
1.17304
 50
291.6882
 51
0.0
  0
ARC
  8
0
  6
CONTINUOUS
 62
     7
 10
115.3989
 20
-82.05386
 40
0.39101
 50
291.6885
 51
0.0
  0
ARC
  8
0
  6
CONTINUOUS
 62
     7
 10
-25.3057
 20
-22.61843
 40
1.40571
 50
325.6158
 51
34.38414
  0
ARC
  8
0
  6
CONTINUOUS
 62
     7
 10
-29.15439
 20
-25.0
 40
5.25439
 50
359.9999
 51
17.58787
  0
ARC
  8
0
  6
CONTINUOUS
 62
     7
 10
-26.09429
 20
-22.61843
 40
1.40571
 50
145.6158
 51
214.3841
  0
ARC
  8
0
  6
CONTINUOUS
 62
     7
 10
-22.24561
 20
-25.0
 40
5.25439
 50
162.4121
 51
180.0
  0
ARC
  8
0
  6
CONTINUOUS
 62
     7
 10
-22.24561
 20
-25.0
 40
5.25439
 50
179.9999
 51
197.5878
  0
ARC
  8
0
  6
CONTINUOUS
 62
     7
 10
-26.09429
 20
-27.38157
 40
1.40571
 50
145.6158
 51
214.3841
  0
ARC
  8
0
  6
CONTINUOUS
 62
     7
 10
-30.95438
 20
-25.0
 40
5.25439
 50
359.9999
 51
17.58787
  0
ARC
  8
0
  6
CONTINUOUS
 62
     7
 10
-27.10571
 20
-22.61843
 40
1.40571
 50
325.6158
 51
34.38414
  0
ARC
  8
0
  6
CONTINUOUS
 62
     7
 10
-30.95438
 20
-25.0
 40
5.25439
 50
342.4121
 51
0.00006
  0
ARC
  8
0
  6
CONTINUOUS
 62
     7
 10
-27.10571
 20
-27.38157
 40
1.4057
 50
325.6158
 51
34.38414
  0
ARC
  8
0
  6
CONTINUOUS
 62
     7
 10
-25.3057
 20
-27.38157
 40
1.4057
 50
325.6158
 51
34.38414
  0
ARC
  8
0
  6
CONTINUOUS
 62
     7
 10
-20.44562
 20
-25.0
 40
5.25439
 50
162.4121
 51
180.0
  0
ARC
  8
0
  6
CONTINUOUS
 62
     7
 10
-24.2943
 20
-27.38157
 40
1.40571
 50
145.6158
 51
214.3841
  0
ARC
  8
0
  6
CONTINUOUS
 62
     7
 10
-24.2943
 20
-22.61843
 40
1.40571
 50
145.6158
 51
214.3841
  0
ARC
  8
0
  6
CONTINUOUS
 62
     7
 10
-20.44562
 20
-25.0
 40
5.25439
 50
179.9999
 51
197.5878
  0
ARC
  8
0
  6
CONTINUOUS
 62
     7
 10
-29.15439
 20
-25.0
 40
5.25439
 50
342.4121
 51
0.00006
  0
CIRCLE
  8
0
  6
CONTINUOUS
 62
     7
 10
8.0
 20
-19.0
 40
1.75
  0
CIRCLE
  8
0
  6
CONTINUOUS
 62
     7
 10
8.0
 20
-31.0
 40
1.75
  0
CIRCLE
  8
0
  6
CONTINUOUS
 62
     7
 10
8.0
 20
-31.0
 40
3.0
  0
CIRCLE
  8
0
  6
CONTINUOUS
 62
     7
 10
8.0
 20
-19.0
 40
3.0
  0
CIRCLE
  8
0
  6
CONTINUOUS
 62
     7
 10
1.5
 20
-32.0
 40
1.5
  0
CIRCLE
  8
0
  6
CONTINUOUS
 62
     7
 10
1.5
 20
-18.0
 40
1.5
  0
CIRCLE
  8
0
  6
CONTINUOUS
 62
     7
 10
1.5
 20
-18.0
 40
1.25
  0
CIRCLE
  8
0
  6
CONTINUOUS
 62
     7
 10
1.5
 20
-32.0
 40
1.25
  0
CIRCLE
  8
0
  6
CONTINUOUS
 62
     7
 10
-18.5
 20
-21.2
 40
2.25
  0
CIRCLE
  8
0
  6
CONTINUOUS
 62
     7
 10
-18.5
 20
-21.2
 40
1.75
  0
CIRCLE
  8
0
  6
CONTINUOUS
 62
     7
 10
-18.5
 20
-21.2
 40
2.5
  0
ARC
  8
0
  6
CONTINUOUS
 62
     7
 10
35.44562
 20
-25.0
 40
5.25439
 50
359.9999
 51
17.58786
  0
ARC
  8
0
  6
CONTINUOUS
 62
     7
 10
35.44562
 20
-25.0
 40
5.25439
 50
342.4121
 51
0.00006
  0
ARC
  8
0
  6
CONTINUOUS
 62
     7
 10
39.2943
 20
-27.38157
 40
1.40571
 50
325.6159
 51
34.3841
  0
ARC
  8
0
  6
CONTINUOUS
 62
     7
 10
39.2943
 20
-22.61843
 40
1.4057
 50
325.6158
 51
34.3841
  0
ARC
  8
0
  6
CONTINUOUS
 62
     7
 10
44.15439
 20
-25.0
 40
5.25439
 50
179.9999
 51
197.5878
  0
ARC
  8
0
  6
CONTINUOUS
 62
     7
 10
40.3057
 20
-22.61843
 40
1.4057
 50
145.6158
 51
214.3841
  0
ARC
  8
0
  6
CONTINUOUS
 62
     7
 10
44.15439
 20
-25.0
 40
5.25439
 50
162.4121
 51
180.0
  0
ARC
  8
0
  6
CONTINUOUS
 62
     7
 10
41.09429
 20
-22.61843
 40
1.4057
 50
325.6158
 51
34.3841
  0
ARC
  8
0
  6
CONTINUOUS
 62
     7
 10
37.24561
 20
-25.0
 40
5.25439
 50
359.9999
 51
17.58786
  0
ARC
  8
0
  6
CONTINUOUS
 62
     7
 10
37.24561
 20
-25.0
 40
5.25439
 50
342.4121
 51
0.00006
  0
ARC
  8
0
  6
CONTINUOUS
 62
     7
 10
41.09429
 20
-27.38157
 40
1.40571
 50
325.6159
 51
34.3841
  0
ARC
  8
0
  6
CONTINUOUS
 62
     7
 10
45.95438
 20
-25.0
 40
5.25439
 50
162.4121
 51
180.0
  0
ARC
  8
0
  6
CONTINUOUS
 62
     7
 10
42.10571
 20
-22.61843
 40
1.4057
 50
145.6158
 51
214.3841
  0
ARC
  8
0
  6
CONTINUOUS
 62
     7
 10
45.95438
 20
-25.0
 40
5.25439
 50
179.9999
 51
197.5878
  0
ARC
  8
0
  6
CONTINUOUS
 62
     7
 10
42.10571
 20
-27.38157
 40
1.4057
 50
145.6158
 51
214.3841
  0
ARC
  8
0
  6
CONTINUOUS
 62
     7
 10
40.3057
 20
-27.38157
 40
1.4057
 50
145.6158
 51
214.3841
  0
ARC
  8
0
  6
CONTINUOUS
 62
     7
 10
-23.52851
 20
46.375
 40
3.97149
 50
159.7439
 51
200.2561
  0
ARC
  8
0
  6
CONTINUOUS
 62
     7
 10
-23.52851
 20
43.625
 40
3.97149
 50
159.7438
 51
200.256
  0
ARC
  8
0
  6
CONTINUOUS
 62
     7
 10
-29.67149
 20
46.375
 40
3.97149
 50
339.7439
 51
20.25607
  0
ARC
  8
0
  6
CONTINUOUS
 62
     7
 10
-29.67149
 20
43.625
 40
3.97149
 50
339.7439
 51
20.25613
  0
ARC
  8
0
  6
CONTINUOUS
 62
     7
 10
-21.72851
 20
43.625
 40
3.97149
 50
159.7438
 51
200.256
  0
ARC
  8
0
  6
CONTINUOUS
 62
     7
 10
-21.72851
 20
46.375
 40
3.97149
 50
159.7439
 51
200.2561
  0
ARC
  8
0
  6
CONTINUOUS
 62
     7
 10
-27.87149
 20
46.375
 40
3.97149
 50
339.7439
 51
20.25607
  0
ARC
  8
0
  6
CONTINUOUS
 62
     7
 10
-27.87149
 20
43.625
 40
3.97149
 50
339.7439
 51
20.25613
  0
CIRCLE
  8
0
  6
CONTINUOUS
 62
     7
 10
-4.0
 20
44.2
 40
2.5
  0
CIRCLE
  8
0
  6
CONTINUOUS
 62
     7
 10
14.0
 20
45.80001
 40
2.5
  0
CIRCLE
  8
0
  6
CONTINUOUS
 62
     7
 10
-4.0
 20
44.2
 40
2.1
  0
CIRCLE
  8
0
  6
CONTINUOUS
 62
     7
 10
14.0
 20
45.80001
 40
2.1
  0
CIRCLE
  8
0
  6
CONTINUOUS
 62
     7
 10
-4.0
 20
44.2
 40
0.3
  0
CIRCLE
  8
0
  6
CONTINUOUS
 62
     7
 10
14.0
 20
45.80001
 40
0.3
  0
ARC
  8
0
  6
CONTINUOUS
 62
     7
 10
42.87149
 20
43.625
 40
3.97149
 50
159.7438
 51
200.256
  0
ARC
  8
0
  6
CONTINUOUS
 62
     7
 10
38.5285
 20
46.375
 40
3.97149
 50
339.7439
 51
20.25608
  0
ARC
  8
0
  6
CONTINUOUS
 62
     7
 10
42.87149
 20
46.375
 40
3.97149
 50
159.7439
 51
200.2561
  0
ARC
  8
0
  6
CONTINUOUS
 62
     7
 10
38.5285
 20
43.625
 40
3.97149
 50
339.7439
 51
20.25613
  0
ARC
  8
0
  6
CONTINUOUS
 62
     7
 10
36.72851
 20
46.375
 40
3.97149
 50
339.7439
 51
20.25608
  0
ARC
  8
0
  6
CONTINUOUS
 62
     7
 10
36.72851
 20
43.625
 40
3.97149
 50
339.7439
 51
20.25613
  0
ARC
  8
0
  6
CONTINUOUS
 62
     7
 10
44.67149
 20
43.625
 40
3.97149
 50
159.7438
 51
200.256
  0
ARC
  8
0
  6
CONTINUOUS
 62
     7
 10
44.67149
 20
46.375
 40
3.97149
 50
159.7439
 51
200.2561
  0
ARC
  8
0
  6
CONTINUOUS
 62
     7
 10
-86.62361
 20
-32.5
 40
2.25
 50
242.7339
 51
297.2661
  0
ARC
  8
0
  6
CONTINUOUS
 62
     7
 10
-93.62361
 20
-17.5
 40
2.25
 50
0.0
 51
207.266
  0
ARC
  8
0
  6
CONTINUOUS
 62
     7
 10
-86.62361
 20
-32.5
 40
2.25
 50
332.7339
 51
27.26606
  0
CIRCLE
  8
0
  6
CONTINUOUS
 62
     7
 10
-93.62361
 20
-32.5
 40
1.25
  0
CIRCLE
  8
0
  6
CONTINUOUS
 62
     7
 10
-90.12361
 20
-25.0
 40
1.25
  0
CIRCLE
  8
0
  6
CONTINUOUS
 62
     7
 10
-90.12361
 20
-25.0
 40
1.5
  0
CIRCLE
  8
0
  6
CONTINUOUS
 62
     7
 10
-90.12361
 20
-25.0
 40
2.75
  0
CIRCLE
  8
0
  6
CONTINUOUS
 62
     7
 10
90.12361
 20
-25.0
 40
2.75
  0
ARC
  8
0
  6
CONTINUOUS
 62
     7
 10
93.62361
 20
-32.5
 40
3.0
 50
89.99999
 51
180.0
  0
CIRCLE
  8
0
  6
CONTINUOUS
 62
     7
 10
93.62361
 20
-32.5
 40
2.25
  0
CIRCLE
  8
0
  6
CONTINUOUS
 62
     7
 10
86.62361
 20
-17.5
 40
2.25
  0
ARC
  8
0
  6
CONTINUOUS
 62
     7
 10
86.62361
 20
-17.5
 40
3.0
 50
270.0
 51
0.0
  0
CIRCLE
  8
0
  6
CONTINUOUS
 62
     7
 10
90.12361
 20
-25.0
 40
1.5
  0
CIRCLE
  8
0
  6
CONTINUOUS
 62
     7
 10
90.12361
 20
-25.0
 40
1.25
  0
ARC
  8
0
  6
CONTINUOUS
 62
     7
 10
90.12361
 20
-25.0
 40
3.0
 50
36.44328
 51
83.5568
  0
ARC
  8
0
  6
CONTINUOUS
 62
     7
 10
90.12361
 20
-25.0
 40
3.0
 50
216.4439
 51
263.5562
  0
ARC
  8
0
  6
CONTINUOUS
 62
     7
 10
90.12361
 20
-25.0
 40
3.0
 50
276.4432
 51
323.5569
  0
ARC
  8
0
  6
CONTINUOUS
 62
     7
 10
90.12361
 20
-25.0
 40
3.0
 50
336.4435
 51
23.55649
  0
ARC
  8
0
  6
CONTINUOUS
 62
     7
 10
90.12361
 20
-25.0
 40
3.0
 50
96.44437
 51
143.5557
  0
ARC
  8
0
  6
CONTINUOUS
 62
     7
 10
90.12361
 20
-25.0
 40
3.0
 50
156.4436
 51
203.5563
  0
TEXT
  8
0
  6
CONTINUOUS
 62
     7
 10
-113.86205279
 20
63.24264
 40
3.5
  1
        BDADLS 6*ST(5)
 41
0.8
  7
STANDARD
  0
TEXT
  8
0
  6
CONTINUOUS
 62
     7
 10
80.98867
 20
83.53382
 40
3.0
  1
DATE : FEB,1989
 41
0.8
  7
STANDARD
  0
TEXT
  8
0
  6
CONTINUOUS
 62
     7
 10
-129.8223
 20
83.29883
 40
3.5
  1
MULTI MOUNT CYL
 41
0.8
  7
STANDARD
  0
TEXT
  8
0
  6
CONTINUOUS
 62
     7
 10
21.94136
 20
58.79006
 40
2.5
  1
2-M5*0.8
 41
0.8
  7
STANDARD
  0
TEXT
  8
0
  6
CONTINUOUS
 62
     7
 10
-44.36426278
 20
-35.675
 40
2.5
  1
M3*0.5
 41
0.8
  7
STANDARD
  0
TEXT
  8
0
  6
CONTINUOUS
 62
     7
 10
-129.2446
 20
-85.46284
 40
2.5
  1
NOTE : A ,C ,F ,D ,M    CATALOG
 41
0.8
  7
STANDARD
  0
TEXT
  8
0
  6
CONTINUOUS
 62
     7
 10
-7.58225
 20
-44.3
 40
2.5
  1
M+ST
 41
0.8
  7
STANDARD
  0
TEXT
  8
0
  6
CONTINUOUS
 62
     7
 10
0.41775
 20
-4.3
 40
2.5
  1
C+ST
 41
0.8
  7
STANDARD
  0
TEXT
  8
0
  6
CONTINUOUS
 62
     7
 10
0.41775
 20
5.7
 40
2.5
  1
A+ST*2
 41
0.8
  7
STANDARD
  0
TEXT
  8
0
  6
CONTINUOUS
 62
     7
 10
0.41775
 20
61.7
 40
2.5
  1
D+ST
 41
0.8
  7
STANDARD
  0
TEXT
  8
0
  6
CONTINUOUS
 62
     7
 10
12.19048
 20
-47.23566
 40
2.5
  1
4-M3*0.5
 41
0.8
  7
STANDARD
  0
TEXT
  8
0
  6
CONTINUOUS
 62
     7
 10
29.41775
 20
-4.3
 40
2.5
  1
F+ST
 41
0.8
  7
STANDARD
  0
TEXT
  8
0
  6
CONTINUOUS
 62
     7
 10
50.69139
 20
-35.675
 40
2.5
  1
M3*0.5
 41
0.8
  7
STANDARD
  0
TEXT
  8
0
  6
CONTINUOUS
 62
     7
 10
-122.1986
 20
68.24265
 40
3.5
  1
MODEL : BDADL 6*ST(10)
 41
0.8
  7
STANDARD
  0
ENDSEC
  0
EOF
