  0
SECTION
  2
HEADER
  9
$ACADVER
  1
AC1002
  9
$INSBASE
 10
0.0
 20
0.0
  9
$EXTMIN
 10
-131.1236
 20
-90.00001
  9
$EXTMAX
 10
131.1236
 20
90.00001
  9
$LIMMIN
 10
0.0
 20
0.0
  9
$LIMMAX
 10
12.0
 20
9.0
  9
$VIEWCTR
 10
10.11492432
 20
0.0
  9
$VIEWSIZE
 40
180.00002
  9
$SNAPMODE
 70
     0
  9
$SNAPUNIT
 10
1.0
 20
1.0
  9
$SNAPBASE
 10
0.0
 20
0.0
  9
$SNAPANG
 50
0.0
  9
$SNAPSTYLE
 70
     0
  9
$SNAPISOPAIR
 70
     0
  9
$GRIDMODE
 70
     0
  9
$GRIDUNIT
 10
0.0
 20
0.0
  9
$ORTHOMODE
 70
     0
  9
$REGENMODE
 70
     1
  9
$FILLMODE
 70
     1
  9
$QTEXTMODE
 70
     0
  9
$DRAGMODE
 70
     2
  9
$LTSCALE
 40
1.0
  9
$OSMODE
 70
     0
  9
$ATTMODE
 70
     1
  9
$TEXTSIZE
 40
0.2
  9
$TRACEWID
 40
0.05
  9
$TEXTSTYLE
  7
AAA
  9
$CLAYER
  8
0
  9
$CELTYPE
  6
BYLAYER
  9
$CECOLOR
 62
   256
  9
$DIMSCALE
 40
1.0
  9
$DIMASZ
 40
0.18
  9
$DIMEXO
 40
0.0625
  9
$DIMDLI
 40
0.38
  9
$DIMRND
 40
0.0
  9
$DIMDLE
 40
0.0
  9
$DIMEXE
 40
0.18
  9
$DIMTP
 40
0.0
  9
$DIMTM
 40
0.0
  9
$DIMTXT
 40
0.18
  9
$DIMCEN
 40
0.09
  9
$DIMTSZ
 40
0.0
  9
$DIMTOL
 70
     0
  9
$DIMLIM
 70
     0
  9
$DIMTIH
 70
     1
  9
$DIMTOH
 70
     1
  9
$DIMSE1
 70
     0
  9
$DIMSE2
 70
     0
  9
$DIMTAD
 70
     0
  9
$DIMZIN
 70
     0
  9
$DIMBLK
  1

  9
$LUNITS
 70
     2
  9
$LUPREC
 70
     4
  9
$AXISMODE
 70
     0
  9
$AXISUNIT
 10
0.0
 20
0.0
  9
$SKETCHINC
 40
0.1
  9
$FILLETRAD
 40
0.0
  9
$AUNITS
 70
     0
  9
$AUPREC
 70
     0
  9
$MENU
  1
ACAD
  9
$ELEVATION
 40
0.0
  9
$THICKNESS
 40
0.0
  9
$VIEWDIR
 10
0.0
 20
0.0
 30
1.0
  9
$LIMCHECK
 70
     0
  9
$BLIPMODE
 70
     1
  9
$CHAMFERA
 40
0.0
  9
$CHAMFERB
 40
0.0
  9
$FASTZOOM
 70
     1
  9
$SKPOLY
 70
     0
  9
$TDCREATE
 40
2447842.5687384759
  9
$TDUPDATE
 40
2447842.5687384759
  9
$TDINDWG
 40
0.0120833333
  9
$TDUSRTIMER
 40
0.0120833333
  9
$USRTIMER
 70
     1
  9
$ANGBASE
 50
0.0
  9
$ANGDIR
 70
     0
  9
$PDMODE
 70
     0
  9
$PDSIZE
 40
0.0
  9
$PLINEWID
 40
0.0
  9
$COORDS
 70
     0
  9
$USERI1
 70
     0
  9
$USERI2
 70
     0
  9
$USERI3
 70
     0
  9
$USERI4
 70
     0
  9
$USERI5
 70
     0
  9
$USERR1
 40
0.0
  9
$USERR2
 40
0.0
  9
$USERR3
 40
0.0
  9
$USERR4
 40
0.0
  9
$USERR5
 40
0.0
  0
ENDSEC
  0
SECTION
  2
TABLES
  0
TABLE
  2
LTYPE
 70
     3
  0
LTYPE
  2
CONTINUOUS
 70
    64
  3
SOLID
 72
    65
 73
     0
 40
0.0
  0
LTYPE
  2
CENTER
 70
    64
  3
CENTER
 72
    65
 73
     4
 40
2.0
 49
1.25
 49
-0.25
 49
0.25
 49
-0.25
  0
LTYPE
  2
PHANTOM
 70
    64
  3
PHANTOM
 72
    65
 73
     6
 40
2.5
 49
1.25
 49
-0.25
 49
0.25
 49
-0.25
 49
0.25
 49
-0.25
  0
ENDTAB
  0
TABLE
  2
LAYER
 70
     1
  0
LAYER
  2
0
 70
    64
 62
     7
  6
CONTINUOUS
  0
ENDTAB
  0
TABLE
  2
STYLE
 70
     2
  0
STYLE
  2
AAA
 70
     0
 40
0.0
 41
1.0
 50
0.0
 71
     0
 42
0.2
  3
TXT
  4

  0
STYLE
  2
STANDARD
 70
    64
 40
0.0
 41
1.0
 50
0.0
 71
     0
 42
0.2
  3
TXT
  4
BIGFONT
  0
ENDTAB
  0
TABLE
  2
VIEW
 70
     0
  0
ENDTAB
  0
ENDSEC
  0
SECTION
  2
BLOCKS
  0
ENDSEC
  0
SECTION
  2
ENTITIES
  0
POINT
  8
0
  6
CONTINUOUS
 62
     7
 10
-82.12356
 20
-24.99998
  0
POINT
  8
0
  6
CONTINUOUS
 62
     7
 10
-89.12356
 20
-24.99998
  0
POINT
  8
0
  6
CONTINUOUS
 62
     7
 10
-14.0
 20
-25.0
  0
POINT
  8
0
  6
CONTINUOUS
 62
     7
 10
26.0
 20
-25.0
  0
POINT
  8
0
  6
CONTINUOUS
 62
     7
 10
26.0
 20
45.0
  0
POINT
  8
0
  6
CONTINUOUS
 62
     7
 10
-14.0
 20
45.0
  0
POINT
  8
0
  6
CONTINUOUS
 62
     7
 10
98.12363
 20
-24.99999
  0
POINT
  8
0
  6
CONTINUOUS
 62
     7
 10
91.12363
 20
-24.99999
  0
LINE
  8
0
  6
CONTINUOUS
 62
     7
 10
-131.1236
 20
-90.00001
 11
-131.1236
 21
90.00001
  0
LINE
  8
0
  6
CONTINUOUS
 62
     7
 10
131.1236
 20
90.00001
 11
131.1236
 21
-90.00001
  0
LINE
  8
0
  6
CONTINUOUS
 62
     7
 10
-131.1236
 20
-90.00001
 11
131.1236
 21
-90.00001
  0
LINE
  8
0
  6
CONTINUOUS
 62
     7
 10
-131.1236
 20
90.00001
 11
131.1236
 21
90.00001
  0
LINE
  8
0
  6
CONTINUOUS
 62
     7
 10
-131.1236
 20
79.88764
 11
-77.19102
 21
79.88764
  0
LINE
  8
0
  6
CONTINUOUS
 62
     7
 10
-77.19102
 20
79.88764
 11
-77.19102
 21
90.00001
  0
LINE
  8
0
  6
CONTINUOUS
 62
     7
 10
77.19101
 20
-79.88764
 11
131.1236
 21
-79.88764
  0
LINE
  8
0
  6
CONTINUOUS
 62
     7
 10
91.35169
 20
-82.31916
 11
96.53259
 21
-82.31916
  0
LINE
  8
0
  6
CONTINUOUS
 62
     7
 10
91.35169
 20
-86.91354
 11
95.75056
 21
-86.91354
  0
LINE
  8
0
  6
CONTINUOUS
 62
     7
 10
91.35169
 20
-88.08657
 11
97.31461
 21
-88.08657
  0
LINE
  8
0
  6
CONTINUOUS
 62
     7
 10
91.35169
 20
-83.49218
 11
95.75056
 21
-83.49218
  0
LINE
  8
0
  6
CONTINUOUS
 62
     7
 10
91.35169
 20
-82.31916
 11
91.35169
 21
-83.49218
  0
LINE
  8
0
  6
CONTINUOUS
 62
     7
 10
97.31461
 20
-83.10118
 11
97.31461
 21
-88.08657
  0
LINE
  8
0
  6
CONTINUOUS
 62
     7
 10
95.75056
 20
-83.49218
 11
95.75056
 21
-86.91354
  0
LINE
  8
0
  6
CONTINUOUS
 62
     7
 10
98.19438
 20
-82.31916
 11
98.19438
 21
-83.49218
  0
LINE
  8
0
  6
CONTINUOUS
 62
     7
 10
103.7663
 20
-83.49218
 11
103.7663
 21
-87.30457
  0
LINE
  8
0
  6
CONTINUOUS
 62
     7
 10
102.2023
 20
-83.49218
 11
102.2023
 21
-86.91354
  0
LINE
  8
0
  6
CONTINUOUS
 62
     7
 10
91.35169
 20
-86.91354
 11
91.35169
 21
-88.08657
  0
LINE
  8
0
  6
CONTINUOUS
 62
     7
 10
98.19438
 20
-82.31916
 11
99.73978
 21
-82.31916
  0
LINE
  8
0
  6
CONTINUOUS
 62
     7
 10
98.19438
 20
-88.08657
 11
99.4088
 21
-88.08657
  0
LINE
  8
0
  6
CONTINUOUS
 62
     7
 10
98.19463
 20
-88.08676
 11
99.4257
 21
-83.49239
  0
LINE
  8
0
  6
CONTINUOUS
 62
     7
 10
98.19438
 20
-83.49218
 11
99.42545
 21
-83.49218
  0
LINE
  8
0
  6
CONTINUOUS
 62
     7
 10
99.40903
 20
-88.08674
 11
100.6401
 21
-83.49235
  0
LINE
  8
0
  6
CONTINUOUS
 62
     7
 10
101.0292
 20
-86.91354
 11
102.2023
 21
-86.91354
  0
LINE
  8
0
  6
CONTINUOUS
 62
     7
 10
101.0291
 20
-86.91348
 11
101.3434
 21
-88.08647
  0
LINE
  8
0
  6
CONTINUOUS
 62
     7
 10
101.3435
 20
-88.08657
 11
102.9843
 21
-88.08657
  0
LINE
  8
0
  6
CONTINUOUS
 62
     7
 10
100.6399
 20
-83.49218
 11
102.2023
 21
-83.49218
  0
LINE
  8
0
  6
CONTINUOUS
 62
     7
 10
100.9542
 20
-82.31916
 11
102.5933
 21
-82.31916
  0
LINE
  8
0
  6
CONTINUOUS
 62
     7
 10
99.73981
 20
-82.31919
 11
99.97292
 21
-81.44921
  0
LINE
  8
0
  6
CONTINUOUS
 62
     7
 10
100.9542
 20
-82.31916
 11
101.1873
 21
-81.44919
  0
LINE
  8
0
  6
CONTINUOUS
 62
     7
 10
104.7438
 20
-82.31916
 11
106.6011
 21
-82.31916
  0
LINE
  8
0
  6
CONTINUOUS
 62
     7
 10
104.7438
 20
-83.49218
 11
109.3053
 21
-83.49218
  0
LINE
  8
0
  6
CONTINUOUS
 62
     7
 10
106.6011
 20
-88.08657
 11
108.1652
 21
-88.08657
  0
LINE
  8
0
  6
CONTINUOUS
 62
     7
 10
104.7438
 20
-82.31916
 11
104.7438
 21
-83.49218
  0
LINE
  8
0
  6
CONTINUOUS
 62
     7
 10
110.5112
 20
-85.61926
 11
110.5112
 21
-86.91354
  0
LINE
  8
0
  6
CONTINUOUS
 62
     7
 10
104.7437
 20
-86.91345
 11
106.601
 21
-86.04738
  0
LINE
  8
0
  6
CONTINUOUS
 62
     7
 10
104.7438
 20
-85.61927
 11
109.3053
 21
-83.4922
  0
LINE
  8
0
  6
CONTINUOUS
 62
     7
 10
104.7438
 20
-85.61926
 11
104.7438
 21
-86.91354
  0
LINE
  8
0
  6
CONTINUOUS
 62
     7
 10
108.1652
 20
-85.81956
 11
110.5112
 21
-86.91356
  0
LINE
  8
0
  6
CONTINUOUS
 62
     7
 10
109.0154
 20
-84.92177
 11
110.5113
 21
-85.61932
  0
LINE
  8
0
  6
CONTINUOUS
 62
     7
 10
110.5112
 20
-83.10118
 11
110.5112
 21
-83.72594
  0
LINE
  8
0
  6
CONTINUOUS
 62
     7
 10
106.6011
 20
-81.44916
 11
106.6011
 21
-82.31916
  0
LINE
  8
0
  6
CONTINUOUS
 62
     7
 10
108.1652
 20
-81.44916
 11
108.1652
 21
-82.31916
  0
LINE
  8
0
  6
CONTINUOUS
 62
     7
 10
108.1652
 20
-82.31916
 11
109.7292
 21
-82.31916
  0
LINE
  8
0
  6
CONTINUOUS
 62
     7
 10
106.6011
 20
-86.04747
 11
106.6011
 21
-88.08657
  0
LINE
  8
0
  6
CONTINUOUS
 62
     7
 10
108.1652
 20
-85.81956
 11
108.1652
 21
-88.08657
  0
LINE
  8
0
  6
CONTINUOUS
 62
     7
 10
109.0153
 20
-84.92168
 11
110.0597
 21
-84.43469
  0
LINE
  8
0
  6
CONTINUOUS
 62
     7
 10
115.7899
 20
-81.80107
 11
116.9629
 21
-81.80107
  0
LINE
  8
0
  6
CONTINUOUS
 62
     7
 10
111.0
 20
-84.22416
 11
111.0
 21
-85.48656
  0
LINE
  8
0
  6
CONTINUOUS
 62
     7
 10
116.9629
 20
-81.80107
 11
116.9629
 21
-82.31916
  0
LINE
  8
0
  6
CONTINUOUS
 62
     7
 10
115.7899
 20
-81.80107
 11
115.7899
 21
-82.05386
  0
LINE
  8
0
  6
CONTINUOUS
 62
     7
 10
114.2258
 20
-84.20361
 11
114.2258
 21
-88.08657
  0
LINE
  8
0
  6
CONTINUOUS
 62
     7
 10
111.0001
 20
-84.22427
 11
115.5435
 21
-82.41731
  0
LINE
  8
0
  6
CONTINUOUS
 62
     7
 10
111.0
 20
-85.48662
 11
114.2259
 21
-84.20366
  0
LINE
  8
0
  6
CONTINUOUS
 62
     7
 10
114.2258
 20
-88.08657
 11
115.7899
 21
-88.08657
  0
LINE
  8
0
  6
CONTINUOUS
 62
     7
 10
115.7899
 20
-83.58156
 11
115.7899
 21
-88.08657
  0
LINE
  8
0
  6
CONTINUOUS
 62
     7
 10
115.79
 20
-83.58161
 11
116.2235
 21
-83.40919
  0
LINE
  8
0
  6
CONTINUOUS
 62
     7
 10
99.87858
 20
-81.44916
 11
101.1873
 21
-81.44916
  0
LINE
  8
0
  6
CONTINUOUS
 62
     7
 10
103.1309
 20
-81.44916
 11
103.6294
 21
-81.44916
  0
LINE
  8
0
  6
CONTINUOUS
 62
     7
 10
106.6011
 20
-81.44916
 11
108.1652
 21
-81.44916
  0
LINE
  8
0
  6
CONTINUOUS
 62
     7
 10
103.1309
 20
-82.23119
 11
103.6294
 21
-82.23119
  0
LINE
  8
0
  6
CONTINUOUS
 62
     7
 10
103.1309
 20
-81.44916
 11
103.1309
 21
-82.23119
  0
LINE
  8
0
  6
CONTINUOUS
 62
     7
 10
103.6294
 20
-81.44916
 11
103.6294
 21
-82.23119
  0
LINE
  8
0
  6
CONTINUOUS
 62
     7
 10
103.9227
 20
-81.44916
 11
103.9227
 21
-82.23119
  0
LINE
  8
0
  6
CONTINUOUS
 62
     7
 10
104.4799
 20
-81.44916
 11
104.4799
 21
-82.23119
  0
LINE
  8
0
  6
CONTINUOUS
 62
     7
 10
103.9227
 20
-81.44916
 11
104.4799
 21
-81.44916
  0
LINE
  8
0
  6
CONTINUOUS
 62
     7
 10
103.9227
 20
-82.23119
 11
104.4799
 21
-82.23119
  0
LINE
  8
0
  6
CONTINUOUS
 62
     7
 10
77.19101
 20
79.88764
 11
131.1236
 21
79.88764
  0
LINE
  8
0
  6
CONTINUOUS
 62
     7
 10
77.19101
 20
90.00001
 11
77.19101
 21
79.88764
  0
LINE
  8
0
  6
CONTINUOUS
 62
     7
 10
77.19101
 20
-79.88764
 11
77.19101
 21
-90.00001
  0
LINE
  8
0
  6
CONTINUOUS
 62
     2
 10
15.75
 20
47.96507
 11
21.52351
 21
57.96508
  0
LINE
  8
0
  6
CONTINUOUS
 62
     2
 10
21.5235
 20
57.96507
 11
37.01404591
 21
57.96507
  0
LINE
  8
0
  6
CONTINUOUS
 62
     2
 10
-36.77351
 20
-37.0
 11
-47.85295931
 21
-37.0
  0
LINE
  8
0
  6
CONTINUOUS
 62
     2
 10
-30.99999
 20
-27.0
 11
-36.7735
 21
-37.0
  0
LINE
  8
0
  6
CONTINUOUS
 62
     2
 10
9.0
 20
-37.5
 11
9.0
 21
-48.0
  0
LINE
  8
0
  6
CONTINUOUS
 62
     2
 10
-14.0
 20
-37.0
 11
-14.0
 21
-48.0
  0
LINE
  8
0
  6
CONTINUOUS
 62
     2
 10
-14.0
 20
-13.0
 11
-14.0
 21
-2.0
  0
LINE
  8
0
  6
CONTINUOUS
 62
     2
 10
-2.5
 20
48.2
 11
-2.5
 21
62.0
  0
LINE
  8
0
  6
CONTINUOUS
 62
     2
 10
14.5
 20
49.80001
 11
14.5
 21
62.0
  0
LINE
  8
0
  6
CONTINUOUS
 62
     2
 10
-31.99997
 20
7.0
 11
49.0
 21
7.0
  0
LINE
  8
0
  6
CONTINUOUS
 62
     2
 10
-14.0
 20
-3.0
 11
49.0
 21
-3.0
  0
LINE
  8
0
  6
CONTINUOUS
 62
     2
 10
9.0
 20
-47.0
 11
-14.0
 21
-47.0
  0
LINE
  8
0
  6
CONTINUOUS
 62
     2
 10
-2.5
 20
61.0
 11
14.5
 21
61.0
  0
LINE
  8
0
  6
CONTINUOUS
 62
     2
 10
0.5
 20
62.09191
 11
-2.50001
 21
61.0
  0
LINE
  8
0
  6
CONTINUOUS
 62
     2
 10
0.5
 20
59.90811
 11
-2.49999
 21
61.00002
  0
LINE
  8
0
  6
CONTINUOUS
 62
     2
 10
-29.0
 20
8.09191
 11
-32.00001
 21
7.0
  0
LINE
  8
0
  6
CONTINUOUS
 62
     2
 10
-29.0
 20
5.9081
 11
-32.0
 21
7.00001
  0
LINE
  8
0
  6
CONTINUOUS
 62
     2
 10
-11.0
 20
-1.90809
 11
-14.00001
 21
-3.00001
  0
LINE
  8
0
  6
CONTINUOUS
 62
     2
 10
-11.0
 20
-4.0919
 11
-14.0
 21
-2.99999
  0
LINE
  8
0
  6
CONTINUOUS
 62
     2
 10
6.00001
 20
-45.9081
 11
9.00001
 21
-47.00001
  0
LINE
  8
0
  6
CONTINUOUS
 62
     2
 10
6.0
 20
-48.0919
 11
9.0
 21
-46.99999
  0
LINE
  8
0
  6
CONTINUOUS
 62
     2
 10
23.00001
 20
-1.90809
 11
26.00001
 21
-3.00001
  0
LINE
  8
0
  6
CONTINUOUS
 62
     2
 10
23.0
 20
-4.09191
 11
26.0
 21
-3.0
  0
LINE
  8
0
  6
CONTINUOUS
 62
     2
 10
46.0
 20
-1.90809
 11
49.0
 21
-3.00001
  0
LINE
  8
0
  6
CONTINUOUS
 62
     2
 10
46.0
 20
-4.09191
 11
49.0
 21
-2.99999
  0
LINE
  8
0
  6
CONTINUOUS
 62
     2
 10
11.50001
 20
62.09192
 11
14.50001
 21
61.0
  0
LINE
  8
0
  6
CONTINUOUS
 62
     2
 10
11.5
 20
59.90811
 11
14.5
 21
61.00002
  0
LINE
  8
0
  6
CONTINUOUS
 62
     2
 10
3.25
 20
-33.79904
 11
14.797
 21
-53.79903
  0
LINE
  8
0
  6
CONTINUOUS
 62
     2
 10
14.797
 20
-53.79903
 11
30.87161929
 21
-53.79903
  0
LINE
  8
0
  6
CONTINUOUS
 62
     2
 10
-31.55433
 20
-30.14404
 11
-30.99995
 21
-27.00001
  0
LINE
  8
0
  6
CONTINUOUS
 62
     2
 10
-33.44562
 20
-29.05214
 11
-31.0
 21
-27.00002
  0
LINE
  8
0
  6
CONTINUOUS
 62
     2
 10
3.80439
 20
-36.94306
 11
3.25001
 21
-33.79903
  0
LINE
  8
0
  6
CONTINUOUS
 62
     2
 10
5.69563
 20
-35.85115
 11
3.25
 21
-33.79903
  0
LINE
  8
0
  6
CONTINUOUS
 62
     2
 10
16.30437
 20
51.1091
 11
15.75
 21
47.96506
  0
LINE
  8
0
  6
CONTINUOUS
 62
     2
 10
18.19562
 20
50.0172
 11
15.74999
 21
47.96508
  0
LINE
  8
0
  6
CONTINUOUS
 62
     7
 10
-103.01038338
 20
-84.28783
 11
-100.22745494
 21
-84.28783
  0
LINE
  8
0
  6
CONTINUOUS
 62
     2
 10
-10.99998
 20
-48.09186
 11
-13.99998
 21
-46.99995
  0
LINE
  8
0
  6
CONTINUOUS
 62
     2
 10
-11.00001
 20
-45.90808
 11
-14.00001
 21
-47.0
  0
LINE
  8
0
  6
CONTINUOUS
 62
     7
 10
-102.26035277
 20
-83.66952921
 11
-100.22739494
 21
-84.28775
  0
LINE
  8
0
  6
CONTINUOUS
 62
     7
 10
-102.19138443
 20
-84.83346681
 11
-100.22746494
 21
-84.28786
  0
LINE
  8
0
  6
CONTINUOUS
 62
     2
 10
26.0
 20
-12.50295
 11
26.0
 21
-1.89676
  0
LINE
  8
0
  6
CONTINUOUS
 62
     2
 10
-32.0
 20
-23.00442
 11
-32.0
 21
8.0
  0
LINE
  8
0
  6
CONTINUOUS
 62
     2
 10
49.0
 20
-23.0649
 11
49.0
 21
8.00885
  0
LINE
  8
0
  6
CONTINUOUS
 62
     2
 10
29.00001
 20
-4.09191
 11
26.00001
 21
-3.0
  0
LINE
  8
0
  6
CONTINUOUS
 62
     2
 10
29.0
 20
-1.90809
 11
26.0
 21
-3.0
  0
LINE
  8
0
  6
CONTINUOUS
 62
     2
 10
46.0
 20
5.90809
 11
49.0
 21
7.00001
  0
LINE
  8
0
  6
CONTINUOUS
 62
     2
 10
46.0
 20
8.09191
 11
49.0
 21
6.99999
  0
LINE
  8
0
  6
CONTINUOUS
 62
     2
 10
48.00002
 20
-27.0
 11
53.77353
 21
-37.0
  0
LINE
  8
0
  6
CONTINUOUS
 62
     2
 10
53.77354
 20
-37.0
 11
66.12717337
 21
-37.0
  0
LINE
  8
0
  6
CONTINUOUS
 62
     2
 10
50.44565
 20
-29.05214
 11
48.00003
 21
-27.00002
  0
LINE
  8
0
  6
CONTINUOUS
 62
     2
 10
48.55436
 20
-30.14404
 11
47.99998
 21
-27.00001
  0
LINE
  8
0
  6
CONTINUOUS
 62
     7
 10
-14.0
 20
-13.0
 11
-14.0
 21
-37.0
  0
LINE
  8
0
  6
CONTINUOUS
 62
     7
 10
26.0
 20
-13.0
 11
26.0
 21
-37.0
  0
LINE
  8
0
  6
CENTER
 62
     2
 10
-35.0
 20
-25.0
 11
52.0
 21
-25.0
  0
LINE
  8
0
  6
CONTINUOUS
 62
     7
 10
-8.0
 20
-13.0
 11
-8.0
 21
-37.0
  0
LINE
  8
0
  6
CONTINUOUS
 62
     7
 10
20.0
 20
-13.0
 11
20.0
 21
-37.0
  0
LINE
  8
0
  6
CONTINUOUS
 62
     7
 10
-15.0
 20
-21.0
 11
-15.0
 21
-29.0
  0
LINE
  8
0
  6
CONTINUOUS
 62
     7
 10
-15.0
 20
-21.0
 11
-14.0
 21
-21.0
  0
LINE
  8
0
  6
CONTINUOUS
 62
     7
 10
-15.0
 20
-29.0
 11
-14.0
 21
-29.0
  0
LINE
  8
0
  6
CONTINUOUS
 62
     7
 10
-29.68739
 20
-20.95855
 11
-28.8
 21
-20.95855
  0
LINE
  8
0
  6
CONTINUOUS
 62
     7
 10
-29.68739
 20
-22.97927
 11
-28.8
 21
-22.97927
  0
LINE
  8
0
  6
CONTINUOUS
 62
     7
 10
-30.0
 20
-21.50001
 11
-29.6874
 21
-20.95855
  0
LINE
  8
0
  6
CONTINUOUS
 62
     7
 10
-27.91261
 20
-22.97927
 11
-28.8
 21
-22.97927
  0
LINE
  8
0
  6
CONTINUOUS
 62
     7
 10
-27.6
 20
-21.5
 11
-27.91261
 21
-20.95855
  0
LINE
  8
0
  6
CONTINUOUS
 62
     7
 10
-27.91261
 20
-20.95855
 11
-28.8
 21
-20.95855
  0
LINE
  8
0
  6
CONTINUOUS
 62
     7
 10
-29.68739
 20
-27.02073
 11
-28.8
 21
-27.02073
  0
LINE
  8
0
  6
CONTINUOUS
 62
     7
 10
-30.0
 20
-28.5
 11
-29.68739
 21
-29.04146
  0
LINE
  8
0
  6
CONTINUOUS
 62
     7
 10
-29.68739
 20
-29.04146
 11
-28.8
 21
-29.04146
  0
LINE
  8
0
  6
CONTINUOUS
 62
     7
 10
-27.6
 20
-28.50001
 11
-27.91261
 21
-29.04146
  0
LINE
  8
0
  6
CONTINUOUS
 62
     7
 10
-27.91261
 20
-29.04146
 11
-28.8
 21
-29.04146
  0
LINE
  8
0
  6
CONTINUOUS
 62
     7
 10
-27.91261
 20
-27.02073
 11
-28.8
 21
-27.02073
  0
LINE
  8
0
  6
CONTINUOUS
 62
     7
 10
-25.51261
 20
-20.95855
 11
-26.4
 21
-20.95855
  0
LINE
  8
0
  6
CONTINUOUS
 62
     7
 10
-25.51261
 20
-22.97927
 11
-26.4
 21
-22.97927
  0
LINE
  8
0
  6
CONTINUOUS
 62
     7
 10
-25.2
 20
-21.5
 11
-25.51261
 21
-20.95855
  0
LINE
  8
0
  6
CONTINUOUS
 62
     7
 10
-27.28739
 20
-22.97927
 11
-26.4
 21
-22.97927
  0
LINE
  8
0
  6
CONTINUOUS
 62
     7
 10
-27.6
 20
-21.5
 11
-27.28739
 21
-20.95855
  0
LINE
  8
0
  6
CONTINUOUS
 62
     7
 10
-27.28739
 20
-20.95855
 11
-26.4
 21
-20.95855
  0
LINE
  8
0
  6
CONTINUOUS
 62
     7
 10
-25.51261
 20
-27.02073
 11
-26.4
 21
-27.02073
  0
LINE
  8
0
  6
CONTINUOUS
 62
     7
 10
-25.2
 20
-28.50001
 11
-25.51261
 21
-29.04146
  0
LINE
  8
0
  6
CONTINUOUS
 62
     7
 10
-25.51261
 20
-29.04146
 11
-26.4
 21
-29.04146
  0
LINE
  8
0
  6
CONTINUOUS
 62
     7
 10
-27.6
 20
-28.5
 11
-27.28739
 21
-29.04146
  0
LINE
  8
0
  6
CONTINUOUS
 62
     7
 10
-27.28739
 20
-29.04146
 11
-26.4
 21
-29.04146
  0
LINE
  8
0
  6
CONTINUOUS
 62
     7
 10
-27.28739
 20
-27.02073
 11
-26.4
 21
-27.02073
  0
LINE
  8
0
  6
CONTINUOUS
 62
     7
 10
26.0
 20
-19.5
 11
22.8
 21
-19.5
  0
LINE
  8
0
  6
CONTINUOUS
 62
     7
 10
25.3
 20
-18.75
 11
22.8
 21
-18.75
  0
LINE
  8
0
  6
CONTINUOUS
 62
     7
 10
25.3
 20
-13.25
 11
22.8
 21
-13.25
  0
LINE
  8
0
  6
CONTINUOUS
 62
     7
 10
22.8
 20
-19.5
 11
22.8
 21
-13.0
  0
LINE
  8
0
  6
CONTINUOUS
 62
     7
 10
25.8
 20
-18.25
 11
25.8
 21
-13.75
  0
LINE
  8
0
  6
CONTINUOUS
 62
     7
 10
25.3
 20
-18.75
 11
25.8
 21
-18.25
  0
LINE
  8
0
  6
CONTINUOUS
 62
     7
 10
25.29997
 20
-13.25002
 11
25.79997
 21
-13.75003
  0
LINE
  8
0
  6
CONTINUOUS
 62
     7
 10
25.3
 20
-18.75
 11
25.3
 21
-13.25
  0
LINE
  8
0
  6
CONTINUOUS
 62
     7
 10
25.3
 20
-16.6
 11
22.8
 21
-16.6
  0
LINE
  8
0
  6
CONTINUOUS
 62
     7
 10
25.3
 20
-15.4
 11
22.8
 21
-15.4
  0
LINE
  8
0
  6
CONTINUOUS
 62
     7
 10
25.3
 20
-17.6
 11
22.8
 21
-17.6
  0
LINE
  8
0
  6
CONTINUOUS
 62
     7
 10
25.3
 20
-14.4
 11
22.8
 21
-14.4
  0
LINE
  8
0
  6
CONTINUOUS
 62
     7
 10
25.3
 20
-13.6
 11
22.8
 21
-13.6
  0
LINE
  8
0
  6
CONTINUOUS
 62
     7
 10
25.3
 20
-18.40001
 11
22.8
 21
-18.40001
  0
LINE
  8
0
  6
CONTINUOUS
 62
     7
 10
-13.3
 20
-36.40001
 11
-10.8
 21
-36.40001
  0
LINE
  8
0
  6
CONTINUOUS
 62
     7
 10
-13.3
 20
-31.6
 11
-10.8
 21
-31.6
  0
LINE
  8
0
  6
CONTINUOUS
 62
     7
 10
-14.0
 20
-30.5
 11
-10.8
 21
-30.5
  0
LINE
  8
0
  6
CONTINUOUS
 62
     7
 10
-13.3
 20
-31.25
 11
-10.8
 21
-31.25
  0
LINE
  8
0
  6
CONTINUOUS
 62
     7
 10
-13.3
 20
-36.75
 11
-10.8
 21
-36.75
  0
LINE
  8
0
  6
CONTINUOUS
 62
     7
 10
-10.8
 20
-30.5
 11
-10.8
 21
-37.0
  0
LINE
  8
0
  6
CONTINUOUS
 62
     7
 10
-13.8
 20
-31.75
 11
-13.8
 21
-36.25
  0
LINE
  8
0
  6
CONTINUOUS
 62
     7
 10
-13.3
 20
-31.25001
 11
-13.8
 21
-31.75
  0
LINE
  8
0
  6
CONTINUOUS
 62
     7
 10
-13.3
 20
-36.75001
 11
-13.8
 21
-36.25001
  0
LINE
  8
0
  6
CONTINUOUS
 62
     7
 10
-13.3
 20
-31.25
 11
-13.3
 21
-36.75
  0
LINE
  8
0
  6
CONTINUOUS
 62
     7
 10
-13.3
 20
-33.40001
 11
-10.8
 21
-33.40001
  0
LINE
  8
0
  6
CONTINUOUS
 62
     7
 10
-13.3
 20
-34.6
 11
-10.8
 21
-34.6
  0
LINE
  8
0
  6
CONTINUOUS
 62
     7
 10
-13.3
 20
-32.40001
 11
-10.8
 21
-32.40001
  0
LINE
  8
0
  6
CONTINUOUS
 62
     7
 10
-13.3
 20
-35.6
 11
-10.8
 21
-35.6
  0
LINE
  8
0
  6
CONTINUOUS
 62
     7
 10
-32.0
 20
-23.5
 11
-32.0
 21
-26.5
  0
LINE
  8
0
  6
CONTINUOUS
 62
     7
 10
-30.0
 20
-28.5
 11
-30.0
 21
-25.0
  0
LINE
  8
0
  6
CONTINUOUS
 62
     7
 10
-25.2
 20
-21.5
 11
-25.2
 21
-25.0
  0
LINE
  8
0
  6
CONTINUOUS
 62
     7
 10
-30.0
 20
-21.5
 11
-30.0
 21
-25.0
  0
LINE
  8
0
  6
CONTINUOUS
 62
     7
 10
-22.0
 20
-23.0
 11
-22.0
 21
-27.0
  0
LINE
  8
0
  6
CONTINUOUS
 62
     7
 10
-15.5
 20
-16.5
 11
-15.5
 21
-36.5
  0
LINE
  8
0
  6
CONTINUOUS
 62
     7
 10
-31.5
 20
-23.0
 11
-30.0
 21
-23.0
  0
LINE
  8
0
  6
CONTINUOUS
 62
     7
 10
-31.5
 20
-27.0
 11
-30.0
 21
-27.0
  0
LINE
  8
0
  6
CONTINUOUS
 62
     7
 10
-32.0
 20
-23.5
 11
-31.5
 21
-23.0
  0
LINE
  8
0
  6
CONTINUOUS
 62
     7
 10
-31.49999
 20
-26.99999
 11
-31.99999
 21
-26.49999
  0
LINE
  8
0
  6
CONTINUOUS
 62
     7
 10
-31.5
 20
-23.0
 11
-31.5
 21
-27.0
  0
LINE
  8
0
  6
CONTINUOUS
 62
     7
 10
-31.85
 20
-23.35
 11
-30.0
 21
-23.35
  0
LINE
  8
0
  6
CONTINUOUS
 62
     7
 10
-31.85
 20
-26.65
 11
-30.0
 21
-26.65
  0
LINE
  8
0
  6
CONTINUOUS
 62
     7
 10
-22.0
 20
-23.35
 11
-21.5
 21
-23.06133
  0
LINE
  8
0
  6
CONTINUOUS
 62
     7
 10
-22.0
 20
-26.65001
 11
-21.5
 21
-26.93868
  0
LINE
  8
0
  6
CONTINUOUS
 62
     7
 10
-25.2
 20
-27.0
 11
-21.5
 21
-27.0
  0
LINE
  8
0
  6
CONTINUOUS
 62
     7
 10
-25.2
 20
-26.65
 11
-22.0
 21
-26.65
  0
LINE
  8
0
  6
CONTINUOUS
 62
     7
 10
-25.2
 20
-23.35
 11
-22.0
 21
-23.35
  0
LINE
  8
0
  6
CONTINUOUS
 62
     7
 10
-25.2
 20
-23.0
 11
-21.5
 21
-23.0
  0
LINE
  8
0
  6
CONTINUOUS
 62
     7
 10
-25.2
 20
-28.5
 11
-25.2
 21
-25.0
  0
LINE
  8
0
  6
CONTINUOUS
 62
     7
 10
-27.6
 20
-21.5
 11
-27.6
 21
-28.5
  0
LINE
  8
0
  6
CONTINUOUS
 62
     7
 10
-27.6
 20
-21.5
 11
-27.6
 21
-25.0
  0
LINE
  8
0
  6
CONTINUOUS
 62
     7
 10
26.0
 20
-13.0
 11
26.0
 21
-37.0
  0
LINE
  8
0
  6
CENTER
 62
     2
 10
-0.5
 20
-17.5
 11
5.5
 21
-17.5
  0
LINE
  8
0
  6
CENTER
 62
     2
 10
-0.5
 20
-32.5
 11
5.5
 21
-32.5
  0
LINE
  8
0
  6
CENTER
 62
     2
 10
2.5
 20
-29.5
 11
2.5
 21
-35.5
  0
LINE
  8
0
  6
CENTER
 62
     2
 10
2.5
 20
-14.5
 11
2.5
 21
-20.5
  0
LINE
  8
0
  6
CENTER
 62
     2
 10
9.0
 20
-12.0
 11
9.0
 21
-22.0
  0
LINE
  8
0
  6
CENTER
 62
     2
 10
9.0
 20
-28.0
 11
9.0
 21
-38.0
  0
LINE
  8
0
  6
CENTER
 62
     2
 10
4.0
 20
-33.0
 11
14.0
 21
-33.0
  0
LINE
  8
0
  6
CENTER
 62
     2
 10
4.0
 20
-17.0
 11
14.0
 21
-17.0
  0
LINE
  8
0
  6
CONTINUOUS
 62
     7
 10
-21.5
 20
-16.5
 11
-21.5
 21
-36.5
  0
LINE
  8
0
  6
CONTINUOUS
 62
     7
 10
-21.5
 20
-16.5
 11
-15.5
 21
-16.5
  0
LINE
  8
0
  6
CONTINUOUS
 62
     7
 10
-21.5
 20
-36.5
 11
-15.5
 21
-36.5
  0
LINE
  8
0
  6
CENTER
 62
     2
 10
-17.5
 20
-34.0
 11
-12.0
 21
-34.0
  0
LINE
  8
0
  6
CONTINUOUS
 62
     7
 10
-15.5
 20
-32.5
 11
-14.0
 21
-32.5
  0
LINE
  8
0
  6
CONTINUOUS
 62
     7
 10
-15.5
 20
-35.5
 11
-14.0
 21
-35.5
  0
LINE
  8
0
  6
CENTER
 62
     2
 10
-22.0
 20
-20.2
 11
-15.0
 21
-20.2
  0
LINE
  8
0
  6
CENTER
 62
     2
 10
-18.5
 20
-16.7
 11
-18.5
 21
-23.7
  0
LINE
  8
0
  6
CONTINUOUS
 62
     7
 10
-19.5
 20
-20.77736
 11
-18.5
 21
-21.35471
  0
LINE
  8
0
  6
CONTINUOUS
 62
     7
 10
-18.5
 20
-21.35471
 11
-17.5
 21
-20.77736
  0
LINE
  8
0
  6
CONTINUOUS
 62
     7
 10
-17.5
 20
-20.77736
 11
-17.5
 21
-19.62265
  0
LINE
  8
0
  6
CONTINUOUS
 62
     7
 10
-17.5
 20
-19.62265
 11
-18.5
 21
-19.04531
  0
LINE
  8
0
  6
CONTINUOUS
 62
     7
 10
-18.5
 20
-19.04531
 11
-19.5
 21
-19.62266
  0
LINE
  8
0
  6
CONTINUOUS
 62
     7
 10
-19.5
 20
-19.62265
 11
-19.5
 21
-20.77736
  0
LINE
  8
0
  6
CONTINUOUS
 62
     7
 10
-15.5
 20
-22.5
 11
-15.0
 21
-22.5
  0
LINE
  8
0
  6
CONTINUOUS
 62
     7
 10
-15.5
 20
-27.5
 11
-15.0
 21
-27.5
  0
LINE
  8
0
  6
CONTINUOUS
 62
     7
 10
46.68739
 20
-20.95855
 11
45.8
 21
-20.95855
  0
LINE
  8
0
  6
CONTINUOUS
 62
     7
 10
46.68739
 20
-22.97927
 11
45.8
 21
-22.97927
  0
LINE
  8
0
  6
CONTINUOUS
 62
     7
 10
47.00002
 20
-21.5
 11
46.68741
 21
-20.95854
  0
LINE
  8
0
  6
CONTINUOUS
 62
     7
 10
44.91261
 20
-22.97927
 11
45.8
 21
-22.97927
  0
LINE
  8
0
  6
CONTINUOUS
 62
     7
 10
44.60003
 20
-21.50001
 11
44.91264
 21
-20.95856
  0
LINE
  8
0
  6
CONTINUOUS
 62
     7
 10
44.91261
 20
-20.95855
 11
45.8
 21
-20.95855
  0
LINE
  8
0
  6
CONTINUOUS
 62
     7
 10
46.68739
 20
-27.02073
 11
45.8
 21
-27.02073
  0
LINE
  8
0
  6
CONTINUOUS
 62
     7
 10
46.99998
 20
-28.5
 11
46.68738
 21
-29.04146
  0
LINE
  8
0
  6
CONTINUOUS
 62
     7
 10
46.68739
 20
-29.04146
 11
45.8
 21
-29.04146
  0
LINE
  8
0
  6
CONTINUOUS
 62
     7
 10
44.60001
 20
-28.50001
 11
44.91261
 21
-29.04146
  0
LINE
  8
0
  6
CONTINUOUS
 62
     7
 10
44.91261
 20
-29.04146
 11
45.8
 21
-29.04146
  0
LINE
  8
0
  6
CONTINUOUS
 62
     7
 10
44.91261
 20
-27.02073
 11
45.8
 21
-27.02073
  0
LINE
  8
0
  6
CONTINUOUS
 62
     7
 10
42.5126
 20
-20.95855
 11
43.4
 21
-20.95855
  0
LINE
  8
0
  6
CONTINUOUS
 62
     7
 10
42.5126
 20
-22.97927
 11
43.4
 21
-22.97927
  0
LINE
  8
0
  6
CONTINUOUS
 62
     7
 10
42.2
 20
-21.5
 11
42.51261
 21
-20.95855
  0
LINE
  8
0
  6
CONTINUOUS
 62
     7
 10
44.28739
 20
-22.97927
 11
43.4
 21
-22.97927
  0
LINE
  8
0
  6
CONTINUOUS
 62
     7
 10
44.60001
 20
-21.5
 11
44.2874
 21
-20.95855
  0
LINE
  8
0
  6
CONTINUOUS
 62
     7
 10
44.28739
 20
-20.95855
 11
43.4
 21
-20.95855
  0
LINE
  8
0
  6
CONTINUOUS
 62
     7
 10
42.5126
 20
-27.02073
 11
43.4
 21
-27.02073
  0
LINE
  8
0
  6
CONTINUOUS
 62
     7
 10
42.19999
 20
-28.5
 11
42.5126
 21
-29.04146
  0
LINE
  8
0
  6
CONTINUOUS
 62
     7
 10
42.5126
 20
-29.04146
 11
43.4
 21
-29.04146
  0
LINE
  8
0
  6
CONTINUOUS
 62
     7
 10
44.59995
 20
-28.49998
 11
44.28735
 21
-29.04143
  0
LINE
  8
0
  6
CONTINUOUS
 62
     7
 10
44.28739
 20
-29.04146
 11
43.4
 21
-29.04146
  0
LINE
  8
0
  6
CONTINUOUS
 62
     7
 10
44.28739
 20
-27.02073
 11
43.4
 21
-27.02073
  0
LINE
  8
0
  6
CONTINUOUS
 62
     7
 10
49.0
 20
-23.5
 11
49.0
 21
-26.5
  0
LINE
  8
0
  6
CONTINUOUS
 62
     7
 10
47.0
 20
-28.5
 11
47.0
 21
-25.0
  0
LINE
  8
0
  6
CONTINUOUS
 62
     7
 10
42.2
 20
-21.5
 11
42.2
 21
-25.0
  0
LINE
  8
0
  6
CONTINUOUS
 62
     7
 10
47.0
 20
-21.5
 11
47.0
 21
-25.0
  0
LINE
  8
0
  6
CONTINUOUS
 62
     7
 10
39.0
 20
-23.0
 11
39.0
 21
-27.0
  0
LINE
  8
0
  6
CONTINUOUS
 62
     7
 10
48.5
 20
-23.0
 11
47.0
 21
-23.0
  0
LINE
  8
0
  6
CONTINUOUS
 62
     7
 10
48.5
 20
-27.0
 11
47.0
 21
-27.0
  0
LINE
  8
0
  6
CONTINUOUS
 62
     7
 10
49.0
 20
-23.50001
 11
48.5
 21
-23.00001
  0
LINE
  8
0
  6
CONTINUOUS
 62
     7
 10
48.49998
 20
-26.99998
 11
48.99998
 21
-26.49998
  0
LINE
  8
0
  6
CONTINUOUS
 62
     7
 10
48.5
 20
-23.0
 11
48.5
 21
-27.0
  0
LINE
  8
0
  6
CONTINUOUS
 62
     7
 10
48.85
 20
-23.35
 11
47.0
 21
-23.35
  0
LINE
  8
0
  6
CONTINUOUS
 62
     7
 10
48.85
 20
-26.65
 11
47.0
 21
-26.65
  0
LINE
  8
0
  6
CONTINUOUS
 62
     7
 10
38.99999
 20
-23.35
 11
38.39378
 21
-23.0
  0
LINE
  8
0
  6
CONTINUOUS
 62
     7
 10
38.99999
 20
-26.65
 11
38.39378
 21
-26.99999
  0
LINE
  8
0
  6
CONTINUOUS
 62
     7
 10
42.2
 20
-27.0
 11
37.5
 21
-27.0
  0
LINE
  8
0
  6
CONTINUOUS
 62
     7
 10
42.2
 20
-26.65
 11
39.0
 21
-26.65
  0
LINE
  8
0
  6
CONTINUOUS
 62
     7
 10
42.2
 20
-23.35
 11
39.0
 21
-23.35
  0
LINE
  8
0
  6
CONTINUOUS
 62
     7
 10
42.2
 20
-23.0
 11
37.5
 21
-23.0
  0
LINE
  8
0
  6
CONTINUOUS
 62
     7
 10
42.2
 20
-28.5
 11
42.2
 21
-25.0
  0
LINE
  8
0
  6
CONTINUOUS
 62
     7
 10
44.6
 20
-21.5
 11
44.6
 21
-28.5
  0
LINE
  8
0
  6
CONTINUOUS
 62
     7
 10
44.6
 20
-21.5
 11
44.6
 21
-25.0
  0
LINE
  8
0
  6
CONTINUOUS
 62
     7
 10
27.0
 20
-21.0
 11
27.0
 21
-29.0
  0
LINE
  8
0
  6
CONTINUOUS
 62
     7
 10
26.0
 20
-21.0
 11
27.0
 21
-21.0
  0
LINE
  8
0
  6
CONTINUOUS
 62
     7
 10
26.0
 20
-29.0
 11
27.0
 21
-29.0
  0
LINE
  8
0
  6
CONTINUOUS
 62
     7
 10
37.5
 20
-23.0
 11
37.5
 21
-27.0
  0
LINE
  8
0
  6
CONTINUOUS
 62
     7
 10
37.5
 20
-23.0
 11
37.0
 21
-22.5
  0
LINE
  8
0
  6
CONTINUOUS
 62
     7
 10
37.5
 20
-27.0
 11
37.0
 21
-27.5
  0
LINE
  8
0
  6
CONTINUOUS
 62
     7
 10
37.0
 20
-22.5
 11
37.0
 21
-27.5
  0
LINE
  8
0
  6
CONTINUOUS
 62
     7
 10
26.0
 20
-13.0
 11
5.97421
 21
-13.0
  0
LINE
  8
0
  6
CONTINUOUS
 62
     7
 10
26.0
 20
-37.0
 11
-0.45657
 21
-37.0
  0
LINE
  8
0
  6
CONTINUOUS
 62
     7
 10
-0.97421
 20
-37.0
 11
-14.0
 21
-37.0
  0
LINE
  8
0
  6
CONTINUOUS
 62
     7
 10
5.45657
 20
-13.0
 11
-14.0
 21
-13.0
  0
LINE
  8
0
  6
PHANTOM
 62
     2
 10
6.24217
 20
-12.0
 11
-0.72451
 21
-38.0
  0
LINE
  8
0
  6
PHANTOM
 62
     2
 10
5.72453
 20
-12.0
 11
-1.24215
 21
-38.00001
  0
LINE
  8
0
  6
PHANTOM
 62
     2
 10
32.93782
 20
-21.5
 11
31.06218
 21
-28.5
  0
LINE
  8
0
  6
PHANTOM
 62
     2
 10
33.45546
 20
-21.50001
 11
31.57981
 21
-28.5
  0
LINE
  8
0
  6
CONTINUOUS
 62
     7
 10
31.84776
 20
-27.5
 11
37.0
 21
-27.5
  0
LINE
  8
0
  6
CONTINUOUS
 62
     7
 10
27.0
 20
-27.5
 11
31.33013
 21
-27.5
  0
LINE
  8
0
  6
CONTINUOUS
 62
     7
 10
27.0
 20
-22.5
 11
32.66988
 21
-22.5
  0
LINE
  8
0
  6
CONTINUOUS
 62
     7
 10
33.18751
 20
-22.5
 11
37.0
 21
-22.5
  0
LINE
  8
0
  6
CONTINUOUS
 62
     7
 10
-32.0
 20
46.5
 11
-32.0
 21
43.5
  0
LINE
  8
0
  6
CONTINUOUS
 62
     7
 10
-22.0
 20
47.0
 11
-22.0
 21
43.0
  0
LINE
  8
0
  6
CONTINUOUS
 62
     7
 10
-31.5
 20
47.0
 11
-30.0
 21
47.0
  0
LINE
  8
0
  6
CONTINUOUS
 62
     7
 10
-31.5
 20
43.0
 11
-30.0
 21
43.0
  0
LINE
  8
0
  6
CONTINUOUS
 62
     7
 10
-31.99999
 20
46.49999
 11
-31.49999
 21
46.99999
  0
LINE
  8
0
  6
CONTINUOUS
 62
     7
 10
-31.50002
 20
42.99997
 11
-32.00003
 21
43.49997
  0
LINE
  8
0
  6
CONTINUOUS
 62
     7
 10
-31.5
 20
47.0
 11
-31.5
 21
43.0
  0
LINE
  8
0
  6
CONTINUOUS
 62
     7
 10
-31.85
 20
46.65001
 11
-30.0
 21
46.65001
  0
LINE
  8
0
  6
CONTINUOUS
 62
     7
 10
-31.85
 20
43.35
 11
-30.0
 21
43.35
  0
LINE
  8
0
  6
CONTINUOUS
 62
     7
 10
-22.0
 20
46.64999
 11
-21.39378
 21
46.99999
  0
LINE
  8
0
  6
CONTINUOUS
 62
     7
 10
-22.00001
 20
43.35
 11
-21.39379
 21
43.0
  0
LINE
  8
0
  6
CONTINUOUS
 62
     7
 10
-25.2
 20
43.0
 11
-21.5
 21
43.0
  0
LINE
  8
0
  6
CONTINUOUS
 62
     7
 10
-25.2
 20
43.35
 11
-22.0
 21
43.35
  0
LINE
  8
0
  6
CONTINUOUS
 62
     7
 10
-25.2
 20
46.65001
 11
-22.0
 21
46.65001
  0
LINE
  8
0
  6
CONTINUOUS
 62
     7
 10
-25.2
 20
47.0
 11
-21.5
 21
47.0
  0
LINE
  8
0
  6
CONTINUOUS
 62
     7
 10
-30.0
 20
48.5
 11
-30.0
 21
45.0
  0
LINE
  8
0
  6
CONTINUOUS
 62
     7
 10
-27.6
 20
48.5
 11
-27.6
 21
41.5
  0
LINE
  8
0
  6
CONTINUOUS
 62
     7
 10
-30.0
 20
41.5
 11
-30.0
 21
45.0
  0
LINE
  8
0
  6
CONTINUOUS
 62
     7
 10
-25.2
 20
48.5
 11
-25.2
 21
45.0
  0
LINE
  8
0
  6
CONTINUOUS
 62
     7
 10
-27.6
 20
48.5
 11
-27.6
 21
45.0
  0
LINE
  8
0
  6
CONTINUOUS
 62
     7
 10
-25.2
 20
41.5
 11
-25.2
 21
45.0
  0
LINE
  8
0
  6
CENTER
 62
     2
 10
-35.0
 20
45.0
 11
52.0
 21
45.0
  0
LINE
  8
0
  6
CONTINUOUS
 62
     7
 10
-14.0
 20
52.0
 11
-14.0
 21
38.0
  0
LINE
  8
0
  6
CONTINUOUS
 62
     7
 10
-15.0
 20
49.0
 11
-15.0
 21
41.0
  0
LINE
  8
0
  6
CONTINUOUS
 62
     7
 10
-8.0
 20
52.0
 11
-8.0
 21
38.0
  0
LINE
  8
0
  6
CONTINUOUS
 62
     7
 10
20.0
 20
52.0
 11
20.0
 21
38.0
  0
LINE
  8
0
  6
CONTINUOUS
 62
     7
 10
26.0
 20
52.0
 11
26.0
 21
38.0
  0
LINE
  8
0
  6
CONTINUOUS
 62
     7
 10
-15.0
 20
49.0
 11
-14.0
 21
49.0
  0
LINE
  8
0
  6
CONTINUOUS
 62
     7
 10
-15.0
 20
41.0
 11
-14.0
 21
41.0
  0
LINE
  8
0
  6
CENTER
 62
     2
 10
-6.5
 20
44.2
 11
1.5
 21
44.2
  0
LINE
  8
0
  6
CENTER
 62
     2
 10
10.5
 20
45.80001
 11
18.5
 21
45.80001
  0
LINE
  8
0
  6
CENTER
 62
     2
 10
-2.5
 20
48.2
 11
-2.5
 21
40.2
  0
LINE
  8
0
  6
CENTER
 62
     2
 10
14.5
 20
49.80001
 11
14.5
 21
41.80001
  0
LINE
  8
0
  6
CONTINUOUS
 62
     7
 10
25.3
 20
43.40001
 11
22.8
 21
43.40001
  0
LINE
  8
0
  6
CONTINUOUS
 62
     7
 10
25.3
 20
38.6
 11
22.8
 21
38.6
  0
LINE
  8
0
  6
CONTINUOUS
 62
     7
 10
25.3
 20
38.25
 11
22.8
 21
38.25
  0
LINE
  8
0
  6
CONTINUOUS
 62
     7
 10
25.3
 20
43.75
 11
22.8
 21
43.75
  0
LINE
  8
0
  6
CONTINUOUS
 62
     7
 10
25.8
 20
38.75
 11
25.8
 21
43.25
  0
LINE
  8
0
  6
CONTINUOUS
 62
     7
 10
25.29999
 20
38.25001
 11
25.79999
 21
38.75001
  0
LINE
  8
0
  6
CONTINUOUS
 62
     7
 10
25.29993
 20
43.74994
 11
25.79993
 21
43.24994
  0
LINE
  8
0
  6
CONTINUOUS
 62
     7
 10
25.3
 20
38.25
 11
25.3
 21
43.75
  0
LINE
  8
0
  6
CONTINUOUS
 62
     7
 10
25.3
 20
40.40001
 11
22.8
 21
40.40001
  0
LINE
  8
0
  6
CONTINUOUS
 62
     7
 10
25.3
 20
41.6
 11
22.8
 21
41.6
  0
LINE
  8
0
  6
CONTINUOUS
 62
     7
 10
25.3
 20
39.40001
 11
22.8
 21
39.40001
  0
LINE
  8
0
  6
CONTINUOUS
 62
     7
 10
25.3
 20
42.6
 11
22.8
 21
42.6
  0
LINE
  8
0
  6
CONTINUOUS
 62
     7
 10
26.0
 20
44.5
 11
22.8
 21
44.5
  0
LINE
  8
0
  6
CONTINUOUS
 62
     7
 10
22.8
 20
38.0
 11
22.8
 21
44.5
  0
LINE
  8
0
  6
CONTINUOUS
 62
     7
 10
-14.0
 20
45.5
 11
-10.8
 21
45.5
  0
LINE
  8
0
  6
CONTINUOUS
 62
     7
 10
-13.3
 20
47.40001
 11
-10.8
 21
47.40001
  0
LINE
  8
0
  6
CONTINUOUS
 62
     7
 10
-10.8
 20
52.0
 11
-10.8
 21
45.5
  0
LINE
  8
0
  6
CONTINUOUS
 62
     7
 10
-13.3
 20
46.6
 11
-10.8
 21
46.6
  0
LINE
  8
0
  6
CONTINUOUS
 62
     7
 10
-13.3
 20
51.40001
 11
-10.8
 21
51.40001
  0
LINE
  8
0
  6
CONTINUOUS
 62
     7
 10
-13.3
 20
51.75
 11
-10.8
 21
51.75
  0
LINE
  8
0
  6
CONTINUOUS
 62
     7
 10
-13.3
 20
46.25
 11
-10.8
 21
46.25
  0
LINE
  8
0
  6
CONTINUOUS
 62
     7
 10
-13.8
 20
51.25
 11
-13.8
 21
46.75
  0
LINE
  8
0
  6
CONTINUOUS
 62
     7
 10
-13.29999
 20
51.74999
 11
-13.79998
 21
51.25
  0
LINE
  8
0
  6
CONTINUOUS
 62
     7
 10
-13.30004
 20
46.24994
 11
-13.80004
 21
46.74994
  0
LINE
  8
0
  6
CONTINUOUS
 62
     7
 10
-13.3
 20
51.75
 11
-13.3
 21
46.25
  0
LINE
  8
0
  6
CONTINUOUS
 62
     7
 10
-13.3
 20
49.6
 11
-10.8
 21
49.6
  0
LINE
  8
0
  6
CONTINUOUS
 62
     7
 10
-13.3
 20
48.40001
 11
-10.8
 21
48.40001
  0
LINE
  8
0
  6
CONTINUOUS
 62
     7
 10
-13.3
 20
50.6
 11
-10.8
 21
50.6
  0
LINE
  8
0
  6
CONTINUOUS
 62
     7
 10
-30.0
 20
48.5
 11
-25.2
 21
48.5
  0
LINE
  8
0
  6
CONTINUOUS
 62
     7
 10
-30.0
 20
41.5
 11
-25.2
 21
41.5
  0
LINE
  8
0
  6
CONTINUOUS
 62
     7
 10
-29.68739
 20
45.0
 11
-27.91261
 21
45.0
  0
LINE
  8
0
  6
CONTINUOUS
 62
     7
 10
-27.28739
 20
45.0
 11
-25.51261
 21
45.0
  0
LINE
  8
0
  6
CONTINUOUS
 62
     7
 10
-21.5
 20
51.5
 11
-21.5
 21
45.25
  0
LINE
  8
0
  6
CONTINUOUS
 62
     7
 10
-21.5
 20
51.5
 11
-15.5
 21
51.5
  0
LINE
  8
0
  6
CONTINUOUS
 62
     7
 10
-21.5
 20
38.5
 11
-15.5
 21
38.5
  0
LINE
  8
0
  6
CENTER
 62
     2
 10
-18.5
 20
54.5
 11
-18.5
 21
35.5
  0
LINE
  8
0
  6
CONTINUOUS
 62
     7
 10
-21.5
 20
45.25
 11
-15.5
 21
45.25
  0
LINE
  8
0
  6
CONTINUOUS
 62
     7
 10
-21.5
 20
44.75
 11
-15.5
 21
44.75
  0
LINE
  8
0
  6
CONTINUOUS
 62
     7
 10
-21.5
 20
44.75
 11
-21.5
 21
38.5
  0
LINE
  8
0
  6
CONTINUOUS
 62
     7
 10
-15.5
 20
51.5
 11
-15.5
 21
45.25
  0
LINE
  8
0
  6
CONTINUOUS
 62
     7
 10
-15.5
 20
44.75
 11
-15.5
 21
38.5
  0
LINE
  8
0
  6
CONTINUOUS
 62
     7
 10
-19.8
 20
45.25
 11
-19.8
 21
44.75
  0
LINE
  8
0
  6
CONTINUOUS
 62
     7
 10
-17.2
 20
45.25
 11
-17.2
 21
44.75
  0
LINE
  8
0
  6
CONTINUOUS
 62
     7
 10
-19.575
 20
45.25
 11
-19.575
 21
44.75
  0
LINE
  8
0
  6
CONTINUOUS
 62
     7
 10
-17.425
 20
45.25
 11
-17.425
 21
44.75
  0
LINE
  8
0
  6
CONTINUOUS
 62
     7
 10
-15.5
 20
47.5
 11
-15.0
 21
47.5
  0
LINE
  8
0
  6
CONTINUOUS
 62
     7
 10
-15.5
 20
42.5
 11
-15.0
 21
42.5
  0
LINE
  8
0
  6
CENTER
 62
     2
 10
-17.5
 20
49.0
 11
-12.0
 21
49.0
  0
LINE
  8
0
  6
CONTINUOUS
 62
     7
 10
-15.5
 20
50.5
 11
-14.0
 21
50.5
  0
LINE
  8
0
  6
CONTINUOUS
 62
     7
 10
27.0
 20
47.5
 11
32.66988
 21
47.5
  0
LINE
  8
0
  6
CONTINUOUS
 62
     7
 10
27.0
 20
42.5
 11
31.33013
 21
42.5
  0
LINE
  8
0
  6
CONTINUOUS
 62
     7
 10
49.0
 20
46.5
 11
49.0
 21
43.5
  0
LINE
  8
0
  6
CONTINUOUS
 62
     7
 10
39.0
 20
47.0
 11
39.0
 21
43.0
  0
LINE
  8
0
  6
CONTINUOUS
 62
     7
 10
48.5
 20
47.0
 11
47.0
 21
47.0
  0
LINE
  8
0
  6
CONTINUOUS
 62
     7
 10
48.5
 20
43.0
 11
47.0
 21
43.0
  0
LINE
  8
0
  6
CONTINUOUS
 62
     7
 10
48.99998
 20
46.49998
 11
48.49998
 21
46.99998
  0
LINE
  8
0
  6
CONTINUOUS
 62
     7
 10
48.50001
 20
42.99997
 11
49.00001
 21
43.49997
  0
LINE
  8
0
  6
CONTINUOUS
 62
     7
 10
48.5
 20
47.0
 11
48.5
 21
43.0
  0
LINE
  8
0
  6
CONTINUOUS
 62
     7
 10
48.85
 20
46.65001
 11
47.0
 21
46.65001
  0
LINE
  8
0
  6
CONTINUOUS
 62
     7
 10
48.85
 20
43.35
 11
47.0
 21
43.35
  0
LINE
  8
0
  6
CONTINUOUS
 62
     7
 10
39.00002
 20
46.65003
 11
38.3938
 21
47.00003
  0
LINE
  8
0
  6
CONTINUOUS
 62
     7
 10
39.0
 20
43.35001
 11
38.39378
 21
43.0
  0
LINE
  8
0
  6
CONTINUOUS
 62
     7
 10
42.2
 20
43.0
 11
37.5
 21
43.0
  0
LINE
  8
0
  6
CONTINUOUS
 62
     7
 10
42.2
 20
43.35
 11
39.0
 21
43.35
  0
LINE
  8
0
  6
CONTINUOUS
 62
     7
 10
42.2
 20
46.65001
 11
39.0
 21
46.65001
  0
LINE
  8
0
  6
CONTINUOUS
 62
     7
 10
42.2
 20
47.0
 11
37.5
 21
47.0
  0
LINE
  8
0
  6
CONTINUOUS
 62
     7
 10
47.0
 20
48.5
 11
47.0
 21
45.0
  0
LINE
  8
0
  6
CONTINUOUS
 62
     7
 10
44.6
 20
48.5
 11
44.6
 21
41.5
  0
LINE
  8
0
  6
CONTINUOUS
 62
     7
 10
47.0
 20
41.5
 11
47.0
 21
45.0
  0
LINE
  8
0
  6
CONTINUOUS
 62
     7
 10
42.2
 20
48.5
 11
42.2
 21
45.0
  0
LINE
  8
0
  6
CONTINUOUS
 62
     7
 10
44.6
 20
48.5
 11
44.6
 21
45.0
  0
LINE
  8
0
  6
CONTINUOUS
 62
     7
 10
42.2
 20
41.5
 11
42.2
 21
45.0
  0
LINE
  8
0
  6
CONTINUOUS
 62
     7
 10
47.0
 20
48.5
 11
42.2
 21
48.5
  0
LINE
  8
0
  6
CONTINUOUS
 62
     7
 10
47.0
 20
41.5
 11
42.2
 21
41.5
  0
LINE
  8
0
  6
CONTINUOUS
 62
     7
 10
46.68739
 20
45.0
 11
44.91261
 21
45.0
  0
LINE
  8
0
  6
CONTINUOUS
 62
     7
 10
44.28739
 20
45.0
 11
42.51261
 21
45.0
  0
LINE
  8
0
  6
CONTINUOUS
 62
     7
 10
27.0
 20
49.0
 11
27.0
 21
41.0
  0
LINE
  8
0
  6
CONTINUOUS
 62
     7
 10
26.0
 20
49.0
 11
27.0
 21
49.0
  0
LINE
  8
0
  6
CONTINUOUS
 62
     7
 10
26.0
 20
41.0
 11
27.0
 21
41.0
  0
LINE
  8
0
  6
CONTINUOUS
 62
     7
 10
37.5
 20
47.0
 11
37.5
 21
43.0
  0
LINE
  8
0
  6
CONTINUOUS
 62
     7
 10
37.49999
 20
47.0
 11
36.99999
 21
47.5
  0
LINE
  8
0
  6
CONTINUOUS
 62
     7
 10
37.5
 20
43.0
 11
37.0
 21
42.5
  0
LINE
  8
0
  6
CONTINUOUS
 62
     7
 10
37.0
 20
47.5
 11
37.0
 21
42.5
  0
LINE
  8
0
  6
PHANTOM
 62
     2
 10
33.45546
 20
48.5
 11
31.57981
 21
41.5
  0
LINE
  8
0
  6
PHANTOM
 62
     2
 10
32.93782
 20
48.5
 11
31.06218
 21
41.5
  0
LINE
  8
0
  6
CONTINUOUS
 62
     7
 10
26.0
 20
52.0
 11
4.63447
 21
52.0
  0
LINE
  8
0
  6
CONTINUOUS
 62
     7
 10
26.0
 20
38.0
 11
0.88318
 21
38.0
  0
LINE
  8
0
  6
PHANTOM
 62
     2
 10
4.38479
 20
53.00003
 11
0.0976
 21
37.00003
  0
LINE
  8
0
  6
PHANTOM
 62
     2
 10
4.90241
 20
52.99999
 11
0.61523
 21
36.99999
  0
LINE
  8
0
  6
CONTINUOUS
 62
     7
 10
4.11683
 20
52.0
 11
-14.0
 21
52.0
  0
LINE
  8
0
  6
CONTINUOUS
 62
     7
 10
0.36554
 20
38.0
 11
-14.0
 21
38.0
  0
LINE
  8
0
  6
CONTINUOUS
 62
     7
 10
33.18751
 20
47.5
 11
37.0
 21
47.5
  0
LINE
  8
0
  6
CONTINUOUS
 62
     7
 10
31.84776
 20
42.5
 11
37.0
 21
42.5
  0
LINE
  8
0
  6
CENTER
 62
     2
 10
-99.12356
 20
-24.99998
 11
-79.12356
 21
-24.99998
  0
LINE
  8
0
  6
CENTER
 62
     2
 10
-89.12356
 20
-9.99998
 11
-89.12356
 21
-39.99998
  0
LINE
  8
0
  6
CONTINUOUS
 62
     7
 10
-96.12356
 20
-12.99998
 11
-82.12356
 21
-12.99998
  0
LINE
  8
0
  6
CONTINUOUS
 62
     7
 10
-96.12356
 20
-36.99998
 11
-82.12356
 21
-36.99998
  0
LINE
  8
0
  6
CONTINUOUS
 62
     7
 10
-82.12356
 20
-12.99998
 11
-82.12356
 21
-36.99998
  0
LINE
  8
0
  6
CONTINUOUS
 62
     7
 10
-96.12356
 20
-12.99998
 11
-96.12356
 21
-36.99998
  0
LINE
  8
0
  6
CONTINUOUS
 62
     7
 10
-95.62356
 20
-19.49998
 11
-96.12356
 21
-19.49998
  0
LINE
  8
0
  6
CONTINUOUS
 62
     7
 10
-89.62356
 20
-15.99998
 11
-89.62356
 21
-12.99998
  0
LINE
  8
0
  6
CONTINUOUS
 62
     7
 10
-88.62356
 20
-36.49998
 11
-88.62356
 21
-36.99998
  0
LINE
  8
0
  6
CONTINUOUS
 62
     7
 10
-82.62356
 20
-30.49998
 11
-82.12356
 21
-30.49998
  0
LINE
  8
0
  6
CONTINUOUS
 62
     7
 10
-93.12357
 20
-14.55658
 11
-94.37356
 21
-15.27827
  0
LINE
  8
0
  6
CONTINUOUS
 62
     7
 10
-91.87357
 20
-15.27831
 11
-93.12357
 21
-14.55663
  0
LINE
  8
0
  6
CENTER
 62
     2
 10
-98.12356
 20
-15.99998
 11
-88.12356
 21
-15.99998
  0
LINE
  8
0
  6
CONTINUOUS
 62
     7
 10
-91.87356
 20
-16.49998
 11
-91.87356
 21
-15.2783
  0
LINE
  8
0
  6
CENTER
 62
     2
 10
-93.12356
 20
-10.99998
 11
-93.12356
 21
-18.49998
  0
LINE
  8
0
  6
CONTINUOUS
 62
     7
 10
-94.37357
 20
-15.27828
 11
-94.37357
 21
-16.49998
  0
LINE
  8
0
  6
CONTINUOUS
 62
     7
 10
-82.62356
 20
-16.49998
 11
-82.62356
 21
-36.49998
  0
LINE
  8
0
  6
CONTINUOUS
 62
     7
 10
-95.62356
 20
-16.49998
 11
-95.62356
 21
-36.49998
  0
LINE
  8
0
  6
CONTINUOUS
 62
     7
 10
-95.62356
 20
-36.49998
 11
-82.62356
 21
-36.49998
  0
LINE
  8
0
  6
CONTINUOUS
 62
     7
 10
-95.62356
 20
-16.49998
 11
-89.37356
 21
-16.49998
  0
LINE
  8
0
  6
CENTER
 62
     2
 10
-99.12356
 20
-20.19997
 11
-79.12356
 21
-20.19997
  0
LINE
  8
0
  6
CONTINUOUS
 62
     7
 10
-88.87356
 20
-16.49998
 11
-88.87356
 21
-21.10287
  0
LINE
  8
0
  6
CONTINUOUS
 62
     7
 10
-89.37356
 20
-16.49998
 11
-89.37356
 21
-21.10287
  0
LINE
  8
0
  6
CONTINUOUS
 62
     7
 10
-88.87356
 20
-16.49998
 11
-82.62356
 21
-16.49998
  0
LINE
  8
0
  6
CENTER
 62
     2
 10
-96.12356
 20
-33.99998
 11
-90.12356
 21
-33.99998
  0
LINE
  8
0
  6
CENTER
 62
     2
 10
-93.12356
 20
-30.99998
 11
-93.12356
 21
-36.99998
  0
LINE
  8
0
  6
CENTER
 62
     2
 10
-93.12356
 20
-10.99998
 11
-93.12356
 21
-18.49998
  0
LINE
  8
0
  6
CONTINUOUS
 62
     7
 10
-89.37356
 20
-18.89998
 11
-88.87356
 21
-18.89998
  0
LINE
  8
0
  6
CONTINUOUS
 62
     7
 10
-89.37356
 20
-19.12498
 11
-88.87356
 21
-19.12498
  0
LINE
  8
0
  6
CONTINUOUS
 62
     7
 10
-89.12357
 20
-29.04143
 11
-85.62358
 21
-27.02071
  0
LINE
  8
0
  6
CONTINUOUS
 62
     7
 10
-85.62356
 20
-27.0207
 11
-85.62356
 21
-22.97925
  0
LINE
  8
0
  6
CONTINUOUS
 62
     7
 10
-85.62359
 20
-22.97926
 11
-89.12359
 21
-20.95853
  0
LINE
  8
0
  6
CONTINUOUS
 62
     7
 10
-89.12357
 20
-20.95853
 11
-92.62357
 21
-22.97925
  0
LINE
  8
0
  6
CONTINUOUS
 62
     7
 10
-92.62356
 20
-22.97926
 11
-92.62356
 21
-27.02071
  0
LINE
  8
0
  6
CONTINUOUS
 62
     7
 10
-92.62357
 20
-27.02071
 11
-89.12357
 21
-29.04144
  0
LINE
  8
0
  6
CENTER
 62
     2
 10
81.12363
 20
-24.99999
 11
101.1236
 21
-24.99999
  0
LINE
  8
0
  6
CENTER
 62
     2
 10
91.12363
 20
-9.99999
 11
91.12363
 21
-39.99999
  0
LINE
  8
0
  6
CONTINUOUS
 62
     7
 10
84.12363
 20
-12.99999
 11
98.12363
 21
-12.99999
  0
LINE
  8
0
  6
CONTINUOUS
 62
     7
 10
84.12363
 20
-36.99999
 11
98.12363
 21
-36.99999
  0
LINE
  8
0
  6
CONTINUOUS
 62
     7
 10
98.12363
 20
-12.99999
 11
98.12363
 21
-36.99999
  0
LINE
  8
0
  6
CONTINUOUS
 62
     7
 10
84.12363
 20
-12.99999
 11
84.12363
 21
-36.99999
  0
LINE
  8
0
  6
CONTINUOUS
 62
     7
 10
91.12366
 20
-29.04152
 11
94.62368
 21
-27.02079
  0
LINE
  8
0
  6
CONTINUOUS
 62
     7
 10
94.62363
 20
-27.02071
 11
94.62363
 21
-22.97926
  0
LINE
  8
0
  6
CONTINUOUS
 62
     7
 10
94.62362
 20
-22.97922
 11
91.12361
 21
-20.95849
  0
LINE
  8
0
  6
CONTINUOUS
 62
     7
 10
91.12366
 20
-20.9586
 11
87.62366
 21
-22.97932
  0
LINE
  8
0
  6
CONTINUOUS
 62
     7
 10
87.62363
 20
-22.97927
 11
87.62363
 21
-27.02072
  0
LINE
  8
0
  6
CONTINUOUS
 62
     7
 10
87.6236
 20
-27.0207
 11
91.12359
 21
-29.04142
  0
LINE
  8
0
  6
CENTER
 62
     2
 10
100.1236
 20
-33.99999
 11
90.12363
 21
-33.99999
  0
LINE
  8
0
  6
CENTER
 62
     2
 10
95.12363
 20
-38.99999
 11
95.12363
 21
-28.99999
  0
LINE
  8
0
  6
CONTINUOUS
 62
     7
 10
91.62363
 20
-33.99999
 11
91.62363
 21
-36.99999
  0
LINE
  8
0
  6
CONTINUOUS
 62
     7
 10
95.12363
 20
-30.49999
 11
98.12363
 21
-30.49999
  0
LINE
  8
0
  6
CONTINUOUS
 62
     7
 10
96.37361
 20
-33.2783
 11
95.12363
 21
-32.55662
  0
LINE
  8
0
  6
CONTINUOUS
 62
     7
 10
95.12362
 20
-32.55667
 11
93.87362
 21
-33.27836
  0
LINE
  8
0
  6
CONTINUOUS
 62
     7
 10
93.87363
 20
-33.27831
 11
93.87363
 21
-34.72168
  0
LINE
  8
0
  6
CONTINUOUS
 62
     7
 10
93.87362
 20
-34.72165
 11
95.12363
 21
-35.44335
  0
LINE
  8
0
  6
CONTINUOUS
 62
     7
 10
95.12366
 20
-35.44345
 11
96.37365
 21
-34.72178
  0
LINE
  8
0
  6
CONTINUOUS
 62
     7
 10
96.37363
 20
-34.72169
 11
96.37363
 21
-33.27831
  0
LINE
  8
0
  6
CONTINUOUS
 62
     7
 10
87.12366
 20
-14.55667
 11
85.87365
 21
-15.27836
  0
LINE
  8
0
  6
CONTINUOUS
 62
     7
 10
88.37363
 20
-15.27826
 11
87.12363
 21
-14.55658
  0
LINE
  8
0
  6
CENTER
 62
     2
 10
82.12363
 20
-15.99999
 11
92.12363
 21
-15.99999
  0
LINE
  8
0
  6
CONTINUOUS
 62
     7
 10
88.37363
 20
-16.72168
 11
88.37363
 21
-15.27831
  0
LINE
  8
0
  6
CONTINUOUS
 62
     7
 10
87.12363
 20
-17.44339
 11
88.37363
 21
-16.7217
  0
LINE
  8
0
  6
CENTER
 62
     2
 10
87.12363
 20
-10.99999
 11
87.12363
 21
-20.99999
  0
LINE
  8
0
  6
CONTINUOUS
 62
     7
 10
85.87363
 20
-15.2783
 11
85.87363
 21
-16.72167
  0
LINE
  8
0
  6
CONTINUOUS
 62
     7
 10
85.8736
 20
-16.72166
 11
87.1236
 21
-17.44335
  0
LINE
  8
0
  6
CONTINUOUS
 62
     7
 10
87.12363
 20
-19.49999
 11
84.12363
 21
-19.49999
  0
LINE
  8
0
  6
CONTINUOUS
 62
     7
 10
90.62363
 20
-15.99999
 11
90.62363
 21
-12.99999
  0
ARC
  8
0
  6
CONTINUOUS
 62
     7
 10
96.53259
 20
-83.10118
 40
0.78202
 50
0.0
 51
89.99999
  0
ARC
  8
0
  6
CONTINUOUS
 62
     7
 10
102.9843
 20
-87.30457
 40
0.78202
 50
270.0
 51
0.0
  0
ARC
  8
0
  6
CONTINUOUS
 62
     7
 10
102.5933
 20
-83.49218
 40
1.17303
 50
0.0
 51
89.99999
  0
ARC
  8
0
  6
CONTINUOUS
 62
     7
 10
109.7292
 20
-83.10118
 40
0.78202
 50
0.0
 51
89.99999
  0
ARC
  8
0
  6
CONTINUOUS
 62
     7
 10
109.7292
 20
-83.72594
 40
0.78202
 50
295.0
 51
0.0
  0
ARC
  8
0
  6
CONTINUOUS
 62
     7
 10
115.7899
 20
-82.31916
 40
1.17304
 50
291.6882
 51
0.0
  0
ARC
  8
0
  6
CONTINUOUS
 62
     7
 10
115.3989
 20
-82.05386
 40
0.39101
 50
291.6885
 51
0.0
  0
ARC
  8
0
  6
CONTINUOUS
 62
     7
 10
-28.21093
 20
-21.96891
 40
1.78907
 50
145.6157
 51
214.3843
  0
ARC
  8
0
  6
CONTINUOUS
 62
     7
 10
-23.31262
 20
-25.0
 40
6.68738
 50
162.412
 51
180.0
  0
ARC
  8
0
  6
CONTINUOUS
 62
     7
 10
-34.28738
 20
-25.0
 40
6.68738
 50
359.9999
 51
17.58793
  0
ARC
  8
0
  6
CONTINUOUS
 62
     7
 10
-29.38907
 20
-21.96891
 40
1.78907
 50
325.6157
 51
34.38425
  0
ARC
  8
0
  6
CONTINUOUS
 62
     7
 10
-23.31262
 20
-25.00001
 40
6.68738
 50
180.0
 51
197.588
  0
ARC
  8
0
  6
CONTINUOUS
 62
     7
 10
-28.21093
 20
-28.0311
 40
1.78907
 50
145.6156
 51
214.3842
  0
ARC
  8
0
  6
CONTINUOUS
 62
     7
 10
-29.38907
 20
-28.0311
 40
1.78907
 50
325.6157
 51
34.38425
  0
ARC
  8
0
  6
CONTINUOUS
 62
     7
 10
-34.28738
 20
-25.00001
 40
6.68738
 50
342.412
 51
359.9999
  0
ARC
  8
0
  6
CONTINUOUS
 62
     7
 10
-25.81093
 20
-21.96891
 40
1.78907
 50
145.6157
 51
214.3843
  0
ARC
  8
0
  6
CONTINUOUS
 62
     7
 10
-31.88738
 20
-25.00001
 40
6.68738
 50
342.412
 51
0.0
  0
ARC
  8
0
  6
CONTINUOUS
 62
     7
 10
-20.91262
 20
-25.00001
 40
6.68738
 50
180.0
 51
197.588
  0
ARC
  8
0
  6
CONTINUOUS
 62
     7
 10
-26.98907
 20
-28.0311
 40
1.78907
 50
325.6158
 51
34.3843
  0
ARC
  8
0
  6
CONTINUOUS
 62
     7
 10
-25.81093
 20
-28.0311
 40
1.78907
 50
145.6157
 51
214.3843
  0
ARC
  8
0
  6
CONTINUOUS
 62
     7
 10
-20.91262
 20
-25.0
 40
6.68738
 50
162.412
 51
180.0
  0
ARC
  8
0
  6
CONTINUOUS
 62
     7
 10
-26.98907
 20
-21.96891
 40
1.78907
 50
325.6157
 51
34.38425
  0
ARC
  8
0
  6
CONTINUOUS
 62
     7
 10
-31.88738
 20
-25.0
 40
6.68738
 50
359.9999
 51
17.58793
  0
CIRCLE
  8
0
  6
CONTINUOUS
 62
     7
 10
9.0
 20
-17.0
 40
1.75
  0
CIRCLE
  8
0
  6
CONTINUOUS
 62
     7
 10
9.0
 20
-33.0
 40
1.75
  0
CIRCLE
  8
0
  6
CONTINUOUS
 62
     7
 10
9.0
 20
-33.0
 40
3.0
  0
CIRCLE
  8
0
  6
CONTINUOUS
 62
     7
 10
9.0
 20
-17.0
 40
3.0
  0
CIRCLE
  8
0
  6
CONTINUOUS
 62
     7
 10
2.5
 20
-17.5
 40
1.5
  0
CIRCLE
  8
0
  6
CONTINUOUS
 62
     7
 10
2.5
 20
-32.5
 40
1.5
  0
CIRCLE
  8
0
  6
CONTINUOUS
 62
     7
 10
2.5
 20
-32.5
 40
1.25
  0
CIRCLE
  8
0
  6
CONTINUOUS
 62
     7
 10
2.5
 20
-17.5
 40
1.25
  0
CIRCLE
  8
0
  6
CONTINUOUS
 62
     7
 10
-18.5
 20
-20.2
 40
2.25
  0
CIRCLE
  8
0
  6
CONTINUOUS
 62
     7
 10
-18.5
 20
-20.2
 40
1.75
  0
CIRCLE
  8
0
  6
CONTINUOUS
 62
     7
 10
-18.5
 20
-20.2
 40
2.5
  0
ARC
  8
0
  6
CONTINUOUS
 62
     7
 10
43.98907
 20
-28.0311
 40
1.78907
 50
145.6156
 51
214.3842
  0
ARC
  8
0
  6
CONTINUOUS
 62
     7
 10
43.98907
 20
-21.96891
 40
1.78907
 50
145.6157
 51
214.3843
  0
ARC
  8
0
  6
CONTINUOUS
 62
     7
 10
37.91261
 20
-25.0
 40
6.68738
 50
359.9999
 51
17.58793
  0
ARC
  8
0
  6
CONTINUOUS
 62
     7
 10
37.91261
 20
-25.00001
 40
6.68738
 50
342.412
 51
359.9999
  0
ARC
  8
0
  6
CONTINUOUS
 62
     7
 10
42.81093
 20
-28.0311
 40
1.78907
 50
325.6157
 51
34.38421
  0
ARC
  8
0
  6
CONTINUOUS
 62
     7
 10
48.88738
 20
-25.0
 40
6.68738
 50
162.412
 51
180.0
  0
ARC
  8
0
  6
CONTINUOUS
 62
     7
 10
45.21093
 20
-21.96891
 40
1.78907
 50
325.6157
 51
34.38421
  0
ARC
  8
0
  6
CONTINUOUS
 62
     7
 10
40.31262
 20
-25.0
 40
6.68738
 50
359.9999
 51
17.58793
  0
ARC
  8
0
  6
CONTINUOUS
 62
     7
 10
51.28738
 20
-25.0
 40
6.68738
 50
162.412
 51
180.0
  0
ARC
  8
0
  6
CONTINUOUS
 62
     7
 10
46.38907
 20
-21.96891
 40
1.78907
 50
145.6157
 51
214.3843
  0
ARC
  8
0
  6
CONTINUOUS
 62
     7
 10
40.31262
 20
-25.00001
 40
6.68738
 50
342.412
 51
0.0
  0
ARC
  8
0
  6
CONTINUOUS
 62
     7
 10
45.21093
 20
-28.0311
 40
1.78907
 50
325.6158
 51
34.38433
  0
ARC
  8
0
  6
CONTINUOUS
 62
     7
 10
46.38907
 20
-28.0311
 40
1.78907
 50
145.6157
 51
214.3843
  0
ARC
  8
0
  6
CONTINUOUS
 62
     7
 10
51.28738
 20
-25.00001
 40
6.68738
 50
180.0
 51
197.588
  0
ARC
  8
0
  6
CONTINUOUS
 62
     7
 10
42.81093
 20
-21.96891
 40
1.78907
 50
325.6157
 51
34.38421
  0
ARC
  8
0
  6
CONTINUOUS
 62
     7
 10
48.88738
 20
-25.00001
 40
6.68738
 50
180.0
 51
197.5879
  0
CIRCLE
  8
0
  6
CONTINUOUS
 62
     7
 10
-2.5
 20
44.2
 40
2.5
  0
CIRCLE
  8
0
  6
CONTINUOUS
 62
     7
 10
14.5
 20
45.80001
 40
2.5
  0
CIRCLE
  8
0
  6
CONTINUOUS
 62
     7
 10
14.5
 20
45.80001
 40
2.1
  0
CIRCLE
  8
0
  6
CONTINUOUS
 62
     7
 10
-2.5
 20
44.2
 40
2.1
  0
CIRCLE
  8
0
  6
CONTINUOUS
 62
     7
 10
-2.5
 20
44.2
 40
0.4
  0
CIRCLE
  8
0
  6
CONTINUOUS
 62
     7
 10
14.5
 20
45.80001
 40
0.4
  0
ARC
  8
0
  6
CONTINUOUS
 62
     7
 10
-24.94538
 20
46.75
 40
5.05462
 50
159.7438
 51
200.2561
  0
ARC
  8
0
  6
CONTINUOUS
 62
     7
 10
-32.65462
 20
46.75
 40
5.05461
 50
339.7438
 51
20.25613
  0
ARC
  8
0
  6
CONTINUOUS
 62
     7
 10
-24.94538
 20
43.25
 40
5.05461
 50
159.7438
 51
200.2561
  0
ARC
  8
0
  6
CONTINUOUS
 62
     7
 10
-32.65462
 20
43.25
 40
5.05461
 50
339.7438
 51
20.25613
  0
ARC
  8
0
  6
CONTINUOUS
 62
     7
 10
-22.54539
 20
46.75
 40
5.05462
 50
159.7438
 51
200.2561
  0
ARC
  8
0
  6
CONTINUOUS
 62
     7
 10
-22.54539
 20
43.25
 40
5.05462
 50
159.7438
 51
200.2561
  0
ARC
  8
0
  6
CONTINUOUS
 62
     7
 10
-30.25462
 20
46.75
 40
5.05461
 50
339.7438
 51
20.25613
  0
ARC
  8
0
  6
CONTINUOUS
 62
     7
 10
-30.25462
 20
43.25
 40
5.05461
 50
339.7439
 51
20.25613
  0
ARC
  8
0
  6
CONTINUOUS
 62
     7
 10
39.54539
 20
46.75
 40
5.05462
 50
339.7438
 51
20.25613
  0
ARC
  8
0
  6
CONTINUOUS
 62
     7
 10
41.94539
 20
46.75
 40
5.05462
 50
339.7438
 51
20.25613
  0
ARC
  8
0
  6
CONTINUOUS
 62
     7
 10
47.25462
 20
46.75
 40
5.05462
 50
159.7438
 51
200.2561
  0
ARC
  8
0
  6
CONTINUOUS
 62
     7
 10
49.65462
 20
46.75
 40
5.05462
 50
159.7438
 51
200.2561
  0
ARC
  8
0
  6
CONTINUOUS
 62
     7
 10
47.25462
 20
43.25
 40
5.05462
 50
159.7438
 51
200.2561
  0
ARC
  8
0
  6
CONTINUOUS
 62
     7
 10
49.65462
 20
43.25
 40
5.05462
 50
159.7438
 51
200.2561
  0
ARC
  8
0
  6
CONTINUOUS
 62
     7
 10
39.54539
 20
43.25
 40
5.05462
 50
339.7438
 51
20.25613
  0
ARC
  8
0
  6
CONTINUOUS
 62
     7
 10
41.94539
 20
43.25
 40
5.05461
 50
339.7439
 51
20.25613
  0
ARC
  8
0
  6
CONTINUOUS
 62
     7
 10
-85.12356
 20
-33.99998
 40
2.75
 50
245.38
 51
294.62
  0
ARC
  8
0
  6
CONTINUOUS
 62
     7
 10
-93.12356
 20
-15.99998
 40
2.75
 50
0.0
 51
204.6199
  0
ARC
  8
0
  6
CONTINUOUS
 62
     7
 10
-85.12356
 20
-33.99998
 40
2.75
 50
335.38
 51
24.62
  0
ARC
  8
0
  6
CONTINUOUS
 62
     7
 10
-93.12356
 20
-15.99998
 40
3.5
 50
351.7868
 51
0.0
  0
ARC
  8
0
  6
CONTINUOUS
 62
     7
 10
-93.12356
 20
-15.99998
 40
2.75
 50
349.5243
 51
0.0
  0
CIRCLE
  8
0
  6
CONTINUOUS
 62
     7
 10
-93.12356
 20
-33.99998
 40
1.5
  0
CIRCLE
  8
0
  6
CONTINUOUS
 62
     7
 10
-89.12356
 20
-24.99998
 40
2.0
  0
CIRCLE
  8
0
  6
CONTINUOUS
 62
     7
 10
-89.12356
 20
-24.99998
 40
1.65
  0
CIRCLE
  8
0
  6
CONTINUOUS
 62
     7
 10
-89.12356
 20
-24.99998
 40
3.5
  0
CIRCLE
  8
0
  6
CONTINUOUS
 62
     7
 10
91.12363
 20
-24.99999
 40
3.5
  0
CIRCLE
  8
0
  6
CONTINUOUS
 62
     7
 10
91.12363
 20
-24.99999
 40
2.0
  0
CIRCLE
  8
0
  6
CONTINUOUS
 62
     7
 10
91.12363
 20
-24.99999
 40
1.65
  0
ARC
  8
0
  6
CONTINUOUS
 62
     7
 10
95.12363
 20
-33.99999
 40
3.5
 50
89.99999
 51
179.9999
  0
CIRCLE
  8
0
  6
CONTINUOUS
 62
     7
 10
95.12363
 20
-33.99999
 40
2.75
  0
CIRCLE
  8
0
  6
CONTINUOUS
 62
     7
 10
87.12363
 20
-15.99999
 40
2.75
  0
ARC
  8
0
  6
CONTINUOUS
 62
     7
 10
87.12363
 20
-15.99999
 40
3.5
 50
270.0
 51
0.0
  0
ARC
  8
0
  6
CONTINUOUS
 62
     7
 10
91.12363
 20
-24.99999
 40
4.0
 50
331.045
 51
25.10533
  0
ARC
  8
0
  6
CONTINUOUS
 62
     7
 10
91.12363
 20
-24.99999
 40
4.0
 50
91.0448
 51
148.9552
  0
ARC
  8
0
  6
CONTINUOUS
 62
     7
 10
91.12363
 20
-24.99999
 40
4.0
 50
151.045
 51
208.955
  0
ARC
  8
0
  6
CONTINUOUS
 62
     7
 10
91.12363
 20
-24.99999
 40
4.0
 50
211.0451
 51
268.9548
  0
ARC
  8
0
  6
CONTINUOUS
 62
     7
 10
91.12363
 20
-24.99999
 40
4.0
 50
271.0448
 51
328.9553
  0
ARC
  8
0
  6
CONTINUOUS
 62
     7
 10
91.12363
 20
-24.99999
 40
4.0
 50
31.04498
 51
88.95498
  0
TEXT
  8
0
  6
CONTINUOUS
 62
     7
 10
-113.86205279
 20
63.24264
 40
3.5
  1
        BDADLS 10*ST(5)
 41
0.8
  7
STANDARD
  0
TEXT
  8
0
  6
CONTINUOUS
 62
     7
 10
80.98867
 20
83.53382
 40
3.0
  1
DATE : FEB,1989
 41
0.8
  7
STANDARD
  0
TEXT
  8
0
  6
CONTINUOUS
 62
     7
 10
-129.8223
 20
83.29883
 40
3.5
  1
MULTI MOUNT CYL
 41
0.8
  7
STANDARD
  0
TEXT
  8
0
  6
CONTINUOUS
 62
     7
 10
22.44136
 20
58.79007
 40
2.5
  1
2-M5*0.8
 41
0.8
  7
STANDARD
  0
TEXT
  8
0
  6
CONTINUOUS
 62
     7
 10
-46.88126818
 20
-36.175
 40
2.5
  1
M4*0.7
 41
0.8
  7
STANDARD
  0
TEXT
  8
0
  6
CONTINUOUS
 62
     7
 10
-129.2446
 20
-85.46284
 40
2.5
  1
NOTE : A ,C ,F ,D ,M    CATALOG
 41
0.8
  7
STANDARD
  0
TEXT
  8
0
  6
CONTINUOUS
 62
     7
 10
-6.58225
 20
-46.3
 40
2.5
  1
M+ST
 41
0.8
  7
STANDARD
  0
TEXT
  8
0
  6
CONTINUOUS
 62
     7
 10
32.41775
 20
-2.3
 40
2.5
  1
F+ST
 41
0.8
  7
STANDARD
  0
TEXT
  8
0
  6
CONTINUOUS
 62
     7
 10
0.41775
 20
7.7
 40
2.5
  1
A+ST*2
 41
0.8
  7
STANDARD
  0
TEXT
  8
0
  6
CONTINUOUS
 62
     7
 10
1.41775
 20
61.7
 40
2.5
  1
D+ST
 41
0.8
  7
STANDARD
  0
TEXT
  8
0
  6
CONTINUOUS
 62
     7
 10
16.21486
 20
-52.97403
 40
2.5
  1
4-M3*0.5
 41
0.8
  7
STANDARD
  0
TEXT
  8
0
  6
CONTINUOUS
 62
     7
 10
2.41775
 20
-2.3
 40
2.5
  1
C+ST
 41
0.8
  7
STANDARD
  0
TEXT
  8
0
  6
CONTINUOUS
 62
     7
 10
55.69139
 20
-36.175
 40
2.5
  1
M4*0.7
 41
0.8
  7
STANDARD
  0
TEXT
  8
0
  6
CONTINUOUS
 62
     7
 10
-122.1986
 20
68.24265
 40
3.5
  1
MODEL : BDADL 10*ST(10)
 41
0.8
  7
STANDARD
  0
ENDSEC
  0
EOF
