  0
SECTION
  2
HEADER
  0
ENDSEC
  0
SECTION
  2
TABLES
  0
TABLE
  2
LTYPE
 70
     4
  0
LTYPE
  2
CONTINUOUS
 70
    64
  3
Solid line
 72
    65
 73
     0
 40
0.000000
  0
LTYPE
  2
DASHED
 70
    64
  3
__ __ __ __ __ __ __ __ __ __ __ __ __ __ __
 72
    65
 73
     2
 40
3.500000
 49
2.000000
 49
-1.500000
  0
LTYPE
  2
CENTER
 70
    64
  3
____ _ ____ _ ____ _ ____ _ ____ _ ____ _ ____
 72
    65
 73
     4
 40
17.500000
 49
13.000000
 49
-1.500000
 49
1.500000
 49
-1.500000
  0
LTYPE
  2
PHANTOM
 70
    64
  3
_____ _ _ _____ _ _ _____ _ _ _____ _ _ ____  
 72
    65
 73
     6
 40
15.500000
 49
8.000000
 49
-1.500000
 49
1.500000
 49
-1.500000
 49
1.500000
 49
-1.500000
  0
LTYPE
  2
DASHED1
 70
    64
  3
__ __ __ __ __ __ __ __ __ __ __ __ __ __ __
 72
    65
 73
     2
 40
1.500000
 49
1.000000
 49
-0.500000
  0
LTYPE
  2
DASHED2
 70
    64
  3
__ __ __ __ __ __ __ __ __ __ __ __ __ __ __
 72
    65
 73
     2
 40
3.500000
 49
2.500000
 49
-1.000000
  0
LTYPE
  2
DASHED3
 70
    64
  3
__ __ __ __ __ __ __ __ __ __ __ __ __ __ __
 72
    65
 73
     2
 40
6.000000
 49
4.000000
 49
-2.000000
  0
LTYPE
  2
DASHED4
 70
    64
  3
__ __ __ __ __ __ __ __ __ __ __ __ __ __ __
 72
    65
 73
     2
 40
12.000000
 49
10.000000
 49
-2.000000
  0
LTYPE
  2
DASHED5
 70
    64
  3
__ __ __ __ __ __ __ __ __ __ __ __ __ __ __
 72
    65
 73
     2
 40
17.000000
 49
15.000000
 49
-2.000000
  0
LTYPE
  2
DASHED6
 70
    64
  3
__ __ __ __ __ __ __ __ __ __ __ __ __ __ __
 72
    65
 73
     2
 40
29.000000
 49
27.000000
 49
-2.000000
  0
LTYPE
  2
PHANTOM1
 70
    64
  3
_____ _ _ _____ _ _ _____ _ _ _____ _ _ ____  
 72
    65
 73
     6
 40
31.000000
 49
25.000000
 49
-1.500000
 49
1.000000
 49
-1.000000
 49
1.000000
 49
-1.500000
  0
LTYPE
  2
PHANTOM2
 70
    64
  3
_____ _ _ _____ _ _ _____ _ _ _____ _ _ ____  
 72
    65
 73
     6
 40
36.000000
 49
27.000000
 49
-1.500000
 49
2.500000
 49
-1.000000
 49
2.500000
 49
-1.500000
  0
LTYPE
  2
PHANTOM3
 70
    64
  3
_____ _ _ _____ _ _ _____ _ _ _____ _ _ ____  
 72
    65
 73
     6
 40
78.000000
 49
64.000000
 49
-2.000000
 49
4.000000
 49
-2.000000
 49
4.000000
 49
-2.000000
  0
LTYPE
  2
CENTER1
 70
    64
  3
____ _ ____ _ ____ _ ____ _ ____ _ ____ _ ____
 72
    65
 73
     4
 40
19.000000
 49
14.000000
 49
-1.000000
 49
3.000000
 49
-1.000000
  0
LTYPE
  2
CENTER2
 70
    64
  3
____ _ ____ _ ____ _ ____ _ ____ _ ____ _ ____
 72
    65
 73
     4
 40
28.500000
 49
25.000000
 49
-1.000000
 49
1.500000
 49
-1.000000
  0
LTYPE
  2
CENTER3
 70
    64
  3
____ _ ____ _ ____ _ ____ _ ____ _ ____ _ ____
 72
    65
 73
     4
 40
31.500000
 49
27.000000
 49
-1.000000
 49
2.500000
 49
-1.000000
  0
LTYPE
  2
CENTER4
 70
    64
  3
____ _ ____ _ ____ _ ____ _ ____ _ ____ _ ____
 72
    65
 73
     4
 40
50.000000
 49
45.000000
 49
-1.000000
 49
3.000000
 49
-1.000000
  0
LTYPE
  2
CENTER5
 70
    64
  3
____ _ ____ _ ____ _ ____ _ ____ _ ____ _ ____
 72
    65
 73
     4
 40
100.000000
 49
92.000000
 49
-2.000000
 49
4.000000
 49
-2.000000
  0
LTYPE
  2
SBK1
 70
    64
  3
______ _ _ _ ______ _ _ _ ______ _ _ _ _____  
 72
    65
 73
     8
 40
60.500000
 49
45.000000
 49
-2.000000
 49
2.500000
 49
-2.000000
 49
2.500000
 49
-2.000000
 49
2.500000
 49
-2.000000
  0
LTYPE
  2
SBK2
 70
    64
  3
______ _ _ _ ______ _ _ _ ______ _ _ _ _____  
 72
    65
 73
     8
 40
84.000000
 49
64.000000
 49
-2.000000
 49
4.000000
 49
-2.000000
 49
4.000000
 49
-2.000000
 49
4.000000
 49
-2.000000
  0
LTYPE
  2
STCH
 70
    64
  3
__ __ __ __ __ __ __ __ __ __ __ __ __ __ __
 72
    65
 73
     2
 40
3.000000
 49
1.000000
 49
-2.000000
  0
LTYPE
  2
MTCH
 70
    64
  3
_____ _ _ _____ _ _ _____ _ _ _____ _ _ ____  
 72
    65
 73
     6
 40
80.000000
 49
66.000000
 49
-2.000000
 49
4.000000
 49
-2.000000
 49
4.000000
 49
-2.000000
  0
ENDTAB
  0
TABLE
  2
LAYER
 70
     1
  0
LAYER
  2
0
 70
     0
 62
     7
  6
CONTINUOUS
  0
ENDTAB
  0
TABLE
  2
STYLE
 70
     1
  0
STYLE
  2
STANDARD
 70
     0
 40
0.000000
 41
1.000000
 50
0.000000
 71
     0
 42
0.200000
  3
txt
  4
BIGFONT
  0
ENDTAB
  0
TABLE
  2
VIEW
 70
     0
  0
ENDTAB
  0
ENDSEC
  0
SECTION
  2
BLOCKS
  0
ENDSEC
  0
SECTION
  2
ENTITIES
  0
LINE
  8
0
 10
-414.439606
 20
244.602478
 11
-414.439606
 21
180.602478
  0
LINE
  8
0
  6
CENTER
 62
     2
 10
-419.439606
 20
229.602478
 11
-419.439606
 21
214.602478
  0
LINE
  8
0
  6
CENTER
 62
     2
 10
-426.939606
 20
222.102493
 11
-411.939606
 21
222.102493
  0
LINE
  8
0
 10
-425.439575
 20
244.602493
 11
-414.439575
 21
244.602493
  0
LINE
  8
0
 10
-425.439606
 20
180.602493
 11
-425.439606
 21
244.602493
  0
LINE
  8
0
  6
CENTER
 62
     2
 10
-419.439606
 20
210.602478
 11
-419.439606
 21
195.602478
  0
LINE
  8
0
  6
CENTER
 62
     2
 10
-426.939606
 20
203.102493
 11
-411.939606
 21
203.102493
  0
LINE
  8
0
 10
-425.439636
 20
180.602493
 11
-414.439636
 21
180.602493
  0
LINE
  8
0
 10
-301.811920
 20
244.502472
 11
-276.811920
 21
244.502472
  0
LINE
  8
0
  6
CENTER
 62
     2
 10
-294.812103
 20
235.518112
 11
-294.812103
 21
223.715851
  0
LINE
  8
0
 10
-276.812103
 20
244.502472
 11
-276.812103
 21
180.502487
  0
LINE
  8
0
 10
-301.811920
 20
180.502487
 11
-276.811920
 21
180.502487
  0
LINE
  8
0
  6
CENTER
 62
     2
 10
-300.902435
 20
229.502487
 11
-289.591919
 21
229.502487
  0
LINE
  8
0
  6
CENTER
 62
     2
 10
-280.812103
 20
189.784348
 11
-280.812103
 21
201.586609
  0
LINE
  8
0
  6
CENTER
 62
     2
 10
-286.149597
 20
195.502487
 11
-276.068512
 21
195.502487
  0
LINE
  8
0
 10
-301.812103
 20
244.502472
 11
-301.812103
 21
180.502487
  0
LINE
  8
0
 10
-282.312103
 20
194.836441
 11
-282.312103
 21
196.568497
  0
LINE
  8
0
 10
-279.312103
 20
194.836441
 11
-279.312103
 21
196.568497
  0
LINE
  8
0
 10
-280.812164
 20
193.970337
 11
-279.312134
 21
194.836380
  0
LINE
  8
0
 10
-282.312439
 20
196.568970
 11
-280.812469
 21
197.434967
  0
LINE
  8
0
 10
-282.312134
 20
194.836243
 11
-280.812103
 21
193.970215
  0
LINE
  8
0
 10
-280.812256
 20
197.434357
 11
-279.312225
 21
196.568329
  0
LINE
  8
0
 10
-280.812103
 20
191.702469
 11
-276.812103
 21
191.702469
  0
LINE
  8
0
 10
-280.812103
 20
199.702469
 11
-276.812103
 21
199.702469
  0
LINE
  8
0
 10
-294.812164
 20
231.434433
 11
-293.312164
 21
230.568405
  0
LINE
  8
0
 10
-296.312103
 20
228.836441
 11
-296.312103
 21
230.568497
  0
LINE
  8
0
 10
-293.312103
 20
228.836441
 11
-293.312103
 21
230.568497
  0
LINE
  8
0
 10
-294.812439
 20
227.970917
 11
-293.312469
 21
228.836929
  0
LINE
  8
0
 10
-296.312500
 20
230.569092
 11
-294.812500
 21
231.435120
  0
LINE
  8
0
 10
-296.312103
 20
228.836288
 11
-294.812073
 21
227.970291
  0
LINE
  8
0
  6
CENTER
 62
     2
 10
-294.812103
 20
199.202469
 11
-294.812103
 21
192.202469
  0
LINE
  8
0
  6
CENTER
 62
     2
 10
-294.312103
 20
214.102478
 11
-294.312103
 21
207.102478
  0
LINE
  8
0
  6
CENTER
 62
     2
 10
-297.812103
 20
210.602478
 11
-290.812103
 21
210.602478
  0
LINE
  8
0
  6
CENTER
 62
     2
 10
-298.312103
 20
195.702469
 11
-291.312103
 21
195.702469
  0
LINE
  8
0
  6
CENTER
 62
     2
 10
-282.812103
 20
218.102478
 11
-282.812103
 21
211.102478
  0
LINE
  8
0
  6
CENTER
 62
     2
 10
-286.312103
 20
214.602478
 11
-279.312103
 21
214.602478
  0
LINE
  8
0
  6
CENTER
 62
     2
 10
-280.812103
 20
233.202469
 11
-280.812103
 21
226.202469
  0
LINE
  8
0
  6
CENTER
 62
     2
 10
-284.312103
 20
229.702469
 11
-277.312103
 21
229.702469
  0
LINE
  8
0
 10
-425.439545
 20
79.909454
 11
-414.439697
 21
79.909454
  0
LINE
  8
0
 10
-414.439606
 20
79.909515
 11
-414.439606
 21
54.909508
  0
LINE
  8
0
 10
-425.439453
 20
79.909454
 11
-425.439453
 21
54.909447
  0
LINE
  8
0
 10
-425.439392
 20
54.909447
 11
-414.439545
 21
54.909447
  0
LINE
  8
0
 10
-426.439697
 20
-204.786377
 11
-426.439697
 21
-130.786377
  0
LINE
  8
0
 10
-426.439697
 20
-204.786377
 11
-415.439697
 21
-204.786377
  0
LINE
  8
0
 10
-415.439697
 20
-130.786377
 11
-415.439697
 21
-204.786377
  0
LINE
  8
0
  6
CENTER
 62
     2
 10
-427.939697
 20
-178.286377
 11
-412.939697
 21
-178.286377
  0
LINE
  8
0
  6
CENTER
 62
     2
 10
-427.939697
 20
-157.286377
 11
-412.939697
 21
-157.286377
  0
LINE
  8
0
  6
CENTER
 62
     2
 10
-420.439697
 20
-170.786377
 11
-420.439697
 21
-185.786377
  0
LINE
  8
0
  6
CENTER
 62
     2
 10
-420.439697
 20
-149.786377
 11
-420.439697
 21
-164.786377
  0
LINE
  8
0
 10
-426.439697
 20
-130.786377
 11
-415.439697
 21
-130.786377
  0
LINE
  8
0
 10
-303.564087
 20
-130.786377
 11
-274.564087
 21
-130.786377
  0
LINE
  8
0
 10
-280.064362
 20
-188.152466
 11
-280.064362
 21
-186.420410
  0
LINE
  8
0
 10
-277.064362
 20
-188.152466
 11
-277.064362
 21
-186.420410
  0
LINE
  8
0
 10
-278.564423
 20
-189.018509
 11
-277.064423
 21
-188.152466
  0
LINE
  8
0
 10
-280.064392
 20
-186.420425
 11
-278.564392
 21
-185.554382
  0
LINE
  8
0
 10
-280.064514
 20
-188.152832
 11
-278.564484
 21
-189.018845
  0
LINE
  8
0
 10
-278.564453
 20
-185.554810
 11
-277.064453
 21
-186.420853
  0
LINE
  8
0
 10
-303.564362
 20
-130.786377
 11
-303.564362
 21
-204.786377
  0
LINE
  8
0
 10
-303.564087
 20
-204.786377
 11
-274.564087
 21
-204.786377
  0
LINE
  8
0
  6
CENTER
 62
     2
 10
-278.564362
 20
-192.928741
 11
-278.564362
 21
-182.057556
  0
LINE
  8
0
  6
CENTER
 62
     2
 10
-283.396515
 20
-187.286407
 11
-272.772400
 21
-187.286407
  0
LINE
  8
0
  6
CENTER
 62
     2
 10
-296.564362
 20
-190.362534
 11
-296.564362
 21
-183.815689
  0
LINE
  8
0
  6
CENTER
 62
     2
 10
-293.226196
 20
-187.286407
 11
-299.765594
 21
-187.286407
  0
LINE
  8
0
  6
CENTER
 62
     2
 10
-278.564362
 20
-144.711853
 11
-278.564362
 21
-151.782410
  0
LINE
  8
0
  6
CENTER
 62
     2
 10
-282.088379
 20
-148.286407
 11
-274.726013
 21
-148.286407
  0
LINE
  8
0
  6
CENTER
 62
     2
 10
-296.564362
 20
-142.031769
 11
-296.564362
 21
-154.138321
  0
LINE
  8
0
  6
CENTER
 62
     2
 10
-290.314423
 20
-148.286407
 11
-302.915100
 21
-148.286407
  0
LINE
  8
0
 10
-296.564423
 20
-146.554825
 11
-295.064423
 21
-147.420853
  0
LINE
  8
0
 10
-298.064362
 20
-149.152405
 11
-298.064362
 21
-147.420349
  0
LINE
  8
0
 10
-295.064362
 20
-149.152405
 11
-295.064362
 21
-147.420349
  0
LINE
  8
0
 10
-296.564331
 20
-150.018356
 11
-295.064331
 21
-149.152328
  0
LINE
  8
0
 10
-298.064270
 20
-147.420273
 11
-296.564270
 21
-146.554245
  0
LINE
  8
0
 10
-298.064178
 20
-149.152512
 11
-296.564209
 21
-150.018509
  0
LINE
  8
0
 10
-278.564453
 20
-191.286407
 11
-274.564453
 21
-191.286407
  0
LINE
  8
0
 10
-278.564423
 20
-183.286407
 11
-274.564423
 21
-183.286407
  0
LINE
  8
0
  6
CENTER
 62
     2
 10
-285.064362
 20
-165.786392
 11
-278.064362
 21
-165.786392
  0
LINE
  8
0
  6
CENTER
 62
     2
 10
-297.064362
 20
-169.786392
 11
-290.064362
 21
-169.786392
  0
LINE
  8
0
  6
CENTER
 62
     2
 10
-293.564362
 20
-166.286377
 11
-293.564362
 21
-173.286377
  0
LINE
  8
0
  6
CENTER
 62
     2
 10
-281.564362
 20
-162.286407
 11
-281.564362
 21
-169.286407
  0
LINE
  8
0
 10
-274.564362
 20
-130.786377
 11
-274.564362
 21
-204.786377
  0
LINE
  8
0
 10
-426.439453
 20
-308.080139
 11
-426.439453
 21
-337.080139
  0
LINE
  8
0
 10
-426.439484
 20
-308.080139
 11
-415.439728
 21
-308.080139
  0
LINE
  8
0
 10
-415.439697
 20
-308.080109
 11
-415.439697
 21
-337.080109
  0
LINE
  8
0
 10
-426.439423
 20
-337.080139
 11
-415.439667
 21
-337.080139
  0
LINE
  8
0
 10
-55.990097
 20
248.629776
 11
-55.990097
 21
164.629776
  0
LINE
  8
0
 10
-55.990097
 20
248.629776
 11
-43.990219
 21
248.629776
  0
LINE
  8
0
 10
-43.990219
 20
248.629776
 11
-43.990219
 21
164.629776
  0
LINE
  8
0
 10
-55.990097
 20
164.629776
 11
-43.990219
 21
164.629776
  0
LINE
  8
0
  6
CENTER
 62
     2
 10
-56.990204
 20
219.129761
 11
-41.990204
 21
219.129761
  0
LINE
  8
0
  6
CENTER
 62
     2
 10
-49.490219
 20
226.629745
 11
-49.490219
 21
211.629745
  0
LINE
  8
0
  6
CENTER
 62
     2
 10
-49.490219
 20
201.629745
 11
-49.490219
 21
186.629745
  0
LINE
  8
0
  6
CENTER
 62
     2
 10
-56.990234
 20
194.129761
 11
-41.990234
 21
194.129761
  0
LINE
  8
0
 10
58.904488
 20
164.629807
 11
92.904495
 21
164.629807
  0
LINE
  8
0
 10
92.904495
 20
248.629807
 11
92.904495
 21
164.629807
  0
LINE
  8
0
 10
58.904488
 20
248.629807
 11
92.904495
 21
248.629807
  0
LINE
  8
0
 10
58.904491
 20
164.629807
 11
58.904491
 21
248.629807
  0
LINE
  8
0
 10
85.904533
 20
182.975143
 11
87.904510
 21
181.820450
  0
LINE
  8
0
 10
87.904434
 20
186.438995
 11
89.904427
 21
185.284302
  0
LINE
  8
0
 10
87.904510
 20
181.820374
 11
89.904518
 21
182.975067
  0
LINE
  8
0
 10
85.904587
 20
185.284454
 11
87.904572
 21
186.439133
  0
LINE
  8
0
 10
85.904480
 20
182.975082
 11
85.904480
 21
185.284470
  0
LINE
  8
0
 10
89.904480
 20
182.975082
 11
89.904480
 21
185.284470
  0
LINE
  8
0
 10
64.904617
 20
227.974899
 11
66.904610
 21
226.820206
  0
LINE
  8
0
 10
66.904572
 20
231.439056
 11
68.904564
 21
230.284363
  0
LINE
  8
0
 10
66.904655
 20
226.820282
 11
68.904686
 21
227.975006
  0
LINE
  8
0
 10
64.904625
 20
230.284439
 11
66.904617
 21
231.439133
  0
LINE
  8
0
 10
64.904572
 20
227.975082
 11
64.904572
 21
230.284470
  0
LINE
  8
0
 10
68.904572
 20
227.975082
 11
68.904572
 21
230.284470
  0
LINE
  8
0
 10
87.904480
 20
179.379776
 11
92.902939
 21
179.379776
  0
LINE
  8
0
 10
87.904480
 20
188.879776
 11
92.902939
 21
188.879776
  0
LINE
  8
0
  6
CENTER
 62
     2
 10
87.904480
 20
232.985535
 11
87.904480
 21
224.663406
  0
LINE
  8
0
  6
CENTER
 62
     2
 10
84.213348
 20
229.129776
 11
91.378052
 21
229.129776
  0
LINE
  8
0
  6
CENTER
 62
     2
 10
66.904572
 20
235.376114
 11
66.904572
 21
222.576508
  0
LINE
  8
0
  6
CENTER
 62
     2
 10
60.904224
 20
229.129776
 11
72.869080
 21
229.129776
  0
LINE
  8
0
  6
CENTER
 62
     2
 10
69.404572
 20
208.129791
 11
69.404572
 21
201.129791
  0
LINE
  8
0
  6
CENTER
 62
     2
 10
65.904572
 20
204.629791
 11
72.904572
 21
204.629791
  0
LINE
  8
0
  6
CENTER
 62
     2
 10
85.404480
 20
212.129791
 11
85.404480
 21
205.129791
  0
LINE
  8
0
  6
CENTER
 62
     2
 10
81.904480
 20
208.629791
 11
88.904480
 21
208.629791
  0
LINE
  8
0
  6
CENTER
 62
     2
 10
87.904480
 20
178.181290
 11
87.904480
 21
189.867905
  0
LINE
  8
0
  6
CENTER
 62
     2
 10
81.362198
 20
184.129776
 11
93.744431
 21
184.129776
  0
LINE
  8
0
  6
CENTER
 62
     2
 10
66.904572
 20
180.863388
 11
66.904572
 21
187.794327
  0
LINE
  8
0
  6
CENTER
 62
     2
 10
63.325352
 20
184.129776
 11
70.824402
 21
184.129776
  0
LINE
  8
0
 10
-55.990097
 20
86.563004
 11
-55.990097
 21
52.563004
  0
LINE
  8
0
 10
-43.990208
 20
86.563004
 11
-55.990086
 21
86.563004
  0
LINE
  8
0
 10
-43.990219
 20
86.562996
 11
-43.990219
 21
52.562996
  0
LINE
  8
0
 10
-43.990231
 20
52.563004
 11
-55.990108
 21
52.563004
  0
LINE
  8
0
 10
-64.990234
 20
-110.786392
 11
-64.990234
 21
-214.786392
  0
LINE
  8
0
 10
-64.990005
 20
-110.786392
 11
-50.990005
 21
-110.786392
  0
LINE
  8
0
 10
-50.990234
 20
-214.786453
 11
-50.990234
 21
-110.786453
  0
LINE
  8
0
 10
-64.990463
 20
-214.786392
 11
-50.990463
 21
-214.786392
  0
LINE
  8
0
  6
CENTER
 62
     2
 10
-64.990173
 20
-148.286392
 11
-49.990173
 21
-148.286392
  0
LINE
  8
0
  6
CENTER
 62
     2
 10
-57.490234
 20
-140.786423
 11
-57.490234
 21
-155.786423
  0
LINE
  8
0
  6
CENTER
 62
     2
 10
-57.490234
 20
-169.786423
 11
-57.490234
 21
-184.786423
  0
LINE
  8
0
  6
CENTER
 62
     2
 10
-64.990295
 20
-177.286392
 11
-49.990295
 21
-177.286392
  0
LINE
  8
0
 10
61.339149
 20
-110.786453
 11
61.339149
 21
-214.786453
  0
LINE
  8
0
 10
102.339180
 20
-110.786453
 11
102.339180
 21
-214.786453
  0
LINE
  8
0
 10
61.339279
 20
-110.786453
 11
102.339310
 21
-110.786453
  0
LINE
  8
0
  6
CENTER
 62
     2
 10
65.568710
 20
-189.786423
 11
75.024887
 21
-189.786423
  0
LINE
  8
0
  6
CENTER
 62
     2
 10
96.339180
 20
-196.662903
 11
96.339180
 21
-181.983917
  0
LINE
  8
0
  6
CENTER
 62
     2
 10
70.339149
 20
-195.984222
 11
70.339149
 21
-184.608185
  0
LINE
  8
0
  6
CENTER
 62
     2
 10
88.223846
 20
-189.786423
 11
104.077789
 21
-189.786423
  0
LINE
  8
0
 10
61.339279
 20
-214.786453
 11
102.339310
 21
-214.786453
  0
LINE
  8
0
  6
CENTER
 62
     2
 10
63.628986
 20
-135.786423
 11
76.984512
 21
-135.786423
  0
LINE
  8
0
  6
CENTER
 62
     2
 10
96.339180
 20
-130.762497
 11
96.339180
 21
-140.218658
  0
LINE
  8
0
  6
CENTER
 62
     2
 10
70.339149
 20
-128.413422
 11
70.339149
 21
-143.401306
  0
LINE
  8
0
  6
CENTER
 62
     2
 10
90.411240
 20
-135.786423
 11
102.517685
 21
-135.786423
  0
LINE
  8
0
 10
96.339294
 20
-192.673264
 11
98.839287
 21
-191.229889
  0
LINE
  8
0
 10
93.839188
 20
-188.342957
 11
96.339188
 21
-186.899582
  0
LINE
  8
0
 10
93.839157
 20
-191.229858
 11
96.339157
 21
-192.673233
  0
LINE
  8
0
 10
96.339142
 20
-186.899673
 11
98.839134
 21
-188.343048
  0
LINE
  8
0
 10
93.839180
 20
-191.229782
 11
93.839180
 21
-188.343033
  0
LINE
  8
0
 10
98.839180
 20
-191.229767
 11
98.839180
 21
-188.343018
  0
LINE
  8
0
 10
70.339226
 20
-138.673309
 11
72.839226
 21
-137.229935
  0
LINE
  8
0
 10
67.839172
 20
-134.343170
 11
70.339172
 21
-132.899796
  0
LINE
  8
0
 10
67.838997
 20
-137.230011
 11
70.339005
 21
-138.673386
  0
LINE
  8
0
 10
70.339027
 20
-132.899765
 11
72.839027
 21
-134.343140
  0
LINE
  8
0
 10
67.839149
 20
-137.229828
 11
67.839149
 21
-134.343079
  0
LINE
  8
0
 10
72.839149
 20
-137.229813
 11
72.839149
 21
-134.343063
  0
LINE
  8
0
 10
96.339233
 20
-195.536423
 11
102.339233
 21
-195.536423
  0
LINE
  8
0
 10
96.339218
 20
-184.036423
 11
102.339218
 21
-184.036423
  0
LINE
  8
0
  6
CENTER
 62
     2
 10
86.339172
 20
-160.786438
 11
98.339172
 21
-160.786438
  0
LINE
  8
0
  6
CENTER
 62
     2
 10
92.339180
 20
-154.786423
 11
92.339180
 21
-166.786423
  0
LINE
  8
0
  6
CENTER
 62
     2
 10
74.339180
 20
-158.786453
 11
74.339180
 21
-170.786453
  0
LINE
  8
0
  6
CENTER
 62
     2
 10
68.339188
 20
-164.786438
 11
80.339188
 21
-164.786438
  0
LINE
  8
0
 10
-64.990112
 20
-302.080139
 11
-64.990112
 21
-343.080139
  0
LINE
  8
0
 10
-64.989922
 20
-302.080139
 11
-50.990044
 21
-302.080139
  0
LINE
  8
0
 10
-50.990234
 20
-343.080261
 11
-50.990234
 21
-302.080261
  0
LINE
  8
0
 10
-64.990280
 20
-343.080139
 11
-50.990402
 21
-343.080139
  0
LINE
  8
0
  6
CENTER
 62
     2
 10
311.115631
 20
120.781929
 11
311.115631
 21
100.781929
  0
LINE
  8
0
 10
319.115631
 20
67.281937
 11
319.115631
 21
191.281937
  0
LINE
  8
0
  6
CENTER
 62
     2
 10
311.115631
 20
157.781921
 11
311.115631
 21
137.781921
  0
LINE
  8
0
  6
CENTER
 62
     2
 10
301.115662
 20
110.781921
 11
321.115662
 21
110.781921
  0
LINE
  8
0
 10
302.115692
 20
67.281921
 11
319.115692
 21
67.281921
  0
LINE
  8
0
  6
CENTER
 62
     2
 10
301.115601
 20
147.781921
 11
321.115601
 21
147.781921
  0
LINE
  8
0
 10
302.115631
 20
67.281921
 11
302.115631
 21
191.281921
  0
LINE
  8
0
 10
302.115570
 20
191.281921
 11
319.115570
 21
191.281921
  0
LINE
  8
0
 10
420.314575
 20
191.282074
 11
469.314575
 21
191.282074
  0
LINE
  8
0
 10
420.314514
 20
191.282074
 11
420.314514
 21
67.282059
  0
LINE
  8
0
 10
469.314514
 20
191.282074
 11
469.314514
 21
67.282059
  0
LINE
  8
0
  6
CENTER
 62
     2
 10
423.098663
 20
96.281929
 11
437.417206
 21
96.281929
  0
LINE
  8
0
  6
CENTER
 62
     2
 10
462.314514
 20
85.155449
 11
462.314514
 21
106.836571
  0
LINE
  8
0
  6
CENTER
 62
     2
 10
430.314514
 20
88.145470
 11
430.314514
 21
104.160057
  0
LINE
  8
0
  6
CENTER
 62
     2
 10
452.040558
 20
96.281929
 11
470.268524
 21
96.281929
  0
LINE
  8
0
 10
420.314575
 20
67.282059
 11
469.314575
 21
67.282059
  0
LINE
  8
0
  6
CENTER
 62
     2
 10
418.850006
 20
162.281952
 11
440.798798
 21
162.281952
  0
LINE
  8
0
  6
CENTER
 62
     2
 10
462.314514
 20
168.323425
 11
462.314514
 21
155.819885
  0
LINE
  8
0
  6
CENTER
 62
     2
 10
430.314514
 20
172.683136
 11
430.314514
 21
152.608032
  0
LINE
  8
0
  6
CENTER
 62
     2
 10
455.585114
 20
162.281952
 11
469.853302
 21
162.281952
  0
LINE
  8
0
 10
462.314453
 20
92.817535
 11
465.314453
 21
94.549591
  0
LINE
  8
0
 10
459.314362
 20
98.013626
 11
462.314362
 21
99.745689
  0
LINE
  8
0
 10
459.314209
 20
94.550148
 11
462.314240
 21
92.818100
  0
LINE
  8
0
 10
462.314270
 20
99.746246
 11
465.314270
 21
98.014191
  0
LINE
  8
0
 10
459.314514
 20
94.549812
 11
459.314514
 21
98.013924
  0
LINE
  8
0
 10
465.314514
 20
94.549782
 11
465.314514
 21
98.013893
  0
LINE
  8
0
 10
430.314819
 20
158.817719
 11
433.314819
 21
160.549789
  0
LINE
  8
0
 10
427.314941
 20
164.013840
 11
430.314941
 21
165.745895
  0
LINE
  8
0
 10
427.314453
 20
160.549942
 11
430.314514
 21
158.817871
  0
LINE
  8
0
 10
430.314545
 20
165.746109
 11
433.314575
 21
164.014084
  0
LINE
  8
0
 10
427.314514
 20
160.549988
 11
427.314514
 21
164.014099
  0
LINE
  8
0
 10
433.314514
 20
160.549957
 11
433.314514
 21
164.014069
  0
LINE
  8
0
 10
462.314331
 20
89.031929
 11
469.314331
 21
89.031929
  0
LINE
  8
0
 10
462.314392
 20
103.531929
 11
469.314392
 21
103.531929
  0
LINE
  8
0
  6
CENTER
 62
     2
 10
428.114502
 20
127.281990
 11
442.514496
 21
127.281990
  0
LINE
  8
0
  6
CENTER
 62
     2
 10
450.114471
 20
131.281982
 11
464.514496
 21
131.281982
  0
LINE
  8
0
  6
CENTER
 62
     2
 10
435.314514
 20
134.482056
 11
435.314514
 21
120.082054
  0
LINE
  8
0
  6
CENTER
 62
     2
 10
457.314514
 20
138.481934
 11
457.314514
 21
124.081924
  0
LINE
  8
0
 10
302.115723
 20
-54.516319
 11
302.115723
 21
-103.516327
  0
LINE
  8
0
 10
302.115753
 20
-54.516319
 11
319.115662
 21
-54.516319
  0
LINE
  8
0
 10
319.115631
 20
-103.516342
 11
319.115631
 21
-54.516335
  0
LINE
  8
0
 10
302.115692
 20
-103.516327
 11
319.115601
 21
-103.516327
  0
LINE
  8
0
 10
574.500000
 20
400.500000
 11
574.500000
 21
-400.500000
  0
LINE
  8
0
 10
-564.500000
 20
400.500000
 11
574.500000
 21
400.500000
  0
LINE
  8
0
 10
-564.500000
 20
-400.500000
 11
574.500000
 21
-400.500000
  0
LINE
  8
0
 10
-564.500000
 20
400.500000
 11
-564.500000
 21
-400.500000
  0
LINE
  8
0
 10
-564.500000
 20
370.500000
 11
-334.500000
 21
370.500000
  0
LINE
  8
0
 10
344.500000
 20
370.500000
 11
574.500000
 21
370.500000
  0
LINE
  8
0
 10
344.500000
 20
-370.500000
 11
574.500000
 21
-370.500000
  0
LINE
  8
0
 10
344.500000
 20
-370.500000
 11
344.500000
 21
-400.500000
  0
LINE
  8
0
 10
344.500000
 20
400.500000
 11
344.500000
 21
370.500000
  0
LINE
  8
0
 10
-334.500000
 20
400.500000
 11
-334.500000
 21
370.500000
  0
LINE
  8
0
 10
-564.500000
 20
0.000000
 11
194.833313
 21
0.000000
  0
LINE
  8
0
  6
PHANTOM
 62
     1
 10
-425.439453
 20
263.602509
 11
-425.439453
 21
244.602509
  0
LINE
  8
0
  6
PHANTOM
 62
     1
 10
-436.439453
 20
263.602509
 11
-436.439453
 21
244.602509
  0
LINE
  8
0
  6
CENTER
 62
     2
 10
-481.589233
 20
212.602509
 11
-410.952698
 21
212.602509
  0
LINE
  8
0
  6
PHANTOM
 62
     2
 10
-436.439453
 20
244.602509
 11
-425.439453
 21
244.602509
  0
LINE
  8
0
  6
PHANTOM
 62
     2
 10
-436.439453
 20
180.602509
 11
-425.439453
 21
180.602509
  0
LINE
  8
0
  6
PHANTOM
 62
     2
 10
-469.435852
 20
180.802505
 11
-436.439453
 21
180.802505
  0
LINE
  8
0
  6
PHANTOM
 62
     2
 10
-469.435852
 20
244.402527
 11
-436.439453
 21
244.402527
  0
LINE
  8
0
  6
PHANTOM
 62
     1
 10
-469.435852
 20
263.402527
 11
-436.439453
 21
263.402527
  0
LINE
  8
0
  6
PHANTOM
 62
     1
 10
-436.439453
 20
263.602509
 11
-425.439453
 21
263.602509
  0
LINE
  8
0
  6
CENTER
 62
     1
 10
-478.550873
 20
252.102509
 11
-421.084534
 21
252.102509
  0
LINE
  8
0
  6
PHANTOM
 62
     1
 10
-424.439453
 20
257.102539
 11
-424.439453
 21
247.102509
  0
LINE
  8
0
  6
PHANTOM
 62
     1
 10
-425.439972
 20
246.102997
 11
-424.439972
 21
247.102997
  0
LINE
  8
0
  6
PHANTOM
 62
     1
 10
-425.439453
 20
247.102509
 11
-424.439453
 21
247.102509
  0
LINE
  8
0
  6
CENTER
 62
     2
 10
-482.348816
 20
65.909447
 11
-412.263611
 21
65.909447
  0
LINE
  8
0
  6
PHANTOM
 62
     2
 10
-436.439453
 20
54.909447
 11
-425.439453
 21
54.909447
  0
LINE
  8
0
  6
PHANTOM
 62
     2
 10
-469.435852
 20
55.109444
 11
-436.439453
 21
55.109444
  0
LINE
  8
0
  6
PHANTOM
 62
     2
 10
-436.439453
 20
81.909454
 11
-436.439453
 21
54.909447
  0
LINE
  8
0
  6
PHANTOM
 62
     2
 10
-425.439453
 20
81.909454
 11
-425.439453
 21
79.909454
  0
LINE
  8
0
  6
PHANTOM
 62
     2
 10
-469.435852
 20
79.709442
 11
-436.439453
 21
79.709442
  0
LINE
  8
0
  6
PHANTOM
 62
     2
 10
-469.435852
 20
81.709442
 11
-436.439453
 21
81.709442
  0
LINE
  8
0
  6
PHANTOM
 62
     2
 10
-436.439453
 20
81.909454
 11
-425.439453
 21
81.909454
  0
LINE
  8
0
  6
PHANTOM
 62
     2
 10
-436.439453
 20
79.909454
 11
-425.439453
 21
79.909454
  0
LINE
  8
0
  6
PHANTOM
 62
     2
 10
-301.811005
 20
224.401855
 11
-303.811005
 21
222.401855
  0
LINE
  8
0
  6
PHANTOM
 62
     2
 10
-303.811707
 20
222.402512
 11
-303.811707
 21
202.602509
  0
LINE
  8
0
  6
PHANTOM
 62
     2
 10
-303.811523
 20
202.602524
 11
-301.811523
 21
200.602524
  0
LINE
  8
0
  6
PHANTOM
 62
     1
 10
-301.811707
 20
263.502502
 11
-276.811707
 21
263.502502
  0
LINE
  8
0
  6
PHANTOM
 62
     1
 10
-301.811707
 20
244.502472
 11
-301.811707
 21
263.502502
  0
LINE
  8
0
  6
PHANTOM
 62
     1
 10
-276.811707
 20
263.502502
 11
-276.811707
 21
244.502472
  0
LINE
  8
0
  6
CENTER
 62
     1
 10
-295.770325
 20
252.002502
 11
-281.881897
 21
252.002502
  0
LINE
  8
0
  6
CENTER
 62
     1
 10
-289.111694
 20
259.084045
 11
-289.111694
 21
245.009033
  0
LINE
  8
0
  6
PHANTOM
 62
     1
 10
-426.439453
 20
-109.786377
 11
-426.439453
 21
-130.786377
  0
LINE
  8
0
  6
PHANTOM
 62
     1
 10
-437.439453
 20
-109.786377
 11
-437.439453
 21
-130.786377
  0
LINE
  8
0
  6
PHANTOM
 62
     2
 10
-470.435852
 20
-130.986374
 11
-437.439453
 21
-130.986374
  0
LINE
  8
0
  6
PHANTOM
 62
     2
 10
-470.435852
 20
-204.586380
 11
-437.439453
 21
-204.586380
  0
LINE
  8
0
  6
PHANTOM
 62
     2
 10
-437.439453
 20
-130.786377
 11
-426.439453
 21
-130.786377
  0
LINE
  8
0
  6
PHANTOM
 62
     2
 10
-437.439453
 20
-204.786377
 11
-426.439453
 21
-204.786377
  0
LINE
  8
0
  6
CENTER
 62
     2
 10
-480.719757
 20
-167.786377
 11
-410.327026
 21
-167.786377
  0
LINE
  8
0
  6
PHANTOM
 62
     1
 10
-470.435852
 20
-109.986374
 11
-437.439453
 21
-109.986374
  0
LINE
  8
0
  6
PHANTOM
 62
     1
 10
-437.439453
 20
-109.786377
 11
-426.439453
 21
-109.786377
  0
LINE
  8
0
  6
CENTER
 62
     1
 10
-470.435852
 20
-122.786377
 11
-414.311157
 21
-122.786377
  0
LINE
  8
0
  6
PHANTOM
 62
     1
 10
-418.439453
 20
-116.786377
 11
-418.439453
 21
-128.786377
  0
LINE
  8
0
  6
PHANTOM
 62
     1
 10
-426.439453
 20
-115.786377
 11
-419.439453
 21
-115.786377
  0
LINE
  8
0
  6
PHANTOM
 62
     1
 10
-426.439453
 20
-129.786377
 11
-419.439453
 21
-129.786377
  0
LINE
  8
0
  6
PHANTOM
 62
     1
 10
-426.439453
 20
-116.786377
 11
-418.439453
 21
-116.786377
  0
LINE
  8
0
  6
PHANTOM
 62
     1
 10
-426.439453
 20
-128.786377
 11
-418.439453
 21
-128.786377
  0
LINE
  8
0
  6
PHANTOM
 62
     1
 10
-419.439331
 20
-115.786293
 11
-418.439331
 21
-116.786293
  0
LINE
  8
0
  6
PHANTOM
 62
     1
 10
-418.439392
 20
-128.786423
 11
-419.439392
 21
-129.786438
  0
LINE
  8
0
  6
PHANTOM
 62
     1
 10
-419.439453
 20
-129.786377
 11
-419.439453
 21
-115.786377
  0
LINE
  8
0
  6
CENTER
 62
     2
 10
-125.676544
 20
-162.786377
 11
-40.490097
 21
-162.786377
  0
LINE
  8
0
  6
PHANTOM
 62
     2
 10
-80.990097
 20
-110.786377
 11
-64.990097
 21
-110.786377
  0
LINE
  8
0
  6
PHANTOM
 62
     2
 10
-116.986679
 20
-110.986374
 11
-80.990097
 21
-110.986374
  0
LINE
  8
0
  6
PHANTOM
 62
     2
 10
-80.990097
 20
-214.786377
 11
-80.990097
 21
-110.786377
  0
LINE
  8
0
  6
PHANTOM
 62
     2
 10
-80.990097
 20
-214.786377
 11
-64.990097
 21
-214.786377
  0
LINE
  8
0
  6
PHANTOM
 62
     2
 10
-116.986679
 20
-214.586380
 11
-80.990097
 21
-214.586380
  0
LINE
  8
0
  6
PHANTOM
 62
     1
 10
-64.990097
 20
-110.786377
 11
-64.990097
 21
-81.786377
  0
LINE
  8
0
  6
PHANTOM
 62
     1
 10
-103.664696
 20
-81.986374
 11
-80.990097
 21
-81.986374
  0
LINE
  8
0
  6
PHANTOM
 62
     1
 10
-80.990097
 20
-81.786377
 11
-64.990097
 21
-81.786377
  0
LINE
  8
0
  6
PHANTOM
 62
     1
 10
-64.990097
 20
-108.786377
 11
-51.990097
 21
-108.786377
  0
LINE
  8
0
  6
PHANTOM
 62
     1
 10
-64.990097
 20
-88.786377
 11
-51.990097
 21
-88.786377
  0
LINE
  8
0
  6
PHANTOM
 62
     1
 10
-64.990097
 20
-107.786377
 11
-50.990097
 21
-107.786377
  0
LINE
  8
0
  6
PHANTOM
 62
     1
 10
-64.990097
 20
-89.786377
 11
-50.990097
 21
-89.786377
  0
LINE
  8
0
  6
PHANTOM
 62
     1
 10
-50.990097
 20
-107.786377
 11
-50.990097
 21
-89.786377
  0
LINE
  8
0
  6
PHANTOM
 62
     1
 10
-51.990120
 20
-88.786392
 11
-50.990120
 21
-89.786385
  0
LINE
  8
0
  6
PHANTOM
 62
     1
 10
-50.990105
 20
-107.786354
 11
-51.990108
 21
-108.786354
  0
LINE
  8
0
  6
PHANTOM
 62
     1
 10
-51.990097
 20
-108.786377
 11
-51.990097
 21
-88.786377
  0
LINE
  8
0
  6
PHANTOM
 62
     1
 10
286.115723
 20
222.281921
 11
286.115723
 21
191.281921
  0
LINE
  8
0
  6
PHANTOM
 62
     2
 10
286.115723
 20
191.281921
 11
302.115723
 21
191.281921
  0
LINE
  8
0
  6
PHANTOM
 62
     2
 10
246.115723
 20
191.081909
 11
286.115723
 21
191.081909
  0
LINE
  8
0
  6
CENTER
 62
     2
 10
232.483856
 20
129.281906
 11
321.115723
 21
129.281906
  0
LINE
  8
0
  6
PHANTOM
 62
     1
 10
302.115723
 20
191.281921
 11
302.115723
 21
222.281921
  0
LINE
  8
0
  6
PHANTOM
 62
     2
 10
286.115723
 20
67.281906
 11
302.115723
 21
67.281906
  0
LINE
  8
0
  6
PHANTOM
 62
     2
 10
246.115723
 20
67.481903
 11
286.115723
 21
67.481903
  0
LINE
  8
0
  6
PHANTOM
 62
     1
 10
264.799805
 20
222.081909
 11
286.115723
 21
222.081909
  0
LINE
  8
0
  6
PHANTOM
 62
     1
 10
286.115723
 20
222.281921
 11
302.115723
 21
222.281921
  0
LINE
  8
0
  6
CENTER
 62
     1
 10
263.380066
 20
204.281921
 11
330.031311
 21
204.281921
  0
LINE
  8
0
  6
PHANTOM
 62
     1
 10
302.115723
 20
193.281921
 11
318.115723
 21
193.281921
  0
LINE
  8
0
  6
PHANTOM
 62
     1
 10
302.115723
 20
215.281921
 11
318.115723
 21
215.281921
  0
LINE
  8
0
  6
PHANTOM
 62
     1
 10
302.115723
 20
194.281921
 11
319.115723
 21
194.281921
  0
LINE
  8
0
  6
PHANTOM
 62
     1
 10
302.115723
 20
214.281921
 11
319.115723
 21
214.281921
  0
LINE
  8
0
  6
PHANTOM
 62
     1
 10
319.115723
 20
214.281921
 11
319.115723
 21
194.281921
  0
LINE
  8
0
  6
PHANTOM
 62
     1
 10
318.114349
 20
215.280716
 11
319.114349
 21
214.280746
  0
LINE
  8
0
  6
PHANTOM
 62
     1
 10
319.115601
 20
194.281952
 11
318.115631
 21
193.281967
  0
LINE
  8
0
  6
PHANTOM
 62
     1
 10
318.115723
 20
193.281921
 11
318.115723
 21
215.281921
  0
LINE
  8
0
  6
CENTER
 62
     2
 10
-480.719757
 20
-324.080139
 11
-409.327026
 21
-324.080139
  0
LINE
  8
0
  6
PHANTOM
 62
     2
 10
-437.439453
 20
-306.080139
 11
-437.439453
 21
-337.080139
  0
LINE
  8
0
  6
PHANTOM
 62
     2
 10
-426.439453
 20
-306.080139
 11
-426.439453
 21
-308.080139
  0
LINE
  8
0
  6
PHANTOM
 62
     2
 10
-470.435852
 20
-308.280151
 11
-437.439453
 21
-308.280151
  0
LINE
  8
0
  6
PHANTOM
 62
     2
 10
-470.435852
 20
-336.880127
 11
-437.439453
 21
-336.880127
  0
LINE
  8
0
  6
PHANTOM
 62
     2
 10
-437.439453
 20
-337.080139
 11
-426.439453
 21
-337.080139
  0
LINE
  8
0
  6
PHANTOM
 62
     2
 10
-437.439453
 20
-308.080139
 11
-426.439453
 21
-308.080139
  0
LINE
  8
0
  6
PHANTOM
 62
     2
 10
-470.435852
 20
-306.280151
 11
-437.439453
 21
-306.280151
  0
LINE
  8
0
  6
PHANTOM
 62
     2
 10
-437.439453
 20
-306.080139
 11
-426.439453
 21
-306.080139
  0
LINE
  8
0
  6
CENTER
 62
     2
 10
-307.677002
 20
-167.786377
 11
-272.010620
 21
-167.786377
  0
LINE
  8
0
  6
CENTER
 62
     2
 10
-287.564087
 20
-128.527771
 11
-287.564087
 21
-207.572937
  0
LINE
  8
0
  6
PHANTOM
 62
     2
 10
-305.564148
 20
-157.786285
 11
-303.564178
 21
-155.786316
  0
LINE
  8
0
  6
PHANTOM
 62
     2
 10
-305.564484
 20
-177.786728
 11
-303.564484
 21
-179.786713
  0
LINE
  8
0
  6
PHANTOM
 62
     2
 10
-305.564087
 20
-177.786377
 11
-305.564087
 21
-157.786377
  0
LINE
  8
0
  6
PHANTOM
 62
     1
 10
-303.564087
 20
-109.786377
 11
-274.564087
 21
-109.786377
  0
LINE
  8
0
  6
PHANTOM
 62
     1
 10
-303.564087
 20
-109.786377
 11
-303.564087
 21
-130.786377
  0
LINE
  8
0
  6
PHANTOM
 62
     1
 10
-274.564087
 20
-130.786377
 11
-274.564087
 21
-109.786377
  0
LINE
  8
0
  6
CENTER
 62
     1
 10
-297.481903
 20
-122.786377
 11
-280.194122
 21
-122.786377
  0
LINE
  8
0
  6
CENTER
 62
     2
 10
55.552422
 20
-162.786407
 11
105.924255
 21
-162.786407
  0
LINE
  8
0
  6
CENTER
 62
     2
 10
83.339279
 20
-107.333336
 11
83.339279
 21
-222.173340
  0
LINE
  8
0
  6
PHANTOM
 62
     2
 10
59.339279
 20
-152.786453
 11
59.339279
 21
-172.787109
  0
LINE
  8
0
  6
PHANTOM
 62
     2
 10
59.339520
 20
-152.786819
 11
61.339512
 21
-150.786819
  0
LINE
  8
0
  6
PHANTOM
 62
     2
 10
59.339001
 20
-172.786835
 11
61.339005
 21
-174.786835
  0
LINE
  8
0
  6
PHANTOM
 62
     1
 10
61.339279
 20
-81.786407
 11
102.339310
 21
-81.786407
  0
LINE
  8
0
  6
PHANTOM
 62
     1
 10
102.339310
 20
-81.786407
 11
102.339310
 21
-110.786453
  0
LINE
  8
0
  6
PHANTOM
 62
     1
 10
61.339279
 20
-81.786407
 11
61.339279
 21
-110.786453
  0
LINE
  8
0
  6
CENTER
 62
     1
 10
-120.500000
 20
-98.786407
 11
-48.166668
 21
-98.786407
  0
LINE
  8
0
  6
CENTER
 62
     1
 10
82.039291
 20
-87.101746
 11
82.039291
 21
-110.364883
  0
LINE
  8
0
  6
PHANTOM
 62
     2
 10
-64.990112
 20
-302.080139
 11
-64.990112
 21
-300.080078
  0
LINE
  8
0
  6
PHANTOM
 62
     2
 10
-80.990112
 20
-300.080078
 11
-80.990112
 21
-343.080078
  0
LINE
  8
0
  6
CENTER
 62
     2
 10
-128.988129
 20
-324.080139
 11
-46.638840
 21
-324.080139
  0
LINE
  8
0
  6
PHANTOM
 62
     2
 10
-116.986679
 20
-302.280090
 11
-80.990112
 21
-302.280090
  0
LINE
  8
0
  6
PHANTOM
 62
     2
 10
-80.990112
 20
-302.080139
 11
-64.990112
 21
-302.080139
  0
LINE
  8
0
  6
PHANTOM
 62
     2
 10
-116.986679
 20
-300.280090
 11
-80.990112
 21
-300.280090
  0
LINE
  8
0
  6
PHANTOM
 62
     2
 10
-80.990112
 20
-300.080139
 11
-64.990112
 21
-300.080139
  0
LINE
  8
0
  6
PHANTOM
 62
     2
 10
418.314575
 20
139.081909
 11
418.314575
 21
119.481903
  0
LINE
  8
0
  6
PHANTOM
 62
     2
 10
418.315002
 20
139.081497
 11
420.315002
 21
141.081497
  0
LINE
  8
0
  6
PHANTOM
 62
     2
 10
418.313873
 20
119.481308
 11
420.313843
 21
117.481323
  0
LINE
  8
0
  6
PHANTOM
 62
     1
 10
420.314575
 20
222.281921
 11
469.314575
 21
222.281921
  0
LINE
  8
0
  6
PHANTOM
 62
     1
 10
420.314575
 20
222.281921
 11
420.314575
 21
191.282089
  0
LINE
  8
0
  6
PHANTOM
 62
     1
 10
469.314575
 20
222.281921
 11
469.314575
 21
191.282089
  0
LINE
  8
0
  6
CENTER
 62
     1
 10
431.154907
 20
204.281921
 11
459.049622
 21
204.281921
  0
LINE
  8
0
  6
CENTER
 62
     1
 10
445.014526
 20
217.571777
 11
445.014526
 21
191.913376
  0
LINE
  8
0
  6
PHANTOM
 62
     2
 10
286.115723
 20
-54.516319
 11
302.115723
 21
-54.516319
  0
LINE
  8
0
  6
PHANTOM
 62
     2
 10
302.115723
 20
-52.516319
 11
302.115723
 21
-54.516319
  0
LINE
  8
0
  6
PHANTOM
 62
     2
 10
286.115723
 20
-52.516319
 11
286.115723
 21
-103.516327
  0
LINE
  8
0
  6
CENTER
 62
     2
 10
230.979797
 20
-80.516327
 11
322.170746
 21
-80.516327
  0
LINE
  8
0
  6
PHANTOM
 62
     2
 10
286.115723
 20
-103.516327
 11
302.115723
 21
-103.516327
  0
LINE
  8
0
  6
PHANTOM
 62
     2
 10
246.115723
 20
-103.316345
 11
286.115723
 21
-103.316345
  0
LINE
  8
0
  6
PHANTOM
 62
     2
 10
246.115723
 20
-54.716331
 11
286.115723
 21
-54.716331
  0
LINE
  8
0
  6
PHANTOM
 62
     2
 10
246.115723
 20
-52.716331
 11
286.115723
 21
-52.716331
  0
LINE
  8
0
  6
PHANTOM
 62
     2
 10
286.115723
 20
-52.516319
 11
302.115723
 21
-52.516319
  0
LINE
  8
0
  6
PHANTOM
 62
     2
 10
-80.990112
 20
-343.080139
 11
-64.990112
 21
-343.080139
  0
LINE
  8
0
  6
PHANTOM
 62
     2
 10
-116.986679
 20
-342.880127
 11
-80.990112
 21
-342.880127
  0
LINE
  8
0
  6
PHANTOM
 62
     2
 10
-469.435852
 20
265.353973
 11
-469.435852
 21
176.518219
  0
LINE
  8
0
  6
PHANTOM
 62
     2
 10
-469.435852
 20
85.663086
 11
-469.435852
 21
51.594910
  0
LINE
  8
0
  6
PHANTOM
 62
     2
 10
-116.986679
 20
-105.970329
 11
-116.986679
 21
-221.290817
  0
LINE
  8
0
  6
PHANTOM
 62
     2
 10
-116.986679
 20
-292.068268
 11
-116.986679
 21
-349.468872
  0
LINE
  8
0
  6
PHANTOM
 62
     2
 10
-470.435852
 20
-105.383469
 11
-470.435852
 21
-213.702057
  0
LINE
  8
0
  6
PHANTOM
 62
     2
 10
-470.435852
 20
-298.333313
 11
-470.435852
 21
-350.000000
  0
LINE
  8
0
  6
PHANTOM
 62
     2
 10
246.115723
 20
191.081909
 11
246.115723
 21
59.738873
  0
LINE
  8
0
  6
PHANTOM
 62
     2
 10
246.115723
 20
-45.970329
 11
246.115723
 21
-109.994064
  0
LINE
  8
0
  6
CENTER
 62
     2
 10
-307.453674
 20
212.602509
 11
-272.911713
 21
212.602509
  0
LINE
  8
0
  6
CENTER
 62
     2
 10
-287.811859
 20
246.925781
 11
-287.811859
 21
179.131332
  0
LINE
  8
0
  6
CENTER
 62
     2
 10
414.865387
 20
129.281952
 11
476.198730
 21
129.281952
  0
LINE
  8
0
  6
CENTER
 62
     2
 10
446.314514
 20
193.200089
 11
446.314514
 21
59.527184
  0
LINE
  8
0
  6
CENTER
 62
     1
 10
69.833328
 20
-98.786407
 11
94.392731
 21
-98.786407
  0
LINE
  8
0
  6
CENTER
 62
     1
 10
-288.864105
 20
-112.757919
 11
-288.864105
 21
-130.286377
  0
LINE
  8
0
  6
CENTER
 62
     2
 10
-115.990250
 20
206.629776
 11
-39.299988
 21
206.629776
  0
LINE
  8
0
  6
CENTER
 62
     2
 10
77.404572
 20
252.296829
 11
77.404572
 21
161.014114
  0
LINE
  8
0
  6
CENTER
 62
     2
 10
54.171875
 20
206.629776
 11
95.697845
 21
206.629776
  0
LINE
  8
0
  6
CENTER
 62
     2
 10
-38.218658
 20
68.063004
 11
-115.990250
 21
68.063004
  0
LINE
  8
0
  6
PHANTOM
 62
     1
 10
-55.990265
 20
265.629761
 11
-45.990143
 21
265.629761
  0
LINE
  8
0
  6
PHANTOM
 62
     1
 10
-55.990265
 20
264.629456
 11
-44.989845
 21
264.629456
  0
LINE
  8
0
  6
PHANTOM
 62
     2
 10
-66.990379
 20
88.563019
 11
-55.990341
 21
88.563019
  0
LINE
  8
0
  6
PHANTOM
 62
     2
 10
-105.990250
 20
88.363029
 11
-66.990379
 21
88.363029
  0
LINE
  8
0
  6
PHANTOM
 62
     2
 10
-105.990250
 20
86.363022
 11
-66.990379
 21
86.363022
  0
LINE
  8
0
  6
PHANTOM
 62
     2
 10
-105.990250
 20
52.763031
 11
-66.990379
 21
52.763031
  0
LINE
  8
0
  6
PHANTOM
 62
     2
 10
-66.990379
 20
86.563019
 11
-55.990341
 21
86.563019
  0
LINE
  8
0
  6
PHANTOM
 62
     2
 10
-66.990379
 20
52.563019
 11
-55.990341
 21
52.563019
  0
LINE
  8
0
  6
PHANTOM
 62
     2
 10
-105.990250
 20
248.429794
 11
-66.990273
 21
248.429794
  0
LINE
  8
0
  6
PHANTOM
 62
     2
 10
-66.990257
 20
248.629791
 11
-55.990288
 21
248.629791
  0
LINE
  8
0
  6
PHANTOM
 62
     2
 10
-105.990250
 20
164.829803
 11
-66.990273
 21
164.829803
  0
LINE
  8
0
  6
PHANTOM
 62
     2
 10
-66.990257
 20
164.629807
 11
-55.990288
 21
164.629807
  0
LINE
  8
0
  6
PHANTOM
 62
     1
 10
-105.990250
 20
271.429871
 11
-66.990273
 21
271.429871
  0
LINE
  8
0
  6
PHANTOM
 62
     1
 10
-66.990257
 20
271.629883
 11
-55.990288
 21
271.629883
  0
LINE
  8
0
  6
PHANTOM
 62
     2
 10
-66.990257
 20
164.629807
 11
-66.990257
 21
248.629791
  0
LINE
  8
0
  6
PHANTOM
 62
     1
 10
-55.990219
 20
271.629883
 11
-55.990219
 21
248.629791
  0
LINE
  8
0
  6
PHANTOM
 62
     1
 10
-55.990265
 20
249.629822
 11
-45.990143
 21
249.629822
  0
LINE
  8
0
  6
PHANTOM
 62
     1
 10
-44.989807
 20
264.629547
 11
-44.989807
 21
250.630127
  0
LINE
  8
0
  6
PHANTOM
 62
     1
 10
-44.989994
 20
250.630264
 11
-45.990303
 21
249.629959
  0
LINE
  8
0
  6
PHANTOM
 62
     1
 10
-55.990265
 20
250.630127
 11
-44.989845
 21
250.630127
  0
LINE
  8
0
  6
PHANTOM
 62
     1
 10
-45.990097
 20
249.629807
 11
-45.990097
 21
265.629761
  0
LINE
  8
0
  6
PHANTOM
 62
     2
 10
-105.990250
 20
93.363029
 11
-105.990250
 21
47.763031
  0
LINE
  8
0
  6
PHANTOM
 62
     2
 10
-105.990250
 20
276.429871
 11
-105.990250
 21
159.829803
  0
LINE
  8
0
  6
PHANTOM
 62
     2
 10
-55.990341
 20
88.563019
 11
-55.990341
 21
86.563019
  0
LINE
  8
0
  6
PHANTOM
 62
     2
 10
-66.990379
 20
88.563019
 11
-66.990379
 21
52.563019
  0
LINE
  8
0
  6
PHANTOM
 62
     1
 10
-44.989735
 20
264.629578
 11
-45.990036
 21
265.629883
  0
LINE
  8
0
  6
CENTER
 62
     1
 10
-110.990250
 20
257.629791
 11
-39.514687
 21
257.629791
  0
LINE
  8
0
  6
CENTER
 62
     1
 10
64.950577
 20
257.629791
 11
86.553391
 21
257.629791
  0
LINE
  8
0
  6
CENTER
 62
     1
 10
75.904495
 20
267.353271
 11
75.904495
 21
249.016052
  0
LINE
  8
0
  6
PHANTOM
 62
     1
 10
58.904488
 20
271.629944
 11
92.904495
 21
271.629944
  0
LINE
  8
0
  6
PHANTOM
 62
     1
 10
92.904495
 20
271.629944
 11
92.904495
 21
248.629807
  0
LINE
  8
0
  6
PHANTOM
 62
     1
 10
58.904488
 20
271.629944
 11
58.904488
 21
248.629807
  0
LINE
  8
0
  6
PHANTOM
 62
     2
 10
56.904419
 20
196.629776
 11
58.904415
 21
194.629776
  0
LINE
  8
0
  6
PHANTOM
 62
     2
 10
56.904503
 20
216.629807
 11
56.904503
 21
196.629807
  0
LINE
  8
0
  6
PHANTOM
 62
     2
 10
56.904560
 20
216.629837
 11
58.904564
 21
218.629837
  0
LINE
  8
0
  6
PHANTOM
 62
     1
 10
-425.439453
 20
257.102509
 11
-424.439453
 21
257.102509
  0
LINE
  8
0
  6
PHANTOM
 62
     1
 10
-425.439972
 20
258.102081
 11
-424.439941
 21
257.102051
  0
LINE
  8
0
 10
-184.833344
 20
400.500000
 11
-184.833344
 21
-400.500000
  0
LINE
  8
0
 10
194.833313
 20
400.500000
 11
194.833313
 21
-400.500000
  0
LINE
  8
0
  6
PHANTOM
 62
     2
 10
-437.439453
 20
-130.786377
 11
-437.439453
 21
-204.786377
  0
LINE
  8
0
  6
PHANTOM
 62
     1
 10
-80.990097
 20
-110.786377
 11
-80.990097
 21
-81.786377
  0
LINE
  8
0
  6
PHANTOM
 62
     2
 10
286.115723
 20
191.281921
 11
286.115723
 21
67.281906
  0
LINE
  8
0
  6
PHANTOM
 62
     1
 10
-66.990257
 20
248.629791
 11
-66.990257
 21
271.629883
  0
LINE
  8
0
  6
PHANTOM
 62
     2
 10
-436.439453
 20
244.602509
 11
-436.439453
 21
180.602509
  0
CIRCLE
  8
0
 10
-419.439606
 20
222.102478
 40
2.250000
  0
CIRCLE
  8
0
 10
-419.439606
 20
222.102478
 40
4.000000
  0
CIRCLE
  8
0
 10
-419.439606
 20
203.102478
 40
4.000000
  0
CIRCLE
  8
0
 10
-419.439606
 20
203.102478
 40
2.250000
  0
CIRCLE
  8
0
 10
-294.312103
 20
210.602478
 40
2.100000
  0
CIRCLE
  8
0
 10
-282.812103
 20
214.602478
 40
2.100000
  0
CIRCLE
  8
0
 10
-294.812103
 20
229.702469
 40
3.500000
  0
CIRCLE
  8
0
 62
     2
 10
-294.812103
 20
195.702469
 40
2.000000
  0
CIRCLE
  8
0
 10
-294.812103
 20
229.702469
 40
4.000000
  0
CIRCLE
  8
0
 10
-280.812103
 20
229.702469
 40
1.650000
  0
CIRCLE
  8
0
 62
     2
 10
-280.812103
 20
229.702469
 40
2.000000
  0
ARC
  8
0
 10
-280.812103
 20
195.702469
 40
4.000000
 50
90.000000
 51
270.000000
  0
CIRCLE
  8
0
 10
-294.812103
 20
195.702469
 40
1.650000
  0
CIRCLE
  8
0
 62
     2
 10
-294.312103
 20
210.602478
 40
2.500000
  0
CIRCLE
  8
0
 10
-280.812103
 20
195.702469
 40
3.500000
  0
CIRCLE
  8
0
 62
     2
 10
-282.812103
 20
214.602478
 40
2.500000
  0
CIRCLE
  8
0
 10
-420.439697
 20
-178.286377
 40
2.250000
  0
CIRCLE
  8
0
 10
-420.439697
 20
-157.286377
 40
2.250000
  0
CIRCLE
  8
0
 10
-420.439697
 20
-178.286377
 40
4.000000
  0
CIRCLE
  8
0
 10
-420.439697
 20
-157.286377
 40
4.000000
  0
CIRCLE
  8
0
 62
     2
 10
-293.564362
 20
-169.786377
 40
2.500000
  0
CIRCLE
  8
0
 10
-278.564362
 20
-148.286407
 40
1.650000
  0
CIRCLE
  8
0
 62
     2
 10
-278.564301
 20
-148.286438
 40
2.000000
  0
CIRCLE
  8
0
 10
-281.564362
 20
-165.786392
 40
2.100000
  0
CIRCLE
  8
0
 10
-293.564362
 20
-169.786392
 40
2.100000
  0
CIRCLE
  8
0
 10
-296.564301
 20
-148.286377
 40
4.000000
  0
CIRCLE
  8
0
 10
-278.564423
 20
-187.286438
 40
3.500000
  0
CIRCLE
  8
0
 62
     2
 10
-296.564423
 20
-187.286377
 40
2.000000
  0
CIRCLE
  8
0
 10
-296.564362
 20
-187.286407
 40
1.650000
  0
CIRCLE
  8
0
 10
-296.564301
 20
-148.286377
 40
3.500000
  0
ARC
  8
0
 10
-278.564423
 20
-187.286438
 40
4.000000
 50
90.000000
 51
270.000000
  0
CIRCLE
  8
0
 62
     2
 10
-281.564362
 20
-165.786407
 40
2.500000
  0
CIRCLE
  8
0
 10
-49.490204
 20
219.129745
 40
2.750000
  0
CIRCLE
  8
0
 10
-49.490204
 20
219.129745
 40
4.750000
  0
CIRCLE
  8
0
 10
-49.490234
 20
194.129745
 40
4.750000
  0
CIRCLE
  8
0
 10
-49.490234
 20
194.129745
 40
2.750000
  0
CIRCLE
  8
0
 10
87.904480
 20
184.129776
 40
4.250000
  0
CIRCLE
  8
0
 10
66.904572
 20
229.129776
 40
4.250000
  0
CIRCLE
  8
0
 62
     2
 10
87.904480
 20
229.129776
 40
2.500000
  0
CIRCLE
  8
0
 10
66.904572
 20
184.129776
 40
2.100000
  0
CIRCLE
  8
0
 10
85.404480
 20
208.629791
 40
2.100000
  0
CIRCLE
  8
0
 10
69.404572
 20
204.629791
 40
2.100000
  0
ARC
  8
0
 10
87.904480
 20
184.129776
 40
4.750000
 50
89.999908
 51
269.999908
  0
CIRCLE
  8
0
 62
     2
 10
85.404480
 20
208.629791
 40
2.500000
  0
CIRCLE
  8
0
 10
87.904480
 20
229.129776
 40
2.100000
  0
CIRCLE
  8
0
 62
     2
 10
69.404572
 20
204.629791
 40
2.500000
  0
CIRCLE
  8
0
 10
66.904572
 20
229.129776
 40
4.750000
  0
CIRCLE
  8
0
 62
     2
 10
66.904572
 20
184.129776
 40
2.500000
  0
CIRCLE
  8
0
 10
-57.490170
 20
-148.286423
 40
5.500000
  0
CIRCLE
  8
0
 10
-57.490170
 20
-148.286423
 40
3.300000
  0
CIRCLE
  8
0
 10
-57.490299
 20
-177.286423
 40
3.300000
  0
CIRCLE
  8
0
 10
-57.490299
 20
-177.286423
 40
5.500000
  0
CIRCLE
  8
0
 10
96.339180
 20
-135.786423
 40
2.500000
  0
CIRCLE
  8
0
 10
70.339111
 20
-135.786438
 40
5.750000
  0
CIRCLE
  8
0
 62
     2
 10
96.339134
 20
-135.786423
 40
3.000000
  0
CIRCLE
  8
0
 10
70.339111
 20
-135.786438
 40
5.000000
  0
CIRCLE
  8
0
 62
     2
 10
70.339157
 20
-189.786407
 40
3.000000
  0
CIRCLE
  8
0
 10
96.339226
 20
-189.786407
 40
5.000000
  0
CIRCLE
  8
0
 62
     2
 10
74.339188
 20
-164.786453
 40
4.864000
  0
CIRCLE
  8
0
 62
     2
 10
92.339180
 20
-160.786423
 40
4.864000
  0
CIRCLE
  8
0
 10
92.339180
 20
-160.786423
 40
4.283000
  0
ARC
  8
0
 10
96.339226
 20
-189.786407
 40
5.750000
 50
89.999924
 51
269.999939
  0
CIRCLE
  8
0
 10
70.339149
 20
-189.786423
 40
2.500000
  0
CIRCLE
  8
0
 10
74.339188
 20
-164.786453
 40
4.283000
  0
CIRCLE
  8
0
 10
311.115601
 20
147.781921
 40
4.500000
  0
CIRCLE
  8
0
 10
311.115662
 20
110.781929
 40
4.500000
  0
CIRCLE
  8
0
 10
311.115662
 20
110.781929
 40
7.000000
  0
CIRCLE
  8
0
 10
311.115601
 20
147.781921
 40
7.000000
  0
CIRCLE
  8
0
 10
457.314514
 20
131.281937
 40
4.283000
  0
CIRCLE
  8
0
 62
     2
 10
457.314514
 20
131.281937
 40
4.864000
  0
ARC
  8
0
 10
462.314362
 20
96.281853
 40
7.250000
 50
90.000000
 51
270.000000
  0
CIRCLE
  8
0
 62
     2
 10
430.314362
 20
96.282005
 40
4.000000
  0
CIRCLE
  8
0
 10
430.314667
 20
162.282043
 40
6.500000
  0
CIRCLE
  8
0
 10
430.314667
 20
162.282043
 40
7.250000
  0
CIRCLE
  8
0
 10
430.314514
 20
96.281929
 40
3.375000
  0
CIRCLE
  8
0
 62
     2
 10
435.314514
 20
127.282043
 40
4.864000
  0
CIRCLE
  8
0
 10
435.314514
 20
127.282043
 40
4.283000
  0
CIRCLE
  8
0
 10
462.314362
 20
96.281853
 40
6.500000
  0
CIRCLE
  8
0
 62
     2
 10
462.314667
 20
162.281891
 40
4.000000
  0
CIRCLE
  8
0
 10
462.314514
 20
162.281952
 40
3.375000
  0
CIRCLE
  8
0
  6
PHANTOM
 62
     1
 10
-289.111694
 20
252.002502
 40
6.000000
  0
CIRCLE
  8
0
  6
PHANTOM
 62
     1
 10
-289.111694
 20
252.002502
 40
5.000000
  0
CIRCLE
  8
0
  6
PHANTOM
 62
     1
 10
-288.864105
 20
-122.786377
 40
7.000000
  0
CIRCLE
  8
0
  6
PHANTOM
 62
     1
 10
-288.864105
 20
-122.786377
 40
6.000000
  0
CIRCLE
  8
0
  6
PHANTOM
 62
     1
 10
82.039185
 20
-98.786423
 40
9.000000
  0
CIRCLE
  8
0
  6
PHANTOM
 62
     1
 10
82.039185
 20
-98.786423
 40
10.000000
  0
CIRCLE
  8
0
  6
PHANTOM
 62
     1
 10
445.014526
 20
204.281921
 40
11.000000
  0
CIRCLE
  8
0
  6
PHANTOM
 62
     1
 10
445.014526
 20
204.281921
 40
10.000000
  0
CIRCLE
  8
0
  6
PHANTOM
 62
     1
 10
75.904495
 20
257.629791
 40
6.999706
  0
CIRCLE
  8
0
  6
PHANTOM
 62
     1
 10
75.904495
 20
257.629791
 40
8.000011
  0
TEXT
  8
0
 10
407.964844
 20
375.250000
 40
12.500000
  1
Ver. 2.0
 50
0.000000
 41
1.052632
 51
0.000000
  7
STANDARD
  0
TEXT
  8
0
 10
345.179352
 20
-400.700012
 40
18.000000
  1
KOGANEI CORP.
 50
0.000000
 41
1.052632
 51
0.000000
  7
STANDARD
  0
TEXT
  8
0
 10
-494.785156
 20
367.750000
 40
12.500000
  1
BRACKET
 50
0.000000
 41
1.052632
 51
0.000000
  7
STANDARD
  0
TEXT
  8
0
 10
-507.202362
 20
320.750000
 40
12.500000
  1
BORE: 16
 50
0.000000
 41
1.052632
 51
0.000000
  7
STANDARD
  0
TEXT
  8
0
 10
-147.539383
 20
-40.250000
 40
12.500000
  1
BORE: 32
 50
0.000000
 41
1.052632
 51
0.000000
  7
STANDARD
  0
TEXT
  8
0
 10
-147.617172
 20
320.750000
 40
12.500000
  1
BORE: 25
 50
0.000000
 41
1.052632
 51
0.000000
  7
STANDARD
  0
TEXT
  8
0
 10
202.045822
 20
320.750000
 40
12.500000
  1
BORE: 40
 50
0.000000
 41
1.052632
 51
0.000000
  7
STANDARD
  0
TEXT
  8
0
 10
-507.202362
 20
-40.250000
 40
12.500000
  1
BORE: 20
 50
0.000000
 41
1.052632
 51
0.000000
  7
STANDARD
  0
TEXT
  8
0
 10
-532.285156
 20
382.750000
 40
12.500000
  1
AXIS CYLINDER
 50
0.000000
 41
1.052632
 51
0.000000
  7
STANDARD
  0
ENDSEC
  0
EOF
