  0
SECTION
  2
HEADER
  0
ENDSEC
  0
SECTION
  2
TABLES
  0
TABLE
  2
LTYPE
 70
     4
  0
LTYPE
  2
CONTINUOUS
 70
    64
  3
Solid line
 72
    65
 73
     0
 40
0.000000
  0
LTYPE
  2
DASHED
 70
    64
  3
__ __ __ __ __ __ __ __ __ __ __ __ __ __ __
 72
    65
 73
     2
 40
3.500000
 49
2.000000
 49
-1.500000
  0
LTYPE
  2
CENTER
 70
    64
  3
____ _ ____ _ ____ _ ____ _ ____ _ ____ _ ____
 72
    65
 73
     4
 40
17.500000
 49
13.000000
 49
-1.500000
 49
1.500000
 49
-1.500000
  0
LTYPE
  2
PHANTOM
 70
    64
  3
_____ _ _ _____ _ _ _____ _ _ _____ _ _ ____  
 72
    65
 73
     6
 40
15.500000
 49
8.000000
 49
-1.500000
 49
1.500000
 49
-1.500000
 49
1.500000
 49
-1.500000
  0
LTYPE
  2
DASHED1
 70
    64
  3
__ __ __ __ __ __ __ __ __ __ __ __ __ __ __
 72
    65
 73
     2
 40
1.500000
 49
1.000000
 49
-0.500000
  0
LTYPE
  2
DASHED2
 70
    64
  3
__ __ __ __ __ __ __ __ __ __ __ __ __ __ __
 72
    65
 73
     2
 40
3.500000
 49
2.500000
 49
-1.000000
  0
LTYPE
  2
DASHED3
 70
    64
  3
__ __ __ __ __ __ __ __ __ __ __ __ __ __ __
 72
    65
 73
     2
 40
6.000000
 49
4.000000
 49
-2.000000
  0
LTYPE
  2
DASHED4
 70
    64
  3
__ __ __ __ __ __ __ __ __ __ __ __ __ __ __
 72
    65
 73
     2
 40
12.000000
 49
10.000000
 49
-2.000000
  0
LTYPE
  2
DASHED5
 70
    64
  3
__ __ __ __ __ __ __ __ __ __ __ __ __ __ __
 72
    65
 73
     2
 40
17.000000
 49
15.000000
 49
-2.000000
  0
LTYPE
  2
DASHED6
 70
    64
  3
__ __ __ __ __ __ __ __ __ __ __ __ __ __ __
 72
    65
 73
     2
 40
29.000000
 49
27.000000
 49
-2.000000
  0
LTYPE
  2
PHANTOM1
 70
    64
  3
_____ _ _ _____ _ _ _____ _ _ _____ _ _ ____  
 72
    65
 73
     6
 40
31.000000
 49
25.000000
 49
-1.500000
 49
1.000000
 49
-1.000000
 49
1.000000
 49
-1.500000
  0
LTYPE
  2
PHANTOM2
 70
    64
  3
_____ _ _ _____ _ _ _____ _ _ _____ _ _ ____  
 72
    65
 73
     6
 40
36.000000
 49
27.000000
 49
-1.500000
 49
2.500000
 49
-1.000000
 49
2.500000
 49
-1.500000
  0
LTYPE
  2
PHANTOM3
 70
    64
  3
_____ _ _ _____ _ _ _____ _ _ _____ _ _ ____  
 72
    65
 73
     6
 40
78.000000
 49
64.000000
 49
-2.000000
 49
4.000000
 49
-2.000000
 49
4.000000
 49
-2.000000
  0
LTYPE
  2
CENTER1
 70
    64
  3
____ _ ____ _ ____ _ ____ _ ____ _ ____ _ ____
 72
    65
 73
     4
 40
19.000000
 49
14.000000
 49
-1.000000
 49
3.000000
 49
-1.000000
  0
LTYPE
  2
CENTER2
 70
    64
  3
____ _ ____ _ ____ _ ____ _ ____ _ ____ _ ____
 72
    65
 73
     4
 40
28.500000
 49
25.000000
 49
-1.000000
 49
1.500000
 49
-1.000000
  0
LTYPE
  2
CENTER3
 70
    64
  3
____ _ ____ _ ____ _ ____ _ ____ _ ____ _ ____
 72
    65
 73
     4
 40
31.500000
 49
27.000000
 49
-1.000000
 49
2.500000
 49
-1.000000
  0
LTYPE
  2
CENTER4
 70
    64
  3
____ _ ____ _ ____ _ ____ _ ____ _ ____ _ ____
 72
    65
 73
     4
 40
50.000000
 49
45.000000
 49
-1.000000
 49
3.000000
 49
-1.000000
  0
LTYPE
  2
CENTER5
 70
    64
  3
____ _ ____ _ ____ _ ____ _ ____ _ ____ _ ____
 72
    65
 73
     4
 40
100.000000
 49
92.000000
 49
-2.000000
 49
4.000000
 49
-2.000000
  0
LTYPE
  2
SBK1
 70
    64
  3
______ _ _ _ ______ _ _ _ ______ _ _ _ _____  
 72
    65
 73
     8
 40
60.500000
 49
45.000000
 49
-2.000000
 49
2.500000
 49
-2.000000
 49
2.500000
 49
-2.000000
 49
2.500000
 49
-2.000000
  0
LTYPE
  2
SBK2
 70
    64
  3
______ _ _ _ ______ _ _ _ ______ _ _ _ _____  
 72
    65
 73
     8
 40
84.000000
 49
64.000000
 49
-2.000000
 49
4.000000
 49
-2.000000
 49
4.000000
 49
-2.000000
 49
4.000000
 49
-2.000000
  0
LTYPE
  2
STCH
 70
    64
  3
__ __ __ __ __ __ __ __ __ __ __ __ __ __ __
 72
    65
 73
     2
 40
3.000000
 49
1.000000
 49
-2.000000
  0
LTYPE
  2
MTCH
 70
    64
  3
_____ _ _ _____ _ _ _____ _ _ _____ _ _ ____  
 72
    65
 73
     6
 40
80.000000
 49
66.000000
 49
-2.000000
 49
4.000000
 49
-2.000000
 49
4.000000
 49
-2.000000
  0
ENDTAB
  0
TABLE
  2
LAYER
 70
     1
  0
LAYER
  2
0
 70
     0
 62
     7
  6
CONTINUOUS
  0
ENDTAB
  0
TABLE
  2
STYLE
 70
     1
  0
STYLE
  2
STANDARD
 70
     0
 40
0.000000
 41
1.000000
 50
0.000000
 71
     0
 42
0.200000
  3
txt
  4
BIGFONT
  0
ENDTAB
  0
TABLE
  2
VIEW
 70
     0
  0
ENDTAB
  0
ENDSEC
  0
SECTION
  2
BLOCKS
  0
ENDSEC
  0
SECTION
  2
ENTITIES
  0
LINE
  8
0
 10
-425.439606
 20
244.602493
 11
-425.439606
 21
180.602493
  0
LINE
  8
0
 10
-425.439606
 20
244.602493
 11
-415.439606
 21
244.602493
  0
LINE
  8
0
 10
-415.439606
 20
244.602493
 11
-415.439606
 21
180.602493
  0
LINE
  8
0
 10
-425.439606
 20
180.602493
 11
-415.439606
 21
180.602493
  0
LINE
  8
0
  6
CENTER
 62
     2
 10
-420.439606
 20
210.602493
 11
-420.439606
 21
198.602493
  0
LINE
  8
0
  6
CENTER
 62
     2
 10
-426.439606
 20
204.602493
 11
-414.439606
 21
204.602493
  0
LINE
  8
0
  6
CENTER
 62
     2
 10
-420.439606
 20
226.602493
 11
-420.439606
 21
214.602493
  0
LINE
  8
0
  6
CENTER
 62
     2
 10
-426.439606
 20
220.602524
 11
-414.439606
 21
220.602524
  0
LINE
  8
0
 10
-301.311829
 20
196.368729
 11
-299.811859
 21
197.234741
  0
LINE
  8
0
 10
-301.311920
 20
194.636520
 11
-299.811920
 21
193.770493
  0
LINE
  8
0
  6
CENTER
 62
     2
 10
-299.811859
 20
232.484070
 11
-299.811859
 21
226.515503
  0
LINE
  8
0
 10
-281.811859
 20
244.502502
 11
-281.811859
 21
180.502518
  0
LINE
  8
0
 10
-306.811707
 20
244.502502
 11
-281.811707
 21
244.502502
  0
LINE
  8
0
 10
-306.811707
 20
180.502518
 11
-281.811707
 21
180.502518
  0
LINE
  8
0
  6
CENTER
 62
     2
 10
-285.811859
 20
234.320221
 11
-285.811859
 21
224.847580
  0
LINE
  8
0
  6
CENTER
 62
     2
 10
-290.648285
 20
229.502518
 11
-280.400635
 21
229.502518
  0
LINE
  8
0
  6
CENTER
 62
     2
 10
-302.830872
 20
229.502518
 11
-296.798187
 21
229.502518
  0
LINE
  8
0
  6
CENTER
 62
     2
 10
-299.811859
 20
189.925522
 11
-299.811859
 21
201.031708
  0
LINE
  8
0
  6
CENTER
 62
     2
 10
-304.713776
 20
195.502518
 11
-294.718201
 21
195.502518
  0
LINE
  8
0
  6
CENTER
 62
     2
 10
-285.811859
 20
192.305740
 11
-285.811859
 21
198.559143
  0
LINE
  8
0
  6
CENTER
 62
     2
 10
-288.999847
 20
195.502518
 11
-283.400421
 21
195.502518
  0
LINE
  8
0
 10
-306.811859
 20
244.502502
 11
-306.811859
 21
180.502518
  0
LINE
  8
0
 10
-287.311859
 20
230.368546
 11
-287.311859
 21
228.636490
  0
LINE
  8
0
 10
-284.311859
 20
230.368546
 11
-284.311859
 21
228.636490
  0
LINE
  8
0
 10
-285.811920
 20
231.234665
 11
-284.311920
 21
230.368637
  0
LINE
  8
0
 10
-287.311890
 20
228.636566
 11
-285.811920
 21
227.770554
  0
LINE
  8
0
 10
-287.311859
 20
230.368744
 11
-285.811859
 21
231.234772
  0
LINE
  8
0
 10
-285.812012
 20
227.770645
 11
-284.311981
 21
228.636673
  0
LINE
  8
0
 10
-285.811859
 20
233.502518
 11
-281.811859
 21
233.502518
  0
LINE
  8
0
 10
-285.811859
 20
225.502518
 11
-281.811859
 21
225.502518
  0
LINE
  8
0
 10
-299.811890
 20
193.770660
 11
-298.311890
 21
194.636688
  0
LINE
  8
0
 10
-301.311859
 20
196.368546
 11
-301.311859
 21
194.636490
  0
LINE
  8
0
 10
-298.311859
 20
196.368546
 11
-298.311859
 21
194.636490
  0
LINE
  8
0
 10
-299.811920
 20
197.234634
 11
-298.311920
 21
196.368607
  0
LINE
  8
0
 10
-425.439636
 20
79.909515
 11
-425.439636
 21
54.909508
  0
LINE
  8
0
 10
-425.439636
 20
79.909515
 11
-415.439636
 21
79.909515
  0
LINE
  8
0
 10
-415.439636
 20
79.909515
 11
-415.439636
 21
54.909508
  0
LINE
  8
0
 10
-425.439636
 20
54.909508
 11
-415.439636
 21
54.909508
  0
LINE
  8
0
 10
-411.439484
 20
-130.786377
 11
-411.439484
 21
-204.786377
  0
LINE
  8
0
 10
-401.439484
 20
-130.786377
 11
-401.439484
 21
-204.786377
  0
LINE
  8
0
 10
-411.439484
 20
-204.786377
 11
-401.439484
 21
-204.786377
  0
LINE
  8
0
 10
-411.439484
 20
-130.786377
 11
-401.439484
 21
-130.786377
  0
LINE
  8
0
  6
CENTER
 62
     2
 10
-406.439667
 20
-172.786484
 11
-406.439667
 21
-180.786484
  0
LINE
  8
0
  6
CENTER
 62
     2
 10
-410.439667
 20
-176.786484
 11
-402.439667
 21
-176.786484
  0
LINE
  8
0
  6
CENTER
 62
     2
 10
-406.439301
 20
-154.786484
 11
-406.439301
 21
-162.786484
  0
LINE
  8
0
  6
CENTER
 62
     2
 10
-410.439301
 20
-158.786484
 11
-402.439301
 21
-158.786484
  0
LINE
  8
0
 10
-293.064240
 20
-186.420212
 11
-291.564270
 21
-185.554214
  0
LINE
  8
0
 10
-273.564331
 20
-152.286362
 11
-269.564331
 21
-152.286362
  0
LINE
  8
0
 10
-273.564331
 20
-144.286362
 11
-269.564331
 21
-144.286362
  0
LINE
  8
0
 10
-275.064331
 20
-147.420334
 11
-275.064331
 21
-149.152390
  0
LINE
  8
0
 10
-272.064331
 20
-147.420334
 11
-272.064331
 21
-149.152390
  0
LINE
  8
0
 10
-273.564331
 20
-146.554367
 11
-272.064331
 21
-147.420395
  0
LINE
  8
0
 10
-275.064362
 20
-149.152405
 11
-273.564331
 21
-150.018448
  0
LINE
  8
0
 10
-275.064209
 20
-147.420197
 11
-273.564240
 21
-146.554184
  0
LINE
  8
0
 10
-273.564209
 20
-150.018295
 11
-272.064209
 21
-149.152267
  0
LINE
  8
0
 10
-269.564331
 20
-130.786362
 11
-269.564331
 21
-204.786362
  0
LINE
  8
0
 10
-298.564331
 20
-130.786362
 11
-298.564331
 21
-204.786362
  0
LINE
  8
0
 10
-298.564087
 20
-130.786362
 11
-269.564087
 21
-130.786362
  0
LINE
  8
0
 10
-298.564087
 20
-204.786362
 11
-269.564087
 21
-204.786362
  0
LINE
  8
0
  6
CENTER
 62
     2
 10
-273.564331
 20
-142.644058
 11
-273.564331
 21
-153.515244
  0
LINE
  8
0
  6
CENTER
 62
     2
 10
-278.396423
 20
-148.286362
 11
-267.772308
 21
-148.286362
  0
LINE
  8
0
  6
CENTER
 62
     2
 10
-291.564331
 20
-145.786362
 11
-291.564331
 21
-150.846161
  0
LINE
  8
0
  6
CENTER
 62
     2
 10
-288.226105
 20
-148.286362
 11
-294.765503
 21
-148.286362
  0
LINE
  8
0
  6
CENTER
 62
     2
 10
-273.564331
 20
-190.860947
 11
-273.564331
 21
-183.790390
  0
LINE
  8
0
  6
CENTER
 62
     2
 10
-277.088409
 20
-187.286362
 11
-271.064331
 21
-187.286362
  0
LINE
  8
0
  6
CENTER
 62
     2
 10
-291.564331
 20
-193.540970
 11
-291.564331
 21
-181.434418
  0
LINE
  8
0
  6
CENTER
 62
     2
 10
-285.314453
 20
-187.286362
 11
-297.915131
 21
-187.286362
  0
LINE
  8
0
 10
-291.564209
 20
-189.018326
 11
-290.064209
 21
-188.152298
  0
LINE
  8
0
 10
-293.064331
 20
-186.420334
 11
-293.064331
 21
-188.152390
  0
LINE
  8
0
 10
-290.064331
 20
-186.420334
 11
-290.064331
 21
-188.152390
  0
LINE
  8
0
 10
-291.564331
 20
-185.554337
 11
-290.064331
 21
-186.420380
  0
LINE
  8
0
 10
-293.064270
 20
-188.152451
 11
-291.564270
 21
-189.018478
  0
LINE
  8
0
 10
-411.439636
 20
-308.080109
 11
-411.439636
 21
-337.080109
  0
LINE
  8
0
 10
-411.439636
 20
-308.080109
 11
-401.439636
 21
-308.080109
  0
LINE
  8
0
 10
-401.439636
 20
-308.080109
 11
-401.439636
 21
-337.080109
  0
LINE
  8
0
 10
-411.439636
 20
-337.080109
 11
-401.439636
 21
-337.080109
  0
LINE
  8
0
 10
-65.990219
 20
253.616745
 11
-65.990219
 21
169.642807
  0
LINE
  8
0
 10
-65.990341
 20
253.616745
 11
-55.990242
 21
253.616745
  0
LINE
  8
0
 10
-55.990242
 20
253.616745
 11
-55.990242
 21
169.642807
  0
LINE
  8
0
 10
-65.990341
 20
169.642807
 11
-55.990242
 21
169.642807
  0
LINE
  8
0
  6
CENTER
 62
     2
 10
-60.990242
 20
225.829712
 11
-60.990242
 21
217.429718
  0
LINE
  8
0
  6
CENTER
 62
     2
 10
-65.190239
 20
221.629745
 11
-56.790241
 21
221.629745
  0
LINE
  8
0
  6
CENTER
 62
     2
 10
-65.190239
 20
201.629745
 11
-56.790241
 21
201.629745
  0
LINE
  8
0
  6
CENTER
 62
     2
 10
-60.990242
 20
205.829742
 11
-60.990242
 21
197.429749
  0
LINE
  8
0
  6
CENTER
 62
     2
 10
66.904465
 20
182.883438
 11
66.904465
 21
195.683060
  0
LINE
  8
0
  6
CENTER
 62
     2
 10
60.904099
 20
189.129776
 11
72.868973
 21
189.129776
  0
LINE
  8
0
 10
58.904465
 20
169.629761
 11
58.904465
 21
253.629761
  0
LINE
  8
0
  6
CENTER
 62
     2
 10
81.362167
 20
234.129868
 11
93.744400
 21
234.129868
  0
LINE
  8
0
 10
58.904465
 20
169.629761
 11
92.904480
 21
169.629761
  0
LINE
  8
0
  6
CENTER
 62
     2
 10
63.325241
 20
234.129868
 11
70.824295
 21
234.129868
  0
LINE
  8
0
 10
85.904373
 20
235.284683
 11
87.904366
 21
236.439377
  0
LINE
  8
0
 10
87.904434
 20
231.820572
 11
89.904427
 21
232.975266
  0
LINE
  8
0
 10
87.904518
 20
236.439407
 11
89.904510
 21
235.284714
  0
LINE
  8
0
 10
85.904488
 20
232.975189
 11
87.904480
 21
231.820496
  0
LINE
  8
0
 10
85.904465
 20
235.284531
 11
85.904465
 21
232.975143
  0
LINE
  8
0
 10
89.904465
 20
235.284531
 11
89.904465
 21
232.975143
  0
LINE
  8
0
 10
64.904442
 20
190.284698
 11
66.904427
 21
191.439392
  0
LINE
  8
0
 10
66.904366
 20
186.820450
 11
68.904366
 21
187.975143
  0
LINE
  8
0
 10
66.904564
 20
191.439240
 11
68.904549
 21
190.284546
  0
LINE
  8
0
 10
64.904533
 20
187.975098
 11
66.904518
 21
186.820404
  0
LINE
  8
0
 10
64.904465
 20
190.284439
 11
64.904465
 21
187.975113
  0
LINE
  8
0
 10
68.904465
 20
190.284439
 11
68.904465
 21
187.975113
  0
LINE
  8
0
 10
87.904465
 20
238.879868
 11
92.902908
 21
238.879868
  0
LINE
  8
0
 10
87.904465
 20
229.379868
 11
92.902908
 21
229.379868
  0
LINE
  8
0
 10
92.904480
 20
253.629761
 11
92.904480
 21
169.629761
  0
LINE
  8
0
 10
58.904465
 20
253.629761
 11
92.904480
 21
253.629761
  0
LINE
  8
0
  6
CENTER
 62
     2
 10
66.904465
 20
237.396225
 11
66.904465
 21
230.465317
  0
LINE
  8
0
  6
CENTER
 62
     2
 10
87.904465
 20
240.078354
 11
87.904465
 21
228.391708
  0
LINE
  8
0
  6
CENTER
 62
     2
 10
87.904465
 20
185.750137
 11
87.904465
 21
192.527908
  0
LINE
  8
0
  6
CENTER
 62
     2
 10
84.387772
 20
189.129776
 11
91.378036
 21
189.129776
  0
LINE
  8
0
 10
-65.990219
 20
86.557297
 11
-65.990219
 21
52.567825
  0
LINE
  8
0
 10
-65.990341
 20
86.557297
 11
-55.990242
 21
86.557297
  0
LINE
  8
0
 10
-55.990242
 20
86.557297
 11
-55.990242
 21
52.567825
  0
LINE
  8
0
 10
-65.990341
 20
52.567825
 11
-55.990242
 21
52.567825
  0
LINE
  8
0
 10
-59.990234
 20
-110.786392
 11
-59.990234
 21
-214.786392
  0
LINE
  8
0
 10
-59.990234
 20
-110.786392
 11
-45.990234
 21
-110.786392
  0
LINE
  8
0
 10
-45.990234
 20
-214.786392
 11
-45.990234
 21
-110.786392
  0
LINE
  8
0
 10
-59.990234
 20
-214.786392
 11
-45.990234
 21
-214.786392
  0
LINE
  8
0
  6
CENTER
 62
     2
 10
-60.490234
 20
-150.786392
 11
-45.490234
 21
-150.786392
  0
LINE
  8
0
  6
CENTER
 62
     2
 10
-52.990234
 20
-143.286392
 11
-52.990234
 21
-158.286392
  0
LINE
  8
0
  6
CENTER
 62
     2
 10
-60.490234
 20
-174.786392
 11
-45.490234
 21
-174.786392
  0
LINE
  8
0
  6
CENTER
 62
     2
 10
-52.990234
 20
-167.286392
 11
-52.990234
 21
-182.286392
  0
LINE
  8
0
 10
91.339180
 20
-141.536423
 11
97.339180
 21
-141.536423
  0
LINE
  8
0
 10
91.339180
 20
-130.036423
 11
97.339180
 21
-130.036423
  0
LINE
  8
0
 10
56.339149
 20
-110.786423
 11
56.339149
 21
-214.786423
  0
LINE
  8
0
 10
97.339180
 20
-110.786423
 11
97.339180
 21
-214.786423
  0
LINE
  8
0
 10
56.339149
 20
-110.786423
 11
97.339180
 21
-110.786423
  0
LINE
  8
0
  6
CENTER
 62
     2
 10
60.568665
 20
-135.786423
 11
70.024841
 21
-135.786423
  0
LINE
  8
0
  6
CENTER
 62
     2
 10
91.339180
 20
-128.909927
 11
91.339180
 21
-143.588913
  0
LINE
  8
0
  6
CENTER
 62
     2
 10
65.339149
 20
-128.588638
 11
65.339149
 21
-139.964676
  0
LINE
  8
0
  6
CENTER
 62
     2
 10
82.223808
 20
-135.786423
 11
98.077751
 21
-135.786423
  0
LINE
  8
0
 10
56.339149
 20
-214.786423
 11
97.339180
 21
-214.786423
  0
LINE
  8
0
  6
CENTER
 62
     2
 10
58.629028
 20
-189.786423
 11
71.984558
 21
-189.786423
  0
LINE
  8
0
  6
CENTER
 62
     2
 10
91.339180
 20
-194.810333
 11
91.339180
 21
-185.354172
  0
LINE
  8
0
  6
CENTER
 62
     2
 10
65.339149
 20
-197.159439
 11
65.339149
 21
-182.171555
  0
LINE
  8
0
  6
CENTER
 62
     2
 10
85.911278
 20
-189.786423
 11
98.017723
 21
-189.786423
  0
LINE
  8
0
 10
91.339241
 20
-132.899612
 11
93.839218
 21
-134.342972
  0
LINE
  8
0
 10
88.839233
 20
-137.229736
 11
91.339233
 21
-138.673111
  0
LINE
  8
0
 10
88.839073
 20
-134.342926
 11
91.339073
 21
-132.899551
  0
LINE
  8
0
 10
91.339081
 20
-138.673111
 11
93.839081
 21
-137.229736
  0
LINE
  8
0
 10
88.839180
 20
-134.343048
 11
88.839180
 21
-137.229797
  0
LINE
  8
0
 10
93.839180
 20
-134.343048
 11
93.839180
 21
-137.229797
  0
LINE
  8
0
 10
65.339287
 20
-186.899551
 11
67.839279
 21
-188.342926
  0
LINE
  8
0
 10
62.839275
 20
-191.229675
 11
65.339256
 21
-192.673035
  0
LINE
  8
0
 10
62.839039
 20
-188.342850
 11
65.339050
 21
-186.899475
  0
LINE
  8
0
 10
65.339027
 20
-192.673019
 11
67.839027
 21
-191.229645
  0
LINE
  8
0
 10
62.839149
 20
-188.343048
 11
62.839149
 21
-191.229797
  0
LINE
  8
0
 10
67.839149
 20
-188.343048
 11
67.839149
 21
-191.229797
  0
LINE
  8
0
 10
-59.990074
 20
-302.080231
 11
-59.990074
 21
-343.080231
  0
LINE
  8
0
 10
-59.990074
 20
-302.080231
 11
-45.990074
 21
-302.080231
  0
LINE
  8
0
 10
-45.990074
 20
-343.080170
 11
-45.990074
 21
-302.080231
  0
LINE
  8
0
 10
-59.990074
 20
-343.080231
 11
-45.990074
 21
-343.080231
  0
LINE
  8
0
 10
307.115631
 20
191.281937
 11
307.115631
 21
67.281921
  0
LINE
  8
0
 10
307.115631
 20
191.281937
 11
321.115631
 21
191.281937
  0
LINE
  8
0
 10
321.115631
 20
67.281921
 11
321.115631
 21
191.281937
  0
LINE
  8
0
 10
307.115631
 20
67.281921
 11
321.115631
 21
67.281921
  0
LINE
  8
0
  6
CENTER
 62
     2
 10
314.115631
 20
150.281921
 11
314.115631
 21
138.281921
  0
LINE
  8
0
  6
CENTER
 62
     2
 10
308.115631
 20
144.281921
 11
320.115631
 21
144.281921
  0
LINE
  8
0
  6
CENTER
 62
     2
 10
308.115631
 20
114.281921
 11
320.115631
 21
114.281921
  0
LINE
  8
0
  6
CENTER
 62
     2
 10
314.115631
 20
120.281921
 11
314.115631
 21
108.281921
  0
LINE
  8
0
 10
435.314575
 20
191.281982
 11
484.314575
 21
191.281982
  0
LINE
  8
0
 10
435.314514
 20
191.281982
 11
435.314514
 21
67.281960
  0
LINE
  8
0
  6
CENTER
 62
     2
 10
438.098816
 20
162.281982
 11
452.417358
 21
162.281982
  0
LINE
  8
0
  6
CENTER
 62
     2
 10
477.314514
 20
173.408386
 11
477.314514
 21
151.727264
  0
LINE
  8
0
  6
CENTER
 62
     2
 10
445.314514
 20
170.418518
 11
445.314514
 21
154.403931
  0
LINE
  8
0
  6
CENTER
 62
     2
 10
467.040710
 20
162.281982
 11
485.268677
 21
162.281982
  0
LINE
  8
0
 10
435.314575
 20
67.281960
 11
484.314575
 21
67.281960
  0
LINE
  8
0
 10
484.314514
 20
67.281960
 11
484.314514
 21
191.281982
  0
LINE
  8
0
  6
CENTER
 62
     2
 10
433.849854
 20
96.281960
 11
455.798645
 21
96.281960
  0
LINE
  8
0
  6
CENTER
 62
     2
 10
477.314514
 20
90.240425
 11
477.314514
 21
102.743950
  0
LINE
  8
0
  6
CENTER
 62
     2
 10
445.314514
 20
85.880852
 11
445.314514
 21
105.955971
  0
LINE
  8
0
  6
CENTER
 62
     2
 10
470.584961
 20
96.281960
 11
484.853149
 21
96.281960
  0
LINE
  8
0
 10
477.314575
 20
165.746246
 11
480.314575
 21
164.014191
  0
LINE
  8
0
 10
474.314484
 20
160.550140
 11
477.314514
 21
158.818085
  0
LINE
  8
0
 10
474.314301
 20
164.013870
 11
477.314301
 21
165.745911
  0
LINE
  8
0
 10
477.314301
 20
158.817703
 11
480.314331
 21
160.549774
  0
LINE
  8
0
 10
474.314514
 20
164.014038
 11
474.314514
 21
160.549927
  0
LINE
  8
0
 10
480.314514
 20
164.014038
 11
480.314514
 21
160.549927
  0
LINE
  8
0
 10
445.314606
 20
99.746277
 11
448.314606
 21
98.014221
  0
LINE
  8
0
 10
442.314789
 20
94.550133
 11
445.314758
 21
92.818085
  0
LINE
  8
0
 10
442.314453
 20
98.013939
 11
445.314484
 21
99.746002
  0
LINE
  8
0
 10
445.314484
 20
92.817780
 11
448.314484
 21
94.549828
  0
LINE
  8
0
 10
442.314514
 20
98.014008
 11
442.314514
 21
94.549911
  0
LINE
  8
0
 10
448.314514
 20
98.014008
 11
448.314514
 21
94.549911
  0
LINE
  8
0
 10
477.314514
 20
169.531982
 11
484.314514
 21
169.531982
  0
LINE
  8
0
 10
477.314514
 20
155.031982
 11
484.314514
 21
155.031982
  0
LINE
  8
0
 10
307.115662
 20
-54.516335
 11
307.115662
 21
-103.516342
  0
LINE
  8
0
 10
307.115662
 20
-54.516335
 11
321.115662
 21
-54.516335
  0
LINE
  8
0
 10
321.115662
 20
-54.516335
 11
321.115662
 21
-103.516342
  0
LINE
  8
0
 10
307.115662
 20
-103.516342
 11
321.115662
 21
-103.516342
  0
LINE
  8
0
 10
574.500000
 20
400.500000
 11
574.500000
 21
-400.500000
  0
LINE
  8
0
 10
-564.500000
 20
400.500000
 11
574.500000
 21
400.500000
  0
LINE
  8
0
 10
-564.500000
 20
-400.500000
 11
574.500000
 21
-400.500000
  0
LINE
  8
0
 10
-564.500000
 20
400.500000
 11
-564.500000
 21
-400.500000
  0
LINE
  8
0
 10
-564.500000
 20
370.500000
 11
-334.500000
 21
370.500000
  0
LINE
  8
0
 10
344.500000
 20
370.500000
 11
574.500000
 21
370.500000
  0
LINE
  8
0
 10
344.500000
 20
-370.500000
 11
574.500000
 21
-370.500000
  0
LINE
  8
0
 10
344.500000
 20
-370.500000
 11
344.500000
 21
-400.500000
  0
LINE
  8
0
 10
344.500000
 20
400.500000
 11
344.500000
 21
370.500000
  0
LINE
  8
0
 10
-334.500000
 20
400.500000
 11
-334.500000
 21
370.500000
  0
LINE
  8
0
 10
-184.833344
 20
-400.500000
 11
-184.833344
 21
400.500000
  0
LINE
  8
0
 10
-564.500000
 20
0.000000
 11
194.833313
 21
0.000000
  0
LINE
  8
0
 10
194.833313
 20
400.500000
 11
194.833313
 21
-400.500000
  0
LINE
  8
0
  6
PHANTOM
 62
     1
 10
-425.439453
 20
263.602509
 11
-425.439453
 21
244.602509
  0
LINE
  8
0
  6
PHANTOM
 62
     2
 10
-436.439453
 20
244.402527
 11
-436.439453
 21
180.602509
  0
LINE
  8
0
  6
CENTER
 62
     2
 10
-481.589233
 20
212.602509
 11
-410.952698
 21
212.602509
  0
LINE
  8
0
  6
PHANTOM
 62
     2
 10
-436.439453
 20
244.602509
 11
-425.439453
 21
244.602509
  0
LINE
  8
0
  6
PHANTOM
 62
     2
 10
-436.439453
 20
180.602509
 11
-425.439453
 21
180.602509
  0
LINE
  8
0
  6
PHANTOM
 62
     2
 10
-469.435852
 20
180.802505
 11
-436.439453
 21
180.802505
  0
LINE
  8
0
  6
PHANTOM
 62
     2
 10
-469.435852
 20
244.402527
 11
-436.439453
 21
244.402527
  0
LINE
  8
0
  6
PHANTOM
 62
     1
 10
-469.435852
 20
263.402527
 11
-436.439453
 21
263.402527
  0
LINE
  8
0
  6
PHANTOM
 62
     1
 10
-436.439453
 20
263.602509
 11
-425.439453
 21
263.602509
  0
LINE
  8
0
  6
CENTER
 62
     1
 10
-478.550873
 20
252.102509
 11
-421.084534
 21
252.102509
  0
LINE
  8
0
  6
PHANTOM
 62
     1
 10
-424.439453
 20
257.102539
 11
-424.439453
 21
247.102509
  0
LINE
  8
0
  6
PHANTOM
 62
     1
 10
-425.440094
 20
246.103073
 11
-424.440063
 21
247.103088
  0
LINE
  8
0
  6
PHANTOM
 62
     1
 10
-425.439453
 20
247.102509
 11
-424.439453
 21
247.102509
  0
LINE
  8
0
  6
CENTER
 62
     2
 10
-482.348816
 20
65.909447
 11
-412.263611
 21
65.909447
  0
LINE
  8
0
  6
PHANTOM
 62
     2
 10
-436.439453
 20
54.909447
 11
-425.439453
 21
54.909447
  0
LINE
  8
0
  6
PHANTOM
 62
     2
 10
-469.435852
 20
55.109444
 11
-436.439453
 21
55.109444
  0
LINE
  8
0
  6
PHANTOM
 62
     2
 10
-436.439453
 20
79.709442
 11
-436.439453
 21
54.909447
  0
LINE
  8
0
  6
PHANTOM
 62
     2
 10
-425.439453
 20
81.909454
 11
-425.439453
 21
79.909454
  0
LINE
  8
0
  6
PHANTOM
 62
     2
 10
-469.435852
 20
79.709442
 11
-436.439453
 21
79.709442
  0
LINE
  8
0
  6
PHANTOM
 62
     2
 10
-469.435852
 20
81.709442
 11
-436.439453
 21
81.709442
  0
LINE
  8
0
  6
PHANTOM
 62
     2
 10
-436.439453
 20
81.909454
 11
-425.439453
 21
81.909454
  0
LINE
  8
0
  6
PHANTOM
 62
     2
 10
-436.439453
 20
79.909454
 11
-425.439453
 21
79.909454
  0
LINE
  8
0
  6
PHANTOM
 62
     2
 10
-306.811096
 20
224.401962
 11
-308.811096
 21
222.401962
  0
LINE
  8
0
  6
PHANTOM
 62
     2
 10
-308.811707
 20
222.402512
 11
-308.811707
 21
202.602509
  0
LINE
  8
0
  6
PHANTOM
 62
     2
 10
-308.811523
 20
202.602509
 11
-306.811523
 21
200.602509
  0
LINE
  8
0
  6
PHANTOM
 62
     1
 10
-306.811707
 20
263.502502
 11
-281.811707
 21
263.502502
  0
LINE
  8
0
  6
PHANTOM
 62
     1
 10
-306.811707
 20
244.502502
 11
-306.811707
 21
263.502502
  0
LINE
  8
0
  6
PHANTOM
 62
     1
 10
-281.811707
 20
263.502502
 11
-281.811707
 21
244.502502
  0
LINE
  8
0
  6
CENTER
 62
     1
 10
-300.770325
 20
252.002502
 11
-286.881897
 21
252.002502
  0
LINE
  8
0
  6
CENTER
 62
     1
 10
-294.111694
 20
259.084045
 11
-294.111694
 21
245.009033
  0
LINE
  8
0
  6
PHANTOM
 62
     1
 10
-411.439453
 20
-109.786377
 11
-411.439453
 21
-130.786377
  0
LINE
  8
0
  6
PHANTOM
 62
     1
 10
-422.439453
 20
-109.786377
 11
-422.439453
 21
-130.786377
  0
LINE
  8
0
  6
PHANTOM
 62
     2
 10
-455.435852
 20
-130.986374
 11
-422.439453
 21
-130.986374
  0
LINE
  8
0
  6
PHANTOM
 62
     2
 10
-455.435852
 20
-204.586380
 11
-422.439453
 21
-204.586380
  0
LINE
  8
0
  6
PHANTOM
 62
     2
 10
-422.439453
 20
-130.786377
 11
-411.439453
 21
-130.786377
  0
LINE
  8
0
  6
PHANTOM
 62
     2
 10
-422.439453
 20
-204.786377
 11
-411.439453
 21
-204.786377
  0
LINE
  8
0
  6
CENTER
 62
     2
 10
-465.719757
 20
-167.786377
 11
-395.327026
 21
-167.786377
  0
LINE
  8
0
  6
PHANTOM
 62
     1
 10
-455.435852
 20
-109.986374
 11
-422.439453
 21
-109.986374
  0
LINE
  8
0
  6
PHANTOM
 62
     1
 10
-422.439453
 20
-109.786377
 11
-411.439453
 21
-109.786377
  0
LINE
  8
0
  6
CENTER
 62
     1
 10
-455.435852
 20
-122.786377
 11
-399.311157
 21
-122.786377
  0
LINE
  8
0
  6
PHANTOM
 62
     1
 10
-403.439453
 20
-116.786377
 11
-403.439453
 21
-128.786377
  0
LINE
  8
0
  6
PHANTOM
 62
     1
 10
-411.439453
 20
-115.786377
 11
-404.439453
 21
-115.786377
  0
LINE
  8
0
  6
PHANTOM
 62
     1
 10
-411.439453
 20
-129.786377
 11
-404.439453
 21
-129.786377
  0
LINE
  8
0
  6
PHANTOM
 62
     1
 10
-411.439453
 20
-116.786377
 11
-403.439453
 21
-116.786377
  0
LINE
  8
0
  6
PHANTOM
 62
     1
 10
-411.439453
 20
-128.786377
 11
-403.439453
 21
-128.786377
  0
LINE
  8
0
  6
PHANTOM
 62
     1
 10
-404.439331
 20
-115.786293
 11
-403.439331
 21
-116.786293
  0
LINE
  8
0
  6
PHANTOM
 62
     1
 10
-403.439392
 20
-128.786392
 11
-404.439392
 21
-129.786423
  0
LINE
  8
0
  6
PHANTOM
 62
     1
 10
-404.439453
 20
-129.786377
 11
-404.439453
 21
-115.786377
  0
LINE
  8
0
  6
PHANTOM
 62
     1
 10
-75.990097
 20
-81.786377
 11
-75.990097
 21
-110.786377
  0
LINE
  8
0
  6
PHANTOM
 62
     1
 10
-59.990097
 20
-81.786377
 11
-59.990097
 21
-110.786377
  0
LINE
  8
0
  6
CENTER
 62
     2
 10
-120.676544
 20
-162.786377
 11
-35.490097
 21
-162.786377
  0
LINE
  8
0
  6
PHANTOM
 62
     2
 10
-75.990097
 20
-110.786377
 11
-59.990097
 21
-110.786377
  0
LINE
  8
0
  6
PHANTOM
 62
     2
 10
-111.986679
 20
-110.986374
 11
-75.990097
 21
-110.986374
  0
LINE
  8
0
  6
PHANTOM
 62
     2
 10
-75.990097
 20
-214.786377
 11
-59.990097
 21
-214.786377
  0
LINE
  8
0
  6
PHANTOM
 62
     2
 10
-111.986679
 20
-214.586380
 11
-75.990097
 21
-214.586380
  0
LINE
  8
0
  6
PHANTOM
 62
     1
 10
-98.664696
 20
-81.986374
 11
-75.990097
 21
-81.986374
  0
LINE
  8
0
  6
PHANTOM
 62
     1
 10
-75.990097
 20
-81.786377
 11
-59.990097
 21
-81.786377
  0
LINE
  8
0
  6
PHANTOM
 62
     1
 10
-59.990097
 20
-108.786377
 11
-46.990097
 21
-108.786377
  0
LINE
  8
0
  6
PHANTOM
 62
     1
 10
-59.990097
 20
-88.786377
 11
-46.990097
 21
-88.786377
  0
LINE
  8
0
  6
PHANTOM
 62
     1
 10
-59.990097
 20
-107.786377
 11
-45.990097
 21
-107.786377
  0
LINE
  8
0
  6
PHANTOM
 62
     1
 10
-59.990097
 20
-89.786377
 11
-45.990097
 21
-89.786377
  0
LINE
  8
0
  6
PHANTOM
 62
     1
 10
-45.990097
 20
-107.786377
 11
-45.990097
 21
-89.786377
  0
LINE
  8
0
  6
PHANTOM
 62
     1
 10
-46.990116
 20
-88.786400
 11
-45.990124
 21
-89.786400
  0
LINE
  8
0
  6
PHANTOM
 62
     1
 10
-45.990101
 20
-107.786354
 11
-46.990101
 21
-108.786354
  0
LINE
  8
0
  6
PHANTOM
 62
     1
 10
-46.990097
 20
-108.786377
 11
-46.990097
 21
-88.786377
  0
LINE
  8
0
  6
PHANTOM
 62
     1
 10
291.115723
 20
222.281921
 11
291.115723
 21
191.281921
  0
LINE
  8
0
  6
PHANTOM
 62
     2
 10
291.115723
 20
191.281921
 11
307.115723
 21
191.281921
  0
LINE
  8
0
  6
PHANTOM
 62
     2
 10
251.115723
 20
191.081909
 11
291.115723
 21
191.081909
  0
LINE
  8
0
  6
CENTER
 62
     2
 10
237.483856
 20
129.281906
 11
326.115723
 21
129.281906
  0
LINE
  8
0
  6
PHANTOM
 62
     1
 10
307.115723
 20
191.281921
 11
307.115723
 21
222.281921
  0
LINE
  8
0
  6
PHANTOM
 62
     2
 10
291.115723
 20
67.281906
 11
307.115723
 21
67.281906
  0
LINE
  8
0
  6
PHANTOM
 62
     2
 10
251.115723
 20
67.481903
 11
291.115723
 21
67.481903
  0
LINE
  8
0
  6
PHANTOM
 62
     1
 10
269.799805
 20
222.081909
 11
291.115723
 21
222.081909
  0
LINE
  8
0
  6
PHANTOM
 62
     1
 10
291.115723
 20
222.281921
 11
307.115723
 21
222.281921
  0
LINE
  8
0
  6
CENTER
 62
     1
 10
268.380066
 20
204.281921
 11
335.031311
 21
204.281921
  0
LINE
  8
0
  6
PHANTOM
 62
     1
 10
307.115723
 20
193.281921
 11
323.115723
 21
193.281921
  0
LINE
  8
0
  6
PHANTOM
 62
     1
 10
307.115723
 20
215.281921
 11
323.115723
 21
215.281921
  0
LINE
  8
0
  6
PHANTOM
 62
     1
 10
307.115723
 20
194.281921
 11
324.115723
 21
194.281921
  0
LINE
  8
0
  6
PHANTOM
 62
     1
 10
307.115723
 20
214.281921
 11
324.115723
 21
214.281921
  0
LINE
  8
0
  6
PHANTOM
 62
     1
 10
324.115723
 20
214.281921
 11
324.115723
 21
194.281921
  0
LINE
  8
0
  6
PHANTOM
 62
     1
 10
323.114319
 20
215.280685
 11
324.114319
 21
214.280685
  0
LINE
  8
0
  6
PHANTOM
 62
     1
 10
324.115631
 20
194.281982
 11
323.115631
 21
193.281998
  0
LINE
  8
0
  6
PHANTOM
 62
     1
 10
323.115723
 20
193.281921
 11
323.115723
 21
215.281921
  0
LINE
  8
0
  6
CENTER
 62
     2
 10
-465.719757
 20
-324.080139
 11
-394.327026
 21
-324.080139
  0
LINE
  8
0
  6
PHANTOM
 62
     2
 10
-422.439453
 20
-306.080139
 11
-422.439453
 21
-337.080139
  0
LINE
  8
0
  6
PHANTOM
 62
     2
 10
-411.439453
 20
-306.080139
 11
-411.439453
 21
-308.080139
  0
LINE
  8
0
  6
PHANTOM
 62
     2
 10
-455.435852
 20
-308.280151
 11
-422.439453
 21
-308.280151
  0
LINE
  8
0
  6
PHANTOM
 62
     2
 10
-455.435852
 20
-336.880127
 11
-422.439453
 21
-336.880127
  0
LINE
  8
0
  6
PHANTOM
 62
     2
 10
-422.439453
 20
-337.080139
 11
-411.439453
 21
-337.080139
  0
LINE
  8
0
  6
PHANTOM
 62
     2
 10
-422.439453
 20
-308.080139
 11
-411.327087
 21
-308.080139
  0
LINE
  8
0
  6
PHANTOM
 62
     2
 10
-455.435852
 20
-306.280151
 11
-422.439453
 21
-306.280151
  0
LINE
  8
0
  6
PHANTOM
 62
     2
 10
-422.439453
 20
-306.080139
 11
-411.439453
 21
-306.080139
  0
LINE
  8
0
  6
CENTER
 62
     2
 10
-302.677002
 20
-167.786377
 11
-267.010620
 21
-167.786377
  0
LINE
  8
0
  6
CENTER
 62
     2
 10
-282.564087
 20
-129.376007
 11
-282.564087
 21
-207.572937
  0
LINE
  8
0
  6
PHANTOM
 62
     2
 10
-300.564117
 20
-157.786285
 11
-298.564117
 21
-155.786285
  0
LINE
  8
0
  6
PHANTOM
 62
     2
 10
-300.564362
 20
-177.786682
 11
-298.564331
 21
-179.786667
  0
LINE
  8
0
  6
PHANTOM
 62
     2
 10
-300.564087
 20
-177.786377
 11
-300.564087
 21
-157.786377
  0
LINE
  8
0
  6
PHANTOM
 62
     1
 10
-298.564087
 20
-109.786377
 11
-269.564087
 21
-109.786377
  0
LINE
  8
0
  6
PHANTOM
 62
     1
 10
-298.564087
 20
-109.786377
 11
-298.564087
 21
-130.786362
  0
LINE
  8
0
  6
PHANTOM
 62
     1
 10
-269.564087
 20
-130.786362
 11
-269.564087
 21
-109.786377
  0
LINE
  8
0
  6
CENTER
 62
     1
 10
-292.481903
 20
-122.786377
 11
-275.194122
 21
-122.786377
  0
LINE
  8
0
  6
CENTER
 62
     2
 10
50.552422
 20
-162.786407
 11
100.924255
 21
-162.786407
  0
LINE
  8
0
  6
CENTER
 62
     2
 10
78.339279
 20
-107.666664
 11
78.339279
 21
-221.181808
  0
LINE
  8
0
  6
PHANTOM
 62
     2
 10
54.339279
 20
-152.786453
 11
54.339279
 21
-172.787140
  0
LINE
  8
0
  6
PHANTOM
 62
     2
 10
54.339504
 20
-152.786789
 11
56.339489
 21
-150.786789
  0
LINE
  8
0
  6
PHANTOM
 62
     2
 10
54.338970
 20
-172.786850
 11
56.338978
 21
-174.786850
  0
LINE
  8
0
  6
PHANTOM
 62
     1
 10
57.339142
 20
-81.786407
 11
96.339142
 21
-81.786407
  0
LINE
  8
0
  6
PHANTOM
 62
     1
 10
97.339310
 20
-81.786407
 11
97.339310
 21
-110.786423
  0
LINE
  8
0
  6
PHANTOM
 62
     1
 10
56.339279
 20
-81.786407
 11
56.339279
 21
-110.786423
  0
LINE
  8
0
  6
CENTER
 62
     1
 10
-115.166672
 20
-98.786407
 11
-41.833332
 21
-98.786407
  0
LINE
  8
0
  6
CENTER
 62
     1
 10
77.039291
 20
-87.101746
 11
77.039291
 21
-110.364883
  0
LINE
  8
0
  6
PHANTOM
 62
     2
 10
-59.990112
 20
-302.080139
 11
-59.990112
 21
-300.080078
  0
LINE
  8
0
  6
PHANTOM
 62
     2
 10
-75.990112
 20
-300.080078
 11
-75.990112
 21
-343.080078
  0
LINE
  8
0
  6
CENTER
 62
     2
 10
-123.988129
 20
-324.080139
 11
-41.638840
 21
-324.080139
  0
LINE
  8
0
  6
PHANTOM
 62
     2
 10
-111.986679
 20
-302.280090
 11
-75.990112
 21
-302.280090
  0
LINE
  8
0
  6
PHANTOM
 62
     2
 10
-75.990112
 20
-302.080139
 11
-59.990112
 21
-302.080139
  0
LINE
  8
0
  6
PHANTOM
 62
     2
 10
-111.986679
 20
-300.280090
 11
-75.990112
 21
-300.280090
  0
LINE
  8
0
  6
PHANTOM
 62
     2
 10
-75.990112
 20
-300.080139
 11
-59.990112
 21
-300.080139
  0
LINE
  8
0
  6
CENTER
 62
     2
 10
429.680603
 20
129.281906
 11
487.503845
 21
129.281906
  0
LINE
  8
0
  6
PHANTOM
 62
     2
 10
433.314575
 20
139.081909
 11
433.314575
 21
119.481903
  0
LINE
  8
0
  6
PHANTOM
 62
     2
 10
433.315002
 20
139.081421
 11
435.315002
 21
141.081421
  0
LINE
  8
0
  6
CENTER
 62
     2
 10
461.314575
 20
64.983078
 11
461.314575
 21
193.429382
  0
LINE
  8
0
  6
PHANTOM
 62
     2
 10
433.313782
 20
119.481209
 11
435.313751
 21
117.481232
  0
LINE
  8
0
  6
PHANTOM
 62
     1
 10
435.314575
 20
222.281921
 11
484.314575
 21
222.281921
  0
LINE
  8
0
  6
PHANTOM
 62
     1
 10
435.314575
 20
222.281921
 11
435.314575
 21
191.281982
  0
LINE
  8
0
  6
PHANTOM
 62
     1
 10
484.314575
 20
222.281921
 11
484.314575
 21
191.281982
  0
LINE
  8
0
  6
CENTER
 62
     1
 10
446.154907
 20
204.281921
 11
474.049622
 21
204.281921
  0
LINE
  8
0
  6
CENTER
 62
     1
 10
460.014526
 20
217.571777
 11
460.014526
 21
191.913376
  0
LINE
  8
0
  6
PHANTOM
 62
     2
 10
291.115723
 20
-54.516319
 11
307.115723
 21
-54.516319
  0
LINE
  8
0
  6
PHANTOM
 62
     2
 10
307.115723
 20
-52.516319
 11
307.115723
 21
-54.516319
  0
LINE
  8
0
  6
PHANTOM
 62
     2
 10
291.115723
 20
-52.516319
 11
291.115723
 21
-103.516327
  0
LINE
  8
0
  6
CENTER
 62
     2
 10
235.979797
 20
-80.516327
 11
327.170746
 21
-80.516327
  0
LINE
  8
0
  6
PHANTOM
 62
     2
 10
291.115723
 20
-103.516327
 11
307.115723
 21
-103.516327
  0
LINE
  8
0
  6
PHANTOM
 62
     2
 10
251.115723
 20
-103.316345
 11
291.115723
 21
-103.316345
  0
LINE
  8
0
  6
PHANTOM
 62
     2
 10
251.115723
 20
-54.716331
 11
291.115723
 21
-54.716331
  0
LINE
  8
0
  6
PHANTOM
 62
     2
 10
251.115723
 20
-52.716331
 11
291.115723
 21
-52.716331
  0
LINE
  8
0
  6
PHANTOM
 62
     2
 10
291.115723
 20
-52.516319
 11
307.115723
 21
-52.516319
  0
LINE
  8
0
  6
PHANTOM
 62
     2
 10
-75.990112
 20
-343.080139
 11
-59.990112
 21
-343.080139
  0
LINE
  8
0
  6
PHANTOM
 62
     2
 10
-111.986679
 20
-342.880127
 11
-75.990112
 21
-342.880127
  0
LINE
  8
0
  6
PHANTOM
 62
     2
 10
-469.435852
 20
265.353973
 11
-469.435852
 21
174.203522
  0
LINE
  8
0
  6
PHANTOM
 62
     2
 10
-469.435852
 20
88.244820
 11
-469.435852
 21
43.333332
  0
LINE
  8
0
  6
PHANTOM
 62
     2
 10
-111.986679
 20
-105.970329
 11
-111.986679
 21
-221.290817
  0
LINE
  8
0
  6
PHANTOM
 62
     2
 10
-111.986679
 20
-292.068268
 11
-111.986679
 21
-349.468872
  0
LINE
  8
0
  6
PHANTOM
 62
     2
 10
-455.435852
 20
-105.383469
 11
-455.435852
 21
-213.702057
  0
LINE
  8
0
  6
PHANTOM
 62
     2
 10
-455.435852
 20
-298.333313
 11
-455.435852
 21
-350.000000
  0
LINE
  8
0
  6
PHANTOM
 62
     2
 10
251.115723
 20
191.081909
 11
251.115723
 21
59.738873
  0
LINE
  8
0
  6
PHANTOM
 62
     2
 10
251.115723
 20
-45.970329
 11
251.115723
 21
-109.994064
  0
LINE
  8
0
  6
CENTER
 62
     2
 10
-312.453674
 20
212.602509
 11
-277.911713
 21
212.602509
  0
LINE
  8
0
  6
CENTER
 62
     2
 10
-292.811859
 20
246.147552
 11
-292.811859
 21
179.131332
  0
LINE
  8
0
  6
CENTER
 62
     1
 10
64.500000
 20
-98.786407
 11
89.392731
 21
-98.786407
  0
LINE
  8
0
  6
CENTER
 62
     1
 10
-283.864105
 20
-113.628952
 11
-283.864105
 21
-132.423828
  0
LINE
  8
0
  6
CENTER
 62
     2
 10
-120.990250
 20
68.063004
 11
-50.990242
 21
68.063004
  0
LINE
  8
0
  6
CENTER
 62
     2
 10
-120.990250
 20
211.629745
 11
-50.990242
 21
211.629745
  0
LINE
  8
0
  6
PHANTOM
 62
     2
 10
-115.990250
 20
253.429779
 11
-76.990273
 21
253.429779
  0
LINE
  8
0
  6
PHANTOM
 62
     2
 10
-76.990257
 20
253.629776
 11
-65.990288
 21
253.629776
  0
LINE
  8
0
  6
PHANTOM
 62
     2
 10
-115.990250
 20
169.829788
 11
-76.990273
 21
169.829788
  0
LINE
  8
0
  6
PHANTOM
 62
     2
 10
-76.990257
 20
169.629791
 11
-65.990288
 21
169.629791
  0
LINE
  8
0
  6
PHANTOM
 62
     1
 10
-115.990250
 20
276.429871
 11
-76.990273
 21
276.429871
  0
LINE
  8
0
  6
PHANTOM
 62
     1
 10
-76.990257
 20
276.629883
 11
-65.990288
 21
276.629883
  0
LINE
  8
0
  6
PHANTOM
 62
     2
 10
-76.990257
 20
169.629791
 11
-76.990257
 21
253.629776
  0
LINE
  8
0
  6
PHANTOM
 62
     1
 10
-65.990219
 20
276.629883
 11
-65.990219
 21
253.629776
  0
LINE
  8
0
  6
CENTER
 62
     1
 10
-120.990250
 20
262.629761
 11
-49.514687
 21
262.629761
  0
LINE
  8
0
  6
PHANTOM
 62
     1
 10
-65.990265
 20
254.629807
 11
-55.990143
 21
254.629807
  0
LINE
  8
0
  6
PHANTOM
 62
     1
 10
-54.989807
 20
269.629517
 11
-54.989807
 21
255.630112
  0
LINE
  8
0
  6
PHANTOM
 62
     1
 10
-54.989929
 20
255.630203
 11
-55.990231
 21
254.629898
  0
LINE
  8
0
  6
PHANTOM
 62
     1
 10
-65.990265
 20
255.630112
 11
-54.989845
 21
255.630112
  0
LINE
  8
0
  6
PHANTOM
 62
     1
 10
-55.990097
 20
254.629791
 11
-55.990097
 21
270.629761
  0
LINE
  8
0
  6
PHANTOM
 62
     2
 10
56.904480
 20
221.629745
 11
56.904480
 21
201.629745
  0
LINE
  8
0
  6
PHANTOM
 62
     2
 10
56.904541
 20
221.629745
 11
58.904545
 21
223.629745
  0
LINE
  8
0
  6
PHANTOM
 62
     2
 10
56.904366
 20
201.629684
 11
58.904362
 21
199.629700
  0
LINE
  8
0
  6
PHANTOM
 62
     1
 10
58.904465
 20
276.629883
 11
92.904480
 21
276.629883
  0
LINE
  8
0
  6
PHANTOM
 62
     1
 10
58.904465
 20
276.629883
 11
58.904465
 21
253.629761
  0
LINE
  8
0
  6
PHANTOM
 62
     1
 10
92.904480
 20
276.629883
 11
92.904480
 21
253.629761
  0
LINE
  8
0
  6
CENTER
 62
     1
 10
64.950546
 20
262.629730
 11
86.553360
 21
262.629730
  0
LINE
  8
0
  6
CENTER
 62
     1
 10
75.904480
 20
272.353210
 11
75.904480
 21
254.015991
  0
LINE
  8
0
  6
PHANTOM
 62
     2
 10
-76.990379
 20
52.563004
 11
-65.990341
 21
52.563004
  0
LINE
  8
0
  6
PHANTOM
 62
     2
 10
-76.990379
 20
86.563004
 11
-65.990341
 21
86.563004
  0
LINE
  8
0
  6
PHANTOM
 62
     2
 10
-115.990250
 20
52.763016
 11
-76.990379
 21
52.763016
  0
LINE
  8
0
  6
PHANTOM
 62
     2
 10
-115.990250
 20
86.363007
 11
-76.990379
 21
86.363007
  0
LINE
  8
0
  6
PHANTOM
 62
     2
 10
-115.990250
 20
88.363014
 11
-76.990379
 21
88.363014
  0
LINE
  8
0
  6
PHANTOM
 62
     2
 10
-76.990379
 20
88.563004
 11
-65.990341
 21
88.563004
  0
LINE
  8
0
  6
PHANTOM
 62
     1
 10
-65.990265
 20
269.629456
 11
-54.989845
 21
269.629456
  0
LINE
  8
0
  6
PHANTOM
 62
     1
 10
-65.990265
 20
270.629761
 11
-55.990143
 21
270.629761
  0
LINE
  8
0
  6
PHANTOM
 62
     1
 10
-54.989658
 20
269.629608
 11
-55.989971
 21
270.629913
  0
LINE
  8
0
  6
PHANTOM
 62
     2
 10
-76.990379
 20
88.563004
 11
-76.990379
 21
52.563004
  0
LINE
  8
0
  6
PHANTOM
 62
     2
 10
-65.990341
 20
88.563004
 11
-65.990341
 21
86.563004
  0
LINE
  8
0
  6
PHANTOM
 62
     2
 10
-115.990250
 20
281.429871
 11
-115.990250
 21
164.829788
  0
LINE
  8
0
  6
PHANTOM
 62
     2
 10
-115.990250
 20
93.363014
 11
-115.990250
 21
47.763016
  0
LINE
  8
0
  6
CENTER
 62
     2
 10
54.904469
 20
211.629761
 11
99.904465
 21
211.629761
  0
LINE
  8
0
  6
CENTER
 62
     2
 10
77.404465
 20
256.629761
 11
77.404465
 21
166.629761
  0
LINE
  8
0
  6
PHANTOM
 62
     1
 10
-425.439453
 20
257.102509
 11
-424.439453
 21
257.102509
  0
LINE
  8
0
  6
PHANTOM
 62
     1
 10
-425.439972
 20
258.102020
 11
-424.439972
 21
257.102020
  0
LINE
  8
0
  6
PHANTOM
 62
     1
 10
-436.439453
 20
244.402527
 11
-436.439453
 21
263.602509
  0
LINE
  8
0
  6
PHANTOM
 62
     2
 10
-436.439453
 20
79.709442
 11
-436.439453
 21
81.909454
  0
LINE
  8
0
  6
PHANTOM
 62
     2
 10
-422.439453
 20
-130.786377
 11
-422.439453
 21
-204.786377
  0
LINE
  8
0
  6
PHANTOM
 62
     2
 10
-75.990097
 20
-110.786377
 11
-75.990097
 21
-214.786377
  0
LINE
  8
0
  6
PHANTOM
 62
     1
 10
-76.990257
 20
253.629776
 11
-76.990257
 21
276.629883
  0
LINE
  8
0
  6
PHANTOM
 62
     2
 10
291.115723
 20
191.281921
 11
291.115723
 21
67.281906
  0
CIRCLE
  8
0
 10
-420.439606
 20
204.602493
 40
2.100000
  0
CIRCLE
  8
0
 62
     2
 10
-420.439606
 20
204.602493
 40
2.500000
  0
CIRCLE
  8
0
 62
     2
 10
-420.439606
 20
220.602493
 40
2.500000
  0
CIRCLE
  8
0
 10
-420.439606
 20
220.602524
 40
2.100000
  0
CIRCLE
  8
0
 10
-299.811859
 20
195.502518
 40
3.500000
  0
CIRCLE
  8
0
 10
-285.811859
 20
195.502518
 40
1.650000
  0
CIRCLE
  8
0
 10
-299.811859
 20
229.502518
 40
1.650000
  0
CIRCLE
  8
0
 10
-285.811859
 20
229.502518
 40
3.500000
  0
ARC
  8
0
 10
-285.811859
 20
229.502518
 40
4.000000
 50
90.000000
 51
270.000000
  0
CIRCLE
  8
0
 62
     2
 10
-285.811859
 20
195.502518
 40
2.000000
  0
CIRCLE
  8
0
 10
-299.811859
 20
195.502518
 40
4.000000
  0
CIRCLE
  8
0
 62
     2
 10
-299.811859
 20
229.502518
 40
2.000000
  0
CIRCLE
  8
0
 62
     2
 10
-406.439667
 20
-176.786484
 40
2.500000
  0
CIRCLE
  8
0
 10
-406.439697
 20
-176.786484
 40
2.100000
  0
CIRCLE
  8
0
 10
-406.439301
 20
-158.786484
 40
2.100000
  0
CIRCLE
  8
0
 62
     2
 10
-406.439301
 20
-158.786484
 40
2.500000
  0
ARC
  8
0
 10
-273.564331
 20
-148.286362
 40
4.000000
 50
90.000000
 51
270.000000
  0
CIRCLE
  8
0
 10
-273.564331
 20
-148.286362
 40
3.500000
  0
CIRCLE
  8
0
 10
-291.564331
 20
-187.286362
 40
3.500000
  0
CIRCLE
  8
0
 10
-291.564331
 20
-148.286362
 40
1.650000
  0
CIRCLE
  8
0
 10
-291.564331
 20
-187.286362
 40
4.000000
  0
CIRCLE
  8
0
 62
     2
 10
-291.564331
 20
-148.286362
 40
2.000000
  0
CIRCLE
  8
0
 10
-273.564331
 20
-187.286362
 40
1.650000
  0
CIRCLE
  8
0
 62
     2
 10
-273.564331
 20
-187.286362
 40
2.000000
  0
CIRCLE
  8
0
 62
     2
 10
-60.990242
 20
221.629745
 40
2.500000
  0
CIRCLE
  8
0
 10
-60.990242
 20
221.629745
 40
2.100000
  0
CIRCLE
  8
0
 10
-60.990242
 20
201.629745
 40
2.100000
  0
CIRCLE
  8
0
 62
     2
 10
-60.990242
 20
201.629745
 40
2.500000
  0
CIRCLE
  8
0
 10
66.904465
 20
189.129776
 40
4.750000
  0
CIRCLE
  8
0
 62
     2
 10
87.904465
 20
189.129776
 40
2.500000
  0
CIRCLE
  8
0
 10
87.904465
 20
189.129776
 40
2.100000
  0
CIRCLE
  8
0
 10
87.904465
 20
234.129868
 40
4.250000
  0
CIRCLE
  8
0
 10
66.904465
 20
189.129776
 40
4.250000
  0
ARC
  8
0
 10
87.904465
 20
234.129868
 40
4.750000
 50
90.000000
 51
270.000000
  0
CIRCLE
  8
0
 62
     2
 10
66.904465
 20
234.129868
 40
2.500000
  0
CIRCLE
  8
0
 10
66.904465
 20
234.129868
 40
2.100000
  0
CIRCLE
  8
0
 10
-52.990234
 20
-150.786392
 40
4.250000
  0
CIRCLE
  8
0
 62
     2
 10
-52.990234
 20
-150.786392
 40
4.864000
  0
CIRCLE
  8
0
 10
-52.990234
 20
-174.786392
 40
4.250000
  0
CIRCLE
  8
0
 62
     2
 10
-52.990234
 20
-174.786392
 40
4.864000
  0
CIRCLE
  8
0
 62
     2
 10
65.339119
 20
-135.786453
 40
3.000000
  0
CIRCLE
  8
0
 10
91.339180
 20
-189.786423
 40
2.500000
  0
CIRCLE
  8
0
 10
65.339149
 20
-135.786423
 40
2.500000
  0
CIRCLE
  8
0
 62
     2
 10
91.339180
 20
-189.786407
 40
3.000000
  0
CIRCLE
  8
0
 10
65.339149
 20
-189.786423
 40
5.750000
  0
CIRCLE
  8
0
 10
91.339180
 20
-135.786423
 40
5.000000
  0
CIRCLE
  8
0
 10
65.339149
 20
-189.786423
 40
5.000000
  0
ARC
  8
0
 10
91.339180
 20
-135.786423
 40
5.750000
 50
90.000000
 51
270.000000
  0
CIRCLE
  8
0
 10
314.115631
 20
144.281921
 40
4.250000
  0
CIRCLE
  8
0
 62
     2
 10
314.115631
 20
144.281921
 40
4.864000
  0
CIRCLE
  8
0
 10
314.115631
 20
114.281921
 40
4.250000
  0
CIRCLE
  8
0
 62
     2
 10
314.115631
 20
114.281921
 40
4.864000
  0
ARC
  8
0
 10
477.314514
 20
162.281982
 40
7.250000
 50
90.000000
 51
270.000000
  0
CIRCLE
  8
0
 10
445.314514
 20
162.281982
 40
3.375000
  0
CIRCLE
  8
0
 62
     2
 10
477.314514
 20
96.281960
 40
4.000000
  0
CIRCLE
  8
0
 10
477.314514
 20
96.281960
 40
3.375000
  0
CIRCLE
  8
0
 10
477.314514
 20
162.281982
 40
6.500000
  0
CIRCLE
  8
0
 10
445.314514
 20
96.281960
 40
7.250000
  0
CIRCLE
  8
0
 10
445.314514
 20
96.281960
 40
6.500000
  0
CIRCLE
  8
0
 62
     2
 10
445.314514
 20
162.281982
 40
4.000000
  0
CIRCLE
  8
0
  6
PHANTOM
 62
     1
 10
-294.111694
 20
252.002502
 40
6.000000
  0
CIRCLE
  8
0
  6
PHANTOM
 62
     1
 10
-294.111694
 20
252.002502
 40
5.000000
  0
CIRCLE
  8
0
  6
PHANTOM
 62
     1
 10
-283.864105
 20
-122.786377
 40
7.000000
  0
CIRCLE
  8
0
  6
PHANTOM
 62
     1
 10
-283.864105
 20
-122.786377
 40
6.000000
  0
CIRCLE
  8
0
  6
PHANTOM
 62
     1
 10
77.039185
 20
-98.786423
 40
9.000000
  0
CIRCLE
  8
0
  6
PHANTOM
 62
     1
 10
77.039185
 20
-98.786423
 40
10.000000
  0
CIRCLE
  8
0
  6
PHANTOM
 62
     1
 10
460.014526
 20
204.281921
 40
11.000000
  0
CIRCLE
  8
0
  6
PHANTOM
 62
     1
 10
460.014526
 20
204.281921
 40
10.000000
  0
CIRCLE
  8
0
  6
PHANTOM
 62
     1
 10
75.904480
 20
262.629730
 40
6.999706
  0
CIRCLE
  8
0
  6
PHANTOM
 62
     1
 10
75.904480
 20
262.629730
 40
8.000011
  0
TEXT
  8
0
 10
407.964844
 20
375.250000
 40
12.500000
  1
Ver. 2.0
 50
0.000000
 41
1.052632
 51
0.000000
  7
STANDARD
  0
TEXT
  8
0
 10
345.179352
 20
-400.700012
 40
18.000000
  1
KOGANEI CORP.
 50
0.000000
 41
1.052632
 51
0.000000
  7
STANDARD
  0
TEXT
  8
0
 10
-494.785156
 20
367.750000
 40
12.500000
  1
ADAPTER
 50
0.000000
 41
1.052632
 51
0.000000
  7
STANDARD
  0
TEXT
  8
0
 10
-497.202362
 20
320.750000
 40
12.500000
  1
BORE: 16
 50
0.000000
 41
1.052632
 51
0.000000
  7
STANDARD
  0
TEXT
  8
0
 10
-147.617172
 20
-40.250000
 40
12.500000
  1
BORE: 32
 50
0.000000
 41
1.052632
 51
0.000000
  7
STANDARD
  0
TEXT
  8
0
 10
-497.202362
 20
-40.250000
 40
12.500000
  1
BORE: 20
 50
0.000000
 41
1.052632
 51
0.000000
  7
STANDARD
  0
TEXT
  8
0
 10
-147.617172
 20
320.750000
 40
12.500000
  1
BORE: 25
 50
0.000000
 41
1.052632
 51
0.000000
  7
STANDARD
  0
TEXT
  8
0
 10
222.045822
 20
320.750000
 40
12.500000
  1
BORE: 40
 50
0.000000
 41
1.052632
 51
0.000000
  7
STANDARD
  0
TEXT
  8
0
 10
-532.285156
 20
382.750000
 40
12.500000
  1
AXIS CYLINDER
 50
0.000000
 41
1.052632
 51
0.000000
  7
STANDARD
  0
ENDSEC
  0
EOF
