  0
SECTION
  2
HEADER
  0
ENDSEC
  0
SECTION
  2
TABLES
  0
TABLE
  2
LTYPE
 70
     4
  0
LTYPE
  2
CONTINUOUS
 70
    64
  3
Solid line
 72
    65
 73
     0
 40
0.000000
  0
LTYPE
  2
DASHED
 70
    64
  3
__ __ __ __ __ __ __ __ __ __ __ __ __ __ __
 72
    65
 73
     2
 40
3.500000
 49
2.000000
 49
-1.500000
  0
LTYPE
  2
CENTER
 70
    64
  3
____ _ ____ _ ____ _ ____ _ ____ _ ____ _ ____
 72
    65
 73
     4
 40
17.500000
 49
13.000000
 49
-1.500000
 49
1.500000
 49
-1.500000
  0
LTYPE
  2
PHANTOM
 70
    64
  3
_____ _ _ _____ _ _ _____ _ _ _____ _ _ ____  
 72
    65
 73
     6
 40
15.500000
 49
8.000000
 49
-1.500000
 49
1.500000
 49
-1.500000
 49
1.500000
 49
-1.500000
  0
LTYPE
  2
DASHED1
 70
    64
  3
__ __ __ __ __ __ __ __ __ __ __ __ __ __ __
 72
    65
 73
     2
 40
1.500000
 49
1.000000
 49
-0.500000
  0
LTYPE
  2
DASHED2
 70
    64
  3
__ __ __ __ __ __ __ __ __ __ __ __ __ __ __
 72
    65
 73
     2
 40
3.500000
 49
2.500000
 49
-1.000000
  0
LTYPE
  2
DASHED3
 70
    64
  3
__ __ __ __ __ __ __ __ __ __ __ __ __ __ __
 72
    65
 73
     2
 40
6.000000
 49
4.000000
 49
-2.000000
  0
LTYPE
  2
DASHED4
 70
    64
  3
__ __ __ __ __ __ __ __ __ __ __ __ __ __ __
 72
    65
 73
     2
 40
12.000000
 49
10.000000
 49
-2.000000
  0
LTYPE
  2
DASHED5
 70
    64
  3
__ __ __ __ __ __ __ __ __ __ __ __ __ __ __
 72
    65
 73
     2
 40
17.000000
 49
15.000000
 49
-2.000000
  0
LTYPE
  2
DASHED6
 70
    64
  3
__ __ __ __ __ __ __ __ __ __ __ __ __ __ __
 72
    65
 73
     2
 40
29.000000
 49
27.000000
 49
-2.000000
  0
LTYPE
  2
PHANTOM1
 70
    64
  3
_____ _ _ _____ _ _ _____ _ _ _____ _ _ ____  
 72
    65
 73
     6
 40
31.000000
 49
25.000000
 49
-1.500000
 49
1.000000
 49
-1.000000
 49
1.000000
 49
-1.500000
  0
LTYPE
  2
PHANTOM2
 70
    64
  3
_____ _ _ _____ _ _ _____ _ _ _____ _ _ ____  
 72
    65
 73
     6
 40
36.000000
 49
27.000000
 49
-1.500000
 49
2.500000
 49
-1.000000
 49
2.500000
 49
-1.500000
  0
LTYPE
  2
PHANTOM3
 70
    64
  3
_____ _ _ _____ _ _ _____ _ _ _____ _ _ ____  
 72
    65
 73
     6
 40
78.000000
 49
64.000000
 49
-2.000000
 49
4.000000
 49
-2.000000
 49
4.000000
 49
-2.000000
  0
LTYPE
  2
CENTER1
 70
    64
  3
____ _ ____ _ ____ _ ____ _ ____ _ ____ _ ____
 72
    65
 73
     4
 40
19.000000
 49
14.000000
 49
-1.000000
 49
3.000000
 49
-1.000000
  0
LTYPE
  2
CENTER2
 70
    64
  3
____ _ ____ _ ____ _ ____ _ ____ _ ____ _ ____
 72
    65
 73
     4
 40
28.500000
 49
25.000000
 49
-1.000000
 49
1.500000
 49
-1.000000
  0
LTYPE
  2
CENTER3
 70
    64
  3
____ _ ____ _ ____ _ ____ _ ____ _ ____ _ ____
 72
    65
 73
     4
 40
31.500000
 49
27.000000
 49
-1.000000
 49
2.500000
 49
-1.000000
  0
LTYPE
  2
CENTER4
 70
    64
  3
____ _ ____ _ ____ _ ____ _ ____ _ ____ _ ____
 72
    65
 73
     4
 40
50.000000
 49
45.000000
 49
-1.000000
 49
3.000000
 49
-1.000000
  0
LTYPE
  2
CENTER5
 70
    64
  3
____ _ ____ _ ____ _ ____ _ ____ _ ____ _ ____
 72
    65
 73
     4
 40
100.000000
 49
92.000000
 49
-2.000000
 49
4.000000
 49
-2.000000
  0
LTYPE
  2
SBK1
 70
    64
  3
______ _ _ _ ______ _ _ _ ______ _ _ _ _____  
 72
    65
 73
     8
 40
60.500000
 49
45.000000
 49
-2.000000
 49
2.500000
 49
-2.000000
 49
2.500000
 49
-2.000000
 49
2.500000
 49
-2.000000
  0
LTYPE
  2
SBK2
 70
    64
  3
______ _ _ _ ______ _ _ _ ______ _ _ _ _____  
 72
    65
 73
     8
 40
84.000000
 49
64.000000
 49
-2.000000
 49
4.000000
 49
-2.000000
 49
4.000000
 49
-2.000000
 49
4.000000
 49
-2.000000
  0
LTYPE
  2
STCH
 70
    64
  3
__ __ __ __ __ __ __ __ __ __ __ __ __ __ __
 72
    65
 73
     2
 40
3.000000
 49
1.000000
 49
-2.000000
  0
LTYPE
  2
MTCH
 70
    64
  3
_____ _ _ _____ _ _ _____ _ _ _____ _ _ ____  
 72
    65
 73
     6
 40
80.000000
 49
66.000000
 49
-2.000000
 49
4.000000
 49
-2.000000
 49
4.000000
 49
-2.000000
  0
ENDTAB
  0
TABLE
  2
LAYER
 70
     1
  0
LAYER
  2
0
 70
     0
 62
     7
  6
CONTINUOUS
  0
ENDTAB
  0
TABLE
  2
STYLE
 70
     1
  0
STYLE
  2
STANDARD
 70
     0
 40
0.000000
 41
1.000000
 50
0.000000
 71
     0
 42
0.200000
  3
txt
  4
BIGFONT
  0
ENDTAB
  0
TABLE
  2
VIEW
 70
     0
  0
ENDTAB
  0
ENDSEC
  0
SECTION
  2
BLOCKS
  0
ENDSEC
  0
SECTION
  2
ENTITIES
  0
LINE
  8
0
 10
-104.062500
 20
-142.387497
 11
115.924988
 21
-142.387497
  0
LINE
  8
0
 10
-104.062500
 20
-178.887497
 11
115.924988
 21
-178.887497
  0
LINE
  8
0
 10
-104.062500
 20
-179.387497
 11
115.924988
 21
-179.387497
  0
LINE
  8
0
 10
-104.062500
 20
-199.387497
 11
115.924988
 21
-199.387497
  0
LINE
  8
0
 10
-104.062500
 20
-199.887497
 11
115.924988
 21
-199.887497
  0
LINE
  8
0
 10
-104.062500
 20
-236.387497
 11
115.924988
 21
-236.387497
  0
LINE
  8
0
 10
-104.062500
 20
-141.387497
 11
-104.062500
 21
-237.387482
  0
LINE
  8
0
 10
-104.062500
 20
-237.387482
 11
115.924988
 21
-237.387482
  0
LINE
  8
0
 10
115.924988
 20
-141.387497
 11
115.924988
 21
-237.387482
  0
LINE
  8
0
 10
-104.062500
 20
-141.387497
 11
115.924988
 21
-141.387497
  0
LINE
  8
0
  6
CENTER
 62
     2
 10
-110.580704
 20
-189.387497
 11
121.862488
 21
-189.387497
  0
LINE
  8
0
 62
     2
 10
80.935257
 20
-201.389130
 11
80.935257
 21
-211.389130
  0
LINE
  8
0
 62
     2
 10
75.935257
 20
-206.389130
 11
85.935257
 21
-206.389130
  0
LINE
  8
0
 62
     2
 10
80.935257
 20
-167.389130
 11
80.935257
 21
-177.389130
  0
LINE
  8
0
 62
     2
 10
75.935257
 20
-172.389130
 11
85.935257
 21
-172.389130
  0
LINE
  8
0
  6
CENTER
 62
     2
 10
-69.064743
 20
-167.389130
 11
-69.064743
 21
-177.389130
  0
LINE
  8
0
  6
CENTER
 62
     2
 10
-74.064743
 20
-172.389130
 11
-64.064743
 21
-172.389130
  0
LINE
  8
0
  6
CENTER
 62
     2
 10
-69.064743
 20
-201.389130
 11
-69.064743
 21
-211.389130
  0
LINE
  8
0
  6
CENTER
 62
     2
 10
-74.064743
 20
-206.389130
 11
-64.064743
 21
-206.389130
  0
LINE
  8
0
  6
CENTER
 62
     2
 10
138.955261
 20
-226.389145
 11
112.465256
 21
-226.389145
  0
LINE
  8
0
 10
120.935257
 20
-231.389145
 11
120.935257
 21
-221.389145
  0
LINE
  8
0
 10
120.935257
 20
-229.389145
 11
135.435257
 21
-229.389145
  0
LINE
  8
0
 62
     2
 10
120.935257
 20
-228.639145
 11
135.935257
 21
-228.639145
  0
LINE
  8
0
 62
     2
 10
120.935257
 20
-224.139145
 11
135.935257
 21
-224.139145
  0
LINE
  8
0
 10
120.935257
 20
-223.389145
 11
135.435257
 21
-223.389145
  0
LINE
  8
0
 10
135.435257
 20
-223.389160
 11
135.935257
 21
-223.889160
  0
LINE
  8
0
 10
135.935257
 20
-228.889145
 11
135.435257
 21
-229.389145
  0
LINE
  8
0
 10
135.935257
 20
-223.889145
 11
135.935257
 21
-228.889145
  0
LINE
  8
0
 10
135.435257
 20
-223.389145
 11
135.435257
 21
-229.389145
  0
LINE
  8
0
 10
120.485260
 20
-226.389145
 11
116.375259
 21
-226.389145
  0
LINE
  8
0
 10
120.935257
 20
-221.389145
 11
115.935257
 21
-221.389145
  0
LINE
  8
0
 10
120.935257
 20
-231.389145
 11
115.935257
 21
-231.389145
  0
LINE
  8
0
  6
CENTER
 62
     2
 10
-127.084717
 20
-226.389145
 11
-100.594734
 21
-226.389145
  0
LINE
  8
0
 10
-109.064728
 20
-221.389145
 11
-109.064728
 21
-231.389145
  0
LINE
  8
0
 10
-109.064728
 20
-223.389145
 11
-123.564728
 21
-223.389145
  0
LINE
  8
0
 62
     2
 10
-109.064728
 20
-224.139145
 11
-124.064728
 21
-224.139145
  0
LINE
  8
0
 62
     2
 10
-109.064728
 20
-228.639145
 11
-124.064728
 21
-228.639145
  0
LINE
  8
0
 10
-109.064728
 20
-229.389145
 11
-123.564728
 21
-229.389145
  0
LINE
  8
0
 10
-123.564713
 20
-229.389145
 11
-124.064713
 21
-228.889145
  0
LINE
  8
0
 10
-124.064728
 20
-223.889160
 11
-123.564728
 21
-223.389160
  0
LINE
  8
0
 10
-124.064728
 20
-228.889145
 11
-124.064728
 21
-223.889145
  0
LINE
  8
0
 10
-123.564728
 20
-229.389145
 11
-123.564728
 21
-223.389145
  0
LINE
  8
0
 10
-108.614731
 20
-226.389145
 11
-104.504730
 21
-226.389145
  0
LINE
  8
0
 10
-109.064728
 20
-231.389145
 11
-104.064728
 21
-231.389145
  0
LINE
  8
0
 10
-109.064728
 20
-221.389145
 11
-104.064728
 21
-221.389145
  0
LINE
  8
0
  6
CENTER
 62
     2
 10
106.235260
 20
-206.389130
 11
95.635254
 21
-206.389130
  0
LINE
  8
0
  6
CENTER
 62
     2
 10
100.935257
 20
-201.089142
 11
100.935257
 21
-211.689133
  0
LINE
  8
0
  6
CENTER
 62
     2
 10
106.235260
 20
-172.389130
 11
95.635254
 21
-172.389130
  0
LINE
  8
0
  6
CENTER
 62
     2
 10
100.935257
 20
-167.089127
 11
100.935257
 21
-177.689117
  0
LINE
  8
0
  6
CENTER
 62
     2
 10
-83.764740
 20
-206.389130
 11
-94.364731
 21
-206.389130
  0
LINE
  8
0
  6
CENTER
 62
     2
 10
-89.064728
 20
-201.089142
 11
-89.064728
 21
-211.689133
  0
LINE
  8
0
  6
CENTER
 62
     2
 10
-83.764740
 20
-172.389130
 11
-94.364731
 21
-172.389130
  0
LINE
  8
0
  6
CENTER
 62
     2
 10
-89.064728
 20
-167.089127
 11
-89.064728
 21
-177.689117
  0
LINE
  8
0
  6
PHANTOM
 62
     3
 10
-55.196686
 20
-115.693756
 11
-55.196686
 21
-256.843567
  0
LINE
  8
0
  6
PHANTOM
 62
     3
 10
-31.773224
 20
-115.693756
 11
-31.773224
 21
-256.843567
  0
LINE
  8
0
  6
PHANTOM
 62
     3
 10
86.286484
 20
-115.693756
 11
63.697250
 21
-115.693756
  0
LINE
  8
0
  6
PHANTOM
 62
     3
 10
63.697250
 20
-115.693756
 11
63.697250
 21
-256.843567
  0
LINE
  8
0
 10
-104.062485
 20
-72.900009
 11
115.925003
 21
-72.900009
  0
LINE
  8
0
 10
-104.062485
 20
-76.099998
 11
115.925003
 21
-76.099998
  0
LINE
  8
0
 10
-104.062485
 20
-81.900002
 11
115.925003
 21
-81.900002
  0
LINE
  8
0
 10
-104.062485
 20
-85.099998
 11
115.925003
 21
-85.099998
  0
LINE
  8
0
 10
-104.062485
 20
-89.000000
 11
115.925003
 21
-89.000000
  0
LINE
  8
0
 10
-104.062485
 20
-66.000000
 11
115.925003
 21
-66.000000
  0
LINE
  8
0
 10
-49.062485
 20
-53.000000
 11
110.925003
 21
-53.000000
  0
LINE
  8
0
 10
-20.562485
 20
-63.000000
 11
-20.562485
 21
-65.000000
  0
LINE
  8
0
 10
-49.062485
 20
-63.000000
 11
110.925003
 21
-63.000000
  0
LINE
  8
0
 10
82.425003
 20
-63.000000
 11
82.425003
 21
-65.000000
  0
LINE
  8
0
 10
32.425003
 20
-63.000000
 11
32.425003
 21
-65.000000
  0
LINE
  8
0
 10
29.425003
 20
-63.000000
 11
29.425003
 21
-65.000000
  0
LINE
  8
0
 10
-104.062485
 20
-65.000000
 11
115.925003
 21
-65.000000
  0
LINE
  8
0
 10
110.925003
 20
-52.000000
 11
110.925003
 21
-63.000000
  0
LINE
  8
0
 10
-49.062485
 20
-52.000000
 11
110.925003
 21
-52.000000
  0
LINE
  8
0
 10
-49.062485
 20
-52.000000
 11
-49.062485
 21
-63.000000
  0
LINE
  8
0
 10
-104.062485
 20
-65.000000
 11
-104.062485
 21
-90.000000
  0
LINE
  8
0
 10
115.925003
 20
-65.000000
 11
115.925003
 21
-90.000000
  0
LINE
  8
0
 10
-104.062485
 20
-90.000000
 11
115.925003
 21
-90.000000
  0
LINE
  8
0
 10
120.485275
 20
-78.769974
 11
116.375275
 21
-78.769974
  0
LINE
  8
0
 10
120.935272
 20
-77.999962
 11
120.485268
 21
-78.769966
  0
LINE
  8
0
 10
120.935272
 20
-77.999977
 11
120.935272
 21
-67.999985
  0
LINE
  8
0
 10
120.485275
 20
-75.879974
 11
116.375275
 21
-75.879974
  0
LINE
  8
0
 10
120.485275
 20
-70.119980
 11
116.375275
 21
-70.119980
  0
LINE
  8
0
 10
120.485275
 20
-67.229980
 11
116.375275
 21
-67.229980
  0
LINE
  8
0
 10
120.935280
 20
-67.999985
 11
120.485268
 21
-67.229973
  0
LINE
  8
0
 10
115.935272
 20
-67.999985
 11
116.375267
 21
-67.229988
  0
LINE
  8
0
 10
115.935272
 20
-77.999969
 11
116.375267
 21
-78.769966
  0
LINE
  8
0
 10
135.935272
 20
-70.499985
 11
135.935272
 21
-72.399979
  0
LINE
  8
0
 10
120.935272
 20
-75.999977
 11
135.435272
 21
-75.999977
  0
LINE
  8
0
 62
     2
 10
120.935272
 20
-75.249977
 11
135.935272
 21
-75.249977
  0
LINE
  8
0
 62
     2
 10
120.935272
 20
-70.749985
 11
135.935272
 21
-70.749985
  0
LINE
  8
0
 10
120.935272
 20
-69.999985
 11
135.435272
 21
-69.999985
  0
LINE
  8
0
 10
135.435272
 20
-69.999969
 11
135.935272
 21
-70.499969
  0
LINE
  8
0
 10
135.935272
 20
-75.499969
 11
135.435272
 21
-75.999969
  0
LINE
  8
0
 10
135.435272
 20
-69.999985
 11
135.435272
 21
-72.399979
  0
LINE
  8
0
 10
133.935272
 20
-72.399979
 11
135.935272
 21
-72.399979
  0
LINE
  8
0
 10
133.935272
 20
-73.599976
 11
135.935272
 21
-73.599976
  0
LINE
  8
0
 10
133.935272
 20
-72.399979
 11
133.935272
 21
-73.599976
  0
LINE
  8
0
 10
135.935272
 20
-73.599976
 11
135.935272
 21
-75.499977
  0
LINE
  8
0
 10
135.435272
 20
-73.599976
 11
135.435272
 21
-75.999977
  0
LINE
  8
0
  6
CENTER
 62
     2
 10
112.665283
 20
-72.999985
 11
138.285278
 21
-72.999985
  0
LINE
  8
0
 10
-108.614716
 20
-67.229980
 11
-104.504715
 21
-67.229980
  0
LINE
  8
0
 10
-109.064720
 20
-67.999985
 11
-108.614716
 21
-67.229973
  0
LINE
  8
0
 10
-109.064713
 20
-67.999985
 11
-109.064713
 21
-77.999977
  0
LINE
  8
0
 10
-108.614716
 20
-70.119980
 11
-104.504715
 21
-70.119980
  0
LINE
  8
0
 10
-108.614716
 20
-75.879974
 11
-104.504715
 21
-75.879974
  0
LINE
  8
0
 10
-108.614716
 20
-78.769974
 11
-104.504715
 21
-78.769974
  0
LINE
  8
0
 10
-109.064720
 20
-77.999977
 11
-108.614723
 21
-78.769974
  0
LINE
  8
0
 10
-104.064713
 20
-77.999977
 11
-104.504715
 21
-78.769974
  0
LINE
  8
0
 10
-104.064713
 20
-67.999977
 11
-104.504707
 21
-67.229980
  0
LINE
  8
0
 10
-124.064713
 20
-75.499977
 11
-124.064713
 21
-73.599976
  0
LINE
  8
0
 10
-109.064713
 20
-69.999985
 11
-123.564713
 21
-69.999985
  0
LINE
  8
0
 62
     2
 10
-109.064713
 20
-70.749985
 11
-124.064713
 21
-70.749985
  0
LINE
  8
0
 62
     2
 10
-109.064713
 20
-75.249977
 11
-124.064713
 21
-75.249977
  0
LINE
  8
0
 10
-109.064713
 20
-75.999977
 11
-123.564713
 21
-75.999977
  0
LINE
  8
0
 10
-123.564705
 20
-75.999969
 11
-124.064705
 21
-75.499969
  0
LINE
  8
0
 10
-124.064713
 20
-70.499977
 11
-123.564713
 21
-69.999977
  0
LINE
  8
0
 10
-123.564713
 20
-75.999977
 11
-123.564713
 21
-73.599976
  0
LINE
  8
0
 10
-122.064713
 20
-73.599976
 11
-124.064713
 21
-73.599976
  0
LINE
  8
0
 10
-122.064713
 20
-72.399979
 11
-124.064713
 21
-72.399979
  0
LINE
  8
0
 10
-122.064713
 20
-73.599976
 11
-122.064713
 21
-72.399979
  0
LINE
  8
0
 10
-124.064713
 20
-72.399979
 11
-124.064713
 21
-70.499985
  0
LINE
  8
0
 10
-123.564713
 20
-72.399979
 11
-123.564713
 21
-69.999985
  0
LINE
  8
0
  6
CENTER
 62
     2
 10
-100.794716
 20
-72.999985
 11
-126.414703
 21
-72.999985
  0
LINE
  8
0
  6
PHANTOM
 62
     3
 10
-31.773224
 20
-27.825012
 11
-31.773224
 21
-115.693741
  0
LINE
  8
0
  6
PHANTOM
 62
     3
 10
-55.196671
 20
-27.825012
 11
-55.196671
 21
-115.693741
  0
LINE
  8
0
  6
PHANTOM
 62
     3
 10
86.286499
 20
-27.825012
 11
86.286499
 21
-115.693741
  0
LINE
  8
0
  6
CENTER
 62
     2
 10
250.914566
 20
10.360855
 11
272.914551
 21
10.360855
  0
LINE
  8
0
  6
CENTER
 62
     2
 10
261.914551
 20
-0.639145
 11
261.914551
 21
21.360855
  0
LINE
  8
0
 10
245.912354
 20
4.860855
 11
247.912354
 21
4.860855
  0
LINE
  8
0
 10
245.912354
 20
15.860855
 11
247.912354
 21
15.860855
  0
LINE
  8
0
 10
234.912354
 20
33.849987
 11
235.412354
 21
34.349987
  0
LINE
  8
0
 10
234.912354
 20
54.849987
 11
235.412354
 21
54.349987
  0
LINE
  8
0
 10
245.912354
 20
-3.650009
 11
245.912354
 21
92.349991
  0
LINE
  8
0
 10
234.912354
 20
54.849991
 11
234.912354
 21
91.349991
  0
LINE
  8
0
 10
235.412354
 20
34.349991
 11
235.412354
 21
54.349991
  0
LINE
  8
0
 10
245.912354
 20
73.349991
 11
247.912354
 21
73.349991
  0
LINE
  8
0
 10
245.912354
 20
89.349991
 11
247.912354
 21
89.349991
  0
LINE
  8
0
 10
272.412354
 20
54.349987
 11
272.912354
 21
54.849987
  0
LINE
  8
0
 10
272.912354
 20
54.849991
 11
272.912354
 21
91.349991
  0
LINE
  8
0
 10
272.412354
 20
34.349991
 11
272.412354
 21
54.349991
  0
LINE
  8
0
 10
245.912354
 20
69.349991
 11
254.912354
 21
69.349991
  0
LINE
  8
0
 10
234.912354
 20
-2.650009
 11
234.912354
 21
33.849991
  0
LINE
  8
0
 10
248.912354
 20
29.349991
 11
248.912354
 21
59.349991
  0
LINE
  8
0
 10
257.912354
 20
29.349991
 11
257.912354
 21
60.349991
  0
LINE
  8
0
 10
271.912354
 20
92.349976
 11
272.912354
 21
91.349968
  0
LINE
  8
0
 10
267.912354
 20
70.349991
 11
267.912354
 21
92.349991
  0
LINE
  8
0
 10
248.912354
 20
70.349983
 11
247.912354
 21
71.349983
  0
LINE
  8
0
 10
248.912354
 20
70.349991
 11
267.912354
 21
70.349991
  0
LINE
  8
0
 10
247.912354
 20
91.349991
 11
248.912338
 21
92.349976
  0
LINE
  8
0
 10
247.912354
 20
71.349991
 11
247.912354
 21
91.349991
  0
LINE
  8
0
 10
234.912354
 20
91.349976
 11
235.912384
 21
92.349983
  0
LINE
  8
0
 10
235.912354
 20
92.349991
 11
245.912354
 21
92.349991
  0
LINE
  8
0
 10
255.912354
 20
60.349991
 11
257.912354
 21
60.349991
  0
LINE
  8
0
 10
248.912354
 20
92.349991
 11
271.912354
 21
92.349991
  0
LINE
  8
0
 10
255.912354
 20
70.349991
 11
255.912354
 21
60.349991
  0
LINE
  8
0
 10
254.912354
 20
59.349991
 11
254.912354
 21
69.349991
  0
LINE
  8
0
 10
248.912354
 20
59.349991
 11
257.912354
 21
59.349991
  0
LINE
  8
0
 10
246.812363
 20
8.849991
 11
246.812363
 21
11.849991
  0
LINE
  8
0
 10
272.412354
 20
34.349987
 11
272.912354
 21
33.849987
  0
LINE
  8
0
 10
245.912354
 20
19.349991
 11
254.912354
 21
19.349991
  0
LINE
  8
0
 10
248.912354
 20
18.350006
 11
247.912354
 21
17.350004
  0
LINE
  8
0
 10
248.912354
 20
18.350006
 11
255.912354
 21
18.350006
  0
LINE
  8
0
 10
259.312347
 20
-3.650009
 11
264.512360
 21
-3.650009
  0
LINE
  8
0
 10
268.312347
 20
-3.650009
 11
271.912354
 21
-3.650009
  0
LINE
  8
0
 10
234.912338
 20
-2.650007
 11
235.912369
 21
-3.650011
  0
LINE
  8
0
 10
271.912354
 20
-3.649991
 11
272.912354
 21
-2.649990
  0
LINE
  8
0
 10
247.912354
 20
-2.650001
 11
248.912369
 21
-3.649998
  0
LINE
  8
0
 10
248.912354
 20
-3.650009
 11
255.512360
 21
-3.650009
  0
LINE
  8
0
 10
264.812347
 20
-3.149993
 11
264.312347
 21
-2.649993
  0
LINE
  8
0
 10
264.812347
 20
-3.350006
 11
264.812347
 21
-3.149994
  0
LINE
  8
0
 10
268.012360
 20
-3.350006
 11
268.012360
 21
-3.149994
  0
LINE
  8
0
 10
268.012360
 20
-3.149995
 11
268.512360
 21
-2.649994
  0
LINE
  8
0
 10
268.512360
 20
-2.650009
 11
268.512360
 21
-1.050003
  0
LINE
  8
0
 10
264.312347
 20
-2.650009
 11
264.312347
 21
-1.050003
  0
LINE
  8
0
  6
CENTER
 62
     2
 10
266.412354
 20
-5.425003
 11
266.412354
 21
2.312500
  0
LINE
  8
0
 10
255.812347
 20
-3.149989
 11
255.312347
 21
-2.649989
  0
LINE
  8
0
 10
255.812363
 20
-3.350006
 11
255.812363
 21
-3.149994
  0
LINE
  8
0
 10
259.012360
 20
-3.350006
 11
259.012360
 21
-3.149994
  0
LINE
  8
0
 10
259.012360
 20
-3.149999
 11
259.512360
 21
-2.649998
  0
LINE
  8
0
 10
259.512360
 20
-2.650009
 11
259.512360
 21
-1.050003
  0
LINE
  8
0
 10
255.312363
 20
-2.650009
 11
255.312363
 21
-1.050003
  0
LINE
  8
0
  6
CENTER
 62
     2
 10
257.412354
 20
-5.425003
 11
257.412354
 21
2.312500
  0
LINE
  8
0
 10
235.912354
 20
-3.650009
 11
245.912354
 21
-3.650009
  0
LINE
  8
0
 10
255.912354
 20
18.350006
 11
255.912354
 21
29.349991
  0
LINE
  8
0
 10
247.912354
 20
-2.650009
 11
247.912354
 21
17.350006
  0
LINE
  8
0
 10
272.912354
 20
-2.650009
 11
272.912354
 21
33.849991
  0
LINE
  8
0
 10
248.912354
 20
29.349991
 11
257.912354
 21
29.349991
  0
LINE
  8
0
 10
254.912354
 20
19.349991
 11
254.912354
 21
29.349991
  0
LINE
  8
0
  6
CENTER
 62
     2
 10
231.186050
 20
44.349991
 11
276.899841
 21
44.349991
  0
LINE
  8
0
  6
CENTER
 62
     2
 10
247.914581
 20
81.360825
 11
263.914581
 21
81.360825
  0
LINE
  8
0
  6
CENTER
 62
     2
 10
255.914581
 20
73.360825
 11
255.914581
 21
89.360825
  0
LINE
  8
0
 10
255.314575
 20
78.430817
 11
255.314575
 21
84.290817
  0
LINE
  8
0
 10
256.514587
 20
78.430817
 11
256.514587
 21
84.290817
  0
LINE
  8
0
 10
261.684570
 20
81.360809
 11
258.794556
 21
76.360809
  0
LINE
  8
0
 10
258.794556
 20
86.360840
 11
261.684570
 21
81.360832
  0
LINE
  8
0
 10
253.034576
 20
86.360825
 11
258.794556
 21
86.360825
  0
LINE
  8
0
 10
250.144562
 20
81.360809
 11
253.034576
 21
86.360817
  0
LINE
  8
0
 10
253.034561
 20
76.360809
 11
250.144562
 21
81.360817
  0
LINE
  8
0
 10
258.794556
 20
76.360825
 11
253.034576
 21
76.360825
  0
LINE
  8
0
  6
CENTER
 62
     2
 10
256.194580
 20
36.360828
 11
271.634552
 21
36.360828
  0
LINE
  8
0
  6
CENTER
 62
     2
 10
263.914551
 20
28.640827
 11
263.914551
 21
44.080826
  0
LINE
  8
0
  6
CENTER
 62
     2
 10
256.192383
 20
52.349991
 11
271.632355
 21
52.349991
  0
LINE
  8
0
  6
CENTER
 62
     2
 10
263.912354
 20
44.629990
 11
263.912354
 21
60.069992
  0
LINE
  8
0
 10
-7.062500
 20
174.462494
 11
68.924988
 21
174.462494
  0
LINE
  8
0
 10
-49.062500
 20
160.462494
 11
110.924988
 21
160.462494
  0
LINE
  8
0
 10
-60.500008
 20
176.237488
 11
-60.062511
 21
175.462494
  0
LINE
  8
0
 10
-64.062500
 20
176.237488
 11
-60.500000
 21
176.237488
  0
LINE
  8
0
 10
-60.500011
 20
164.687500
 11
-60.062511
 21
165.462509
  0
LINE
  8
0
 10
-64.062500
 20
164.687500
 11
-60.500000
 21
164.687500
  0
LINE
  8
0
 10
-64.062500
 20
173.349991
 11
-60.500000
 21
173.349991
  0
LINE
  8
0
 10
-64.062500
 20
167.574997
 11
-60.500000
 21
167.574997
  0
LINE
  8
0
 10
-64.062500
 20
176.237488
 11
-64.062500
 21
164.687500
  0
LINE
  8
0
 10
-67.062500
 20
167.462494
 11
-67.062500
 21
173.462494
  0
LINE
  8
0
 62
     2
 10
-67.062515
 20
172.712494
 11
-65.762512
 21
173.462479
  0
LINE
  8
0
 62
     2
 10
-67.062515
 20
168.212494
 11
-65.762512
 21
167.462494
  0
LINE
  8
0
 62
     2
 10
-73.062500
 20
168.212494
 11
-67.062500
 21
168.212494
  0
LINE
  8
0
 62
     2
 10
-73.062500
 20
172.712494
 11
-67.062500
 21
172.712494
  0
LINE
  8
0
 10
-73.062500
 20
173.462494
 11
-64.062500
 21
173.462494
  0
LINE
  8
0
 10
-73.062500
 20
167.462494
 11
-64.062500
 21
167.462494
  0
LINE
  8
0
 10
-60.062500
 20
165.462494
 11
-60.062500
 21
175.462494
  0
LINE
  8
0
 10
-73.062500
 20
163.462494
 11
-104.062500
 21
163.462494
  0
LINE
  8
0
 10
84.924988
 20
163.462494
 11
115.924988
 21
163.462494
  0
LINE
  8
0
 10
-60.062500
 20
170.462494
 11
-18.062500
 21
170.462494
  0
LINE
  8
0
 10
-20.562500
 20
169.462494
 11
-18.062500
 21
169.462494
  0
LINE
  8
0
 10
82.424988
 20
167.462494
 11
82.424988
 21
160.462494
  0
LINE
  8
0
 10
-20.562500
 20
169.462494
 11
-20.562500
 21
160.462494
  0
LINE
  8
0
 10
82.435272
 20
163.462494
 11
84.924988
 21
163.462494
  0
LINE
  8
0
 10
-73.062500
 20
163.462494
 11
-20.562500
 21
163.462494
  0
LINE
  8
0
  6
CENTER
 62
     2
 10
71.924988
 20
181.462494
 11
71.924988
 21
172.462494
  0
LINE
  8
0
  6
CENTER
 62
     2
 10
67.424988
 20
176.962494
 11
76.424988
 21
176.962494
  0
LINE
  8
0
  6
CENTER
 62
     2
 10
-60.062500
 20
181.462494
 11
-60.062500
 21
172.462494
  0
LINE
  8
0
  6
CENTER
 62
     2
 10
-64.562500
 20
176.962494
 11
-55.562500
 21
176.962494
  0
LINE
  8
0
  6
CENTER
 62
     2
 10
66.780472
 20
170.462494
 11
138.204926
 21
170.462494
  0
LINE
  8
0
  6
CENTER
 62
     2
 10
-23.012512
 20
170.462494
 11
-3.025009
 21
170.462494
  0
LINE
  8
0
 10
-10.062522
 20
164.462494
 11
-9.525020
 21
163.537506
  0
LINE
  8
0
 10
-9.525009
 20
167.000000
 11
-7.062500
 21
167.000000
  0
LINE
  8
0
 10
-9.525009
 20
163.537506
 11
-7.062500
 21
163.537506
  0
LINE
  8
0
 10
-10.062516
 20
176.462494
 11
-9.525012
 21
177.399994
  0
LINE
  8
0
 10
-9.525009
 20
173.924988
 11
-7.062500
 21
173.924988
  0
LINE
  8
0
 10
-9.525009
 20
177.399994
 11
-7.062500
 21
177.399994
  0
LINE
  8
0
 10
-10.062500
 20
176.462494
 11
-10.062500
 21
164.462494
  0
LINE
  8
0
 10
-17.562500
 20
171.962494
 11
-17.562500
 21
168.962494
  0
LINE
  8
0
 10
-18.062513
 20
169.462494
 11
-17.562511
 21
168.962494
  0
LINE
  8
0
 10
-17.562517
 20
171.962494
 11
-18.062517
 21
171.462494
  0
LINE
  8
0
 10
-18.062500
 20
169.462494
 11
-18.062500
 21
171.462494
  0
LINE
  8
0
 10
-17.562500
 20
168.962494
 11
-10.062500
 21
168.962494
  0
LINE
  8
0
 10
-17.562500
 20
171.962494
 11
-10.062500
 21
171.962494
  0
LINE
  8
0
 10
-20.562500
 20
162.462494
 11
-104.062500
 21
162.462494
  0
LINE
  8
0
 10
-73.062500
 20
182.462494
 11
-73.062500
 21
162.462494
  0
LINE
  8
0
 10
82.435272
 20
162.462494
 11
115.924988
 21
162.462494
  0
LINE
  8
0
 10
-7.062500
 20
178.462494
 11
-7.062500
 21
160.462494
  0
LINE
  8
0
 10
72.374992
 20
176.237488
 11
71.924988
 21
175.462494
  0
LINE
  8
0
 10
75.924988
 20
176.237488
 11
72.375000
 21
176.237488
  0
LINE
  8
0
 10
72.374977
 20
164.687500
 11
71.924988
 21
165.462494
  0
LINE
  8
0
 10
75.924988
 20
164.687500
 11
72.375000
 21
164.687500
  0
LINE
  8
0
 10
75.924988
 20
173.349991
 11
72.375000
 21
173.349991
  0
LINE
  8
0
 10
75.924988
 20
167.574997
 11
72.375000
 21
167.574997
  0
LINE
  8
0
 10
75.924988
 20
176.237488
 11
75.924988
 21
164.687500
  0
LINE
  8
0
 10
78.924988
 20
167.462494
 11
78.924988
 21
173.462494
  0
LINE
  8
0
 62
     2
 10
78.925003
 20
172.712494
 11
77.625000
 21
173.462494
  0
LINE
  8
0
 62
     2
 10
78.924995
 20
168.212494
 11
77.624985
 21
167.462479
  0
LINE
  8
0
 62
     2
 10
84.924988
 20
168.212494
 11
78.924988
 21
168.212494
  0
LINE
  8
0
 62
     2
 10
84.924988
 20
172.712494
 11
78.924988
 21
172.712494
  0
LINE
  8
0
 10
84.924988
 20
173.462494
 11
75.924988
 21
173.462494
  0
LINE
  8
0
 10
84.924988
 20
167.462494
 11
75.924988
 21
167.462494
  0
LINE
  8
0
 10
84.924988
 20
182.462494
 11
84.924988
 21
162.462494
  0
LINE
  8
0
 10
71.924988
 20
176.462494
 11
71.387489
 21
177.399994
  0
LINE
  8
0
 10
71.387497
 20
173.924988
 11
68.924988
 21
173.924988
  0
LINE
  8
0
 10
71.387497
 20
177.399994
 11
68.924988
 21
177.399994
  0
LINE
  8
0
 10
71.924995
 20
164.462494
 11
71.399994
 21
163.537506
  0
LINE
  8
0
 10
71.387497
 20
167.000000
 11
68.924988
 21
167.000000
  0
LINE
  8
0
 10
71.387497
 20
163.537506
 11
68.924988
 21
163.537506
  0
LINE
  8
0
 10
71.924988
 20
164.462494
 11
71.924988
 21
176.462494
  0
LINE
  8
0
 10
68.924988
 20
178.462494
 11
68.924988
 21
160.462494
  0
LINE
  8
0
 10
-7.062500
 20
178.462494
 11
68.924988
 21
178.462494
  0
LINE
  8
0
 10
-49.062500
 20
150.462494
 11
110.924988
 21
150.462494
  0
LINE
  8
0
 10
-104.062500
 20
186.462494
 11
115.924988
 21
186.462494
  0
LINE
  8
0
 10
110.924988
 20
160.462494
 11
110.924988
 21
149.462494
  0
LINE
  8
0
 10
-49.062500
 20
160.462494
 11
-49.062500
 21
149.462494
  0
LINE
  8
0
 10
-104.062500
 20
187.462494
 11
-104.062500
 21
162.462494
  0
LINE
  8
0
 10
115.924988
 20
187.462494
 11
115.924988
 21
162.462494
  0
LINE
  8
0
 10
-49.062500
 20
149.462494
 11
110.924988
 21
149.462494
  0
LINE
  8
0
 10
-104.062500
 20
182.462494
 11
115.924988
 21
182.462494
  0
LINE
  8
0
 10
-104.062500
 20
187.462494
 11
115.924988
 21
187.462494
  0
LINE
  8
0
 10
88.935257
 20
178.121674
 11
88.935257
 21
175.821686
  0
LINE
  8
0
 10
92.935257
 20
178.121674
 11
92.935257
 21
175.821686
  0
LINE
  8
0
 10
88.935249
 20
178.121674
 11
90.935249
 21
179.271667
  0
LINE
  8
0
 10
90.935234
 20
174.671677
 11
92.935242
 21
175.821671
  0
LINE
  8
0
 10
90.935257
 20
179.271667
 11
92.935257
 21
178.121674
  0
LINE
  8
0
 10
88.935257
 20
175.821671
 11
90.935257
 21
174.671677
  0
LINE
  8
0
  6
CENTER
 62
     2
 10
90.935257
 20
183.221680
 11
90.935257
 21
170.721680
  0
LINE
  8
0
  6
CENTER
 62
     2
 10
84.685257
 20
176.971680
 11
97.185257
 21
176.971680
  0
LINE
  8
0
 10
-81.064743
 20
178.121674
 11
-81.064743
 21
175.821686
  0
LINE
  8
0
 10
-77.064743
 20
178.121674
 11
-77.064743
 21
175.821686
  0
LINE
  8
0
 10
-81.064735
 20
178.121689
 11
-79.064743
 21
179.271683
  0
LINE
  8
0
 10
-79.064735
 20
174.671677
 11
-77.064743
 21
175.821671
  0
LINE
  8
0
 10
-79.064735
 20
179.271683
 11
-77.064751
 21
178.121689
  0
LINE
  8
0
 10
-81.064743
 20
175.821701
 11
-79.064735
 21
174.671677
  0
LINE
  8
0
  6
CENTER
 62
     2
 10
-79.064743
 20
183.221680
 11
-79.064743
 21
170.721680
  0
LINE
  8
0
  6
CENTER
 62
     2
 10
-85.314743
 20
176.971680
 11
-72.814743
 21
176.971680
  0
LINE
  8
0
 10
-100.064728
 20
178.121674
 11
-100.064728
 21
175.821686
  0
LINE
  8
0
 10
-96.064728
 20
178.121674
 11
-96.064728
 21
175.821686
  0
LINE
  8
0
 10
-100.064735
 20
178.121689
 11
-98.064735
 21
179.271698
  0
LINE
  8
0
 10
-98.064728
 20
174.671661
 11
-96.064728
 21
175.821655
  0
LINE
  8
0
 10
-98.064735
 20
179.271698
 11
-96.064728
 21
178.121674
  0
LINE
  8
0
 10
-100.064735
 20
175.821686
 11
-98.064735
 21
174.671677
  0
LINE
  8
0
  6
CENTER
 62
     2
 10
-98.064728
 20
183.221680
 11
-98.064728
 21
170.721680
  0
LINE
  8
0
  6
CENTER
 62
     2
 10
-104.314728
 20
176.971680
 11
-91.814728
 21
176.971680
  0
LINE
  8
0
 10
107.935272
 20
178.121674
 11
107.935272
 21
175.821686
  0
LINE
  8
0
 10
111.935272
 20
178.121674
 11
111.935272
 21
175.821686
  0
LINE
  8
0
 10
107.935265
 20
178.121674
 11
109.935265
 21
179.271667
  0
LINE
  8
0
 10
109.935265
 20
174.671677
 11
111.935265
 21
175.821671
  0
LINE
  8
0
 10
109.935280
 20
179.271683
 11
111.935280
 21
178.121689
  0
LINE
  8
0
 10
107.935287
 20
175.821671
 11
109.935287
 21
174.671677
  0
LINE
  8
0
  6
CENTER
 62
     2
 10
109.935272
 20
183.221680
 11
109.935272
 21
170.721680
  0
LINE
  8
0
  6
CENTER
 62
     2
 10
103.685272
 20
176.971680
 11
116.185272
 21
176.971680
  0
LINE
  8
0
 10
120.485260
 20
164.701675
 11
116.375259
 21
164.701675
  0
LINE
  8
0
 10
120.935265
 20
165.471664
 11
120.485260
 21
164.701660
  0
LINE
  8
0
 10
120.935257
 20
165.471664
 11
120.935257
 21
175.471664
  0
LINE
  8
0
 10
120.485260
 20
167.591675
 11
116.375259
 21
167.591675
  0
LINE
  8
0
 10
120.485260
 20
173.351669
 11
116.375259
 21
173.351669
  0
LINE
  8
0
 10
120.485260
 20
176.241669
 11
116.375259
 21
176.241669
  0
LINE
  8
0
 10
120.935249
 20
175.471664
 11
120.485252
 21
176.241653
  0
LINE
  8
0
 10
115.935257
 20
175.471680
 11
116.375244
 21
176.241653
  0
LINE
  8
0
 10
115.935257
 20
165.471664
 11
116.375259
 21
164.701660
  0
LINE
  8
0
 10
135.935257
 20
172.971664
 11
135.935257
 21
171.071671
  0
LINE
  8
0
 10
120.935257
 20
167.471664
 11
135.435257
 21
167.471664
  0
LINE
  8
0
 62
     2
 10
120.935257
 20
168.221664
 11
135.935257
 21
168.221664
  0
LINE
  8
0
 62
     2
 10
120.935257
 20
172.721664
 11
135.935257
 21
172.721664
  0
LINE
  8
0
 10
120.935257
 20
173.471664
 11
135.435257
 21
173.471664
  0
LINE
  8
0
 10
135.435257
 20
173.471664
 11
135.935257
 21
172.971664
  0
LINE
  8
0
 10
135.935257
 20
167.971649
 11
135.435257
 21
167.471649
  0
LINE
  8
0
 10
135.435257
 20
173.471664
 11
135.435257
 21
171.071671
  0
LINE
  8
0
 10
133.935257
 20
171.071671
 11
135.935257
 21
171.071671
  0
LINE
  8
0
 10
133.935257
 20
169.871674
 11
135.935257
 21
169.871674
  0
LINE
  8
0
 10
133.935257
 20
171.071671
 11
133.935257
 21
169.871674
  0
LINE
  8
0
 10
135.935257
 20
169.871674
 11
135.935257
 21
167.971664
  0
LINE
  8
0
 10
135.435257
 20
169.871674
 11
135.435257
 21
167.471664
  0
LINE
  8
0
 10
-108.614731
 20
176.241669
 11
-104.504730
 21
176.241669
  0
LINE
  8
0
 10
-109.064728
 20
175.471664
 11
-108.614731
 21
176.241669
  0
LINE
  8
0
 10
-109.064728
 20
175.471664
 11
-109.064728
 21
165.471664
  0
LINE
  8
0
 10
-108.614731
 20
173.351669
 11
-104.504730
 21
173.351669
  0
LINE
  8
0
 10
-108.614731
 20
167.591675
 11
-104.504730
 21
167.591675
  0
LINE
  8
0
 10
-108.614731
 20
164.701675
 11
-104.504730
 21
164.701675
  0
LINE
  8
0
 10
-109.064743
 20
165.471664
 11
-108.614738
 21
164.701675
  0
LINE
  8
0
 10
-104.064728
 20
165.471680
 11
-104.504730
 21
164.701660
  0
LINE
  8
0
 10
-104.064728
 20
175.471664
 11
-104.504730
 21
176.241684
  0
LINE
  8
0
 10
-124.064728
 20
167.971664
 11
-124.064728
 21
169.871674
  0
LINE
  8
0
 10
-109.064728
 20
173.471664
 11
-123.564728
 21
173.471664
  0
LINE
  8
0
 62
     2
 10
-109.064728
 20
172.721664
 11
-124.064728
 21
172.721664
  0
LINE
  8
0
 62
     2
 10
-109.064728
 20
168.221664
 11
-124.064728
 21
168.221664
  0
LINE
  8
0
 10
-109.064728
 20
167.471664
 11
-123.564728
 21
167.471664
  0
LINE
  8
0
 10
-123.564728
 20
167.471664
 11
-124.064728
 21
167.971664
  0
LINE
  8
0
 10
-124.064728
 20
172.971664
 11
-123.564728
 21
173.471664
  0
LINE
  8
0
 10
-123.564728
 20
167.471664
 11
-123.564728
 21
169.871674
  0
LINE
  8
0
 10
-122.064728
 20
169.871674
 11
-124.064728
 21
169.871674
  0
LINE
  8
0
 10
-122.064728
 20
171.071671
 11
-124.064728
 21
171.071671
  0
LINE
  8
0
 10
-122.064728
 20
169.871674
 11
-122.064728
 21
171.071671
  0
LINE
  8
0
 10
-124.064728
 20
171.071671
 11
-124.064728
 21
172.971664
  0
LINE
  8
0
 10
-123.564728
 20
171.071671
 11
-123.564728
 21
173.471664
  0
LINE
  8
0
  6
CENTER
 62
     2
 10
-58.937012
 20
170.471664
 11
-126.414719
 21
170.471664
  0
LINE
  8
0
  6
PHANTOM
 62
     3
 10
27.407715
 20
230.670746
 11
27.407715
 21
120.906250
  0
LINE
  8
0
  6
PHANTOM
 62
     3
 10
55.589493
 20
212.753937
 11
55.589493
 21
120.906250
  0
LINE
  8
0
  6
PHANTOM
 62
     3
 10
-55.196686
 20
244.321121
 11
-55.196686
 21
120.906250
  0
LINE
  8
0
 10
-274.064606
 20
15.860855
 11
-274.064606
 21
14.832993
  0
LINE
  8
0
 10
-273.527283
 20
5.460846
 11
-274.064606
 21
5.460846
  0
LINE
  8
0
 10
-272.462524
 20
4.860855
 11
-274.064606
 21
4.860855
  0
LINE
  8
0
 10
-263.740845
 20
5.460846
 11
-266.601959
 21
5.460846
  0
LINE
  8
0
 10
-264.255127
 20
4.860855
 11
-267.666687
 21
4.860855
  0
LINE
  8
0
 10
-264.255127
 20
15.860855
 11
-267.708466
 21
15.860855
  0
LINE
  8
0
 10
-263.740845
 20
15.260849
 11
-266.601959
 21
15.260849
  0
LINE
  8
0
 10
-272.462524
 20
15.860855
 11
-274.064606
 21
15.860855
  0
LINE
  8
0
 10
-273.527283
 20
15.260849
 11
-274.064606
 21
15.260849
  0
LINE
  8
0
 10
-274.064606
 20
5.888718
 11
-274.064606
 21
4.860855
  0
LINE
  8
0
 10
-256.062500
 20
4.860855
 11
-254.062500
 21
4.860855
  0
LINE
  8
0
 10
-256.062500
 20
15.860855
 11
-254.062500
 21
15.860855
  0
LINE
  8
0
 10
-269.174988
 20
52.349995
 11
-270.612488
 21
49.849995
  0
LINE
  8
0
 10
-270.612488
 20
49.849991
 11
-273.500000
 21
49.849991
  0
LINE
  8
0
 10
-273.500000
 20
49.849987
 11
-274.950012
 21
52.349987
  0
LINE
  8
0
 10
-274.950012
 20
52.350002
 11
-273.500000
 21
54.850002
  0
LINE
  8
0
 10
-273.500000
 20
54.849991
 11
-270.612488
 21
54.849991
  0
LINE
  8
0
 10
-270.612488
 20
54.849987
 11
-269.174988
 21
52.349998
  0
LINE
  8
0
  6
CENTER
 62
     2
 10
-272.062500
 20
44.637489
 11
-272.062500
 21
60.074989
  0
LINE
  8
0
  6
CENTER
 62
     2
 10
-279.774994
 20
52.349991
 11
-264.337524
 21
52.349991
  0
LINE
  8
0
  6
DASHED
 62
     2
 10
-267.062500
 20
58.049992
 11
-281.062500
 21
58.049992
  0
LINE
  8
0
  6
DASHED
 62
     2
 10
-267.062500
 20
64.649979
 11
-281.062500
 21
64.649979
  0
LINE
  8
0
  6
DASHED
 62
     2
 10
-267.062500
 20
30.649990
 11
-281.062500
 21
30.649990
  0
LINE
  8
0
  6
DASHED
 62
     2
 10
-267.062500
 20
24.050003
 11
-281.062500
 21
24.050003
  0
LINE
  8
0
  6
DASHED
 62
     2
 10
-267.062500
 20
21.849991
 11
-267.062500
 21
32.849991
  0
LINE
  8
0
  6
DASHED
 62
     2
 10
-264.062500
 20
21.849991
 11
-267.062500
 21
21.849991
  0
LINE
  8
0
  6
DASHED
 62
     2
 10
-266.062500
 20
32.849991
 11
-267.062500
 21
32.849991
  0
LINE
  8
0
  6
CENTER
 62
     2
 10
-263.362488
 20
27.350006
 11
-284.200012
 21
27.350006
  0
LINE
  8
0
  6
DASHED
 62
     2
 10
-267.062500
 20
66.849991
 11
-267.062500
 21
55.849991
  0
LINE
  8
0
  6
DASHED
 62
     2
 10
-264.062500
 20
66.849991
 11
-267.062500
 21
66.849991
  0
LINE
  8
0
  6
DASHED
 62
     2
 10
-266.062500
 20
55.849991
 11
-267.062500
 21
55.849991
  0
LINE
  8
0
  6
CENTER
 62
     2
 10
-263.362488
 20
61.349991
 11
-284.312500
 21
61.349991
  0
LINE
  8
0
 10
-254.062500
 20
-3.650009
 11
-254.062500
 21
92.349991
  0
LINE
  8
0
 10
-243.062485
 20
33.849995
 11
-243.562500
 21
34.349995
  0
LINE
  8
0
 10
-243.062485
 20
54.849998
 11
-243.562500
 21
54.349995
  0
LINE
  8
0
 10
-243.062500
 20
54.849991
 11
-243.062500
 21
91.349991
  0
LINE
  8
0
 10
-243.562500
 20
34.349991
 11
-243.562500
 21
54.349991
  0
LINE
  8
0
 10
-254.062500
 20
73.349991
 11
-256.062500
 21
73.349991
  0
LINE
  8
0
 10
-254.062500
 20
89.349991
 11
-256.062500
 21
89.349991
  0
LINE
  8
0
 10
-280.562500
 20
54.349987
 11
-281.062500
 21
54.849987
  0
LINE
  8
0
 10
-281.062500
 20
54.849991
 11
-281.062500
 21
91.349991
  0
LINE
  8
0
 10
-280.562500
 20
34.349991
 11
-280.562500
 21
54.349991
  0
LINE
  8
0
 10
-254.062500
 20
69.349991
 11
-263.062500
 21
69.349991
  0
LINE
  8
0
 10
-243.062500
 20
-2.650009
 11
-243.062500
 21
33.849991
  0
LINE
  8
0
 10
-257.062500
 20
29.349991
 11
-257.062500
 21
59.349991
  0
LINE
  8
0
 10
-266.062500
 20
29.349991
 11
-266.062500
 21
60.349991
  0
LINE
  8
0
 10
-280.062500
 20
92.349976
 11
-281.062500
 21
91.349968
  0
LINE
  8
0
 10
-276.062500
 20
70.349991
 11
-276.062500
 21
92.349991
  0
LINE
  8
0
 10
-257.062500
 20
70.349991
 11
-256.062500
 21
71.349983
  0
LINE
  8
0
 10
-257.062500
 20
70.349991
 11
-276.062500
 21
70.349991
  0
LINE
  8
0
 10
-256.062500
 20
91.349991
 11
-257.062500
 21
92.349976
  0
LINE
  8
0
 10
-256.062500
 20
71.349991
 11
-256.062500
 21
91.349991
  0
LINE
  8
0
 10
-243.062515
 20
91.349983
 11
-244.062515
 21
92.349983
  0
LINE
  8
0
 10
-244.062500
 20
92.349991
 11
-254.062500
 21
92.349991
  0
LINE
  8
0
 10
-264.062500
 20
60.349991
 11
-266.062500
 21
60.349991
  0
LINE
  8
0
 10
-257.062500
 20
92.349991
 11
-280.062500
 21
92.349991
  0
LINE
  8
0
 10
-264.062500
 20
70.349991
 11
-264.062500
 21
60.349991
  0
LINE
  8
0
 10
-263.062500
 20
59.349991
 11
-263.062500
 21
69.349991
  0
LINE
  8
0
 10
-257.062500
 20
59.349991
 11
-266.062500
 21
59.349991
  0
LINE
  8
0
 10
-280.562500
 20
34.349987
 11
-281.062500
 21
33.849987
  0
LINE
  8
0
 10
-254.062500
 20
19.349991
 11
-263.062500
 21
19.349991
  0
LINE
  8
0
 10
-257.062500
 20
18.350002
 11
-256.062500
 21
17.350000
  0
LINE
  8
0
 10
-257.062500
 20
18.350006
 11
-264.062500
 21
18.350006
  0
LINE
  8
0
 10
-267.462494
 20
-3.650009
 11
-272.662506
 21
-3.650009
  0
LINE
  8
0
 10
-276.462494
 20
-3.650009
 11
-280.062500
 21
-3.650009
  0
LINE
  8
0
 10
-243.062485
 20
-2.650000
 11
-244.062515
 21
-3.650004
  0
LINE
  8
0
 10
-280.062500
 20
-3.649997
 11
-281.062500
 21
-2.649996
  0
LINE
  8
0
 10
-256.062500
 20
-2.649999
 11
-257.062500
 21
-3.649996
  0
LINE
  8
0
 10
-257.062500
 20
-3.650009
 11
-263.662506
 21
-3.650009
  0
LINE
  8
0
 10
-272.962494
 20
-3.149987
 11
-272.462494
 21
-2.649986
  0
LINE
  8
0
 10
-272.962494
 20
-3.350006
 11
-272.962494
 21
-3.149994
  0
LINE
  8
0
 10
-276.162506
 20
-3.350006
 11
-276.162506
 21
-3.149994
  0
LINE
  8
0
 10
-276.162506
 20
-3.150002
 11
-276.662506
 21
-2.650001
  0
LINE
  8
0
 10
-276.662506
 20
-2.650009
 11
-276.662506
 21
-1.050003
  0
LINE
  8
0
 10
-272.462494
 20
-2.650009
 11
-272.462494
 21
-1.050003
  0
LINE
  8
0
  6
CENTER
 62
     2
 10
-274.562500
 20
-5.425003
 11
-274.562500
 21
2.312500
  0
LINE
  8
0
 10
-263.962494
 20
-3.149993
 11
-263.462494
 21
-2.649992
  0
LINE
  8
0
 10
-263.962524
 20
-3.350006
 11
-263.962524
 21
-3.149994
  0
LINE
  8
0
 10
-267.162506
 20
-3.350006
 11
-267.162506
 21
-3.149994
  0
LINE
  8
0
 10
-267.162506
 20
-3.149995
 11
-267.662506
 21
-2.649994
  0
LINE
  8
0
 10
-267.662506
 20
-2.650009
 11
-267.662506
 21
-1.050003
  0
LINE
  8
0
 10
-263.462524
 20
-2.650009
 11
-263.462524
 21
-1.050003
  0
LINE
  8
0
  6
CENTER
 62
     2
 10
-265.562500
 20
-5.425003
 11
-265.562500
 21
2.312500
  0
LINE
  8
0
 10
-244.062500
 20
-3.650009
 11
-254.062500
 21
-3.650009
  0
LINE
  8
0
 10
-264.062500
 20
18.350006
 11
-264.062500
 21
29.349991
  0
LINE
  8
0
 10
-256.062500
 20
-2.650009
 11
-256.062500
 21
17.350006
  0
LINE
  8
0
 10
-281.062500
 20
-2.650009
 11
-281.062500
 21
33.849991
  0
LINE
  8
0
 10
-257.062500
 20
29.349991
 11
-266.062500
 21
29.349991
  0
LINE
  8
0
 10
-263.062500
 20
19.349991
 11
-263.062500
 21
29.349991
  0
LINE
  8
0
  6
CENTER
 62
     2
 10
-238.328827
 20
44.349991
 11
-286.462494
 21
44.349991
  0
LINE
  8
0
 10
-254.062500
 20
3.350006
 11
-250.062500
 21
3.350006
  0
LINE
  8
0
 10
-254.062500
 20
17.350006
 11
-250.062500
 21
17.350006
  0
LINE
  8
0
 10
-250.062500
 20
17.350006
 11
-250.062500
 21
3.350006
  0
LINE
  8
0
  6
CENTER
 62
     2
 10
-272.064606
 20
81.360825
 11
-256.064636
 21
81.360825
  0
LINE
  8
0
  6
CENTER
 62
     2
 10
-264.064636
 20
73.360825
 11
-264.064636
 21
89.360825
  0
LINE
  8
0
 10
-264.664612
 20
78.430817
 11
-264.664612
 21
84.290817
  0
LINE
  8
0
 10
-263.464600
 20
78.430817
 11
-263.464600
 21
84.290817
  0
LINE
  8
0
 10
-258.294617
 20
81.360825
 11
-261.184631
 21
76.360825
  0
LINE
  8
0
 10
-261.184601
 20
86.360825
 11
-258.294586
 21
81.360809
  0
LINE
  8
0
 10
-266.944611
 20
86.360825
 11
-261.184631
 21
86.360825
  0
LINE
  8
0
 10
-269.834595
 20
81.360809
 11
-266.944580
 21
86.360809
  0
LINE
  8
0
 10
-266.944611
 20
76.360809
 11
-269.834625
 21
81.360825
  0
LINE
  8
0
 10
-261.184631
 20
76.360825
 11
-266.944611
 21
76.360825
  0
LINE
  8
0
 10
-270.924622
 20
8.860855
 11
-269.204620
 21
8.860855
  0
LINE
  8
0
 10
-270.924622
 20
11.860855
 11
-269.204620
 21
11.860855
  0
LINE
  8
0
 10
-270.924622
 20
8.860862
 11
-271.794617
 21
10.360861
  0
LINE
  8
0
 10
-268.334625
 20
10.360854
 11
-269.204620
 21
11.860854
  0
LINE
  8
0
 10
-271.794617
 20
10.360839
 11
-270.924622
 21
11.860838
  0
LINE
  8
0
 10
-269.204620
 20
8.860850
 11
-268.334595
 21
10.360844
  0
LINE
  8
0
  6
CENTER
 62
     2
 10
-270.064606
 20
0.505478
 11
-270.064606
 21
20.133804
  0
LINE
  8
0
  6
CENTER
 62
     2
 10
-280.018280
 20
10.360855
 11
-259.713135
 21
10.360855
  0
LINE
  8
0
  6
PHANTOM
 62
     3
 10
86.286484
 20
120.906235
 11
55.589493
 21
120.906235
  0
LINE
  8
0
  6
PHANTOM
 62
     3
 10
-31.773239
 20
120.906235
 11
27.407715
 21
120.906235
  0
LINE
  8
0
 10
-49.062500
 20
33.849991
 11
110.924988
 21
33.849991
  0
LINE
  8
0
 10
-49.062500
 20
34.349991
 11
110.924988
 21
34.349991
  0
LINE
  8
0
 10
-49.062500
 20
54.349991
 11
110.924988
 21
54.349991
  0
LINE
  8
0
 10
-49.062500
 20
54.849991
 11
110.924988
 21
54.849991
  0
LINE
  8
0
 10
-64.062500
 20
86.349991
 11
-60.062500
 21
86.349991
  0
LINE
  8
0
 10
-64.062500
 20
76.349991
 11
-60.062500
 21
76.349991
  0
LINE
  8
0
 10
-64.062500
 20
81.349991
 11
-60.500000
 21
81.349991
  0
LINE
  8
0
 10
-73.062500
 20
92.349991
 11
-73.062500
 21
70.349991
  0
LINE
  8
0
 10
-64.062500
 20
86.349991
 11
-64.062500
 21
76.349991
  0
LINE
  8
0
 10
-67.062500
 20
78.349991
 11
-67.062500
 21
84.349991
  0
LINE
  8
0
 62
     2
 10
-67.062508
 20
83.599983
 11
-65.762505
 21
84.349991
  0
LINE
  8
0
 62
     2
 10
-67.062500
 20
79.099991
 11
-65.762505
 21
78.349991
  0
LINE
  8
0
 62
     2
 10
-73.062500
 20
79.099991
 11
-67.062500
 21
79.099991
  0
LINE
  8
0
 62
     2
 10
-73.062500
 20
83.599991
 11
-67.062500
 21
83.599991
  0
LINE
  8
0
 10
-73.062500
 20
84.349991
 11
-64.062500
 21
84.349991
  0
LINE
  8
0
 10
-73.062500
 20
78.349991
 11
-64.062500
 21
78.349991
  0
LINE
  8
0
 10
-60.062500
 20
76.349991
 11
-60.062500
 21
86.349991
  0
LINE
  8
0
  6
CENTER
 62
     2
 10
-125.926880
 20
81.349991
 11
-57.250000
 21
81.349991
  0
LINE
  8
0
 10
-79.062500
 20
59.349991
 11
-79.062500
 21
29.349991
  0
LINE
  8
0
 10
110.924988
 20
29.349991
 11
115.924988
 21
29.349991
  0
LINE
  8
0
 10
110.924988
 20
60.349991
 11
115.924988
 21
60.349991
  0
LINE
  8
0
 10
-104.062500
 20
17.350006
 11
-49.062500
 21
17.350006
  0
LINE
  8
0
 10
110.924988
 20
17.350006
 11
115.924988
 21
17.350006
  0
LINE
  8
0
 10
110.924988
 20
18.350006
 11
115.924988
 21
18.350006
  0
LINE
  8
0
 10
-83.937500
 20
29.349991
 11
-49.062500
 21
29.349991
  0
LINE
  8
0
 10
-83.650009
 20
60.349991
 11
-49.062500
 21
60.349991
  0
LINE
  8
0
 10
-104.062500
 20
60.349991
 11
-94.462502
 21
60.349991
  0
LINE
  8
0
 10
110.924988
 20
71.349991
 11
115.924988
 21
71.349991
  0
LINE
  8
0
 10
-104.062500
 20
71.349991
 11
-73.062500
 21
71.349991
  0
LINE
  8
0
 10
110.924988
 20
70.349991
 11
115.924988
 21
70.349991
  0
LINE
  8
0
 10
-104.062500
 20
70.349991
 11
-49.062500
 21
70.349991
  0
LINE
  8
0
 10
-104.062500
 20
18.350006
 11
-49.062500
 21
18.350006
  0
LINE
  8
0
 10
-104.062500
 20
-2.650009
 11
-49.062500
 21
-2.650009
  0
LINE
  8
0
 10
-104.062500
 20
91.349991
 11
-73.062500
 21
91.349991
  0
LINE
  8
0
 10
110.924988
 20
91.349991
 11
115.924988
 21
91.349991
  0
LINE
  8
0
 10
110.924988
 20
-2.650009
 11
115.924988
 21
-2.650009
  0
LINE
  8
0
 10
-49.062500
 20
-2.650009
 11
110.924988
 21
-2.650009
  0
LINE
  8
0
 10
-49.062500
 20
91.349991
 11
110.924988
 21
91.349991
  0
LINE
  8
0
 10
110.924988
 20
92.349991
 11
110.924988
 21
-3.650009
  0
LINE
  8
0
 10
-49.062500
 20
92.349991
 11
-49.062500
 21
-3.650009
  0
LINE
  8
0
  6
CENTER
 62
     2
 10
-85.562500
 20
19.337494
 11
-85.562500
 21
1.337494
  0
LINE
  8
0
  6
CENTER
 62
     2
 10
-89.062500
 20
53.349991
 11
-89.062500
 21
69.349991
  0
LINE
  8
0
  6
CENTER
 62
     2
 10
-81.062500
 20
61.349991
 11
-97.062500
 21
61.349991
  0
LINE
  8
0
  6
CENTER
 62
     2
 10
-89.062500
 20
35.349991
 11
-89.062500
 21
19.349991
  0
LINE
  8
0
  6
CENTER
 62
     2
 10
-81.062500
 20
27.350006
 11
-97.062500
 21
27.350006
  0
LINE
  8
0
  6
CENTER
 62
     2
 10
100.924988
 20
53.349991
 11
100.924988
 21
69.349991
  0
LINE
  8
0
  6
CENTER
 62
     2
 10
92.924988
 20
61.349991
 11
108.924988
 21
61.349991
  0
LINE
  8
0
  6
CENTER
 62
     2
 10
92.924988
 20
27.350006
 11
108.924988
 21
27.350006
  0
LINE
  8
0
 10
-104.062500
 20
92.349991
 11
-104.062500
 21
-3.650009
  0
LINE
  8
0
 10
-85.562500
 20
4.350006
 11
-49.062500
 21
4.350006
  0
LINE
  8
0
 10
-85.562500
 20
16.349991
 11
-49.062500
 21
16.349991
  0
LINE
  8
0
  6
CENTER
 62
     2
 10
-96.025002
 20
10.350006
 11
-45.937500
 21
10.350006
  0
LINE
  8
0
 10
-104.062500
 20
-3.650009
 11
115.924988
 21
-3.650009
  0
LINE
  8
0
  6
CENTER
 62
     2
 10
100.924988
 20
35.349991
 11
100.924988
 21
19.349991
  0
LINE
  8
0
 10
-79.062500
 20
59.349991
 11
-49.062500
 21
59.349991
  0
LINE
  8
0
 10
-104.062500
 20
29.349991
 11
-94.187500
 21
29.349991
  0
LINE
  8
0
 10
115.924988
 20
92.349991
 11
115.924988
 21
-3.650009
  0
LINE
  8
0
 10
-104.062500
 20
92.349991
 11
115.924988
 21
92.349991
  0
LINE
  8
0
  6
CENTER
 62
     2
 10
-110.580704
 20
44.349991
 11
121.862488
 21
44.349991
  0
LINE
  8
0
  6
CENTER
 62
     2
 10
75.935257
 20
14.360840
 11
75.935257
 21
4.360840
  0
LINE
  8
0
  6
CENTER
 62
     2
 10
70.935257
 20
9.360840
 11
80.935257
 21
9.360840
  0
LINE
  8
0
  6
CENTER
 62
     2
 10
-14.064743
 20
14.360840
 11
-14.064743
 21
4.360840
  0
LINE
  8
0
  6
CENTER
 62
     2
 10
-19.064743
 20
9.360840
 11
-9.064743
 21
9.360840
  0
LINE
  8
0
  6
CENTER
 62
     2
 10
-14.064743
 20
84.360825
 11
-14.064743
 21
74.360825
  0
LINE
  8
0
  6
CENTER
 62
     2
 10
-19.064743
 20
79.360825
 11
-9.064743
 21
79.360825
  0
LINE
  8
0
  6
CENTER
 62
     2
 10
75.935257
 20
84.360825
 11
75.935257
 21
74.360825
  0
LINE
  8
0
  6
CENTER
 62
     2
 10
70.935257
 20
79.360825
 11
80.935257
 21
79.360825
  0
LINE
  8
0
 62
     2
 10
-74.562515
 20
44.360840
 11
-63.562500
 21
44.360840
  0
LINE
  8
0
  6
CENTER
 62
     2
 10
138.955261
 20
81.360825
 11
112.465256
 21
81.360825
  0
LINE
  8
0
 10
120.935257
 20
76.360825
 11
120.935257
 21
86.360825
  0
LINE
  8
0
 10
120.935257
 20
78.360825
 11
135.435257
 21
78.360825
  0
LINE
  8
0
 62
     2
 10
120.935257
 20
79.110825
 11
135.935257
 21
79.110825
  0
LINE
  8
0
 62
     2
 10
120.935257
 20
83.610825
 11
135.935257
 21
83.610825
  0
LINE
  8
0
 10
120.935257
 20
84.360825
 11
135.435257
 21
84.360825
  0
LINE
  8
0
 10
135.435257
 20
84.360840
 11
135.935257
 21
83.860832
  0
LINE
  8
0
 10
135.935257
 20
78.860840
 11
135.435257
 21
78.360825
  0
LINE
  8
0
 10
135.935257
 20
83.860825
 11
135.935257
 21
78.860825
  0
LINE
  8
0
 10
135.435257
 20
84.360825
 11
135.435257
 21
78.360825
  0
LINE
  8
0
 10
120.485260
 20
81.360825
 11
116.375259
 21
81.360825
  0
LINE
  8
0
 10
120.935257
 20
86.360825
 11
115.935257
 21
86.360825
  0
LINE
  8
0
 10
120.935257
 20
76.360825
 11
115.935257
 21
76.360825
  0
LINE
  8
0
 10
-109.064728
 20
86.360825
 11
-109.064728
 21
76.360825
  0
LINE
  8
0
 10
-109.064728
 20
84.360825
 11
-123.564728
 21
84.360825
  0
LINE
  8
0
 62
     2
 10
-109.064728
 20
83.610825
 11
-124.064728
 21
83.610825
  0
LINE
  8
0
 62
     2
 10
-109.064728
 20
79.110825
 11
-124.064728
 21
79.110825
  0
LINE
  8
0
 10
-109.064728
 20
78.360825
 11
-123.564728
 21
78.360825
  0
LINE
  8
0
 10
-123.564728
 20
78.360825
 11
-124.064728
 21
78.860825
  0
LINE
  8
0
 10
-124.064728
 20
83.860825
 11
-123.564728
 21
84.360825
  0
LINE
  8
0
 10
-124.064728
 20
78.860825
 11
-124.064728
 21
83.860825
  0
LINE
  8
0
 10
-123.564728
 20
78.360825
 11
-123.564728
 21
84.360825
  0
LINE
  8
0
 10
-108.614731
 20
81.360825
 11
-104.504730
 21
81.360825
  0
LINE
  8
0
 10
-109.064728
 20
76.360825
 11
-104.064728
 21
76.360825
  0
LINE
  8
0
 10
-109.064728
 20
86.360825
 11
-104.064728
 21
86.360825
  0
LINE
  8
0
  6
PHANTOM
 62
     3
 10
-55.196686
 20
120.906235
 11
-55.196686
 21
-27.824997
  0
LINE
  8
0
  6
PHANTOM
 62
     3
 10
-31.773239
 20
120.906235
 11
-31.773239
 21
-27.824997
  0
LINE
  8
0
  6
PHANTOM
 62
     3
 10
86.286484
 20
120.906235
 11
86.286484
 21
-27.824997
  0
LINE
  8
0
 10
-389.250000
 20
-266.750000
 11
-239.250000
 21
-266.750000
  0
LINE
  8
0
 10
-389.250000
 20
-256.750000
 11
-239.250000
 21
-256.750000
  0
LINE
  8
0
 10
-389.250000
 20
-246.750000
 11
-239.250000
 21
-246.750000
  0
LINE
  8
0
 10
-389.250000
 20
-236.750000
 11
-239.250000
 21
-236.750000
  0
LINE
  8
0
 10
-389.250000
 20
-216.750000
 11
-344.608887
 21
-216.750000
  0
LINE
  8
0
 10
-389.250000
 20
-206.750000
 11
-239.250000
 21
-206.750000
  0
LINE
  8
0
 10
-389.250000
 20
-266.750000
 11
-389.250000
 21
-206.750000
  0
LINE
  8
0
 10
-339.250000
 20
-266.750000
 11
-339.250000
 21
-206.750000
  0
LINE
  8
0
 10
-339.249847
 20
-236.749954
 11
-344.608826
 21
-216.749954
  0
LINE
  8
0
 10
-314.250000
 20
-266.750000
 11
-314.250000
 21
-206.750000
  0
LINE
  8
0
 10
-289.250000
 20
-266.750000
 11
-289.250000
 21
-206.750000
  0
LINE
  8
0
 10
-264.250000
 20
-266.750000
 11
-264.250000
 21
-206.750000
  0
LINE
  8
0
 10
-239.250000
 20
-266.750000
 11
-239.250000
 21
-206.750000
  0
LINE
  8
0
 10
399.799805
 20
276.250000
 11
399.799805
 21
-276.750000
  0
LINE
  8
0
 10
-399.250000
 20
276.250000
 11
-399.250000
 21
-276.750000
  0
LINE
  8
0
 10
-399.250000
 20
276.250000
 11
399.799805
 21
276.250000
  0
LINE
  8
0
 10
-399.250000
 20
-276.750000
 11
399.799805
 21
-276.750000
  0
LINE
  8
0
 10
239.799988
 20
-251.750000
 11
399.799805
 21
-251.750000
  0
LINE
  8
0
 10
239.799988
 20
251.250000
 11
399.799805
 21
251.250000
  0
LINE
  8
0
 10
-399.250000
 20
251.250000
 11
-239.250000
 21
251.250000
  0
LINE
  8
0
 10
239.799988
 20
-251.750000
 11
239.799988
 21
-276.750000
  0
LINE
  8
0
 10
239.799988
 20
251.250000
 11
239.799988
 21
276.250000
  0
LINE
  8
0
 10
-239.250000
 20
276.250000
 11
-239.250000
 21
251.250000
  0
CIRCLE
  8
0
 62
     2
 10
80.935257
 20
-206.389130
 40
3.000000
  0
CIRCLE
  8
0
 10
80.935257
 20
-206.389130
 40
2.299999
  0
CIRCLE
  8
0
 62
     2
 10
80.935257
 20
-172.389130
 40
3.000000
  0
CIRCLE
  8
0
 10
80.935257
 20
-172.389130
 40
2.299999
  0
CIRCLE
  8
0
 62
     2
 10
-69.064743
 20
-172.389130
 40
3.000000
  0
CIRCLE
  8
0
 10
-69.064743
 20
-172.389130
 40
2.299999
  0
CIRCLE
  8
0
 62
     2
 10
-69.064743
 20
-206.389130
 40
3.000000
  0
CIRCLE
  8
0
 10
-69.064743
 20
-206.389130
 40
2.299999
  0
ARC
  8
0
 10
113.714111
 20
-223.889145
 40
7.217919
 50
339.735138
 51
20.264851
  0
ARC
  8
0
 10
113.714111
 20
-228.889145
 40
7.217919
 50
339.735138
 51
20.264851
  0
ARC
  8
0
 10
123.156418
 20
-223.889145
 40
7.227317
 50
159.762650
 51
200.237350
  0
ARC
  8
0
 10
123.156418
 20
-228.889145
 40
7.227317
 50
159.762650
 51
200.237350
  0
ARC
  8
0
 10
-101.843582
 20
-228.889145
 40
7.217919
 50
159.735153
 51
200.264832
  0
ARC
  8
0
 10
-101.843582
 20
-223.889145
 40
7.217919
 50
159.735153
 51
200.264832
  0
ARC
  8
0
 10
-111.285889
 20
-228.889145
 40
7.227317
 50
339.762665
 51
20.237345
  0
ARC
  8
0
 10
-111.285889
 20
-223.889145
 40
7.227317
 50
339.762665
 51
20.237345
  0
CIRCLE
  8
0
 10
100.935257
 20
-206.389130
 40
3.299999
  0
CIRCLE
  8
0
 10
100.935257
 20
-172.389130
 40
3.299999
  0
CIRCLE
  8
0
 10
-89.064728
 20
-206.389130
 40
3.299999
  0
CIRCLE
  8
0
 10
-89.064728
 20
-172.389130
 40
3.299999
  0
ARC
  8
0
 10
111.381882
 20
-72.999985
 40
9.548097
 50
342.444427
 51
17.555561
  0
ARC
  8
0
 10
118.378662
 20
-68.680939
 40
2.551214
 50
325.662872
 51
25.814697
  0
ARC
  8
0
 10
118.491898
 20
-68.680191
 40
2.559895
 50
154.297699
 51
214.224686
  0
ARC
  8
0
 10
125.488724
 20
-72.999985
 40
9.557685
 50
162.462616
 51
197.537384
  0
ARC
  8
0
 10
118.491119
 20
-77.324974
 40
2.562185
 50
145.669083
 51
214.330917
  0
ARC
  8
0
 10
118.379501
 20
-77.324974
 40
2.553881
 50
325.541748
 51
34.458241
  0
ARC
  8
0
 10
-99.511322
 20
-72.999985
 40
9.548100
 50
162.444397
 51
197.555557
  0
ARC
  8
0
 10
-106.508095
 20
-77.319016
 40
2.551214
 50
145.662857
 51
205.814621
  0
ARC
  8
0
 10
-106.621338
 20
-77.319763
 40
2.559895
 50
334.297699
 51
34.224682
  0
ARC
  8
0
 10
-113.618164
 20
-72.999985
 40
9.557685
 50
342.462616
 51
17.537378
  0
ARC
  8
0
 10
-106.620552
 20
-68.674988
 40
2.562185
 50
325.669098
 51
34.330914
  0
ARC
  8
0
 10
-106.508942
 20
-68.674988
 40
2.553881
 50
145.541763
 51
214.458237
  0
CIRCLE
  8
0
 10
261.914551
 20
10.360855
 40
8.500000
  0
ARC
  8
0
 10
249.300629
 20
11.622513
 40
2.498641
 50
123.752457
 51
174.776352
  0
ARC
  8
0
 10
249.303970
 20
9.093567
 40
2.503485
 50
185.583298
 51
236.229553
  0
ARC
  8
0
 10
266.412354
 20
-1.039139
 40
2.100034
 50
359.703766
 51
180.296173
  0
ARC
  8
0
 10
264.507996
 20
-3.345642
 40
0.304386
 50
270.821472
 51
359.180298
  0
ARC
  8
0
 10
268.318878
 20
-3.343475
 40
0.306588
 50
181.218842
 51
268.779449
  0
ARC
  8
0
 10
257.412354
 20
-1.039139
 40
2.100034
 50
359.703766
 51
180.296173
  0
ARC
  8
0
 10
255.508011
 20
-3.345642
 40
0.304384
 50
270.818604
 51
359.180664
  0
ARC
  8
0
 10
259.318878
 20
-3.343491
 40
0.306588
 50
181.217407
 51
268.785095
  0
CIRCLE
  8
0
 10
255.914581
 20
81.360825
 40
3.000001
  0
CIRCLE
  8
0
 62
     2
 10
255.914581
 20
81.360825
 40
2.299999
  0
CIRCLE
  8
0
 10
255.914581
 20
81.360825
 40
5.000000
  0
CIRCLE
  8
0
 62
     2
 10
263.914551
 20
36.360828
 40
4.863999
  0
CIRCLE
  8
0
 10
263.914551
 20
36.360828
 40
4.278001
  0
CIRCLE
  8
0
 62
     2
 10
263.912354
 20
52.349991
 40
4.863998
  0
CIRCLE
  8
0
 10
263.912354
 20
52.349991
 40
4.278000
  0
ARC
  8
0
 10
-62.620560
 20
174.793747
 40
2.565383
 50
325.751465
 51
34.248543
  0
ARC
  8
0
 10
-69.618225
 20
170.462494
 40
9.564486
 50
342.428375
 51
17.571623
  0
ARC
  8
0
 10
-62.620575
 20
166.131256
 40
2.565386
 50
325.751495
 51
34.248493
  0
ARC
  8
0
 10
71.933884
 20
176.972153
 40
1.798037
 50
335.884064
 51
166.234467
  0
ARC
  8
0
 62
     2
 10
71.930573
 20
176.972794
 40
2.504777
 50
342.928711
 51
170.179962
  0
ARC
  8
0
 10
-60.051910
 20
176.963318
 40
1.800843
 50
269.662598
 51
203.768372
  0
ARC
  8
0
 62
     2
 10
-60.055634
 20
176.964920
 40
2.502436
 50
269.842529
 51
196.899216
  0
ARC
  8
0
 10
74.491104
 20
174.793747
 40
2.561711
 50
145.695526
 51
214.304199
  0
ARC
  8
0
 10
81.488708
 20
170.462494
 40
9.560195
 50
162.420227
 51
197.579773
  0
ARC
  8
0
 10
74.491104
 20
166.131256
 40
2.561717
 50
145.695618
 51
214.304382
  0
CIRCLE
  8
0
 10
90.935257
 20
176.971680
 40
4.250000
  0
CIRCLE
  8
0
 10
90.935257
 20
176.971680
 40
3.730385
  0
CIRCLE
  8
0
 10
-79.064743
 20
176.971680
 40
4.250000
  0
CIRCLE
  8
0
 10
-79.064743
 20
176.971680
 40
3.730385
  0
CIRCLE
  8
0
 10
-98.064728
 20
176.971680
 40
4.250000
  0
CIRCLE
  8
0
 10
-98.064728
 20
176.971680
 40
3.730385
  0
CIRCLE
  8
0
 10
109.935272
 20
176.971680
 40
4.250000
  0
CIRCLE
  8
0
 10
109.935272
 20
176.971680
 40
3.730385
  0
ARC
  8
0
 10
111.381866
 20
170.471664
 40
9.548100
 50
342.444397
 51
17.555605
  0
ARC
  8
0
 10
118.378647
 20
174.790710
 40
2.551214
 50
325.662872
 51
25.814852
  0
ARC
  8
0
 10
118.491882
 20
174.791443
 40
2.559895
 50
154.297699
 51
214.224686
  0
ARC
  8
0
 10
125.488708
 20
170.471664
 40
9.557687
 50
162.462585
 51
197.537415
  0
ARC
  8
0
 10
118.491104
 20
166.146667
 40
2.562189
 50
145.668945
 51
214.330780
  0
ARC
  8
0
 10
118.379486
 20
166.146667
 40
2.553877
 50
325.541901
 51
34.458099
  0
ARC
  8
0
 10
-99.511337
 20
170.471664
 40
9.548100
 50
162.444397
 51
197.555603
  0
ARC
  8
0
 10
-106.508110
 20
166.152634
 40
2.551214
 50
145.662857
 51
205.814774
  0
ARC
  8
0
 10
-106.621353
 20
166.151886
 40
2.559895
 50
334.297699
 51
34.224682
  0
ARC
  8
0
 10
-113.618179
 20
170.471664
 40
9.557687
 50
342.462585
 51
17.537422
  0
ARC
  8
0
 10
-106.620567
 20
174.796661
 40
2.562181
 50
325.669220
 51
34.330772
  0
ARC
  8
0
 10
-106.508957
 20
174.796661
 40
2.553885
 50
145.541626
 51
214.458099
  0
CIRCLE
  8
0
 10
-270.064606
 20
10.360855
 40
6.000000
  0
CIRCLE
  8
0
 10
-270.064606
 20
10.360855
 40
7.999999
  0
CIRCLE
  8
0
 62
     2
 10
-272.064636
 20
52.360832
 40
4.278000
  0
CIRCLE
  8
0
 10
-272.064636
 20
52.360832
 40
4.863998
  0
ARC
  8
0
 10
-274.562500
 20
-1.039139
 40
2.100034
 50
359.703766
 51
180.296173
  0
ARC
  8
0
 10
-272.658112
 20
-3.345612
 40
0.304414
 50
180.827560
 51
269.172882
  0
ARC
  8
0
 10
-276.468994
 20
-3.343506
 40
0.306557
 50
271.214996
 51
358.787231
  0
ARC
  8
0
 10
-265.562500
 20
-1.039139
 40
2.100034
 50
359.703766
 51
180.296173
  0
ARC
  8
0
 10
-263.658112
 20
-3.345612
 40
0.304414
 50
180.827240
 51
269.172882
  0
ARC
  8
0
 10
-267.468964
 20
-3.343536
 40
0.306540
 50
271.209351
 51
358.790283
  0
CIRCLE
  8
0
 10
-264.064636
 20
81.360825
 40
3.000001
  0
CIRCLE
  8
0
 62
     2
 10
-264.064636
 20
81.360825
 40
2.299999
  0
CIRCLE
  8
0
 10
-264.064636
 20
81.360825
 40
5.000000
  0
CIRCLE
  8
0
 10
-270.064606
 20
10.360855
 40
3.499999
  0
CIRCLE
  8
0
 10
-270.064606
 20
10.360855
 40
2.980384
  0
ARC
  8
0
 10
-67.285614
 20
78.849991
 40
7.231487
 50
339.774841
 51
20.225166
  0
ARC
  8
0
 10
-67.285614
 20
83.849991
 40
7.231487
 50
339.774841
 51
20.225166
  0
CIRCLE
  8
0
 10
-89.064728
 20
61.360825
 40
5.500000
  0
CIRCLE
  8
0
 10
-89.064728
 20
61.360825
 40
3.299999
  0
CIRCLE
  8
0
 10
-89.064728
 20
27.360840
 40
5.500000
  0
CIRCLE
  8
0
 10
-89.064728
 20
27.360840
 40
3.299999
  0
CIRCLE
  8
0
  6
DASHED
 62
     2
 10
100.935257
 20
61.360825
 40
5.500000
  0
CIRCLE
  8
0
  6
DASHED
 62
     2
 10
100.935257
 20
61.360825
 40
3.299999
  0
ARC
  8
0
 10
-85.562500
 20
10.350006
 40
6.000000
 50
90.000000
 51
269.999939
  0
CIRCLE
  8
0
  6
DASHED
 62
     2
 10
100.935257
 20
27.360840
 40
5.500000
  0
CIRCLE
  8
0
  6
DASHED
 62
     2
 10
100.935257
 20
27.360840
 40
3.299999
  0
CIRCLE
  8
0
 62
     2
 10
75.935257
 20
9.360840
 40
3.000000
  0
CIRCLE
  8
0
 10
75.935257
 20
9.360840
 40
2.299999
  0
CIRCLE
  8
0
 62
     2
 10
-14.064743
 20
9.360840
 40
3.000000
  0
CIRCLE
  8
0
 10
-14.064743
 20
9.360840
 40
2.299999
  0
CIRCLE
  8
0
 62
     2
 10
-14.064743
 20
79.360825
 40
3.000000
  0
CIRCLE
  8
0
 10
-14.064743
 20
79.360825
 40
2.299999
  0
CIRCLE
  8
0
 62
     2
 10
75.935257
 20
79.360825
 40
3.000000
  0
CIRCLE
  8
0
 10
75.935257
 20
79.360825
 40
2.299999
  0
ARC
  8
0
 10
113.714111
 20
83.860825
 40
7.217919
 50
339.735138
 51
20.264851
  0
ARC
  8
0
 10
113.714111
 20
78.860825
 40
7.217919
 50
339.735138
 51
20.264851
  0
ARC
  8
0
 10
123.156418
 20
83.860825
 40
7.227317
 50
159.762650
 51
200.237350
  0
ARC
  8
0
 10
123.156418
 20
78.860825
 40
7.227317
 50
159.762650
 51
200.237350
  0
ARC
  8
0
 10
-101.843582
 20
78.860825
 40
7.217921
 50
159.735092
 51
200.264771
  0
ARC
  8
0
 10
-101.843582
 20
83.860825
 40
7.217921
 50
159.735092
 51
200.264771
  0
ARC
  8
0
 10
-111.285889
 20
78.860825
 40
7.227317
 50
339.762665
 51
20.237345
  0
ARC
  8
0
 10
-111.285889
 20
83.860825
 40
7.227317
 50
339.762665
 51
20.237345
  0
POLYLINE
  8
0
 66
     1
  0
VERTEX
  8
0
 10
-9.525009
 20
163.537506
  0
VERTEX
  8
0
 10
-9.913011
 20
164.369812
  0
VERTEX
  8
0
 10
-10.062500
 20
165.274994
  0
VERTEX
  8
0
 10
-9.913011
 20
166.173172
  0
VERTEX
  8
0
 10
-9.525009
 20
167.000000
  0
SEQEND
  0
POLYLINE
  8
0
 66
     1
  0
VERTEX
  8
0
 10
-9.525009
 20
173.924988
  0
VERTEX
  8
0
 10
-9.754693
 20
173.078156
  0
VERTEX
  8
0
 10
-9.923266
 20
172.215378
  0
VERTEX
  8
0
 10
-10.027084
 20
171.341797
  0
VERTEX
  8
0
 10
-10.062500
 20
170.462494
  0
VERTEX
  8
0
 10
-10.027084
 20
169.583191
  0
VERTEX
  8
0
 10
-9.923266
 20
168.709610
  0
VERTEX
  8
0
 10
-9.754693
 20
167.846832
  0
VERTEX
  8
0
 10
-9.525009
 20
167.000000
  0
SEQEND
  0
POLYLINE
  8
0
 66
     1
  0
VERTEX
  8
0
 10
-9.525009
 20
177.399994
  0
VERTEX
  8
0
 10
-9.913011
 20
176.566925
  0
VERTEX
  8
0
 10
-10.062500
 20
175.662491
  0
VERTEX
  8
0
 10
-9.913011
 20
174.758057
  0
VERTEX
  8
0
 10
-9.525009
 20
173.924988
  0
SEQEND
  0
POLYLINE
  8
0
 66
     1
  0
VERTEX
  8
0
 10
71.387497
 20
177.399994
  0
VERTEX
  8
0
 10
71.775497
 20
176.566925
  0
VERTEX
  8
0
 10
71.924988
 20
175.662491
  0
VERTEX
  8
0
 10
71.775497
 20
174.758057
  0
VERTEX
  8
0
 10
71.387497
 20
173.924988
  0
SEQEND
  0
POLYLINE
  8
0
 66
     1
  0
VERTEX
  8
0
 10
71.387497
 20
167.000000
  0
VERTEX
  8
0
 10
71.617180
 20
167.846832
  0
VERTEX
  8
0
 10
71.785751
 20
168.709610
  0
VERTEX
  8
0
 10
71.889572
 20
169.583191
  0
VERTEX
  8
0
 10
71.924988
 20
170.462494
  0
VERTEX
  8
0
 10
71.889572
 20
171.341797
  0
VERTEX
  8
0
 10
71.785751
 20
172.215378
  0
VERTEX
  8
0
 10
71.617180
 20
173.078156
  0
VERTEX
  8
0
 10
71.387497
 20
173.924988
  0
SEQEND
  0
POLYLINE
  8
0
 66
     1
  0
VERTEX
  8
0
 10
71.387497
 20
163.537506
  0
VERTEX
  8
0
 10
71.775497
 20
164.369812
  0
VERTEX
  8
0
 10
71.924988
 20
165.274994
  0
VERTEX
  8
0
 10
71.775497
 20
166.173172
  0
VERTEX
  8
0
 10
71.387497
 20
167.000000
  0
SEQEND
  0
TEXT
  8
0
 62
     3
 10
38.418335
 20
219.632935
 40
6.300000
  1
STRETCH LINE C
 50
0.000000
 41
1.052632
 51
0.000000
  7
STANDARD
  0
TEXT
  8
0
 62
     3
 10
-19.345655
 20
236.383347
 40
6.300000
  1
STRETCH LINE B
 50
0.000000
 41
1.052632
 51
0.000000
  7
STANDARD
  0
TEXT
  8
0
 62
     3
 10
-102.479080
 20
251.200104
 40
6.300000
  1
STRETCH LINE A
 50
0.000000
 41
1.052632
 51
0.000000
  7
STANDARD
  0
TEXT
  8
0
 10
-367.839050
 20
-266.420013
 40
6.300000
  1
C
 50
0.000000
 41
1.052632
 51
0.000000
  7
STANDARD
  0
TEXT
  8
0
 10
-330.339050
 20
-266.420013
 40
6.300000
  1
0
 50
0.000000
 41
1.052632
 51
0.000000
  7
STANDARD
  0
TEXT
  8
0
 10
-305.339050
 20
-266.420013
 40
6.300000
  1
0
 50
0.000000
 41
1.052632
 51
0.000000
  7
STANDARD
  0
TEXT
  8
0
 10
-283.489075
 20
-266.420013
 40
6.300000
  1
25
 50
0.000000
 41
1.052632
 51
0.000000
  7
STANDARD
  0
TEXT
  8
0
 10
-258.489075
 20
-266.420013
 40
6.300000
  1
50
 50
0.000000
 41
1.052632
 51
0.000000
  7
STANDARD
  0
TEXT
  8
0
 10
-262.331604
 20
-205.098251
 40
6.300000
  1
（ｍｍ）
 50
0.000000
 41
0.833333
 51
0.000000
  7
STANDARD
  0
TEXT
  8
0
 10
-367.839050
 20
-246.419998
 40
6.300000
  1
A
 50
0.000000
 41
1.052632
 51
0.000000
  7
STANDARD
  0
TEXT
  8
0
 10
-367.839050
 20
-256.420013
 40
6.300000
  1
B
 50
0.000000
 41
1.052632
 51
0.000000
  7
STANDARD
  0
TEXT
  8
0
 10
-383.589050
 20
-216.419998
 40
6.300000
  1
STROKE
 50
0.000000
 41
1.052632
 51
0.000000
  7
STANDARD
  0
TEXT
  8
0
 10
-388.739075
 20
-224.726242
 40
6.300000
  1
STRETCH
 50
0.000000
 41
1.052632
 51
0.000000
  7
STANDARD
  0
TEXT
  8
0
 10
-388.739075
 20
-234.963745
 40
6.300000
  1
  PLACE
 50
0.000000
 41
1.052632
 51
0.000000
  7
STANDARD
  0
TEXT
  8
0
 10
-333.489075
 20
-226.419998
 40
6.300000
  1
50
 50
0.000000
 41
1.052632
 51
0.000000
  7
STANDARD
  0
TEXT
  8
0
 10
-330.339050
 20
-246.419998
 40
6.300000
  1
0
 50
0.000000
 41
1.052632
 51
0.000000
  7
STANDARD
  0
TEXT
  8
0
 10
-330.339050
 20
-256.420013
 40
6.300000
  1
0
 50
0.000000
 41
1.052632
 51
0.000000
  7
STANDARD
  0
TEXT
  8
0
 10
-311.639069
 20
-226.419998
 40
6.300000
  1
100
 50
0.000000
 41
1.052632
 51
0.000000
  7
STANDARD
  0
TEXT
  8
0
 10
-308.489075
 20
-246.419998
 40
6.300000
  1
50
 50
0.000000
 41
1.052632
 51
0.000000
  7
STANDARD
  0
TEXT
  8
0
 10
-305.339050
 20
-256.420013
 40
6.300000
  1
0
 50
0.000000
 41
1.052632
 51
0.000000
  7
STANDARD
  0
TEXT
  8
0
 10
-286.639069
 20
-226.419998
 40
6.300000
  1
150
 50
0.000000
 41
1.052632
 51
0.000000
  7
STANDARD
  0
TEXT
  8
0
 10
-286.639069
 20
-246.419998
 40
6.300000
  1
100
 50
0.000000
 41
1.052632
 51
0.000000
  7
STANDARD
  0
TEXT
  8
0
 10
-283.489075
 20
-256.420013
 40
6.300000
  1
25
 50
0.000000
 41
1.052632
 51
0.000000
  7
STANDARD
  0
TEXT
  8
0
 10
-261.639069
 20
-226.419998
 40
6.300000
  1
200
 50
0.000000
 41
1.052632
 51
0.000000
  7
STANDARD
  0
TEXT
  8
0
 10
-261.639069
 20
-246.419998
 40
6.300000
  1
150
 50
0.000000
 41
1.052632
 51
0.000000
  7
STANDARD
  0
TEXT
  8
0
 10
-258.489075
 20
-256.420013
 40
6.300000
  1
50
 50
0.000000
 41
1.052632
 51
0.000000
  7
STANDARD
  0
TEXT
  8
0
 10
-356.082825
 20
-205.098251
 40
6.300000
  1
STRETCH LIST
 50
0.000000
 41
1.052632
 51
0.000000
  7
STANDARD
  0
TEXT
  8
0
 10
-364.245453
 20
256.649994
 40
9.000000
  1
SLIDE TABLE
 50
0.000000
 41
0.937799
 51
0.000000
  7
STANDARD
  0
TEXT
  8
0
 10
242.014633
 20
-274.500000
 40
12.500000
  1
KOGANEI CORP.
 50
0.000000
 41
1.052632
 51
0.000000
  7
STANDARD
  0
TEXT
  8
0
 10
282.764496
 20
256.649994
 40
9.000000
  1
Ｖｅｒ．　１．０
 50
0.000000
 41
0.833333
 51
0.000000
  7
STANDARD
  0
TEXT
  8
0
 10
-384.785309
 20
224.149994
 40
9.000000
  1
MODEL:AWT16*ST(50)
 50
0.000000
 41
1.052632
 51
0.000000
  7
STANDARD
  0
ENDSEC
  0
EOF
