  0
SECTION
  2
HEADER
  0
ENDSEC
  0
SECTION
  2
TABLES
  0
TABLE
  2
LTYPE
 70
     4
  0
LTYPE
  2
CONTINUOUS
 70
    64
  3
Solid line
 72
    65
 73
     0
 40
0.000000
  0
LTYPE
  2
DASHED
 70
    64
  3
__ __ __ __ __ __ __ __ __ __ __ __ __ __ __
 72
    65
 73
     2
 40
3.500000
 49
2.000000
 49
-1.500000
  0
LTYPE
  2
CENTER
 70
    64
  3
____ _ ____ _ ____ _ ____ _ ____ _ ____ _ ____
 72
    65
 73
     4
 40
17.500000
 49
13.000000
 49
-1.500000
 49
1.500000
 49
-1.500000
  0
LTYPE
  2
PHANTOM
 70
    64
  3
_____ _ _ _____ _ _ _____ _ _ _____ _ _ ____  
 72
    65
 73
     6
 40
15.500000
 49
8.000000
 49
-1.500000
 49
1.500000
 49
-1.500000
 49
1.500000
 49
-1.500000
  0
LTYPE
  2
DASHED1
 70
    64
  3
__ __ __ __ __ __ __ __ __ __ __ __ __ __ __
 72
    65
 73
     2
 40
1.500000
 49
1.000000
 49
-0.500000
  0
LTYPE
  2
DASHED2
 70
    64
  3
__ __ __ __ __ __ __ __ __ __ __ __ __ __ __
 72
    65
 73
     2
 40
3.500000
 49
2.500000
 49
-1.000000
  0
LTYPE
  2
DASHED3
 70
    64
  3
__ __ __ __ __ __ __ __ __ __ __ __ __ __ __
 72
    65
 73
     2
 40
6.000000
 49
4.000000
 49
-2.000000
  0
LTYPE
  2
DASHED4
 70
    64
  3
__ __ __ __ __ __ __ __ __ __ __ __ __ __ __
 72
    65
 73
     2
 40
12.000000
 49
10.000000
 49
-2.000000
  0
LTYPE
  2
DASHED5
 70
    64
  3
__ __ __ __ __ __ __ __ __ __ __ __ __ __ __
 72
    65
 73
     2
 40
17.000000
 49
15.000000
 49
-2.000000
  0
LTYPE
  2
DASHED6
 70
    64
  3
__ __ __ __ __ __ __ __ __ __ __ __ __ __ __
 72
    65
 73
     2
 40
29.000000
 49
27.000000
 49
-2.000000
  0
LTYPE
  2
PHANTOM1
 70
    64
  3
_____ _ _ _____ _ _ _____ _ _ _____ _ _ ____  
 72
    65
 73
     6
 40
31.000000
 49
25.000000
 49
-1.500000
 49
1.000000
 49
-1.000000
 49
1.000000
 49
-1.500000
  0
LTYPE
  2
PHANTOM2
 70
    64
  3
_____ _ _ _____ _ _ _____ _ _ _____ _ _ ____  
 72
    65
 73
     6
 40
36.000000
 49
27.000000
 49
-1.500000
 49
2.500000
 49
-1.000000
 49
2.500000
 49
-1.500000
  0
LTYPE
  2
PHANTOM3
 70
    64
  3
_____ _ _ _____ _ _ _____ _ _ _____ _ _ ____  
 72
    65
 73
     6
 40
78.000000
 49
64.000000
 49
-2.000000
 49
4.000000
 49
-2.000000
 49
4.000000
 49
-2.000000
  0
LTYPE
  2
CENTER1
 70
    64
  3
____ _ ____ _ ____ _ ____ _ ____ _ ____ _ ____
 72
    65
 73
     4
 40
19.000000
 49
14.000000
 49
-1.000000
 49
3.000000
 49
-1.000000
  0
LTYPE
  2
CENTER2
 70
    64
  3
____ _ ____ _ ____ _ ____ _ ____ _ ____ _ ____
 72
    65
 73
     4
 40
28.500000
 49
25.000000
 49
-1.000000
 49
1.500000
 49
-1.000000
  0
LTYPE
  2
CENTER3
 70
    64
  3
____ _ ____ _ ____ _ ____ _ ____ _ ____ _ ____
 72
    65
 73
     4
 40
31.500000
 49
27.000000
 49
-1.000000
 49
2.500000
 49
-1.000000
  0
LTYPE
  2
CENTER4
 70
    64
  3
____ _ ____ _ ____ _ ____ _ ____ _ ____ _ ____
 72
    65
 73
     4
 40
50.000000
 49
45.000000
 49
-1.000000
 49
3.000000
 49
-1.000000
  0
LTYPE
  2
CENTER5
 70
    64
  3
____ _ ____ _ ____ _ ____ _ ____ _ ____ _ ____
 72
    65
 73
     4
 40
100.000000
 49
92.000000
 49
-2.000000
 49
4.000000
 49
-2.000000
  0
LTYPE
  2
SBK1
 70
    64
  3
______ _ _ _ ______ _ _ _ ______ _ _ _ _____  
 72
    65
 73
     8
 40
60.500000
 49
45.000000
 49
-2.000000
 49
2.500000
 49
-2.000000
 49
2.500000
 49
-2.000000
 49
2.500000
 49
-2.000000
  0
LTYPE
  2
SBK2
 70
    64
  3
______ _ _ _ ______ _ _ _ ______ _ _ _ _____  
 72
    65
 73
     8
 40
84.000000
 49
64.000000
 49
-2.000000
 49
4.000000
 49
-2.000000
 49
4.000000
 49
-2.000000
 49
4.000000
 49
-2.000000
  0
LTYPE
  2
STCH
 70
    64
  3
__ __ __ __ __ __ __ __ __ __ __ __ __ __ __
 72
    65
 73
     2
 40
3.000000
 49
1.000000
 49
-2.000000
  0
LTYPE
  2
MTCH
 70
    64
  3
_____ _ _ _____ _ _ _____ _ _ _____ _ _ ____  
 72
    65
 73
     6
 40
80.000000
 49
66.000000
 49
-2.000000
 49
4.000000
 49
-2.000000
 49
4.000000
 49
-2.000000
  0
ENDTAB
  0
TABLE
  2
LAYER
 70
     1
  0
LAYER
  2
0
 70
     0
 62
     7
  6
CONTINUOUS
  0
ENDTAB
  0
TABLE
  2
STYLE
 70
     1
  0
STYLE
  2
STANDARD
 70
     0
 40
0.000000
 41
1.000000
 50
0.000000
 71
     0
 42
0.200000
  3
txt
  4
BIGFONT
  0
ENDTAB
  0
TABLE
  2
VIEW
 70
     0
  0
ENDTAB
  0
ENDSEC
  0
SECTION
  2
BLOCKS
  0
ENDSEC
  0
SECTION
  2
ENTITIES
  0
LINE
  8
0
  6
PHANTOM
 62
     3
 10
-39.500000
 20
156.000000
 11
-39.500000
 21
36.500000
  0
LINE
  8
0
  6
PHANTOM
 62
     3
 10
47.999996
 20
136.000000
 11
47.999996
 21
36.500000
  0
LINE
  8
0
  6
PHANTOM
 62
     3
 10
27.000000
 20
146.000000
 11
27.000000
 21
36.500000
  0
LINE
  8
0
 10
-27.999973
 20
125.785706
 11
-27.999973
 21
54.214264
  0
LINE
  8
0
 10
-45.999943
 20
93.999985
 11
-45.999943
 21
86.000000
  0
LINE
  8
0
 10
-46.999973
 20
126.000000
 11
-46.999973
 21
53.999989
  0
LINE
  8
0
 10
-46.999973
 20
101.000000
 11
-27.999973
 21
101.000000
  0
LINE
  8
0
 10
-46.999973
 20
113.000000
 11
-27.999973
 21
113.000000
  0
LINE
  8
0
 10
-46.999973
 20
66.999969
 11
-27.999973
 21
66.999969
  0
LINE
  8
0
 10
-46.999973
 20
78.999985
 11
-27.999973
 21
78.999985
  0
LINE
  8
0
 10
-27.285686
 20
126.499969
 11
105.500031
 21
126.499969
  0
LINE
  8
0
  6
CENTER
 62
     2
 10
-59.399960
 20
106.999969
 11
-23.166645
 21
106.999969
  0
LINE
  8
0
  6
CENTER
 62
     2
 10
-59.799961
 20
89.999985
 11
130.993073
 21
89.999985
  0
LINE
  8
0
 10
-27.285686
 20
53.499981
 11
105.500015
 21
53.499981
  0
LINE
  8
0
 10
-56.999973
 20
125.999969
 11
-46.999973
 21
125.999969
  0
LINE
  8
0
 10
-56.999973
 20
53.999989
 11
-46.999973
 21
53.999989
  0
LINE
  8
0
 10
-46.999973
 20
86.000008
 11
-45.999950
 21
86.000008
  0
LINE
  8
0
 10
-46.999973
 20
93.999969
 11
-45.999950
 21
93.999969
  0
LINE
  8
0
  6
DASHED
 10
-46.999973
 20
110.160675
 11
-44.999958
 21
110.160675
  0
LINE
  8
0
 10
-46.999973
 20
103.839264
 11
-44.999958
 21
103.839264
  0
LINE
  8
0
 10
-44.999973
 20
110.160706
 11
-44.999973
 21
103.839294
  0
LINE
  8
0
 10
-44.999958
 20
110.160675
 11
-46.999973
 21
110.160675
  0
LINE
  8
0
 10
-44.999973
 20
76.160675
 11
-44.999973
 21
69.839287
  0
LINE
  8
0
 10
-44.999958
 20
69.839279
 11
-46.999973
 21
69.839279
  0
LINE
  8
0
 10
-44.999958
 20
76.160683
 11
-46.999973
 21
76.160683
  0
LINE
  8
0
  6
CENTER
 62
     2
 10
-55.499966
 20
61.999973
 11
-47.833294
 21
61.999973
  0
LINE
  8
0
  6
CENTER
 62
     2
 10
-55.833302
 20
118.000000
 11
-48.499950
 21
118.000000
  0
LINE
  8
0
  6
CENTER
 62
     2
 10
-51.999973
 20
122.166672
 11
-51.999973
 21
113.500000
  0
LINE
  8
0
  6
CENTER
 62
     2
 10
-51.999973
 20
66.833328
 11
-51.999973
 21
57.166645
  0
LINE
  8
0
  6
CENTER
 62
     2
 10
37.000042
 20
127.748993
 11
37.000042
 21
116.499985
  0
LINE
  8
0
  6
CENTER
 62
     2
 10
-12.999973
 20
95.499992
 11
-12.999973
 21
83.833321
  0
LINE
  8
0
  6
CENTER
 62
     2
 10
87.000046
 20
96.499985
 11
87.000046
 21
83.833321
  0
LINE
  8
0
  6
CENTER
 62
     2
 10
31.013035
 20
56.999973
 11
43.166698
 21
56.999973
  0
LINE
  8
0
  6
CENTER
 62
     2
 10
31.500027
 20
123.000000
 11
43.500042
 21
123.000000
  0
LINE
  8
0
  6
CENTER
 62
     2
 10
37.000042
 20
63.234737
 11
37.000042
 21
50.833309
  0
LINE
  8
0
 10
-35.711308
 20
94.618774
 11
-32.499989
 21
94.618774
  0
LINE
  8
0
 10
-35.711308
 20
92.309380
 11
-32.499989
 21
92.309380
  0
LINE
  8
0
 10
-35.711308
 20
87.690582
 11
-32.499989
 21
87.690582
  0
LINE
  8
0
 10
-35.711308
 20
85.381195
 11
-32.499989
 21
85.381195
  0
LINE
  8
0
 10
-32.499973
 20
94.618797
 11
-32.499973
 21
85.381195
  0
LINE
  8
0
 10
-30.479984
 20
94.118790
 11
-30.479984
 21
85.881203
  0
LINE
  8
0
 10
-35.999950
 20
94.118767
 11
-35.711262
 21
94.618782
  0
LINE
  8
0
 10
-35.999985
 20
85.881195
 11
-35.711300
 21
85.381180
  0
LINE
  8
0
 10
-30.191311
 20
94.618774
 11
-28.288670
 21
94.618774
  0
LINE
  8
0
 10
-30.191311
 20
85.381195
 11
-28.288647
 21
85.381195
  0
LINE
  8
0
 10
-27.999954
 20
94.118759
 11
-28.288628
 21
94.618759
  0
LINE
  8
0
 10
-27.999931
 20
85.881142
 11
-28.288607
 21
85.381142
  0
LINE
  8
0
 10
-30.479959
 20
94.118774
 11
-30.191288
 21
94.618774
  0
LINE
  8
0
 10
-30.480005
 20
85.881157
 11
-30.191324
 21
85.381142
  0
LINE
  8
0
 10
-30.191311
 20
87.690582
 11
-28.288647
 21
87.690582
  0
LINE
  8
0
 10
-30.191311
 20
92.309380
 11
-28.288647
 21
92.309380
  0
LINE
  8
0
 10
-32.499989
 20
92.499985
 11
-30.479984
 21
92.499985
  0
LINE
  8
0
 10
-32.499989
 20
87.499985
 11
-30.479984
 21
87.499985
  0
LINE
  8
0
 62
     2
 10
-32.499989
 20
87.904999
 11
-30.479984
 21
87.904999
  0
LINE
  8
0
 62
     2
 10
-32.499989
 20
92.094971
 11
-30.479984
 21
92.094971
  0
LINE
  8
0
  6
CENTER
 62
     2
 10
-58.999950
 20
72.999992
 11
-24.166630
 21
72.999992
  0
LINE
  8
0
 10
-56.999973
 20
126.000000
 11
-56.999973
 21
53.999989
  0
LINE
  8
0
 10
-35.999973
 20
93.999985
 11
-35.999973
 21
86.000000
  0
LINE
  8
0
 10
-27.285610
 20
126.499969
 11
-27.999897
 21
125.785683
  0
LINE
  8
0
 10
-27.999962
 20
54.214291
 11
-27.285673
 21
53.500000
  0
LINE
  8
0
 10
-27.999973
 20
119.799988
 11
33.836193
 21
119.799988
  0
LINE
  8
0
 10
-27.999973
 20
116.599976
 11
106.000031
 21
116.599976
  0
LINE
  8
0
 10
-27.999973
 20
94.099976
 11
-14.854702
 21
94.099976
  0
LINE
  8
0
 10
-27.999973
 20
97.299988
 11
106.000031
 21
97.299988
  0
LINE
  8
0
 10
40.163883
 20
119.799988
 11
106.000031
 21
119.799988
  0
LINE
  8
0
 10
-11.145229
 20
94.099976
 11
85.145309
 21
94.099976
  0
LINE
  8
0
 10
88.854767
 20
94.099976
 11
106.000031
 21
94.099976
  0
LINE
  8
0
 10
106.000031
 20
125.999985
 11
106.000031
 21
53.999989
  0
LINE
  8
0
 10
114.000031
 20
93.999985
 11
114.000031
 21
86.000000
  0
LINE
  8
0
 10
115.000000
 20
126.000000
 11
115.000000
 21
53.999989
  0
LINE
  8
0
 10
115.000000
 20
101.000000
 11
106.000031
 21
101.000000
  0
LINE
  8
0
 10
115.000000
 20
112.999969
 11
106.000031
 21
112.999969
  0
LINE
  8
0
 10
115.000000
 20
66.999954
 11
106.000031
 21
66.999954
  0
LINE
  8
0
 10
115.000000
 20
78.999985
 11
106.000031
 21
78.999985
  0
LINE
  8
0
  6
CENTER
 62
     2
 10
127.586655
 20
106.999969
 11
103.977295
 21
106.999969
  0
LINE
  8
0
 10
125.000000
 20
125.999954
 11
115.000000
 21
125.999954
  0
LINE
  8
0
 10
125.000000
 20
53.999989
 11
115.000000
 21
53.999989
  0
LINE
  8
0
 10
115.000000
 20
86.000000
 11
114.000031
 21
86.000000
  0
LINE
  8
0
 10
115.000000
 20
93.999985
 11
114.000031
 21
93.999985
  0
LINE
  8
0
  6
DASHED
 10
115.000000
 20
110.160675
 11
113.000031
 21
110.160675
  0
LINE
  8
0
 10
115.000000
 20
103.839264
 11
113.000031
 21
103.839264
  0
LINE
  8
0
 10
113.000031
 20
110.160675
 11
113.000031
 21
103.839264
  0
LINE
  8
0
 10
113.000031
 20
110.160675
 11
115.000000
 21
110.160675
  0
LINE
  8
0
 10
113.000031
 20
76.160675
 11
113.000031
 21
69.839287
  0
LINE
  8
0
 10
113.000031
 20
69.839264
 11
115.000000
 21
69.839264
  0
LINE
  8
0
 10
113.000031
 20
76.160675
 11
115.000000
 21
76.160675
  0
LINE
  8
0
  6
CENTER
 62
     2
 10
123.500031
 20
61.999950
 11
115.833374
 21
61.999950
  0
LINE
  8
0
  6
CENTER
 62
     2
 10
123.833344
 20
117.999969
 11
116.500031
 21
117.999969
  0
LINE
  8
0
  6
CENTER
 62
     2
 10
120.000000
 20
122.166641
 11
120.000000
 21
113.500000
  0
LINE
  8
0
  6
CENTER
 62
     2
 10
120.000000
 20
66.833305
 11
120.000000
 21
57.166645
  0
LINE
  8
0
 10
113.711365
 20
94.618797
 11
110.500031
 21
94.618797
  0
LINE
  8
0
 10
113.711365
 20
92.309380
 11
110.500031
 21
92.309380
  0
LINE
  8
0
 10
113.711365
 20
87.690567
 11
110.500031
 21
87.690567
  0
LINE
  8
0
 10
113.711365
 20
85.381165
 11
110.500031
 21
85.381165
  0
LINE
  8
0
 10
110.500031
 20
94.618797
 11
110.500031
 21
85.381172
  0
LINE
  8
0
 10
108.480042
 20
94.118790
 11
108.480042
 21
85.881180
  0
LINE
  8
0
 10
114.068680
 20
94.000008
 11
113.711418
 21
94.618820
  0
LINE
  8
0
 10
114.068703
 20
85.999969
 11
113.711411
 21
85.381142
  0
LINE
  8
0
 10
108.191360
 20
94.618797
 11
106.288727
 21
94.618797
  0
LINE
  8
0
 10
108.191360
 20
85.381165
 11
106.288696
 21
85.381165
  0
LINE
  8
0
 10
106.000114
 20
94.118729
 11
106.288773
 21
94.618698
  0
LINE
  8
0
 10
106.000175
 20
85.881256
 11
106.288841
 21
85.381271
  0
LINE
  8
0
 10
108.480156
 20
94.118866
 11
108.191483
 21
94.618866
  0
LINE
  8
0
 10
108.480118
 20
85.881119
 11
108.191444
 21
85.381119
  0
LINE
  8
0
 10
108.191360
 20
87.690567
 11
106.288696
 21
87.690567
  0
LINE
  8
0
 10
108.191360
 20
92.309380
 11
106.288696
 21
92.309380
  0
LINE
  8
0
 10
110.500031
 20
92.499985
 11
108.480042
 21
92.499985
  0
LINE
  8
0
 10
110.500031
 20
87.499985
 11
108.480042
 21
87.499985
  0
LINE
  8
0
 62
     2
 10
110.500031
 20
87.904968
 11
108.480042
 21
87.904968
  0
LINE
  8
0
 62
     2
 10
110.500031
 20
92.094994
 11
108.480042
 21
92.094994
  0
LINE
  8
0
  6
CENTER
 62
     2
 10
126.799652
 20
72.999969
 11
103.977295
 21
72.999969
  0
LINE
  8
0
 10
125.000000
 20
126.000000
 11
125.000000
 21
53.999989
  0
LINE
  8
0
 10
105.500000
 20
126.499962
 11
106.000008
 21
125.999954
  0
LINE
  8
0
 10
106.000046
 20
54.000023
 11
105.500023
 21
53.499996
  0
LINE
  8
0
 62
     2
 10
-44.999962
 20
110.160675
 11
-46.999977
 21
103.839264
  0
LINE
  8
0
 62
     2
 10
-44.999954
 20
103.839256
 11
-46.999969
 21
110.160667
  0
LINE
  8
0
 62
     2
 10
-44.999958
 20
69.839287
 11
-46.999977
 21
76.160706
  0
LINE
  8
0
 62
     2
 10
-44.999962
 20
76.160706
 11
-46.999977
 21
69.839294
  0
LINE
  8
0
 62
     2
 10
115.000000
 20
76.160675
 11
113.000031
 21
69.839264
  0
LINE
  8
0
 62
     2
 10
113.000031
 20
76.160675
 11
115.000000
 21
69.839264
  0
LINE
  8
0
 62
     2
 10
115.000000
 20
103.839302
 11
113.000031
 21
110.160713
  0
LINE
  8
0
 62
     2
 10
113.000046
 20
103.839287
 11
115.000015
 21
110.160706
  0
LINE
  8
0
 10
-157.285812
 20
126.500023
 11
-144.600113
 21
126.500023
  0
LINE
  8
0
  6
CENTER
 62
     2
 10
-160.259064
 20
90.000038
 11
-125.016602
 21
90.000038
  0
LINE
  8
0
  6
CENTER
 62
     2
 10
-149.748154
 20
107.000023
 11
-135.372940
 21
107.000023
  0
LINE
  8
0
  6
CENTER
 62
     2
 10
-150.057297
 20
73.000046
 11
-135.836655
 21
73.000046
  0
LINE
  8
0
 10
-157.500076
 20
54.000042
 11
-128.500076
 21
54.000042
  0
LINE
  8
0
  6
CENTER
 62
     2
 10
-143.000076
 20
130.062897
 11
-143.000076
 21
49.530720
  0
LINE
  8
0
 10
-128.500076
 20
126.000053
 11
-128.500076
 21
54.000042
  0
LINE
  8
0
 10
-157.500107
 20
126.000053
 11
-157.500107
 21
54.000042
  0
LINE
  8
0
 10
-158.000076
 20
125.785728
 11
-158.000076
 21
119.800041
  0
LINE
  8
0
 10
-128.000107
 20
125.785759
 11
-128.000107
 21
119.800041
  0
LINE
  8
0
  6
CENTER
 62
     2
 10
-146.192993
 20
57.000027
 11
-139.546371
 21
57.000027
  0
LINE
  8
0
 10
-158.000076
 20
94.100014
 11
-158.000076
 21
54.214317
  0
LINE
  8
0
 10
-141.400070
 20
126.500023
 11
-128.714371
 21
126.500023
  0
LINE
  8
0
 10
-128.000107
 20
94.100014
 11
-128.000107
 21
54.214317
  0
LINE
  8
0
 10
-157.285767
 20
53.500034
 11
-128.714371
 21
53.500034
  0
LINE
  8
0
 10
-140.500076
 20
74.443413
 11
-140.500076
 21
71.556679
  0
LINE
  8
0
 10
-145.500076
 20
74.443413
 11
-145.500076
 21
71.556679
  0
LINE
  8
0
 10
-145.500137
 20
74.443466
 11
-143.000122
 21
75.886856
  0
LINE
  8
0
 10
-143.000137
 20
70.113319
 11
-140.500137
 21
71.556694
  0
LINE
  8
0
 10
-143.000076
 20
75.886780
 11
-140.500076
 21
74.443405
  0
LINE
  8
0
 10
-145.500122
 20
71.556679
 11
-143.000122
 21
70.113304
  0
LINE
  8
0
 10
-145.500137
 20
108.443466
 11
-143.000153
 21
109.886833
  0
LINE
  8
0
 10
-145.500076
 20
108.443428
 11
-145.500076
 21
105.556679
  0
LINE
  8
0
 10
-145.500137
 20
105.556679
 11
-143.000107
 21
104.113281
  0
LINE
  8
0
 10
-143.000122
 20
104.113319
 11
-140.500137
 21
105.556686
  0
LINE
  8
0
 10
-140.500076
 20
108.443428
 11
-140.500076
 21
105.556679
  0
LINE
  8
0
 10
-143.000107
 20
109.886787
 11
-140.500107
 21
108.443413
  0
LINE
  8
0
 10
-128.500076
 20
126.000038
 11
-157.500107
 21
126.000038
  0
LINE
  8
0
  6
CENTER
 62
     2
 10
-146.621155
 20
123.000053
 11
-139.148880
 21
123.000053
  0
LINE
  8
0
 10
-128.000076
 20
82.100044
 11
-128.000076
 21
85.100044
  0
LINE
  8
0
 10
-157.285797
 20
126.500000
 11
-158.000092
 21
125.785690
  0
LINE
  8
0
 10
-128.714371
 20
126.500015
 11
-128.000107
 21
125.785751
  0
LINE
  8
0
 10
-158.000061
 20
54.214333
 11
-157.285767
 21
53.500031
  0
LINE
  8
0
 10
-128.000076
 20
54.214291
 11
-128.714371
 21
53.499996
  0
LINE
  8
0
 10
-128.000092
 20
97.300041
 11
-128.500076
 21
97.300041
  0
LINE
  8
0
 10
-128.000092
 20
94.100006
 11
-128.500076
 21
94.100006
  0
LINE
  8
0
 10
-158.000092
 20
116.600014
 11
-157.500107
 21
116.600014
  0
LINE
  8
0
 10
-158.000092
 20
119.800041
 11
-157.500107
 21
119.800041
  0
LINE
  8
0
 10
-144.600113
 20
126.500023
 11
-144.600113
 21
126.000038
  0
LINE
  8
0
 10
-141.400070
 20
126.500023
 11
-141.400070
 21
126.000038
  0
LINE
  8
0
 10
-158.000092
 20
94.100006
 11
-157.500107
 21
94.100006
  0
LINE
  8
0
 10
-158.000092
 20
97.300041
 11
-157.500107
 21
97.300041
  0
LINE
  8
0
 10
-158.000076
 20
116.600014
 11
-158.000076
 21
97.300041
  0
LINE
  8
0
 10
-128.000107
 20
119.800041
 11
-128.500076
 21
119.800041
  0
LINE
  8
0
 10
-128.000107
 20
116.600014
 11
-128.500076
 21
116.600014
  0
LINE
  8
0
 10
-128.000107
 20
116.600014
 11
-128.000107
 21
97.300041
  0
LINE
  8
0
 10
198.285812
 20
126.500015
 11
185.600113
 21
126.500015
  0
LINE
  8
0
  6
CENTER
 62
     2
 10
201.259079
 20
90.000031
 11
166.016617
 21
90.000031
  0
LINE
  8
0
  6
CENTER
 62
     2
 10
190.748169
 20
107.000015
 11
176.372955
 21
107.000015
  0
LINE
  8
0
  6
CENTER
 62
     2
 10
191.057312
 20
73.000038
 11
176.836670
 21
73.000038
  0
LINE
  8
0
 10
198.500092
 20
54.000034
 11
169.500092
 21
54.000034
  0
LINE
  8
0
  6
CENTER
 62
     2
 10
184.000092
 20
130.062881
 11
184.000092
 21
49.530712
  0
LINE
  8
0
 10
169.500076
 20
126.000046
 11
169.500076
 21
54.000034
  0
LINE
  8
0
 10
198.500107
 20
126.000046
 11
198.500107
 21
54.000034
  0
LINE
  8
0
 10
199.000092
 20
125.785721
 11
199.000092
 21
119.800034
  0
LINE
  8
0
 10
169.000107
 20
125.785751
 11
169.000107
 21
119.800034
  0
LINE
  8
0
  6
CENTER
 62
     2
 10
187.193008
 20
57.000019
 11
180.546387
 21
57.000019
  0
LINE
  8
0
 10
199.000092
 20
94.100006
 11
199.000092
 21
54.214310
  0
LINE
  8
0
 10
182.400085
 20
126.500015
 11
169.714386
 21
126.500015
  0
LINE
  8
0
 10
169.000107
 20
94.100006
 11
169.000107
 21
54.214310
  0
LINE
  8
0
 10
198.285812
 20
53.500027
 11
169.714386
 21
53.500027
  0
LINE
  8
0
 10
181.500092
 20
74.443405
 11
181.500092
 21
71.556671
  0
LINE
  8
0
 10
186.500092
 20
74.443405
 11
186.500092
 21
71.556671
  0
LINE
  8
0
 10
186.500122
 20
74.443413
 11
184.000107
 21
75.886795
  0
LINE
  8
0
 10
184.000061
 20
70.113304
 11
181.500061
 21
71.556679
  0
LINE
  8
0
 10
184.000107
 20
75.886818
 11
181.500092
 21
74.443436
  0
LINE
  8
0
 10
186.500122
 20
71.556671
 11
184.000137
 21
70.113304
  0
LINE
  8
0
 10
186.500122
 20
108.443459
 11
184.000137
 21
109.886826
  0
LINE
  8
0
 10
186.500092
 20
108.443420
 11
186.500092
 21
105.556671
  0
LINE
  8
0
 10
186.500122
 20
105.556702
 11
184.000107
 21
104.113304
  0
LINE
  8
0
 10
184.000122
 20
104.113304
 11
181.500122
 21
105.556679
  0
LINE
  8
0
 10
181.500092
 20
108.443420
 11
181.500092
 21
105.556671
  0
LINE
  8
0
 10
184.000122
 20
109.886795
 11
181.500122
 21
108.443420
  0
LINE
  8
0
 10
169.500092
 20
126.000031
 11
198.500107
 21
126.000031
  0
LINE
  8
0
  6
CENTER
 62
     2
 10
187.621170
 20
123.000046
 11
180.148895
 21
123.000046
  0
LINE
  8
0
 10
169.000076
 20
82.100037
 11
169.000076
 21
85.100037
  0
LINE
  8
0
 10
198.285812
 20
126.500038
 11
199.000107
 21
125.785744
  0
LINE
  8
0
 10
169.714401
 20
126.500031
 11
169.000137
 21
125.785751
  0
LINE
  8
0
 10
199.000076
 20
54.214371
 11
198.285828
 21
53.500107
  0
LINE
  8
0
 10
169.000000
 20
54.214272
 11
169.714279
 21
53.499989
  0
LINE
  8
0
 10
169.000107
 20
97.300034
 11
169.500092
 21
97.300034
  0
LINE
  8
0
 10
169.000107
 20
94.099998
 11
169.500092
 21
94.099998
  0
LINE
  8
0
 10
199.000107
 20
116.600006
 11
198.500107
 21
116.600006
  0
LINE
  8
0
 10
199.000107
 20
119.800034
 11
198.500107
 21
119.800034
  0
LINE
  8
0
 10
185.600113
 20
126.500015
 11
185.600113
 21
126.000031
  0
LINE
  8
0
 10
182.400085
 20
126.500015
 11
182.400085
 21
126.000031
  0
LINE
  8
0
 10
199.000107
 20
94.099998
 11
198.500107
 21
94.099998
  0
LINE
  8
0
 10
199.000107
 20
97.300034
 11
198.500107
 21
97.300034
  0
LINE
  8
0
 10
199.000092
 20
116.600006
 11
199.000092
 21
97.300034
  0
LINE
  8
0
 10
169.000122
 20
119.800034
 11
169.500092
 21
119.800034
  0
LINE
  8
0
 10
169.000122
 20
116.600006
 11
169.500092
 21
116.600006
  0
LINE
  8
0
 10
169.000107
 20
116.600006
 11
169.000107
 21
97.300034
  0
LINE
  8
0
  6
PHANTOM
 62
     3
 10
-39.500000
 20
36.500000
 11
-39.500000
 21
-8.433872
  0
LINE
  8
0
  6
PHANTOM
 62
     3
 10
48.000004
 20
36.500000
 11
48.000004
 21
-15.499973
  0
LINE
  8
0
  6
PHANTOM
 62
     3
 10
27.000000
 20
36.500000
 11
27.000000
 21
-15.499973
  0
LINE
  8
0
 10
-47.000011
 20
21.000027
 11
-47.000011
 21
11.600018
  0
LINE
  8
0
 10
-45.999981
 20
1.400021
 11
-45.999981
 21
-4.499989
  0
LINE
  8
0
 10
-28.000011
 20
20.785732
 11
-28.000011
 21
-7.785709
  0
LINE
  8
0
 10
105.999985
 20
20.785732
 11
105.999985
 21
-7.785709
  0
LINE
  8
0
 10
-27.285725
 20
21.500011
 11
105.285690
 21
21.500011
  0
LINE
  8
0
 10
-27.285725
 20
-8.499989
 11
105.285645
 21
-8.499989
  0
LINE
  8
0
  6
CENTER
 62
     2
 10
-59.399998
 20
6.500011
 11
129.620270
 21
6.500011
  0
LINE
  8
0
 10
-57.000011
 20
-7.999973
 11
-47.000011
 21
-7.999973
  0
LINE
  8
0
 10
-57.000011
 20
21.000027
 11
-47.000011
 21
21.000027
  0
LINE
  8
0
 10
-44.999996
 20
12.499996
 11
-28.000011
 21
12.499996
  0
LINE
  8
0
 10
-44.999996
 20
0.499996
 11
-28.000011
 21
0.499996
  0
LINE
  8
0
 10
-48.000011
 20
11.600018
 11
-48.000011
 21
1.400021
  0
LINE
  8
0
 10
-48.000004
 20
1.400005
 11
-44.999996
 21
1.400005
  0
LINE
  8
0
 10
-48.000004
 20
11.600018
 11
-44.999996
 21
11.600018
  0
LINE
  8
0
 10
-45.000011
 20
12.500027
 11
-45.000011
 21
11.600018
  0
LINE
  8
0
 10
-47.000011
 20
1.400021
 11
-47.000011
 21
-7.999973
  0
LINE
  8
0
  6
CENTER
 62
     2
 10
20.000004
 20
10.062679
 11
20.000004
 21
2.380184
  0
LINE
  8
0
  6
CENTER
 62
     2
 10
57.999973
 20
10.302761
 11
57.999973
 21
2.620251
  0
LINE
  8
0
 10
-47.000011
 20
-4.500004
 11
-45.999989
 21
-4.500004
  0
LINE
  8
0
 10
-45.000011
 20
1.400021
 11
-45.000011
 21
0.500011
  0
LINE
  8
0
 10
-36.000011
 20
-0.499973
 11
-36.000011
 21
-3.999973
  0
LINE
  8
0
 10
-35.711346
 20
-4.500004
 11
-32.500027
 21
-4.500004
  0
LINE
  8
0
 10
-32.500011
 20
-0.499973
 11
-32.500011
 21
-4.499989
  0
LINE
  8
0
 10
-30.480022
 20
-0.499973
 11
-30.480022
 21
-3.999973
  0
LINE
  8
0
 10
-35.999973
 20
-3.999977
 11
-35.711300
 21
-4.499973
  0
LINE
  8
0
 10
-30.479958
 20
-3.999980
 11
-30.191299
 21
-4.499950
  0
LINE
  8
0
 10
-28.000015
 20
-3.999924
 11
-28.288689
 21
-4.499923
  0
LINE
  8
0
 10
-30.191349
 20
-4.500004
 11
-28.288685
 21
-4.500004
  0
LINE
  8
0
 10
-32.500027
 20
-2.999973
 11
-30.480022
 21
-2.999973
  0
LINE
  8
0
 62
     2
 10
-32.500027
 20
-2.595005
 11
-30.480022
 21
-2.595005
  0
LINE
  8
0
 10
-36.000011
 20
-0.499973
 11
-36.000011
 21
0.500011
  0
LINE
  8
0
 10
-32.500011
 20
-0.499973
 11
-32.500011
 21
0.500011
  0
LINE
  8
0
 10
-30.480022
 20
-0.499973
 11
-30.480022
 21
0.500011
  0
LINE
  8
0
 10
-35.711346
 20
-0.499973
 11
-32.500027
 21
-0.499973
  0
LINE
  8
0
 10
-30.191349
 20
-0.499973
 11
-28.288685
 21
-0.499973
  0
LINE
  8
0
 10
-57.000011
 20
21.000027
 11
-57.000011
 21
-7.999973
  0
LINE
  8
0
 10
-27.285717
 20
21.500027
 11
-28.000004
 21
20.785740
  0
LINE
  8
0
 10
105.285706
 20
21.499968
 11
105.999985
 21
20.785673
  0
LINE
  8
0
 10
-27.999975
 20
-7.785688
 11
-27.285688
 21
-8.499974
  0
LINE
  8
0
 10
105.999939
 20
-7.785654
 11
105.285652
 21
-8.499941
  0
LINE
  8
0
 10
114.999954
 20
21.000027
 11
114.999954
 21
11.600018
  0
LINE
  8
0
 10
113.999954
 20
1.400021
 11
113.999954
 21
-4.499989
  0
LINE
  8
0
 10
124.999954
 20
-7.999973
 11
114.999954
 21
-7.999973
  0
LINE
  8
0
 10
124.999954
 20
21.000027
 11
114.999954
 21
21.000027
  0
LINE
  8
0
 10
112.999954
 20
12.499996
 11
105.999985
 21
12.499996
  0
LINE
  8
0
 10
112.999954
 20
0.499996
 11
105.999985
 21
0.499996
  0
LINE
  8
0
 10
115.999954
 20
11.600018
 11
115.999954
 21
1.400021
  0
LINE
  8
0
 10
115.999954
 20
1.400005
 11
112.999954
 21
1.400005
  0
LINE
  8
0
 10
115.999954
 20
11.600018
 11
112.999954
 21
11.600018
  0
LINE
  8
0
 10
112.999969
 20
12.500027
 11
112.999969
 21
11.600018
  0
LINE
  8
0
 10
114.999954
 20
1.400021
 11
114.999954
 21
-7.999973
  0
LINE
  8
0
 10
114.999954
 20
-4.500004
 11
113.999969
 21
-4.500004
  0
LINE
  8
0
 10
112.999969
 20
1.400021
 11
112.999969
 21
0.500011
  0
LINE
  8
0
 10
113.999985
 20
-0.499973
 11
113.999985
 21
-3.999973
  0
LINE
  8
0
 10
113.711319
 20
-4.500004
 11
110.499985
 21
-4.500004
  0
LINE
  8
0
 10
110.499985
 20
-0.499973
 11
110.499985
 21
-4.499989
  0
LINE
  8
0
 10
108.479996
 20
-0.499973
 11
108.479996
 21
-3.999973
  0
LINE
  8
0
 10
113.999931
 20
-3.999944
 11
113.711258
 21
-4.499941
  0
LINE
  8
0
 10
108.479950
 20
-3.999959
 11
108.191292
 21
-4.499935
  0
LINE
  8
0
 10
105.999962
 20
-3.999948
 11
106.288628
 21
-4.499946
  0
LINE
  8
0
 10
108.191315
 20
-4.500004
 11
106.288651
 21
-4.500004
  0
LINE
  8
0
 10
110.499985
 20
-2.999973
 11
108.479996
 21
-2.999973
  0
LINE
  8
0
 62
     2
 10
110.499985
 20
-2.595005
 11
108.479996
 21
-2.595005
  0
LINE
  8
0
 10
113.999985
 20
-0.499973
 11
113.999985
 21
0.500011
  0
LINE
  8
0
 10
110.499985
 20
-0.499973
 11
110.499985
 21
0.500011
  0
LINE
  8
0
 10
108.479996
 20
-0.499973
 11
108.479996
 21
0.500011
  0
LINE
  8
0
 10
113.711319
 20
-0.499973
 11
110.499985
 21
-0.499973
  0
LINE
  8
0
 10
108.191315
 20
-0.499973
 11
106.288651
 21
-0.499973
  0
LINE
  8
0
 10
124.999954
 20
21.000027
 11
124.999954
 21
-7.999973
  0
LINE
  8
0
 10
34.171558
 20
21.500011
 11
34.171558
 21
15.500011
  0
LINE
  8
0
 10
39.828434
 20
21.500011
 11
39.828434
 21
15.500011
  0
LINE
  8
0
 10
34.171566
 20
15.500011
 11
39.828434
 21
15.500011
  0
LINE
  8
0
 10
34.171566
 20
-2.500004
 11
39.828434
 21
-2.500004
  0
LINE
  8
0
 10
34.171558
 20
-2.499989
 11
34.171558
 21
-8.499989
  0
LINE
  8
0
 10
39.828434
 20
-2.499989
 11
39.828434
 21
-8.499989
  0
LINE
  8
0
 62
     4
 10
-37.341675
 20
-97.309509
 11
-32.596375
 21
-97.309509
  0
LINE
  8
0
 62
     4
 10
-41.096405
 20
-99.909515
 11
-37.340607
 21
-99.909515
  0
LINE
  8
0
 62
     4
 10
-35.840576
 20
-99.909515
 11
-32.596375
 21
-99.909515
  0
LINE
  8
0
 62
     4
 10
-63.096405
 20
-96.309525
 11
-41.096405
 21
-96.309525
  0
LINE
  8
0
 62
     4
 10
-58.396393
 20
-100.909515
 11
-41.096405
 21
-100.909515
  0
LINE
  8
0
 62
     4
 10
-41.096405
 20
-96.309525
 11
-41.096405
 21
-100.909515
  0
LINE
  8
0
 62
     4
 10
-63.096405
 20
-98.109528
 11
-63.096405
 21
-96.309525
  0
LINE
  8
0
 62
     4
 10
-58.396393
 20
-99.351486
 11
-58.396393
 21
-100.909515
  0
LINE
  8
0
 62
     4
 10
-63.096405
 20
-98.109528
 11
-58.846390
 21
-98.109528
  0
LINE
  8
0
  6
CENTER
 62
     1
 10
-61.096390
 20
-95.502808
 11
-61.096390
 21
-101.741425
  0
LINE
  8
0
 62
     4
 10
-58.846390
 20
-98.109528
 11
-58.846390
 21
-99.351486
  0
LINE
  8
0
 62
     4
 10
-59.096390
 20
-98.109528
 11
-59.096390
 21
-98.909515
  0
LINE
  8
0
 62
     4
 10
-63.096405
 20
-98.109528
 11
-63.096405
 21
-98.909515
  0
LINE
  8
0
 62
     4
 10
-63.096405
 20
-98.909515
 11
-59.096390
 21
-98.909515
  0
LINE
  8
0
 62
     4
 10
-58.896393
 20
-98.109528
 11
-58.896393
 21
-100.109528
  0
LINE
  8
0
 62
     4
 10
-58.896393
 20
-100.109528
 11
-58.396393
 21
-100.109528
  0
LINE
  8
0
 62
     4
 10
-58.846390
 20
-99.351486
 11
-58.396393
 21
-99.351486
  0
LINE
  8
0
 62
     4
 10
-32.596375
 20
-97.309509
 11
-32.596375
 21
-99.909515
  0
LINE
  8
0
  6
CENTER
 62
     1
 10
-34.319275
 20
-98.159439
 11
-22.387207
 21
-98.159439
  0
LINE
  8
0
  6
CENTER
 62
     1
 10
-34.268982
 20
-99.059433
 11
-22.345337
 21
-99.059433
  0
LINE
  8
0
 62
     4
 10
-22.596375
 20
-97.909454
 11
-22.596375
 21
-98.409454
  0
LINE
  8
0
 62
     4
 10
-22.596375
 20
-98.809448
 11
-22.596375
 21
-99.309448
  0
LINE
  8
0
 62
     4
 10
-25.596375
 20
-97.709442
 11
-25.596375
 21
-99.509460
  0
LINE
  8
0
 62
     4
 10
-32.596375
 20
-99.509445
 11
-28.590820
 21
-99.509445
  0
LINE
  8
0
 62
     4
 10
-32.596375
 20
-98.609421
 11
-29.110413
 21
-98.609421
  0
LINE
  8
0
 62
     4
 10
-27.610413
 20
-98.609421
 11
-25.596375
 21
-98.609421
  0
LINE
  8
0
 62
     4
 10
-27.090820
 20
-99.509445
 11
-25.596375
 21
-99.509445
  0
LINE
  8
0
 62
     4
 10
-32.596375
 20
-97.709427
 11
-29.630066
 21
-97.709427
  0
LINE
  8
0
 62
     4
 10
-28.130066
 20
-97.709427
 11
-25.596375
 21
-97.709427
  0
LINE
  8
0
 62
     4
 10
-25.596375
 20
-97.909439
 11
-22.596375
 21
-97.909439
  0
LINE
  8
0
 62
     4
 10
-25.596375
 20
-98.409439
 11
-22.596375
 21
-98.409439
  0
LINE
  8
0
 62
     4
 10
-25.596375
 20
-98.809433
 11
-22.596375
 21
-98.809433
  0
LINE
  8
0
 62
     4
 10
-25.596375
 20
-99.309433
 11
-22.596375
 21
-99.309433
  0
LINE
  8
0
 62
     1
 10
-28.860395
 20
-96.444527
 11
-26.360397
 21
-100.774643
  0
LINE
  8
0
  6
CENTER
 62
     1
 10
-42.410767
 20
-98.609512
 11
-32.596375
 21
-98.609512
  0
LINE
  8
0
 62
     1
 10
-30.360476
 20
-96.444481
 11
-27.860477
 21
-100.774605
  0
LINE
  8
0
 62
     1
 10
-37.841137
 20
-96.444466
 11
-35.341137
 21
-100.774590
  0
LINE
  8
0
 62
     1
 10
-39.341114
 20
-96.444511
 11
-36.841110
 21
-100.774643
  0
LINE
  8
0
 62
     4
 10
-62.121399
 20
-100.309525
 11
-60.071396
 21
-100.309525
  0
LINE
  8
0
 62
     4
 10
-60.070972
 20
-100.309967
 11
-59.845989
 21
-100.084976
  0
LINE
  8
0
 62
     4
 10
-62.121338
 20
-100.309540
 11
-62.346333
 21
-100.084541
  0
LINE
  8
0
 62
     4
 10
-62.346390
 20
-98.908707
 11
-62.346390
 21
-100.084534
  0
LINE
  8
0
 62
     1
 10
-62.121399
 20
-98.908707
 11
-62.121399
 21
-100.309525
  0
LINE
  8
0
 62
     1
 10
-60.071396
 20
-98.908707
 11
-60.071396
 21
-100.309525
  0
LINE
  8
0
 62
     4
 10
-59.846390
 20
-98.908707
 11
-59.846390
 21
-100.084518
  0
LINE
  8
0
 62
     4
 10
-62.346390
 20
-100.084534
 11
-59.846390
 21
-100.084534
  0
LINE
  8
0
 62
     4
 10
-62.346390
 20
-95.809525
 11
-62.346390
 21
-96.309525
  0
LINE
  8
0
 62
     1
 10
-62.121399
 20
-95.809525
 11
-62.121399
 21
-96.309525
  0
LINE
  8
0
 62
     1
 10
-60.071396
 20
-95.809525
 11
-60.071396
 21
-96.309525
  0
LINE
  8
0
 62
     4
 10
-59.846390
 20
-95.809525
 11
-59.846390
 21
-96.309525
  0
LINE
  8
0
 62
     4
 10
-62.346390
 20
-95.809525
 11
-59.846390
 21
-95.809525
  0
LINE
  8
0
 62
     4
 10
-63.096405
 20
-97.309525
 11
-41.096405
 21
-97.309525
  0
LINE
  8
0
 62
     4
 10
-63.096405
 20
-96.759506
 11
-41.096405
 21
-96.759506
  0
LINE
  8
0
 62
     4
 10
-41.096405
 20
-97.309509
 11
-38.841705
 21
-97.309509
  0
LINE
  8
0
 62
     4
 10
-108.889130
 20
-95.809525
 11
-106.389130
 21
-95.809525
  0
LINE
  8
0
  6
CENTER
 62
     1
 10
-107.639130
 20
-94.256561
 11
-107.639130
 21
-102.969315
  0
LINE
  8
0
 62
     4
 10
-109.689117
 20
-97.309525
 11
-109.689117
 21
-98.859528
  0
LINE
  8
0
 62
     4
 10
-109.689186
 20
-97.309502
 11
-109.139183
 21
-96.759491
  0
LINE
  8
0
 62
     4
 10
-109.139130
 20
-96.309525
 11
-109.139130
 21
-96.759521
  0
LINE
  8
0
 62
     4
 10
-109.139130
 20
-96.309525
 11
-106.139130
 21
-96.309525
  0
LINE
  8
0
 62
     4
 10
-106.139130
 20
-96.309525
 11
-106.139130
 21
-96.759521
  0
LINE
  8
0
 62
     4
 10
-105.589119
 20
-97.309471
 11
-106.139114
 21
-96.759460
  0
LINE
  8
0
 62
     4
 10
-105.589127
 20
-97.309525
 11
-105.589127
 21
-98.859528
  0
LINE
  8
0
 62
     4
 10
-109.689117
 20
-98.109528
 11
-105.589127
 21
-98.109528
  0
LINE
  8
0
 62
     4
 10
-109.689133
 20
-98.908707
 11
-105.589127
 21
-98.908707
  0
LINE
  8
0
 62
     4
 10
-108.664139
 20
-100.309525
 11
-106.614136
 21
-100.309525
  0
LINE
  8
0
 62
     4
 10
-106.613678
 20
-100.309975
 11
-106.388672
 21
-100.084969
  0
LINE
  8
0
 62
     4
 10
-108.664101
 20
-100.309563
 11
-108.889099
 21
-100.084564
  0
LINE
  8
0
 62
     4
 10
-108.889130
 20
-98.908707
 11
-108.889130
 21
-100.084534
  0
LINE
  8
0
 62
     1
 10
-108.664139
 20
-98.908707
 11
-108.664139
 21
-100.309525
  0
LINE
  8
0
 62
     1
 10
-106.614136
 20
-98.908707
 11
-106.614136
 21
-100.309525
  0
LINE
  8
0
 62
     4
 10
-106.389130
 20
-98.908707
 11
-106.389130
 21
-100.084518
  0
LINE
  8
0
 62
     4
 10
-108.889130
 20
-100.084534
 11
-106.389130
 21
-100.084534
  0
LINE
  8
0
 62
     4
 10
-108.889130
 20
-95.809525
 11
-108.889130
 21
-96.309525
  0
LINE
  8
0
 62
     1
 10
-108.664139
 20
-95.809525
 11
-108.664139
 21
-96.309525
  0
LINE
  8
0
 62
     1
 10
-106.614136
 20
-95.809525
 11
-106.614136
 21
-96.309525
  0
LINE
  8
0
 62
     4
 10
-106.389130
 20
-95.809525
 11
-106.389130
 21
-96.309525
  0
LINE
  8
0
  6
CENTER
 62
     1
 10
-65.896942
 20
-53.759521
 11
-35.688889
 21
-53.759521
  0
LINE
  8
0
 62
     4
 10
-63.096405
 20
-55.259521
 11
-41.096405
 21
-55.259521
  0
LINE
  8
0
 62
     4
 10
-63.096405
 20
-52.259521
 11
-41.096405
 21
-52.259521
  0
LINE
  8
0
 62
     4
 10
-63.096405
 20
-55.809525
 11
-41.096405
 21
-55.809525
  0
LINE
  8
0
 62
     4
 10
-63.096405
 20
-51.709518
 11
-41.096405
 21
-51.709518
  0
LINE
  8
0
 62
     4
 10
-63.096405
 20
-51.709518
 11
-63.096405
 21
-55.809525
  0
LINE
  8
0
 62
     4
 10
-41.096405
 20
-51.709518
 11
-41.096405
 21
-55.809525
  0
LINE
  8
0
  6
CENTER
 62
     1
 10
-61.096390
 20
-50.923019
 11
-61.096390
 21
-56.512344
  0
LINE
  8
0
 62
     4
 10
-62.141670
 20
-54.472607
 11
-60.408321
 21
-52.739258
  0
LINE
  8
0
 62
     4
 10
-61.788113
 20
-54.826183
 11
-60.154774
 21
-53.192844
  0
LINE
  8
0
 62
     1
 10
-40.007195
 20
-51.594433
 11
-37.507195
 21
-55.924561
  0
LINE
  8
0
 62
     4
 10
-41.096405
 20
-52.459518
 11
-39.507751
 21
-52.459518
  0
LINE
  8
0
 62
     4
 10
-41.096405
 20
-55.059525
 11
-38.006622
 21
-55.059525
  0
LINE
  8
0
 62
     4
 10
112.821899
 20
-85.654785
 11
112.821899
 21
-80.909485
  0
LINE
  8
0
 62
     4
 10
112.821899
 20
-89.409515
 11
112.821899
 21
-87.154785
  0
LINE
  8
0
 62
     4
 10
115.421875
 20
-84.153687
 11
115.421875
 21
-80.909485
  0
LINE
  8
0
 62
     4
 10
94.714539
 20
-96.309525
 11
110.814545
 21
-96.309525
  0
LINE
  8
0
 62
     4
 10
99.414520
 20
-100.909515
 11
116.714539
 21
-100.909515
  0
LINE
  8
0
 62
     4
 10
116.714539
 20
-89.409515
 11
116.714539
 21
-100.909515
  0
LINE
  8
0
 62
     4
 10
94.714539
 20
-98.909515
 11
94.714539
 21
-96.309525
  0
LINE
  8
0
 62
     4
 10
99.414520
 20
-99.291687
 11
99.414520
 21
-100.909515
  0
LINE
  8
0
  6
CENTER
 62
     1
 10
96.714539
 20
-95.579269
 11
96.714539
 21
-101.482193
  0
LINE
  8
0
 62
     4
 10
110.814514
 20
-89.409515
 11
110.814514
 21
-96.309525
  0
LINE
  8
0
 62
     4
 10
94.714539
 20
-98.109528
 11
98.988342
 21
-98.109528
  0
LINE
  8
0
 62
     4
 10
94.714539
 20
-98.909515
 11
98.714539
 21
-98.909515
  0
LINE
  8
0
 62
     4
 10
98.714539
 20
-98.109528
 11
98.714539
 21
-98.909515
  0
LINE
  8
0
 62
     4
 10
110.814545
 20
-89.409515
 11
116.714539
 21
-89.409515
  0
LINE
  8
0
 62
     4
 10
98.914520
 20
-100.109528
 11
99.414520
 21
-100.109528
  0
LINE
  8
0
 62
     4
 10
98.914520
 20
-98.109528
 11
98.914520
 21
-100.109528
  0
LINE
  8
0
 62
     4
 10
98.988342
 20
-99.291687
 11
99.414520
 21
-99.291687
  0
LINE
  8
0
 62
     4
 10
98.988342
 20
-98.109528
 11
98.988342
 21
-99.291687
  0
LINE
  8
0
 62
     4
 10
94.714539
 20
-97.309525
 11
116.714539
 21
-97.309525
  0
LINE
  8
0
 62
     4
 10
94.714539
 20
-96.759521
 11
116.714539
 21
-96.759521
  0
LINE
  8
0
 62
     4
 10
110.814514
 20
-95.159515
 11
116.714539
 21
-95.159515
  0
LINE
  8
0
 62
     4
 10
110.814514
 20
-95.909515
 11
116.714539
 21
-95.909515
  0
LINE
  8
0
 62
     4
 10
110.814514
 20
-90.909515
 11
116.714539
 21
-90.909515
  0
LINE
  8
0
 62
     4
 10
112.821899
 20
-80.909485
 11
115.421875
 21
-80.909485
  0
LINE
  8
0
  6
CENTER
 62
     1
 10
113.671814
 20
-82.632416
 11
113.671814
 21
-70.700333
  0
LINE
  8
0
  6
CENTER
 62
     1
 10
114.571808
 20
-82.582123
 11
114.571808
 21
-70.658478
  0
LINE
  8
0
 62
     4
 10
113.421814
 20
-70.909485
 11
113.921814
 21
-70.909485
  0
LINE
  8
0
 62
     4
 10
114.321808
 20
-70.909485
 11
114.821808
 21
-70.909485
  0
LINE
  8
0
 62
     4
 10
113.221802
 20
-73.909485
 11
115.021820
 21
-73.909485
  0
LINE
  8
0
 62
     4
 10
115.021820
 20
-80.909485
 11
115.021820
 21
-76.903931
  0
LINE
  8
0
 62
     4
 10
114.121796
 20
-80.909485
 11
114.121796
 21
-77.423553
  0
LINE
  8
0
 62
     4
 10
114.121796
 20
-75.923553
 11
114.121796
 21
-73.909485
  0
LINE
  8
0
 62
     4
 10
115.021820
 20
-75.403931
 11
115.021820
 21
-73.909485
  0
LINE
  8
0
 62
     4
 10
113.221802
 20
-80.909485
 11
113.221802
 21
-77.943176
  0
LINE
  8
0
 62
     4
 10
113.221802
 20
-76.443176
 11
113.221802
 21
-73.909485
  0
LINE
  8
0
 62
     4
 10
113.421814
 20
-73.909485
 11
113.421814
 21
-70.909485
  0
LINE
  8
0
 62
     4
 10
113.921814
 20
-73.909485
 11
113.921814
 21
-70.909485
  0
LINE
  8
0
 62
     4
 10
114.321808
 20
-73.909485
 11
114.321808
 21
-70.909485
  0
LINE
  8
0
 62
     4
 10
114.821808
 20
-73.909485
 11
114.821808
 21
-70.909485
  0
LINE
  8
0
 62
     1
 10
111.956955
 20
-77.173668
 11
116.287102
 21
-74.673645
  0
LINE
  8
0
  6
CENTER
 62
     1
 10
114.121887
 20
-90.723892
 11
114.121887
 21
-80.909485
  0
LINE
  8
0
 62
     1
 10
111.956863
 20
-78.673676
 11
116.287018
 21
-76.173660
  0
LINE
  8
0
 62
     1
 10
111.956833
 20
-86.154366
 11
116.286957
 21
-83.654366
  0
LINE
  8
0
 62
     1
 10
111.956879
 20
-87.654358
 11
116.286987
 21
-85.154366
  0
LINE
  8
0
 62
     4
 10
95.689514
 20
-100.309525
 11
97.739532
 21
-100.309525
  0
LINE
  8
0
 62
     4
 10
97.740082
 20
-100.310059
 11
97.965080
 21
-100.085060
  0
LINE
  8
0
 62
     4
 10
95.689606
 20
-100.309387
 11
95.464622
 21
-100.084404
  0
LINE
  8
0
 62
     4
 10
95.464539
 20
-98.909515
 11
95.464539
 21
-100.084534
  0
LINE
  8
0
 62
     1
 10
95.689514
 20
-98.909515
 11
95.689514
 21
-100.309525
  0
LINE
  8
0
 62
     1
 10
97.739532
 20
-98.909515
 11
97.739532
 21
-100.309525
  0
LINE
  8
0
 62
     4
 10
97.964539
 20
-98.909515
 11
97.964539
 21
-100.084518
  0
LINE
  8
0
 62
     4
 10
95.464539
 20
-100.084534
 11
97.964539
 21
-100.084534
  0
LINE
  8
0
 62
     4
 10
95.464539
 20
-95.809525
 11
95.464539
 21
-96.309525
  0
LINE
  8
0
 62
     1
 10
95.689514
 20
-95.809525
 11
95.689514
 21
-96.309525
  0
LINE
  8
0
 62
     1
 10
97.739532
 20
-95.809525
 11
97.739532
 21
-96.309525
  0
LINE
  8
0
 62
     4
 10
97.964539
 20
-95.809525
 11
97.964539
 21
-96.309525
  0
LINE
  8
0
 62
     4
 10
95.464539
 20
-95.809525
 11
97.964539
 21
-95.809525
  0
LINE
  8
0
 62
     4
 10
115.421875
 20
-89.409515
 11
115.421875
 21
-85.653687
  0
LINE
  8
0
 62
     4
 10
52.971802
 20
-85.653702
 11
52.971802
 21
-89.409515
  0
LINE
  8
0
 62
     4
 10
49.421814
 20
-90.909515
 11
53.921814
 21
-90.909515
  0
LINE
  8
0
 62
     4
 10
49.421814
 20
-89.409515
 11
49.421814
 21
-95.159515
  0
LINE
  8
0
 62
     4
 10
50.171772
 20
-95.909485
 11
49.421806
 21
-95.159523
  0
LINE
  8
0
 62
     4
 10
50.171814
 20
-96.759521
 11
50.171814
 21
-95.909515
  0
LINE
  8
0
 62
     4
 10
49.621788
 20
-97.309456
 11
50.171795
 21
-96.759445
  0
LINE
  8
0
 62
     4
 10
49.621796
 20
-97.309525
 11
49.621796
 21
-98.859528
  0
LINE
  8
0
 62
     4
 10
53.721802
 20
-97.309525
 11
53.721802
 21
-98.859528
  0
LINE
  8
0
 62
     4
 10
53.721794
 20
-97.309555
 11
53.171791
 21
-96.759552
  0
LINE
  8
0
 62
     4
 10
53.171814
 20
-96.759521
 11
53.171814
 21
-95.909515
  0
LINE
  8
0
 62
     4
 10
53.171906
 20
-95.909660
 11
53.921902
 21
-95.159668
  0
LINE
  8
0
 62
     4
 10
53.921814
 20
-89.409515
 11
53.921814
 21
-95.159515
  0
LINE
  8
0
  6
CENTER
 62
     1
 10
51.671814
 20
-83.748566
 11
51.671814
 21
-102.376190
  0
LINE
  8
0
 62
     4
 10
50.171814
 20
-96.309525
 11
53.171814
 21
-96.309525
  0
LINE
  8
0
 62
     4
 10
49.621796
 20
-98.109528
 11
53.721802
 21
-98.109528
  0
LINE
  8
0
 62
     4
 10
49.621796
 20
-98.911972
 11
53.721802
 21
-98.911972
  0
LINE
  8
0
 62
     4
 10
49.421814
 20
-89.409515
 11
53.921814
 21
-89.409515
  0
LINE
  8
0
 62
     1
 10
49.506840
 20
-87.654381
 11
53.836967
 21
-85.154381
  0
LINE
  8
0
 62
     4
 10
50.646790
 20
-100.309525
 11
52.696808
 21
-100.309525
  0
LINE
  8
0
 62
     4
 10
52.697315
 20
-100.310051
 11
52.922310
 21
-100.085052
  0
LINE
  8
0
 62
     4
 10
50.646866
 20
-100.309441
 11
50.421860
 21
-100.084435
  0
LINE
  8
0
 62
     4
 10
50.421814
 20
-98.911972
 11
50.421814
 21
-100.084534
  0
LINE
  8
0
 62
     1
 10
50.646790
 20
-98.911972
 11
50.646790
 21
-100.309525
  0
LINE
  8
0
 62
     1
 10
52.696808
 20
-98.911972
 11
52.696808
 21
-100.309525
  0
LINE
  8
0
 62
     4
 10
52.921814
 20
-98.911972
 11
52.921814
 21
-100.084518
  0
LINE
  8
0
 62
     4
 10
50.421814
 20
-100.084534
 11
52.921814
 21
-100.084534
  0
LINE
  8
0
 62
     4
 10
50.421814
 20
-95.809525
 11
50.421814
 21
-96.309525
  0
LINE
  8
0
 62
     1
 10
50.646790
 20
-95.809525
 11
50.646790
 21
-96.309525
  0
LINE
  8
0
 62
     1
 10
52.696808
 20
-95.809525
 11
52.696808
 21
-96.309525
  0
LINE
  8
0
 62
     4
 10
52.921814
 20
-95.809525
 11
52.921814
 21
-96.309525
  0
LINE
  8
0
 62
     4
 10
50.421814
 20
-95.809525
 11
52.921814
 21
-95.809525
  0
LINE
  8
0
 62
     4
 10
50.371826
 20
-87.154800
 11
50.371826
 21
-89.409515
  0
LINE
  8
0
  6
CENTER
 62
     1
 10
93.385345
 20
-48.709503
 11
118.294525
 21
-48.709503
  0
LINE
  8
0
 62
     4
 10
94.714539
 20
-50.209503
 11
111.275146
 21
-50.209503
  0
LINE
  8
0
 62
     4
 10
94.714539
 20
-47.209503
 11
111.275146
 21
-47.209503
  0
LINE
  8
0
 62
     4
 10
94.714539
 20
-50.759506
 11
111.628510
 21
-50.759506
  0
LINE
  8
0
 62
     4
 10
94.714539
 20
-46.659515
 11
111.628510
 21
-46.659515
  0
LINE
  8
0
 62
     4
 10
94.714539
 20
-46.659500
 11
94.714539
 21
-50.759506
  0
LINE
  8
0
  6
CENTER
 62
     1
 10
96.714539
 20
-45.873001
 11
96.714539
 21
-51.462326
  0
LINE
  8
0
 62
     4
 10
111.800507
 20
-46.459503
 11
116.714539
 21
-46.459503
  0
LINE
  8
0
 62
     4
 10
111.800507
 20
-50.959503
 11
116.714539
 21
-50.959503
  0
LINE
  8
0
 62
     4
 10
116.714539
 20
-46.459503
 11
116.714539
 21
-50.959503
  0
LINE
  8
0
 62
     4
 10
96.068787
 20
-49.779850
 11
97.784897
 21
-48.063744
  0
LINE
  8
0
 62
     4
 10
95.644508
 20
-49.355530
 11
97.360603
 21
-47.639435
  0
LINE
  8
0
 10
-281.250000
 20
195.500000
 11
282.099976
 21
195.500000
  0
LINE
  8
0
 10
-281.250000
 20
195.500000
 11
-281.250000
 21
-195.000000
  0
LINE
  8
0
 10
282.099976
 20
195.500000
 11
282.099976
 21
-195.000000
  0
LINE
  8
0
 10
-281.250000
 20
-195.000000
 11
282.099976
 21
-195.000000
  0
LINE
  8
0
 10
162.099976
 20
-175.000000
 11
162.099976
 21
-195.000000
  0
LINE
  8
0
 10
162.099976
 20
-175.000000
 11
282.099976
 21
-175.000000
  0
LINE
  8
0
 10
162.099976
 20
175.500000
 11
282.099976
 21
175.500000
  0
LINE
  8
0
 10
-281.250000
 20
175.500000
 11
-161.250000
 21
175.500000
  0
LINE
  8
0
 10
162.099976
 20
195.500000
 11
162.099976
 21
175.500000
  0
LINE
  8
0
 10
-161.250000
 20
195.500000
 11
-161.250000
 21
175.500000
  0
LINE
  8
0
 10
-271.250000
 20
-133.000000
 11
-271.250000
 21
-185.000000
  0
LINE
  8
0
 10
-271.250000
 20
-185.000000
 11
-6.250000
 21
-185.000000
  0
LINE
  8
0
 10
-271.250000
 20
-155.000015
 11
-6.250000
 21
-155.000015
  0
LINE
  8
0
 10
-271.250000
 20
-133.000000
 11
-6.250000
 21
-133.000000
  0
LINE
  8
0
 10
-226.250000
 20
-133.000000
 11
-226.250000
 21
-185.000000
  0
LINE
  8
0
 10
-204.250000
 20
-133.000000
 11
-204.250000
 21
-185.000000
  0
LINE
  8
0
 10
-182.250000
 20
-133.000000
 11
-182.250000
 21
-185.000000
  0
LINE
  8
0
 10
-160.250000
 20
-133.000000
 11
-160.250000
 21
-185.000000
  0
LINE
  8
0
 10
-138.250000
 20
-133.000000
 11
-138.250000
 21
-185.000000
  0
LINE
  8
0
 10
-116.250000
 20
-133.000000
 11
-116.250000
 21
-185.000000
  0
LINE
  8
0
 10
-94.250000
 20
-133.000000
 11
-94.250000
 21
-185.000000
  0
LINE
  8
0
 10
-6.250000
 20
-133.000000
 11
-6.250000
 21
-185.000000
  0
LINE
  8
0
 10
-271.250000
 20
-175.000015
 11
-6.250000
 21
-175.000015
  0
LINE
  8
0
 10
-271.250031
 20
-165.000000
 11
-6.250000
 21
-165.000000
  0
LINE
  8
0
 10
-271.250000
 20
-141.000000
 11
-234.517441
 21
-141.000000
  0
LINE
  8
0
 10
-234.517532
 20
-141.000046
 11
-226.250107
 21
-155.000061
  0
LINE
  8
0
 10
-72.250000
 20
-133.000000
 11
-72.250000
 21
-185.000000
  0
LINE
  8
0
 10
-50.250000
 20
-133.000000
 11
-50.250000
 21
-185.000000
  0
LINE
  8
0
 10
-28.250000
 20
-133.000000
 11
-28.250000
 21
-185.000000
  0
CIRCLE
  8
0
 10
120.000000
 20
117.999969
 40
2.094999
  0
CIRCLE
  8
0
 62
     2
 10
120.000000
 20
117.999969
 40
2.500000
  0
CIRCLE
  8
0
 62
     2
 10
120.000000
 20
61.999950
 40
2.500000
  0
CIRCLE
  8
0
 62
     2
 10
-51.999973
 20
118.000000
 40
2.500000
  0
CIRCLE
  8
0
 10
-12.999973
 20
89.999985
 40
2.250000
  0
CIRCLE
  8
0
 10
37.000042
 20
56.999973
 40
2.250000
  0
CIRCLE
  8
0
 10
87.000046
 20
89.999985
 40
2.250000
  0
CIRCLE
  8
0
 10
37.000042
 20
123.000000
 40
2.250000
  0
ARC
  8
0
 10
-30.453709
 20
86.535889
 40
2.453746
 50
331.927582
 51
28.072393
  0
ARC
  8
0
 10
-30.453709
 20
93.464081
 40
2.453746
 50
331.927582
 51
28.072393
  0
ARC
  8
0
 10
-37.381931
 20
89.999985
 40
9.381962
 50
345.750000
 51
14.249960
  0
ARC
  8
0
 10
-33.546238
 20
93.464081
 40
2.453748
 50
151.927612
 51
208.072388
  0
ARC
  8
0
 10
-26.618015
 20
89.999985
 40
9.381963
 50
165.749985
 51
194.249908
  0
ARC
  8
0
 10
-33.546238
 20
86.535889
 40
2.453748
 50
151.927612
 51
208.072388
  0
ARC
  8
0
 10
-28.026218
 20
93.464081
 40
2.453748
 50
151.927612
 51
208.072388
  0
ARC
  8
0
 10
-21.097996
 20
89.999985
 40
9.381963
 50
165.749985
 51
194.249908
  0
ARC
  8
0
 10
-28.026218
 20
86.535889
 40
2.453748
 50
151.927612
 51
208.072388
  0
ARC
  8
0
 10
37.000042
 20
56.999973
 40
4.499999
 50
308.942505
 51
231.057495
  0
CIRCLE
  8
0
 10
-12.999973
 20
89.999985
 40
4.500000
  0
CIRCLE
  8
0
 10
87.000046
 20
89.999985
 40
4.500000
  0
ARC
  8
0
 10
37.000042
 20
123.000000
 40
4.499997
 50
128.943024
 51
51.056984
  0
ARC
  8
0
 10
99.098053
 20
89.999985
 40
9.381967
 50
345.750000
 51
14.249957
  0
ARC
  8
0
 10
108.453766
 20
86.535889
 40
2.453744
 50
151.927567
 51
208.072433
  0
ARC
  8
0
 10
106.026276
 20
93.464096
 40
2.453744
 50
331.927551
 51
28.072351
  0
ARC
  8
0
 10
106.026276
 20
86.535889
 40
2.453744
 50
331.927551
 51
28.072351
  0
ARC
  8
0
 10
111.546295
 20
93.464096
 40
2.453744
 50
331.927551
 51
28.072351
  0
ARC
  8
0
 10
108.453766
 20
93.464096
 40
2.453744
 50
151.927567
 51
208.072433
  0
ARC
  8
0
 10
104.618073
 20
89.999985
 40
9.381967
 50
345.750000
 51
14.249957
  0
ARC
  8
0
 10
115.381989
 20
89.999985
 40
9.381967
 50
165.750000
 51
194.249908
  0
ARC
  8
0
 10
111.546295
 20
86.535889
 40
2.453744
 50
331.927551
 51
28.072351
  0
ARC
  8
0
 10
105.500031
 20
53.999989
 40
0.499998
 50
288.142853
 51
0.000000
  0
CIRCLE
  8
0
 62
     2
 10
-51.999973
 20
61.999950
 40
2.500000
  0
CIRCLE
  8
0
 10
120.000000
 20
61.999950
 40
2.094999
  0
CIRCLE
  8
0
 10
-51.999973
 20
118.000000
 40
2.100000
  0
CIRCLE
  8
0
 10
-51.999973
 20
61.999973
 40
2.100000
  0
CIRCLE
  8
0
 10
-143.000076
 20
73.000046
 40
4.500000
  0
CIRCLE
  8
0
 62
     2
 10
-143.000076
 20
123.000053
 40
2.000000
  0
CIRCLE
  8
0
 10
-143.000076
 20
107.000023
 40
5.500000
  0
CIRCLE
  8
0
 10
-143.000076
 20
73.000046
 40
5.500000
  0
CIRCLE
  8
0
 62
     2
 10
-143.000076
 20
57.000027
 40
2.000000
  0
CIRCLE
  8
0
 10
-143.000076
 20
107.000023
 40
5.000000
  0
CIRCLE
  8
0
 10
-143.000076
 20
73.000046
 40
5.000000
  0
CIRCLE
  8
0
 10
-143.000076
 20
107.000023
 40
4.500000
  0
CIRCLE
  8
0
 10
-143.000076
 20
123.000053
 40
1.650000
  0
CIRCLE
  8
0
 10
-143.000076
 20
57.000027
 40
1.650000
  0
CIRCLE
  8
0
 10
184.000092
 20
57.000019
 40
1.620000
  0
CIRCLE
  8
0
 62
     2
 10
184.000092
 20
57.000019
 40
2.000000
  0
CIRCLE
  8
0
 62
     2
 10
184.000092
 20
123.000046
 40
2.000000
  0
CIRCLE
  8
0
 10
184.000092
 20
107.000015
 40
5.500000
  0
CIRCLE
  8
0
 10
184.000092
 20
73.000038
 40
5.500000
  0
CIRCLE
  8
0
 10
184.000092
 20
107.000015
 40
5.000000
  0
CIRCLE
  8
0
 10
184.000092
 20
73.000038
 40
5.000000
  0
CIRCLE
  8
0
 10
184.000092
 20
107.000015
 40
4.500000
  0
CIRCLE
  8
0
 10
184.000092
 20
73.000038
 40
4.500000
  0
CIRCLE
  8
0
 10
184.000092
 20
123.000046
 40
1.620000
  0
ARC
  8
0
 10
113.072525
 20
1.500011
 40
7.072563
 50
188.128342
 51
196.426376
  0
ARC
  8
0
 10
106.927429
 20
1.500011
 40
7.072562
 50
343.573700
 51
351.871674
  0
ARC
  8
0
 10
101.407425
 20
1.500011
 40
7.072562
 50
343.573700
 51
351.871674
  0
CIRCLE
  8
0
 62
     2
 10
20.000004
 20
6.500011
 40
2.500000
  0
CIRCLE
  8
0
 62
     2
 10
57.999973
 20
6.500011
 40
2.500000
  0
ARC
  8
0
 10
-35.072552
 20
-2.499958
 40
7.072560
 50
343.573639
 51
16.426317
  0
ARC
  8
0
 10
-28.927441
 20
-2.499958
 40
7.072560
 50
163.573639
 51
196.426300
  0
ARC
  8
0
 10
-23.407452
 20
-2.499958
 40
7.072560
 50
163.573639
 51
196.426300
  0
ARC
  8
0
 10
-23.407452
 20
1.500011
 40
7.072559
 50
188.128342
 51
196.426315
  0
ARC
  8
0
 10
-35.072552
 20
1.500011
 40
7.072559
 50
343.573608
 51
351.871674
  0
ARC
  8
0
 10
-28.927441
 20
1.500011
 40
7.072559
 50
188.128342
 51
196.426315
  0
ARC
  8
0
 10
113.072525
 20
-2.499958
 40
7.072562
 50
163.573700
 51
196.426346
  0
ARC
  8
0
 10
106.927429
 20
-2.499958
 40
7.072561
 50
343.573700
 51
16.426376
  0
ARC
  8
0
 10
101.407425
 20
-2.499958
 40
7.072561
 50
343.573700
 51
16.426376
  0
CIRCLE
  8
0
 10
20.000004
 20
6.500011
 40
2.100000
  0
CIRCLE
  8
0
 10
57.999973
 20
6.500011
 40
2.100000
  0
ARC
  8
0
 62
     4
 10
-107.639130
 20
-98.859528
 40
2.050003
 50
180.000000
 51
270.000000
  0
ARC
  8
0
 62
     4
 10
-107.639130
 20
-98.859528
 40
2.050003
 50
270.000000
 51
0.000000
  0
CIRCLE
  8
0
 62
     4
 10
-61.096390
 20
-53.759521
 40
1.250000
  0
CIRCLE
  8
0
 62
     4
 10
-61.096390
 20
-53.759521
 40
1.400000
  0
ARC
  8
0
 62
     4
 10
51.671814
 20
-98.859528
 40
2.049999
 50
180.000000
 51
270.000000
  0
ARC
  8
0
 62
     4
 10
51.671814
 20
-98.859528
 40
2.050003
 50
271.259888
 51
0.000000
  0
CIRCLE
  8
0
 62
     4
 10
114.443695
 20
-49.050507
 40
0.250000
  0
CIRCLE
  8
0
 62
     4
 10
113.831818
 20
-48.391357
 40
0.450000
  0
CIRCLE
  8
0
 62
     4
 10
113.831818
 20
-48.391357
 40
0.250000
  0
ARC
  8
0
 62
     4
 10
114.214539
 20
-48.709503
 40
3.300002
 50
137.014145
 51
222.985855
  0
CIRCLE
  8
0
 62
     4
 10
96.714539
 20
-48.709503
 40
1.250000
  0
CIRCLE
  8
0
 62
     4
 10
96.714539
 20
-48.709503
 40
1.400000
  0
CIRCLE
  8
0
 62
     4
 10
114.121887
 20
-48.709503
 40
1.300000
  0
CIRCLE
  8
0
 62
     4
 10
114.443695
 20
-49.050507
 40
0.450000
  0
TEXT
  8
0
 10
196.250259
 20
180.830002
 40
6.300000
  1
Ver. 1.0
 50
0.000000
 41
1.052632
 51
0.000000
  7
STANDARD
  0
TEXT
  8
0
 10
167.564667
 20
-192.100006
 40
9.000000
  1
KOGANEI CORP.
 50
0.000000
 41
1.052632
 51
0.000000
  7
STANDARD
  0
TEXT
  8
0
 10
-275.449738
 20
180.830002
 40
6.300000
  1
TWIN ROD CYLINDER
 50
0.000000
 41
1.052632
 51
0.000000
  7
STANDARD
  0
TEXT
  8
0
 10
-270.049713
 20
155.830002
 40
6.300000
  1
MODEL:ATBDAD25*ST(10)
 50
0.000000
 41
1.052632
 51
0.000000
  7
STANDARD
  0
TEXT
  8
0
 62
     3
 10
-51.862728
 20
156.753006
 40
4.500000
  1
STRETCH LINE C
 50
0.000000
 41
1.052632
 51
0.000000
  7
STANDARD
  0
TEXT
  8
0
 62
     3
 10
14.637272
 20
146.753006
 40
4.500000
  1
STRETCH LINE A
 50
0.000000
 41
1.052632
 51
0.000000
  7
STANDARD
  0
TEXT
  8
0
 62
     3
 10
35.637272
 20
136.753006
 40
4.500000
  1
STRETCH LINE B
 50
0.000000
 41
1.052632
 51
0.000000
  7
STANDARD
  0
TEXT
  8
0
 10
-258.127045
 20
-154.550003
 40
4.500000
  1
PLACE
 50
0.000000
 41
1.052632
 51
0.000000
  7
STANDARD
  0
TEXT
  8
0
 10
-220.142654
 20
-147.050003
 40
4.500000
  1
10
 50
0.000000
 41
1.052632
 51
0.000000
  7
STANDARD
  0
TEXT
  8
0
 10
-212.642654
 20
-131.050003
 40
4.500000
  1
STRETCH LIST
 50
0.000000
 41
1.052632
 51
0.000000
  7
STANDARD
  0
TEXT
  8
0
 10
-26.642656
 20
-132.050003
 40
4.500000
  1
(mm)
 50
0.000000
 41
1.052632
 51
0.000000
  7
STANDARD
  0
TEXT
  8
0
 10
-267.127045
 20
-140.050003
 40
4.500000
  1
STROKE
 50
0.000000
 41
1.052632
 51
0.000000
  7
STANDARD
  0
TEXT
  8
0
 10
-267.127045
 20
-148.550003
 40
4.500000
  1
STRETCH
 50
0.000000
 41
1.052632
 51
0.000000
  7
STANDARD
  0
TEXT
  8
0
 10
-251.585724
 20
-163.320007
 40
4.800000
  1
A
 50
0.000000
 41
1.052632
 51
0.000000
  7
STANDARD
  0
TEXT
  8
0
 10
-251.585724
 20
-173.320007
 40
4.800000
  1
B
 50
0.000000
 41
1.052632
 51
0.000000
  7
STANDARD
  0
TEXT
  8
0
 10
-251.585724
 20
-183.320007
 40
4.800000
  1
C
 50
0.000000
 41
1.052632
 51
0.000000
  7
STANDARD
  0
TEXT
  8
0
 10
-198.142853
 20
-147.050003
 40
4.500000
  1
20
 50
0.000000
 41
1.052632
 51
0.000000
  7
STANDARD
  0
TEXT
  8
0
 10
-176.142853
 20
-147.050003
 40
4.500000
  1
30
 50
0.000000
 41
1.052632
 51
0.000000
  7
STANDARD
  0
TEXT
  8
0
 10
-154.142853
 20
-147.050003
 40
4.500000
  1
40
 50
0.000000
 41
1.052632
 51
0.000000
  7
STANDARD
  0
TEXT
  8
0
 10
-132.142853
 20
-147.050003
 40
4.500000
  1
50
 50
0.000000
 41
1.052632
 51
0.000000
  7
STANDARD
  0
TEXT
  8
0
 10
-110.142853
 20
-147.050003
 40
4.500000
  1
60
 50
0.000000
 41
1.052632
 51
0.000000
  7
STANDARD
  0
TEXT
  8
0
 10
-24.392857
 20
-147.050003
 40
4.500000
  1
100
 50
0.000000
 41
1.052632
 51
0.000000
  7
STANDARD
  0
TEXT
  8
0
 10
-22.142857
 20
-183.049973
 40
4.500000
  1
90
 50
0.000000
 41
1.052632
 51
0.000000
  7
STANDARD
  0
TEXT
  8
0
 10
-217.892853
 20
-163.050003
 40
4.500000
  1
0
 50
0.000000
 41
1.052632
 51
0.000000
  7
STANDARD
  0
TEXT
  8
0
 10
-217.892853
 20
-173.049988
 40
4.500000
  1
0
 50
0.000000
 41
1.052632
 51
0.000000
  7
STANDARD
  0
TEXT
  8
0
 10
-217.892853
 20
-183.049973
 40
4.500000
  1
0
 50
0.000000
 41
1.052632
 51
0.000000
  7
STANDARD
  0
TEXT
  8
0
 10
-198.142853
 20
-183.049973
 40
4.500000
  1
10
 50
0.000000
 41
1.052632
 51
0.000000
  7
STANDARD
  0
TEXT
  8
0
 10
-176.142853
 20
-183.049973
 40
4.500000
  1
20
 50
0.000000
 41
1.052632
 51
0.000000
  7
STANDARD
  0
TEXT
  8
0
 10
-154.142853
 20
-183.049973
 40
4.500000
  1
30
 50
0.000000
 41
1.052632
 51
0.000000
  7
STANDARD
  0
TEXT
  8
0
 10
-132.142853
 20
-183.049973
 40
4.500000
  1
40
 50
0.000000
 41
1.052632
 51
0.000000
  7
STANDARD
  0
TEXT
  8
0
 10
-110.142853
 20
-183.049973
 40
4.500000
  1
50
 50
0.000000
 41
1.052632
 51
0.000000
  7
STANDARD
  0
TEXT
  8
0
 10
-88.142853
 20
-183.049973
 40
4.500000
  1
60
 50
0.000000
 41
1.052632
 51
0.000000
  7
STANDARD
  0
TEXT
  8
0
 10
-88.142853
 20
-147.050003
 40
4.500000
  1
70
 50
0.000000
 41
1.052632
 51
0.000000
  7
STANDARD
  0
TEXT
  8
0
 10
-66.142853
 20
-183.049973
 40
4.500000
  1
70
 50
0.000000
 41
1.052632
 51
0.000000
  7
STANDARD
  0
TEXT
  8
0
 10
-66.142853
 20
-147.050003
 40
4.500000
  1
80
 50
0.000000
 41
1.052632
 51
0.000000
  7
STANDARD
  0
TEXT
  8
0
 10
-44.142857
 20
-183.049973
 40
4.500000
  1
80
 50
0.000000
 41
1.052632
 51
0.000000
  7
STANDARD
  0
TEXT
  8
0
 10
-44.142857
 20
-147.050003
 40
4.500000
  1
90
 50
0.000000
 41
1.052632
 51
0.000000
  7
STANDARD
  0
TEXT
  8
0
 10
-154.142853
 20
-173.049988
 40
4.500000
  1
15
 50
0.000000
 41
1.052632
 51
0.000000
  7
STANDARD
  0
TEXT
  8
0
 10
-132.142853
 20
-173.049988
 40
4.500000
  1
20
 50
0.000000
 41
1.052632
 51
0.000000
  7
STANDARD
  0
TEXT
  8
0
 10
-195.892853
 20
-173.050003
 40
4.500000
  1
5
 50
0.000000
 41
1.052632
 51
0.000000
  7
STANDARD
  0
TEXT
  8
0
 10
-110.142853
 20
-173.049988
 40
4.500000
  1
25
 50
0.000000
 41
1.052632
 51
0.000000
  7
STANDARD
  0
TEXT
  8
0
 10
-176.142853
 20
-163.050003
 40
4.500000
  1
10
 50
0.000000
 41
1.052632
 51
0.000000
  7
STANDARD
  0
TEXT
  8
0
 10
-88.142853
 20
-173.049988
 40
4.500000
  1
30
 50
0.000000
 41
1.052632
 51
0.000000
  7
STANDARD
  0
TEXT
  8
0
 10
-154.142853
 20
-163.050003
 40
4.500000
  1
15
 50
0.000000
 41
1.052632
 51
0.000000
  7
STANDARD
  0
TEXT
  8
0
 10
-132.142853
 20
-163.050003
 40
4.500000
  1
20
 50
0.000000
 41
1.052632
 51
0.000000
  7
STANDARD
  0
TEXT
  8
0
 10
-110.142853
 20
-163.050003
 40
4.500000
  1
25
 50
0.000000
 41
1.052632
 51
0.000000
  7
STANDARD
  0
TEXT
  8
0
 10
-88.142853
 20
-163.050003
 40
4.500000
  1
30
 50
0.000000
 41
1.052632
 51
0.000000
  7
STANDARD
  0
TEXT
  8
0
 10
-22.142857
 20
-163.050003
 40
4.500000
  1
45
 50
0.000000
 41
1.052632
 51
0.000000
  7
STANDARD
  0
TEXT
  8
0
 10
-66.142853
 20
-173.049988
 40
4.500000
  1
35
 50
0.000000
 41
1.052632
 51
0.000000
  7
STANDARD
  0
TEXT
  8
0
 10
-44.142857
 20
-173.049988
 40
4.500000
  1
40
 50
0.000000
 41
1.052632
 51
0.000000
  7
STANDARD
  0
TEXT
  8
0
 10
-22.142857
 20
-173.049988
 40
4.500000
  1
45
 50
0.000000
 41
1.052632
 51
0.000000
  7
STANDARD
  0
TEXT
  8
0
 10
-195.892853
 20
-163.050003
 40
4.500000
  1
5
 50
0.000000
 41
1.052632
 51
0.000000
  7
STANDARD
  0
TEXT
  8
0
 10
-66.142853
 20
-163.050003
 40
4.500000
  1
35
 50
0.000000
 41
1.052632
 51
0.000000
  7
STANDARD
  0
TEXT
  8
0
 10
-44.142857
 20
-163.050003
 40
4.500000
  1
40
 50
0.000000
 41
1.052632
 51
0.000000
  7
STANDARD
  0
TEXT
  8
0
 10
-176.142853
 20
-173.049988
 40
4.500000
  1
10
 50
0.000000
 41
1.052632
 51
0.000000
  7
STANDARD
  0
ENDSEC
  0
EOF
