  0
SECTION
  2
HEADER
  0
ENDSEC
  0
SECTION
  2
TABLES
  0
TABLE
  2
LTYPE
 70
     4
  0
LTYPE
  2
CONTINUOUS
 70
    64
  3
Solid line
 72
    65
 73
     0
 40
0.000000
  0
LTYPE
  2
DASHED
 70
    64
  3
__ __ __ __ __ __ __ __ __ __ __ __ __ __ __
 72
    65
 73
     2
 40
3.500000
 49
2.000000
 49
-1.500000
  0
LTYPE
  2
CENTER
 70
    64
  3
____ _ ____ _ ____ _ ____ _ ____ _ ____ _ ____
 72
    65
 73
     4
 40
17.500000
 49
13.000000
 49
-1.500000
 49
1.500000
 49
-1.500000
  0
LTYPE
  2
PHANTOM
 70
    64
  3
_____ _ _ _____ _ _ _____ _ _ _____ _ _ ____  
 72
    65
 73
     6
 40
15.500000
 49
8.000000
 49
-1.500000
 49
1.500000
 49
-1.500000
 49
1.500000
 49
-1.500000
  0
LTYPE
  2
DASHED1
 70
    64
  3
__ __ __ __ __ __ __ __ __ __ __ __ __ __ __
 72
    65
 73
     2
 40
1.500000
 49
1.000000
 49
-0.500000
  0
LTYPE
  2
DASHED2
 70
    64
  3
__ __ __ __ __ __ __ __ __ __ __ __ __ __ __
 72
    65
 73
     2
 40
3.500000
 49
2.500000
 49
-1.000000
  0
LTYPE
  2
DASHED3
 70
    64
  3
__ __ __ __ __ __ __ __ __ __ __ __ __ __ __
 72
    65
 73
     2
 40
6.000000
 49
4.000000
 49
-2.000000
  0
LTYPE
  2
DASHED4
 70
    64
  3
__ __ __ __ __ __ __ __ __ __ __ __ __ __ __
 72
    65
 73
     2
 40
12.000000
 49
10.000000
 49
-2.000000
  0
LTYPE
  2
DASHED5
 70
    64
  3
__ __ __ __ __ __ __ __ __ __ __ __ __ __ __
 72
    65
 73
     2
 40
17.000000
 49
15.000000
 49
-2.000000
  0
LTYPE
  2
DASHED6
 70
    64
  3
__ __ __ __ __ __ __ __ __ __ __ __ __ __ __
 72
    65
 73
     2
 40
29.000000
 49
27.000000
 49
-2.000000
  0
LTYPE
  2
PHANTOM1
 70
    64
  3
_____ _ _ _____ _ _ _____ _ _ _____ _ _ ____  
 72
    65
 73
     6
 40
31.000000
 49
25.000000
 49
-1.500000
 49
1.000000
 49
-1.000000
 49
1.000000
 49
-1.500000
  0
LTYPE
  2
PHANTOM2
 70
    64
  3
_____ _ _ _____ _ _ _____ _ _ _____ _ _ ____  
 72
    65
 73
     6
 40
36.000000
 49
27.000000
 49
-1.500000
 49
2.500000
 49
-1.000000
 49
2.500000
 49
-1.500000
  0
LTYPE
  2
PHANTOM3
 70
    64
  3
_____ _ _ _____ _ _ _____ _ _ _____ _ _ ____  
 72
    65
 73
     6
 40
78.000000
 49
64.000000
 49
-2.000000
 49
4.000000
 49
-2.000000
 49
4.000000
 49
-2.000000
  0
LTYPE
  2
CENTER1
 70
    64
  3
____ _ ____ _ ____ _ ____ _ ____ _ ____ _ ____
 72
    65
 73
     4
 40
19.000000
 49
14.000000
 49
-1.000000
 49
3.000000
 49
-1.000000
  0
LTYPE
  2
CENTER2
 70
    64
  3
____ _ ____ _ ____ _ ____ _ ____ _ ____ _ ____
 72
    65
 73
     4
 40
28.500000
 49
25.000000
 49
-1.000000
 49
1.500000
 49
-1.000000
  0
LTYPE
  2
CENTER3
 70
    64
  3
____ _ ____ _ ____ _ ____ _ ____ _ ____ _ ____
 72
    65
 73
     4
 40
31.500000
 49
27.000000
 49
-1.000000
 49
2.500000
 49
-1.000000
  0
LTYPE
  2
CENTER4
 70
    64
  3
____ _ ____ _ ____ _ ____ _ ____ _ ____ _ ____
 72
    65
 73
     4
 40
50.000000
 49
45.000000
 49
-1.000000
 49
3.000000
 49
-1.000000
  0
LTYPE
  2
CENTER5
 70
    64
  3
____ _ ____ _ ____ _ ____ _ ____ _ ____ _ ____
 72
    65
 73
     4
 40
100.000000
 49
92.000000
 49
-2.000000
 49
4.000000
 49
-2.000000
  0
LTYPE
  2
SBK1
 70
    64
  3
______ _ _ _ ______ _ _ _ ______ _ _ _ _____  
 72
    65
 73
     8
 40
60.500000
 49
45.000000
 49
-2.000000
 49
2.500000
 49
-2.000000
 49
2.500000
 49
-2.000000
 49
2.500000
 49
-2.000000
  0
LTYPE
  2
SBK2
 70
    64
  3
______ _ _ _ ______ _ _ _ ______ _ _ _ _____  
 72
    65
 73
     8
 40
84.000000
 49
64.000000
 49
-2.000000
 49
4.000000
 49
-2.000000
 49
4.000000
 49
-2.000000
 49
4.000000
 49
-2.000000
  0
LTYPE
  2
STCH
 70
    64
  3
__ __ __ __ __ __ __ __ __ __ __ __ __ __ __
 72
    65
 73
     2
 40
3.000000
 49
1.000000
 49
-2.000000
  0
LTYPE
  2
MTCH
 70
    64
  3
_____ _ _ _____ _ _ _____ _ _ _____ _ _ ____  
 72
    65
 73
     6
 40
80.000000
 49
66.000000
 49
-2.000000
 49
4.000000
 49
-2.000000
 49
4.000000
 49
-2.000000
  0
ENDTAB
  0
TABLE
  2
LAYER
 70
     1
  0
LAYER
  2
0
 70
     0
 62
     7
  6
CONTINUOUS
  0
ENDTAB
  0
TABLE
  2
STYLE
 70
     1
  0
STYLE
  2
STANDARD
 70
     0
 40
0.000000
 41
1.000000
 50
0.000000
 71
     0
 42
0.200000
  3
txt
  4
BIGFONT
  0
ENDTAB
  0
TABLE
  2
VIEW
 70
     0
  0
ENDTAB
  0
ENDSEC
  0
SECTION
  2
BLOCKS
  0
ENDSEC
  0
SECTION
  2
ENTITIES
  0
LINE
  8
0
  6
PHANTOM
 62
     2
 10
-39.500000
 20
150.500000
 11
-39.500000
 21
36.500000
  0
LINE
  8
0
  6
PHANTOM
 62
     2
 10
27.500000
 20
140.500000
 11
27.500000
 21
38.750000
  0
LINE
  8
0
  6
PHANTOM
 62
     2
 10
46.000000
 20
130.500000
 11
46.000000
 21
36.500000
  0
LINE
  8
0
  6
CENTER
 62
     2
 10
-13.000008
 20
95.800003
 11
-13.000008
 21
83.800003
  0
LINE
  8
0
  6
CENTER
 62
     2
 10
81.999992
 20
96.199997
 11
81.999992
 21
84.010818
  0
LINE
  8
0
  6
CENTER
 62
     2
 10
37.000023
 20
122.999992
 11
37.000023
 21
111.101402
  0
LINE
  8
0
  6
CENTER
 62
     2
 10
31.200005
 20
62.499985
 11
42.805336
 21
62.499985
  0
LINE
  8
0
  6
CENTER
 62
     2
 10
30.506409
 20
117.499985
 11
43.200020
 21
117.499985
  0
LINE
  8
0
  6
CENTER
 62
     2
 10
37.000023
 20
68.473381
 11
37.000023
 21
56.280212
  0
LINE
  8
0
 10
-27.499924
 20
121.000000
 11
97.500206
 21
121.000000
  0
LINE
  8
0
 10
-27.499992
 20
58.999992
 11
98.000023
 21
58.999992
  0
LINE
  8
0
  6
CENTER
 62
     2
 10
-62.081688
 20
89.999985
 11
123.541283
 21
89.999985
  0
LINE
  8
0
 10
-28.000000
 20
115.799980
 11
33.379246
 21
115.799980
  0
LINE
  8
0
 10
-28.000000
 20
112.599998
 11
98.000023
 21
112.599998
  0
LINE
  8
0
 10
-28.000000
 20
92.599991
 11
-16.039726
 21
92.599991
  0
LINE
  8
0
 10
-28.000000
 20
95.799980
 11
98.000023
 21
95.799980
  0
LINE
  8
0
 10
40.620804
 20
115.799980
 11
98.000023
 21
115.799980
  0
LINE
  8
0
 10
-9.960274
 20
92.599991
 11
78.960274
 21
92.599991
  0
LINE
  8
0
 10
85.039726
 20
92.599991
 11
98.000023
 21
92.599991
  0
LINE
  8
0
 10
-27.999977
 20
120.499969
 11
-27.999977
 21
59.499969
  0
LINE
  8
0
 10
-36.999977
 20
94.118790
 11
-36.999977
 21
85.881180
  0
LINE
  8
0
 10
-46.999977
 20
93.999985
 11
-46.999977
 21
85.999969
  0
LINE
  8
0
 10
-47.999977
 20
120.499969
 11
-47.999977
 21
59.499969
  0
LINE
  8
0
 10
-57.999977
 20
120.499969
 11
-57.999977
 21
59.499969
  0
LINE
  8
0
  6
CENTER
 62
     2
 10
-56.234993
 20
67.999969
 11
-50.201561
 21
67.999969
  0
LINE
  8
0
  6
CENTER
 62
     2
 10
-56.583076
 20
111.999954
 11
-49.853485
 21
111.999954
  0
LINE
  8
0
 10
-47.999977
 20
98.999992
 11
-27.999977
 21
98.999992
  0
LINE
  8
0
 10
-47.999977
 20
108.999992
 11
-27.999977
 21
108.999992
  0
LINE
  8
0
 10
-47.999977
 20
70.999985
 11
-27.999977
 21
70.999985
  0
LINE
  8
0
 10
-47.999977
 20
80.999985
 11
-27.999977
 21
80.999985
  0
LINE
  8
0
 10
-47.999977
 20
93.999985
 11
-46.999985
 21
93.999985
  0
LINE
  8
0
 10
-47.999977
 20
85.999985
 11
-46.999985
 21
85.999985
  0
LINE
  8
0
  6
CENTER
 62
     2
 10
-64.795891
 20
103.999992
 11
-22.599976
 21
103.999992
  0
LINE
  8
0
  6
CENTER
 62
     2
 10
-65.180794
 20
75.999985
 11
-22.999977
 21
75.999985
  0
LINE
  8
0
  6
CENTER
 62
     2
 10
-52.999977
 20
115.570290
 11
-52.999977
 21
108.260567
  0
LINE
  8
0
  6
CENTER
 62
     2
 10
-52.999977
 20
71.363785
 11
-52.999977
 21
64.402115
  0
LINE
  8
0
 10
-47.999977
 20
106.861801
 11
-45.999985
 21
106.861801
  0
LINE
  8
0
 10
-47.999977
 20
101.138138
 11
-45.999985
 21
101.138138
  0
LINE
  8
0
 10
-47.999977
 20
78.861786
 11
-45.999985
 21
78.861786
  0
LINE
  8
0
 10
-47.999977
 20
73.138153
 11
-45.999985
 21
73.138153
  0
LINE
  8
0
 10
-46.000008
 20
106.861794
 11
-46.000008
 21
101.138153
  0
LINE
  8
0
 10
-46.000008
 20
78.861786
 11
-46.000008
 21
73.138145
  0
LINE
  8
0
 10
-36.711304
 20
94.618797
 11
-33.499985
 21
94.618797
  0
LINE
  8
0
 10
-36.711304
 20
92.309380
 11
-33.499985
 21
92.309380
  0
LINE
  8
0
 10
-36.711304
 20
87.690567
 11
-33.499985
 21
87.690567
  0
LINE
  8
0
 10
-36.711304
 20
85.381172
 11
-33.499985
 21
85.381172
  0
LINE
  8
0
 10
-33.500008
 20
94.618790
 11
-33.500008
 21
85.381165
  0
LINE
  8
0
 10
-30.479988
 20
94.118790
 11
-30.479988
 21
85.881180
  0
LINE
  8
0
 10
-36.999996
 20
94.118744
 11
-36.711300
 21
94.618782
  0
LINE
  8
0
 10
-37.000034
 20
85.881134
 11
-36.711361
 21
85.381134
  0
LINE
  8
0
 10
-30.191315
 20
94.618797
 11
-28.288673
 21
94.618797
  0
LINE
  8
0
 10
-30.191315
 20
85.381172
 11
-28.288651
 21
85.381172
  0
LINE
  8
0
 10
-28.000029
 20
94.118767
 11
-28.288702
 21
94.618759
  0
LINE
  8
0
 10
-27.999950
 20
85.881172
 11
-28.288624
 21
85.381172
  0
LINE
  8
0
 10
-30.479979
 20
94.118805
 11
-30.191307
 21
94.618805
  0
LINE
  8
0
 10
-30.480104
 20
85.881142
 11
-30.191416
 21
85.381119
  0
LINE
  8
0
 10
-30.191315
 20
87.690567
 11
-28.288651
 21
87.690567
  0
LINE
  8
0
 10
-30.191315
 20
92.309380
 11
-28.288651
 21
92.309380
  0
LINE
  8
0
 10
-33.499985
 20
92.499962
 11
-30.479988
 21
92.499962
  0
LINE
  8
0
 10
-33.499985
 20
87.499962
 11
-30.479988
 21
87.499962
  0
LINE
  8
0
 62
     2
 10
-33.499985
 20
87.904976
 11
-30.479988
 21
87.904976
  0
LINE
  8
0
 62
     2
 10
-33.499985
 20
92.094994
 11
-30.479988
 21
92.094994
  0
LINE
  8
0
 10
-57.999977
 20
59.499977
 11
-47.999977
 21
59.499977
  0
LINE
  8
0
 10
-57.999977
 20
120.499969
 11
-47.999977
 21
120.499969
  0
LINE
  8
0
 10
-27.499949
 20
120.999939
 11
-27.999933
 21
120.499962
  0
LINE
  8
0
 10
-27.999975
 20
59.500000
 11
-27.499968
 21
58.999992
  0
LINE
  8
0
 10
98.000023
 20
120.499969
 11
98.000023
 21
59.499969
  0
LINE
  8
0
 10
97.500168
 20
121.000107
 11
98.000168
 21
120.500122
  0
LINE
  8
0
 10
97.999985
 20
59.499996
 11
97.500000
 21
59.000004
  0
LINE
  8
0
 10
107.000023
 20
94.118790
 11
107.000023
 21
85.881180
  0
LINE
  8
0
 10
108.000023
 20
120.499969
 11
108.000023
 21
59.499969
  0
LINE
  8
0
 10
118.000023
 20
120.499969
 11
118.000023
 21
59.499969
  0
LINE
  8
0
  6
CENTER
 62
     2
 10
116.235039
 20
67.999969
 11
110.201561
 21
67.999969
  0
LINE
  8
0
  6
CENTER
 62
     2
 10
116.583092
 20
111.999977
 11
109.853508
 21
111.999977
  0
LINE
  8
0
 10
108.000023
 20
98.999969
 11
98.000023
 21
98.999969
  0
LINE
  8
0
 10
108.000023
 20
108.999969
 11
98.000023
 21
108.999969
  0
LINE
  8
0
 10
108.000023
 20
70.999954
 11
98.000023
 21
70.999954
  0
LINE
  8
0
 10
108.000023
 20
80.999954
 11
98.000023
 21
80.999954
  0
LINE
  8
0
 10
108.000023
 20
93.999985
 11
107.000023
 21
93.999985
  0
LINE
  8
0
 10
108.000023
 20
85.999954
 11
107.000023
 21
85.999954
  0
LINE
  8
0
  6
CENTER
 62
     2
 10
121.800026
 20
103.999969
 11
91.086937
 21
103.999969
  0
LINE
  8
0
  6
CENTER
 62
     2
 10
120.599998
 20
75.999954
 11
91.388481
 21
75.999954
  0
LINE
  8
0
  6
CENTER
 62
     2
 10
113.000023
 20
115.570267
 11
113.000023
 21
108.260544
  0
LINE
  8
0
  6
CENTER
 62
     2
 10
113.000023
 20
71.363770
 11
113.000023
 21
64.402100
  0
LINE
  8
0
 10
108.000023
 20
106.861778
 11
106.000008
 21
106.861778
  0
LINE
  8
0
 10
108.000023
 20
101.138161
 11
106.000008
 21
101.138161
  0
LINE
  8
0
 10
108.000023
 20
78.861786
 11
106.000008
 21
78.861786
  0
LINE
  8
0
 10
108.000023
 20
73.138153
 11
106.000008
 21
73.138153
  0
LINE
  8
0
 10
105.999992
 20
106.861771
 11
105.999992
 21
101.138153
  0
LINE
  8
0
 10
105.999992
 20
78.861786
 11
105.999992
 21
73.138145
  0
LINE
  8
0
 10
106.711357
 20
94.618774
 11
103.500023
 21
94.618774
  0
LINE
  8
0
 10
106.711357
 20
92.309402
 11
103.500023
 21
92.309402
  0
LINE
  8
0
 10
106.711357
 20
87.690567
 11
103.500023
 21
87.690567
  0
LINE
  8
0
 10
106.711357
 20
85.381172
 11
103.500023
 21
85.381172
  0
LINE
  8
0
 10
103.499992
 20
94.618774
 11
103.499992
 21
85.381165
  0
LINE
  8
0
 10
100.480034
 20
94.118790
 11
100.480034
 21
85.881180
  0
LINE
  8
0
 10
106.999863
 20
94.118706
 11
106.711174
 21
94.618721
  0
LINE
  8
0
 10
107.000099
 20
85.881119
 11
106.711426
 21
85.381119
  0
LINE
  8
0
 10
100.191338
 20
94.618774
 11
98.288696
 21
94.618774
  0
LINE
  8
0
 10
100.191338
 20
85.381172
 11
98.288696
 21
85.381172
  0
LINE
  8
0
 10
98.000084
 20
94.118736
 11
98.288750
 21
94.618721
  0
LINE
  8
0
 10
98.000130
 20
85.881271
 11
98.288818
 21
85.381279
  0
LINE
  8
0
 10
100.480156
 20
94.118866
 11
100.191483
 21
94.618858
  0
LINE
  8
0
 10
100.480080
 20
85.881180
 11
100.191399
 21
85.381165
  0
LINE
  8
0
 10
100.191338
 20
87.690567
 11
98.288696
 21
87.690567
  0
LINE
  8
0
 10
100.191338
 20
92.309402
 11
98.288696
 21
92.309402
  0
LINE
  8
0
 10
103.500023
 20
92.499985
 11
100.480034
 21
92.499985
  0
LINE
  8
0
 10
103.500023
 20
87.499985
 11
100.480034
 21
87.499985
  0
LINE
  8
0
 62
     2
 10
103.500023
 20
87.904976
 11
100.480034
 21
87.904976
  0
LINE
  8
0
 62
     2
 10
103.500023
 20
92.094971
 11
100.480034
 21
92.094971
  0
LINE
  8
0
 10
108.000023
 20
120.499969
 11
118.000023
 21
120.499969
  0
LINE
  8
0
 10
108.000023
 20
59.499977
 11
118.000023
 21
59.499977
  0
LINE
  8
0
 62
     2
 10
-45.999985
 20
106.861809
 11
-47.999977
 21
101.138145
  0
LINE
  8
0
 62
     2
 10
-45.999989
 20
101.138138
 11
-47.999981
 21
106.861801
  0
LINE
  8
0
 62
     2
 10
-45.999989
 20
73.138168
 11
-47.999981
 21
78.861832
  0
LINE
  8
0
 62
     2
 10
-45.999985
 20
78.861832
 11
-47.999977
 21
73.138168
  0
LINE
  8
0
 62
     2
 10
108.000023
 20
73.138153
 11
106.000008
 21
78.861786
  0
LINE
  8
0
 62
     2
 10
108.000023
 20
78.861786
 11
106.000008
 21
73.138153
  0
LINE
  8
0
 62
     2
 10
108.000023
 20
101.138184
 11
106.000008
 21
106.861816
  0
LINE
  8
0
 62
     2
 10
108.000023
 20
106.861809
 11
106.000008
 21
101.138176
  0
LINE
  8
0
  6
CENTER
 62
     2
 10
-151.900070
 20
90.000023
 11
-119.900063
 21
90.000023
  0
LINE
  8
0
 10
-147.285782
 20
121.000023
 11
-137.100067
 21
121.000023
  0
LINE
  8
0
  6
CENTER
 62
     2
 10
-142.371857
 20
76.000038
 11
-128.855530
 21
76.000038
  0
LINE
  8
0
  6
CENTER
 62
     2
 10
-142.168579
 20
104.000053
 11
-128.855530
 21
104.000053
  0
LINE
  8
0
  6
CENTER
 62
     2
 10
-135.500092
 20
125.800018
 11
-135.500092
 21
52.600029
  0
LINE
  8
0
 10
-123.500084
 20
120.500046
 11
-123.500084
 21
59.500031
  0
LINE
  8
0
 10
-147.500076
 20
120.500046
 11
-147.500076
 21
59.500031
  0
LINE
  8
0
 10
-123.000084
 20
120.285728
 11
-123.000084
 21
115.800034
  0
LINE
  8
0
 10
-148.000076
 20
120.285728
 11
-148.000076
 21
115.800034
  0
LINE
  8
0
 10
-123.000084
 20
92.600029
 11
-123.000084
 21
59.714310
  0
LINE
  8
0
 10
-148.000076
 20
92.600044
 11
-148.000076
 21
59.714310
  0
LINE
  8
0
  6
CENTER
 62
     2
 10
-138.713287
 20
117.500023
 11
-132.107605
 21
117.500023
  0
LINE
  8
0
  6
CENTER
 62
     2
 10
-138.713287
 20
62.500023
 11
-132.615723
 21
62.500023
  0
LINE
  8
0
 10
-138.000092
 20
105.443413
 11
-138.000092
 21
102.556671
  0
LINE
  8
0
 10
-133.000092
 20
105.443413
 11
-133.000092
 21
102.556671
  0
LINE
  8
0
 10
-135.500122
 20
106.886765
 11
-133.000122
 21
105.443390
  0
LINE
  8
0
 10
-138.000076
 20
102.556641
 11
-135.500076
 21
101.113251
  0
LINE
  8
0
 10
-138.000107
 20
105.443573
 11
-135.500107
 21
106.886940
  0
LINE
  8
0
 10
-135.500092
 20
101.113342
 11
-133.000092
 21
102.556717
  0
LINE
  8
0
 10
-138.000092
 20
77.443413
 11
-138.000092
 21
74.556664
  0
LINE
  8
0
 10
-133.000092
 20
77.443413
 11
-133.000092
 21
74.556664
  0
LINE
  8
0
 10
-135.500061
 20
78.886765
 11
-133.000061
 21
77.443390
  0
LINE
  8
0
 10
-138.000076
 20
74.556664
 11
-135.500061
 21
73.113281
  0
LINE
  8
0
 10
-138.000107
 20
77.443520
 11
-135.500107
 21
78.886894
  0
LINE
  8
0
 10
-135.500076
 20
73.113380
 11
-133.000076
 21
74.556747
  0
LINE
  8
0
 10
-147.500076
 20
59.500015
 11
-123.500069
 21
59.500015
  0
LINE
  8
0
 10
-147.285782
 20
59.000031
 11
-123.714363
 21
59.000031
  0
LINE
  8
0
 10
-147.500076
 20
120.500031
 11
-123.500069
 21
120.500031
  0
LINE
  8
0
 10
-147.285767
 20
121.000008
 11
-148.000061
 21
120.285721
  0
LINE
  8
0
 10
-123.714355
 20
121.000031
 11
-123.000069
 21
120.285744
  0
LINE
  8
0
 10
-148.000076
 20
59.714348
 11
-147.285797
 21
59.000065
  0
LINE
  8
0
 10
-123.000145
 20
59.714363
 11
-123.714432
 21
59.000080
  0
LINE
  8
0
 10
-147.999985
 20
95.800041
 11
-147.500015
 21
95.800041
  0
LINE
  8
0
 10
-147.999985
 20
92.600060
 11
-147.500015
 21
92.600060
  0
LINE
  8
0
 10
-123.000084
 20
112.600029
 11
-123.000084
 21
95.800041
  0
LINE
  8
0
 10
-123.000191
 20
115.800041
 11
-123.500160
 21
115.800041
  0
LINE
  8
0
 10
-123.000191
 20
112.600037
 11
-123.500160
 21
112.600037
  0
LINE
  8
0
 10
-123.000175
 20
95.800041
 11
-123.500130
 21
95.800041
  0
LINE
  8
0
 10
-123.000175
 20
92.600029
 11
-123.500130
 21
92.600029
  0
LINE
  8
0
 10
-137.100037
 20
120.999924
 11
-137.100037
 21
120.499962
  0
LINE
  8
0
 10
-133.900055
 20
120.999924
 11
-133.900055
 21
120.499962
  0
LINE
  8
0
 10
-147.999985
 20
112.600060
 11
-147.500015
 21
112.600060
  0
LINE
  8
0
 10
-147.999985
 20
115.800041
 11
-147.500015
 21
115.800041
  0
LINE
  8
0
 10
-148.000076
 20
112.600052
 11
-148.000076
 21
95.800041
  0
LINE
  8
0
 10
-133.900055
 20
121.000023
 11
-123.714348
 21
121.000023
  0
LINE
  8
0
  6
CENTER
 62
     2
 10
192.900146
 20
90.000038
 11
160.900146
 21
90.000038
  0
LINE
  8
0
 10
188.285889
 20
121.000038
 11
178.100128
 21
121.000038
  0
LINE
  8
0
  6
CENTER
 62
     2
 10
183.371948
 20
76.000053
 11
169.855621
 21
76.000053
  0
LINE
  8
0
  6
CENTER
 62
     2
 10
183.168671
 20
104.000069
 11
169.855621
 21
104.000069
  0
LINE
  8
0
  6
CENTER
 62
     2
 10
176.500153
 20
125.800034
 11
176.500153
 21
52.600044
  0
LINE
  8
0
 10
164.500153
 20
120.500061
 11
164.500153
 21
59.500046
  0
LINE
  8
0
 10
188.500153
 20
120.500061
 11
188.500153
 21
59.500046
  0
LINE
  8
0
 10
164.000153
 20
120.285744
 11
164.000153
 21
115.800049
  0
LINE
  8
0
 10
189.000153
 20
120.285744
 11
189.000153
 21
115.800049
  0
LINE
  8
0
 10
164.000153
 20
92.600044
 11
164.000153
 21
59.714325
  0
LINE
  8
0
 10
189.000153
 20
92.600060
 11
189.000153
 21
59.714325
  0
LINE
  8
0
  6
CENTER
 62
     2
 10
179.713379
 20
117.500038
 11
173.107666
 21
117.500038
  0
LINE
  8
0
  6
CENTER
 62
     2
 10
179.713379
 20
62.500038
 11
173.615784
 21
62.500038
  0
LINE
  8
0
 10
179.000153
 20
105.443428
 11
179.000153
 21
102.556686
  0
LINE
  8
0
 10
174.000153
 20
105.443428
 11
174.000153
 21
102.556686
  0
LINE
  8
0
 10
176.500168
 20
106.886810
 11
174.000168
 21
105.443436
  0
LINE
  8
0
 10
179.000168
 20
102.556671
 11
176.500137
 21
101.113289
  0
LINE
  8
0
 10
179.000198
 20
105.443581
 11
176.500198
 21
106.886948
  0
LINE
  8
0
 10
176.500183
 20
101.113403
 11
174.000183
 21
102.556778
  0
LINE
  8
0
 10
179.000153
 20
77.443428
 11
179.000153
 21
74.556679
  0
LINE
  8
0
 10
174.000153
 20
77.443428
 11
174.000153
 21
74.556679
  0
LINE
  8
0
 10
176.500122
 20
78.886787
 11
174.000122
 21
77.443413
  0
LINE
  8
0
 10
179.000122
 20
74.556694
 11
176.500107
 21
73.113304
  0
LINE
  8
0
 10
179.000183
 20
77.443504
 11
176.500183
 21
78.886879
  0
LINE
  8
0
 10
176.500153
 20
73.113388
 11
174.000168
 21
74.556755
  0
LINE
  8
0
 10
188.500153
 20
59.500031
 11
164.500153
 21
59.500031
  0
LINE
  8
0
 10
188.285889
 20
59.000046
 11
164.714447
 21
59.000046
  0
LINE
  8
0
 10
188.500153
 20
120.500046
 11
164.500153
 21
120.500046
  0
LINE
  8
0
 10
188.285767
 20
121.000000
 11
189.000061
 21
120.285698
  0
LINE
  8
0
 10
164.714386
 20
121.000061
 11
164.000092
 21
120.285774
  0
LINE
  8
0
 10
189.000107
 20
59.714382
 11
188.285812
 21
59.000080
  0
LINE
  8
0
 10
164.000229
 20
59.714432
 11
164.714523
 21
59.000141
  0
LINE
  8
0
 10
189.000092
 20
95.800056
 11
188.500122
 21
95.800056
  0
LINE
  8
0
 10
189.000092
 20
92.600075
 11
188.500122
 21
92.600075
  0
LINE
  8
0
 10
164.000153
 20
112.600044
 11
164.000153
 21
95.800056
  0
LINE
  8
0
 10
164.000275
 20
115.800056
 11
164.500244
 21
115.800056
  0
LINE
  8
0
 10
164.000275
 20
112.600052
 11
164.500244
 21
112.600052
  0
LINE
  8
0
 10
164.000244
 20
95.800056
 11
164.500214
 21
95.800056
  0
LINE
  8
0
 10
164.000244
 20
92.600044
 11
164.500214
 21
92.600044
  0
LINE
  8
0
 10
178.100128
 20
120.999939
 11
178.100128
 21
120.499977
  0
LINE
  8
0
 10
174.900116
 20
120.999939
 11
174.900116
 21
120.499977
  0
LINE
  8
0
 10
189.000092
 20
112.600075
 11
188.500122
 21
112.600075
  0
LINE
  8
0
 10
189.000092
 20
115.800056
 11
188.500122
 21
115.800056
  0
LINE
  8
0
 10
189.000153
 20
112.600067
 11
189.000153
 21
95.800056
  0
LINE
  8
0
 10
174.900116
 20
121.000038
 11
164.714417
 21
121.000038
  0
LINE
  8
0
  6
PHANTOM
 62
     2
 10
27.499998
 20
38.750000
 11
27.499998
 21
-8.499989
  0
LINE
  8
0
  6
PHANTOM
 62
     2
 10
-39.500000
 20
36.500000
 11
-39.500000
 21
-8.499989
  0
LINE
  8
0
  6
PHANTOM
 62
     2
 10
46.000000
 20
36.500000
 11
46.000000
 21
-8.499988
  0
LINE
  8
0
 10
98.000015
 20
25.785717
 11
98.000015
 21
2.214276
  0
LINE
  8
0
  6
CENTER
 62
     2
 10
-61.400024
 20
14.000012
 11
124.765991
 21
14.000012
  0
LINE
  8
0
 10
-27.285738
 20
26.500011
 11
97.285736
 21
26.500011
  0
LINE
  8
0
 10
-27.285738
 20
1.500012
 11
97.285690
 21
1.500012
  0
LINE
  8
0
  6
CENTER
 62
     2
 10
17.999983
 20
18.373028
 11
17.999983
 21
9.716138
  0
LINE
  8
0
  6
CENTER
 62
     2
 10
52.000015
 20
17.988262
 11
52.000015
 21
9.908505
  0
LINE
  8
0
 10
97.285721
 20
26.499990
 11
98.000000
 21
25.785711
  0
LINE
  8
0
 10
98.000061
 20
2.214252
 11
97.285789
 21
1.499975
  0
LINE
  8
0
 10
-28.000002
 20
25.785732
 11
-28.000002
 21
2.214276
  0
LINE
  8
0
 10
-37.000000
 20
8.999997
 11
-37.000000
 21
4.500012
  0
LINE
  8
0
 10
-36.711327
 20
4.000012
 11
-33.500008
 21
4.000012
  0
LINE
  8
0
 10
-33.500031
 20
8.999997
 11
-33.500031
 21
3.999997
  0
LINE
  8
0
 10
-30.480013
 20
8.999997
 11
-30.480013
 21
4.500012
  0
LINE
  8
0
 10
-36.999977
 20
4.499941
 11
-36.711304
 21
3.999944
  0
LINE
  8
0
 10
-30.480000
 20
4.499955
 11
-30.191326
 21
3.999958
  0
LINE
  8
0
 10
-28.000040
 20
4.500007
 11
-28.288712
 21
4.000009
  0
LINE
  8
0
 10
-30.191339
 20
4.000012
 11
-28.288675
 21
4.000012
  0
LINE
  8
0
 10
-33.500008
 20
5.499982
 11
-30.480013
 21
5.499982
  0
LINE
  8
0
 62
     2
 10
-33.500008
 20
5.905011
 11
-30.480013
 21
5.905011
  0
LINE
  8
0
 10
-48.000000
 20
9.900006
 11
-48.000000
 21
2.000012
  0
LINE
  8
0
 10
-58.000000
 20
26.000011
 11
-58.000000
 21
2.000012
  0
LINE
  8
0
 10
-47.000000
 20
9.900006
 11
-47.000000
 21
3.999997
  0
LINE
  8
0
 10
-48.000000
 20
26.000011
 11
-48.000000
 21
18.100018
  0
LINE
  8
0
 10
-48.000000
 20
4.000012
 11
-47.000008
 21
4.000012
  0
LINE
  8
0
 10
-58.000000
 20
2.000012
 11
-48.000000
 21
2.000012
  0
LINE
  8
0
 10
-58.000000
 20
26.000011
 11
-48.000000
 21
26.000011
  0
LINE
  8
0
 10
-46.000008
 20
9.000012
 11
-28.000002
 21
9.000012
  0
LINE
  8
0
 10
-46.000008
 20
19.000011
 11
-28.000002
 21
19.000011
  0
LINE
  8
0
 10
-49.000031
 20
18.100018
 11
-49.000031
 21
9.900006
  0
LINE
  8
0
 10
-49.000015
 20
9.900006
 11
-46.000008
 21
9.900006
  0
LINE
  8
0
 10
-49.000015
 20
18.100018
 11
-46.000008
 21
18.100018
  0
LINE
  8
0
 10
-46.000031
 20
18.999996
 11
-46.000031
 21
18.100018
  0
LINE
  8
0
 10
-46.000031
 20
9.900006
 11
-46.000031
 21
8.999997
  0
LINE
  8
0
 10
-27.285774
 20
26.500017
 11
-28.000048
 21
25.785748
  0
LINE
  8
0
 10
-27.999945
 20
2.214261
 11
-27.285658
 21
1.499973
  0
LINE
  8
0
 10
-58.000000
 20
26.000011
 11
-58.000000
 21
2.000012
  0
LINE
  8
0
 10
107.000015
 20
8.999997
 11
107.000015
 21
4.500012
  0
LINE
  8
0
 62
     2
 10
106.711349
 20
8.000012
 11
103.500031
 21
8.000012
  0
LINE
  8
0
 10
106.711349
 20
4.000012
 11
103.500031
 21
4.000012
  0
LINE
  8
0
 10
103.500031
 20
8.999997
 11
103.500031
 21
3.999997
  0
LINE
  8
0
 10
100.480026
 20
8.999997
 11
100.480026
 21
4.500012
  0
LINE
  8
0
 10
106.999954
 20
4.499998
 11
106.711281
 21
4.000001
  0
LINE
  8
0
 10
100.479942
 20
4.500009
 11
100.191269
 21
4.000012
  0
LINE
  8
0
 10
98.000015
 20
4.500024
 11
98.288689
 21
4.000013
  0
LINE
  8
0
 10
100.191360
 20
4.000012
 11
98.288696
 21
4.000012
  0
LINE
  8
0
 10
103.500031
 20
5.499982
 11
100.480042
 21
5.499982
  0
LINE
  8
0
 62
     2
 10
103.500031
 20
5.905011
 11
100.480042
 21
5.905011
  0
LINE
  8
0
 10
108.000000
 20
9.900006
 11
108.000000
 21
2.000012
  0
LINE
  8
0
 10
118.000000
 20
26.000011
 11
118.000000
 21
2.000012
  0
LINE
  8
0
 10
107.000000
 20
9.900006
 11
107.000000
 21
3.999997
  0
LINE
  8
0
 10
108.000000
 20
26.000011
 11
108.000000
 21
18.100018
  0
LINE
  8
0
 10
108.000000
 20
4.000012
 11
107.000000
 21
4.000012
  0
LINE
  8
0
 10
118.000000
 20
2.000012
 11
108.000000
 21
2.000012
  0
LINE
  8
0
 10
118.000000
 20
26.000011
 11
108.000000
 21
26.000011
  0
LINE
  8
0
 10
106.000000
 20
9.000012
 11
98.000015
 21
9.000012
  0
LINE
  8
0
 10
106.000000
 20
19.000011
 11
98.000015
 21
19.000011
  0
LINE
  8
0
 10
109.000000
 20
18.100018
 11
109.000000
 21
9.900006
  0
LINE
  8
0
 10
109.000015
 20
9.900006
 11
106.000000
 21
9.900006
  0
LINE
  8
0
 10
109.000015
 20
18.100018
 11
106.000000
 21
18.100018
  0
LINE
  8
0
 10
106.000000
 20
18.999996
 11
106.000000
 21
18.100018
  0
LINE
  8
0
 10
106.000000
 20
9.900006
 11
106.000000
 21
8.999997
  0
LINE
  8
0
 10
118.000000
 20
26.000011
 11
118.000000
 21
2.000012
  0
LINE
  8
0
 10
35.063507
 20
26.499996
 11
35.063507
 21
20.999981
  0
LINE
  8
0
 10
38.936493
 20
26.499996
 11
38.936493
 21
20.999981
  0
LINE
  8
0
 10
35.063507
 20
20.999981
 11
38.936493
 21
20.999981
  0
LINE
  8
0
 10
35.063507
 20
1.499997
 11
35.063507
 21
7.000012
  0
LINE
  8
0
 10
38.936493
 20
1.499997
 11
38.936493
 21
7.000012
  0
LINE
  8
0
 10
35.063507
 20
7.000012
 11
38.936493
 21
7.000012
  0
LINE
  8
0
 62
     2
 10
100.191360
 20
8.000012
 11
98.288681
 21
8.000012
  0
LINE
  8
0
 62
     4
 10
-37.341675
 20
-97.309509
 11
-32.596375
 21
-97.309509
  0
LINE
  8
0
 62
     4
 10
-41.096405
 20
-99.909515
 11
-37.340607
 21
-99.909515
  0
LINE
  8
0
 62
     4
 10
-35.840576
 20
-99.909515
 11
-32.596375
 21
-99.909515
  0
LINE
  8
0
 62
     4
 10
-63.096405
 20
-96.309525
 11
-41.096405
 21
-96.309525
  0
LINE
  8
0
 62
     4
 10
-58.396393
 20
-100.909515
 11
-41.096405
 21
-100.909515
  0
LINE
  8
0
 62
     4
 10
-41.096405
 20
-96.309525
 11
-41.096405
 21
-100.909515
  0
LINE
  8
0
 62
     4
 10
-63.096405
 20
-98.109528
 11
-63.096405
 21
-96.309525
  0
LINE
  8
0
 62
     4
 10
-58.396393
 20
-99.351486
 11
-58.396393
 21
-100.909515
  0
LINE
  8
0
 62
     4
 10
-63.096405
 20
-98.109528
 11
-58.846390
 21
-98.109528
  0
LINE
  8
0
  6
CENTER
 62
     2
 10
-61.096390
 20
-95.502808
 11
-61.096390
 21
-101.741425
  0
LINE
  8
0
 62
     4
 10
-58.846390
 20
-98.109528
 11
-58.846390
 21
-99.351486
  0
LINE
  8
0
 62
     4
 10
-59.096390
 20
-98.109528
 11
-59.096390
 21
-98.909515
  0
LINE
  8
0
 62
     4
 10
-63.096405
 20
-98.109528
 11
-63.096405
 21
-98.909515
  0
LINE
  8
0
 62
     4
 10
-63.096405
 20
-98.909515
 11
-59.096390
 21
-98.909515
  0
LINE
  8
0
 62
     4
 10
-58.896393
 20
-98.109528
 11
-58.896393
 21
-100.109528
  0
LINE
  8
0
 62
     4
 10
-58.896393
 20
-100.109528
 11
-58.396393
 21
-100.109528
  0
LINE
  8
0
 62
     4
 10
-58.846390
 20
-99.351486
 11
-58.396393
 21
-99.351486
  0
LINE
  8
0
 62
     4
 10
-32.596375
 20
-97.309509
 11
-32.596375
 21
-99.909515
  0
LINE
  8
0
  6
CENTER
 62
     2
 10
-34.319275
 20
-98.159439
 11
-22.387207
 21
-98.159439
  0
LINE
  8
0
  6
CENTER
 62
     2
 10
-34.268982
 20
-99.059433
 11
-22.345337
 21
-99.059433
  0
LINE
  8
0
 62
     4
 10
-22.596375
 20
-97.909454
 11
-22.596375
 21
-98.409454
  0
LINE
  8
0
 62
     4
 10
-22.596375
 20
-98.809448
 11
-22.596375
 21
-99.309448
  0
LINE
  8
0
 62
     4
 10
-25.596375
 20
-97.709442
 11
-25.596375
 21
-99.509460
  0
LINE
  8
0
 62
     4
 10
-32.596375
 20
-99.509445
 11
-28.590820
 21
-99.509445
  0
LINE
  8
0
 62
     4
 10
-32.596375
 20
-98.609421
 11
-29.110413
 21
-98.609421
  0
LINE
  8
0
 62
     4
 10
-27.610413
 20
-98.609421
 11
-25.596375
 21
-98.609421
  0
LINE
  8
0
 62
     4
 10
-27.090820
 20
-99.509445
 11
-25.596375
 21
-99.509445
  0
LINE
  8
0
 62
     4
 10
-32.596375
 20
-97.709427
 11
-29.630066
 21
-97.709427
  0
LINE
  8
0
 62
     4
 10
-28.130066
 20
-97.709427
 11
-25.596375
 21
-97.709427
  0
LINE
  8
0
 62
     4
 10
-25.596375
 20
-97.909439
 11
-22.596375
 21
-97.909439
  0
LINE
  8
0
 62
     4
 10
-25.596375
 20
-98.409439
 11
-22.596375
 21
-98.409439
  0
LINE
  8
0
 62
     4
 10
-25.596375
 20
-98.809433
 11
-22.596375
 21
-98.809433
  0
LINE
  8
0
 62
     4
 10
-25.596375
 20
-99.309433
 11
-22.596375
 21
-99.309433
  0
LINE
  8
0
 62
     2
 10
-28.860395
 20
-96.444527
 11
-26.360397
 21
-100.774643
  0
LINE
  8
0
  6
CENTER
 62
     2
 10
-42.410767
 20
-98.609512
 11
-32.596375
 21
-98.609512
  0
LINE
  8
0
 62
     2
 10
-30.360476
 20
-96.444481
 11
-27.860477
 21
-100.774605
  0
LINE
  8
0
 62
     2
 10
-37.841137
 20
-96.444466
 11
-35.341137
 21
-100.774590
  0
LINE
  8
0
 62
     2
 10
-39.341114
 20
-96.444511
 11
-36.841110
 21
-100.774643
  0
LINE
  8
0
 62
     4
 10
-62.121399
 20
-100.309525
 11
-60.071396
 21
-100.309525
  0
LINE
  8
0
 62
     4
 10
-60.070972
 20
-100.309967
 11
-59.845989
 21
-100.084976
  0
LINE
  8
0
 62
     4
 10
-62.121338
 20
-100.309540
 11
-62.346333
 21
-100.084541
  0
LINE
  8
0
 62
     4
 10
-62.346390
 20
-98.908707
 11
-62.346390
 21
-100.084534
  0
LINE
  8
0
 62
     2
 10
-62.121399
 20
-98.908707
 11
-62.121399
 21
-100.309525
  0
LINE
  8
0
 62
     2
 10
-60.071396
 20
-98.908707
 11
-60.071396
 21
-100.309525
  0
LINE
  8
0
 62
     4
 10
-59.846390
 20
-98.908707
 11
-59.846390
 21
-100.084518
  0
LINE
  8
0
 62
     4
 10
-62.346390
 20
-100.084534
 11
-59.846390
 21
-100.084534
  0
LINE
  8
0
 62
     4
 10
-62.346390
 20
-95.809525
 11
-62.346390
 21
-96.309525
  0
LINE
  8
0
 62
     2
 10
-62.121399
 20
-95.809525
 11
-62.121399
 21
-96.309525
  0
LINE
  8
0
 62
     2
 10
-60.071396
 20
-95.809525
 11
-60.071396
 21
-96.309525
  0
LINE
  8
0
 62
     4
 10
-59.846390
 20
-95.809525
 11
-59.846390
 21
-96.309525
  0
LINE
  8
0
 62
     4
 10
-62.346390
 20
-95.809525
 11
-59.846390
 21
-95.809525
  0
LINE
  8
0
 62
     4
 10
-63.096405
 20
-97.309525
 11
-41.096405
 21
-97.309525
  0
LINE
  8
0
 62
     4
 10
-63.096405
 20
-96.759506
 11
-41.096405
 21
-96.759506
  0
LINE
  8
0
 62
     4
 10
-41.096405
 20
-97.309509
 11
-38.841705
 21
-97.309509
  0
LINE
  8
0
 62
     4
 10
-108.889130
 20
-95.809525
 11
-106.389130
 21
-95.809525
  0
LINE
  8
0
  6
CENTER
 62
     2
 10
-107.639130
 20
-94.256561
 11
-107.639130
 21
-102.969315
  0
LINE
  8
0
 62
     4
 10
-109.689117
 20
-97.309525
 11
-109.689117
 21
-98.859528
  0
LINE
  8
0
 62
     4
 10
-109.689186
 20
-97.309502
 11
-109.139183
 21
-96.759491
  0
LINE
  8
0
 62
     4
 10
-109.139130
 20
-96.309525
 11
-109.139130
 21
-96.759521
  0
LINE
  8
0
 62
     4
 10
-109.139130
 20
-96.309525
 11
-106.139130
 21
-96.309525
  0
LINE
  8
0
 62
     4
 10
-106.139130
 20
-96.309525
 11
-106.139130
 21
-96.759521
  0
LINE
  8
0
 62
     4
 10
-105.589119
 20
-97.309471
 11
-106.139114
 21
-96.759460
  0
LINE
  8
0
 62
     4
 10
-105.589127
 20
-97.309525
 11
-105.589127
 21
-98.859528
  0
LINE
  8
0
 62
     4
 10
-109.689117
 20
-98.109528
 11
-105.589127
 21
-98.109528
  0
LINE
  8
0
 62
     4
 10
-109.689133
 20
-98.908707
 11
-105.589127
 21
-98.908707
  0
LINE
  8
0
 62
     4
 10
-108.664139
 20
-100.309525
 11
-106.614136
 21
-100.309525
  0
LINE
  8
0
 62
     4
 10
-106.613678
 20
-100.309975
 11
-106.388672
 21
-100.084969
  0
LINE
  8
0
 62
     4
 10
-108.664101
 20
-100.309563
 11
-108.889099
 21
-100.084564
  0
LINE
  8
0
 62
     4
 10
-108.889130
 20
-98.908707
 11
-108.889130
 21
-100.084534
  0
LINE
  8
0
 62
     2
 10
-108.664139
 20
-98.908707
 11
-108.664139
 21
-100.309525
  0
LINE
  8
0
 62
     2
 10
-106.614136
 20
-98.908707
 11
-106.614136
 21
-100.309525
  0
LINE
  8
0
 62
     4
 10
-106.389130
 20
-98.908707
 11
-106.389130
 21
-100.084518
  0
LINE
  8
0
 62
     4
 10
-108.889130
 20
-100.084534
 11
-106.389130
 21
-100.084534
  0
LINE
  8
0
 62
     4
 10
-108.889130
 20
-95.809525
 11
-108.889130
 21
-96.309525
  0
LINE
  8
0
 62
     2
 10
-108.664139
 20
-95.809525
 11
-108.664139
 21
-96.309525
  0
LINE
  8
0
 62
     2
 10
-106.614136
 20
-95.809525
 11
-106.614136
 21
-96.309525
  0
LINE
  8
0
 62
     4
 10
-106.389130
 20
-95.809525
 11
-106.389130
 21
-96.309525
  0
LINE
  8
0
  6
CENTER
 62
     2
 10
-65.896942
 20
-53.759521
 11
-35.688889
 21
-53.759521
  0
LINE
  8
0
 62
     4
 10
-63.096405
 20
-55.259521
 11
-41.096405
 21
-55.259521
  0
LINE
  8
0
 62
     4
 10
-63.096405
 20
-52.259521
 11
-41.096405
 21
-52.259521
  0
LINE
  8
0
 62
     4
 10
-63.096405
 20
-55.809525
 11
-41.096405
 21
-55.809525
  0
LINE
  8
0
 62
     4
 10
-63.096405
 20
-51.709518
 11
-41.096405
 21
-51.709518
  0
LINE
  8
0
 62
     4
 10
-63.096405
 20
-51.709518
 11
-63.096405
 21
-55.809525
  0
LINE
  8
0
 62
     4
 10
-41.096405
 20
-51.709518
 11
-41.096405
 21
-55.809525
  0
LINE
  8
0
  6
CENTER
 62
     2
 10
-61.096390
 20
-50.923019
 11
-61.096390
 21
-56.512344
  0
LINE
  8
0
 62
     4
 10
-62.141670
 20
-54.472607
 11
-60.408321
 21
-52.739258
  0
LINE
  8
0
 62
     4
 10
-61.788113
 20
-54.826183
 11
-60.154774
 21
-53.192844
  0
LINE
  8
0
 62
     2
 10
-40.007195
 20
-51.594433
 11
-37.507195
 21
-55.924561
  0
LINE
  8
0
 62
     4
 10
-41.096405
 20
-52.459518
 11
-39.507751
 21
-52.459518
  0
LINE
  8
0
 62
     4
 10
-41.096405
 20
-55.059525
 11
-38.006622
 21
-55.059525
  0
LINE
  8
0
 62
     4
 10
112.821899
 20
-85.654785
 11
112.821899
 21
-80.909485
  0
LINE
  8
0
 62
     4
 10
112.821899
 20
-89.409515
 11
112.821899
 21
-87.154785
  0
LINE
  8
0
 62
     4
 10
115.421875
 20
-84.153687
 11
115.421875
 21
-80.909485
  0
LINE
  8
0
 62
     4
 10
94.714539
 20
-96.309525
 11
110.814545
 21
-96.309525
  0
LINE
  8
0
 62
     4
 10
99.414520
 20
-100.909515
 11
116.714539
 21
-100.909515
  0
LINE
  8
0
 62
     4
 10
116.714539
 20
-89.409515
 11
116.714539
 21
-100.909515
  0
LINE
  8
0
 62
     4
 10
94.714539
 20
-98.909515
 11
94.714539
 21
-96.309525
  0
LINE
  8
0
 62
     4
 10
99.414520
 20
-99.291687
 11
99.414520
 21
-100.909515
  0
LINE
  8
0
  6
CENTER
 62
     2
 10
96.714539
 20
-95.579269
 11
96.714539
 21
-101.482193
  0
LINE
  8
0
 62
     4
 10
110.814514
 20
-89.409515
 11
110.814514
 21
-96.309525
  0
LINE
  8
0
 62
     4
 10
94.714539
 20
-98.109528
 11
98.988342
 21
-98.109528
  0
LINE
  8
0
 62
     4
 10
94.714539
 20
-98.909515
 11
98.714539
 21
-98.909515
  0
LINE
  8
0
 62
     4
 10
98.714539
 20
-98.109528
 11
98.714539
 21
-98.909515
  0
LINE
  8
0
 62
     4
 10
110.814545
 20
-89.409515
 11
116.714539
 21
-89.409515
  0
LINE
  8
0
 62
     4
 10
98.914520
 20
-100.109528
 11
99.414520
 21
-100.109528
  0
LINE
  8
0
 62
     4
 10
98.914520
 20
-98.109528
 11
98.914520
 21
-100.109528
  0
LINE
  8
0
 62
     4
 10
98.988342
 20
-99.291687
 11
99.414520
 21
-99.291687
  0
LINE
  8
0
 62
     4
 10
98.988342
 20
-98.109528
 11
98.988342
 21
-99.291687
  0
LINE
  8
0
 62
     4
 10
94.714539
 20
-97.309525
 11
116.714539
 21
-97.309525
  0
LINE
  8
0
 62
     4
 10
94.714539
 20
-96.759521
 11
116.714539
 21
-96.759521
  0
LINE
  8
0
 62
     4
 10
110.814514
 20
-95.159515
 11
116.714539
 21
-95.159515
  0
LINE
  8
0
 62
     4
 10
110.814514
 20
-95.909515
 11
116.714539
 21
-95.909515
  0
LINE
  8
0
 62
     4
 10
110.814514
 20
-90.909515
 11
116.714539
 21
-90.909515
  0
LINE
  8
0
 62
     4
 10
112.821899
 20
-80.909485
 11
115.421875
 21
-80.909485
  0
LINE
  8
0
  6
CENTER
 62
     2
 10
113.671814
 20
-82.632416
 11
113.671814
 21
-70.700333
  0
LINE
  8
0
  6
CENTER
 62
     2
 10
114.571808
 20
-82.582123
 11
114.571808
 21
-70.658478
  0
LINE
  8
0
 62
     4
 10
113.421814
 20
-70.909485
 11
113.921814
 21
-70.909485
  0
LINE
  8
0
 62
     4
 10
114.321808
 20
-70.909485
 11
114.821808
 21
-70.909485
  0
LINE
  8
0
 62
     4
 10
113.221802
 20
-73.909485
 11
115.021820
 21
-73.909485
  0
LINE
  8
0
 62
     4
 10
115.021820
 20
-80.909485
 11
115.021820
 21
-76.903931
  0
LINE
  8
0
 62
     4
 10
114.121796
 20
-80.909485
 11
114.121796
 21
-77.423553
  0
LINE
  8
0
 62
     4
 10
114.121796
 20
-75.923553
 11
114.121796
 21
-73.909485
  0
LINE
  8
0
 62
     4
 10
115.021820
 20
-75.403931
 11
115.021820
 21
-73.909485
  0
LINE
  8
0
 62
     4
 10
113.221802
 20
-80.909485
 11
113.221802
 21
-77.943176
  0
LINE
  8
0
 62
     4
 10
113.221802
 20
-76.443176
 11
113.221802
 21
-73.909485
  0
LINE
  8
0
 62
     4
 10
113.421814
 20
-73.909485
 11
113.421814
 21
-70.909485
  0
LINE
  8
0
 62
     4
 10
113.921814
 20
-73.909485
 11
113.921814
 21
-70.909485
  0
LINE
  8
0
 62
     4
 10
114.321808
 20
-73.909485
 11
114.321808
 21
-70.909485
  0
LINE
  8
0
 62
     4
 10
114.821808
 20
-73.909485
 11
114.821808
 21
-70.909485
  0
LINE
  8
0
 62
     2
 10
111.956955
 20
-77.173668
 11
116.287102
 21
-74.673645
  0
LINE
  8
0
  6
CENTER
 62
     2
 10
114.121887
 20
-90.723892
 11
114.121887
 21
-80.909485
  0
LINE
  8
0
 62
     2
 10
111.956863
 20
-78.673676
 11
116.287018
 21
-76.173660
  0
LINE
  8
0
 62
     2
 10
111.956833
 20
-86.154366
 11
116.286957
 21
-83.654366
  0
LINE
  8
0
 62
     2
 10
111.956879
 20
-87.654358
 11
116.286987
 21
-85.154366
  0
LINE
  8
0
 62
     4
 10
95.689514
 20
-100.309525
 11
97.739532
 21
-100.309525
  0
LINE
  8
0
 62
     4
 10
97.740082
 20
-100.310059
 11
97.965080
 21
-100.085060
  0
LINE
  8
0
 62
     4
 10
95.689606
 20
-100.309387
 11
95.464622
 21
-100.084404
  0
LINE
  8
0
 62
     4
 10
95.464539
 20
-98.909515
 11
95.464539
 21
-100.084534
  0
LINE
  8
0
 62
     2
 10
95.689514
 20
-98.909515
 11
95.689514
 21
-100.309525
  0
LINE
  8
0
 62
     2
 10
97.739532
 20
-98.909515
 11
97.739532
 21
-100.309525
  0
LINE
  8
0
 62
     4
 10
97.964539
 20
-98.909515
 11
97.964539
 21
-100.084518
  0
LINE
  8
0
 62
     4
 10
95.464539
 20
-100.084534
 11
97.964539
 21
-100.084534
  0
LINE
  8
0
 62
     4
 10
95.464539
 20
-95.809525
 11
95.464539
 21
-96.309525
  0
LINE
  8
0
 62
     2
 10
95.689514
 20
-95.809525
 11
95.689514
 21
-96.309525
  0
LINE
  8
0
 62
     2
 10
97.739532
 20
-95.809525
 11
97.739532
 21
-96.309525
  0
LINE
  8
0
 62
     4
 10
97.964539
 20
-95.809525
 11
97.964539
 21
-96.309525
  0
LINE
  8
0
 62
     4
 10
95.464539
 20
-95.809525
 11
97.964539
 21
-95.809525
  0
LINE
  8
0
 62
     4
 10
115.421875
 20
-89.409515
 11
115.421875
 21
-85.653687
  0
LINE
  8
0
 62
     4
 10
52.971802
 20
-85.653702
 11
52.971802
 21
-89.409515
  0
LINE
  8
0
 62
     4
 10
49.421814
 20
-90.909515
 11
53.921814
 21
-90.909515
  0
LINE
  8
0
 62
     4
 10
49.421814
 20
-89.409515
 11
49.421814
 21
-95.159515
  0
LINE
  8
0
 62
     4
 10
50.171772
 20
-95.909485
 11
49.421806
 21
-95.159523
  0
LINE
  8
0
 62
     4
 10
50.171814
 20
-96.759521
 11
50.171814
 21
-95.909515
  0
LINE
  8
0
 62
     4
 10
49.621788
 20
-97.309456
 11
50.171795
 21
-96.759445
  0
LINE
  8
0
 62
     4
 10
49.621796
 20
-97.309525
 11
49.621796
 21
-98.859528
  0
LINE
  8
0
 62
     4
 10
53.721802
 20
-97.309525
 11
53.721802
 21
-98.859528
  0
LINE
  8
0
 62
     4
 10
53.721794
 20
-97.309555
 11
53.171791
 21
-96.759552
  0
LINE
  8
0
 62
     4
 10
53.171814
 20
-96.759521
 11
53.171814
 21
-95.909515
  0
LINE
  8
0
 62
     4
 10
53.171906
 20
-95.909660
 11
53.921902
 21
-95.159668
  0
LINE
  8
0
 62
     4
 10
53.921814
 20
-89.409515
 11
53.921814
 21
-95.159515
  0
LINE
  8
0
  6
CENTER
 62
     2
 10
51.671814
 20
-83.748566
 11
51.671814
 21
-102.376190
  0
LINE
  8
0
 62
     4
 10
50.171814
 20
-96.309525
 11
53.171814
 21
-96.309525
  0
LINE
  8
0
 62
     4
 10
49.621796
 20
-98.109528
 11
53.721802
 21
-98.109528
  0
LINE
  8
0
 62
     4
 10
49.621796
 20
-98.911972
 11
53.721802
 21
-98.911972
  0
LINE
  8
0
 62
     4
 10
49.421814
 20
-89.409515
 11
53.921814
 21
-89.409515
  0
LINE
  8
0
 62
     2
 10
49.506840
 20
-87.654381
 11
53.836967
 21
-85.154381
  0
LINE
  8
0
 62
     4
 10
50.646790
 20
-100.309525
 11
52.696808
 21
-100.309525
  0
LINE
  8
0
 62
     4
 10
52.697315
 20
-100.310051
 11
52.922310
 21
-100.085052
  0
LINE
  8
0
 62
     4
 10
50.646866
 20
-100.309441
 11
50.421860
 21
-100.084435
  0
LINE
  8
0
 62
     4
 10
50.421814
 20
-98.911972
 11
50.421814
 21
-100.084534
  0
LINE
  8
0
 62
     2
 10
50.646790
 20
-98.911972
 11
50.646790
 21
-100.309525
  0
LINE
  8
0
 62
     2
 10
52.696808
 20
-98.911972
 11
52.696808
 21
-100.309525
  0
LINE
  8
0
 62
     4
 10
52.921814
 20
-98.911972
 11
52.921814
 21
-100.084518
  0
LINE
  8
0
 62
     4
 10
50.421814
 20
-100.084534
 11
52.921814
 21
-100.084534
  0
LINE
  8
0
 62
     4
 10
50.421814
 20
-95.809525
 11
50.421814
 21
-96.309525
  0
LINE
  8
0
 62
     2
 10
50.646790
 20
-95.809525
 11
50.646790
 21
-96.309525
  0
LINE
  8
0
 62
     2
 10
52.696808
 20
-95.809525
 11
52.696808
 21
-96.309525
  0
LINE
  8
0
 62
     4
 10
52.921814
 20
-95.809525
 11
52.921814
 21
-96.309525
  0
LINE
  8
0
 62
     4
 10
50.421814
 20
-95.809525
 11
52.921814
 21
-95.809525
  0
LINE
  8
0
 62
     4
 10
50.371826
 20
-87.154800
 11
50.371826
 21
-89.409515
  0
LINE
  8
0
  6
CENTER
 62
     2
 10
93.385345
 20
-48.709503
 11
118.294525
 21
-48.709503
  0
LINE
  8
0
 62
     4
 10
94.714539
 20
-50.209503
 11
111.275146
 21
-50.209503
  0
LINE
  8
0
 62
     4
 10
94.714539
 20
-47.209503
 11
111.275146
 21
-47.209503
  0
LINE
  8
0
 62
     4
 10
94.714539
 20
-50.759506
 11
111.628510
 21
-50.759506
  0
LINE
  8
0
 62
     4
 10
94.714539
 20
-46.659515
 11
111.628510
 21
-46.659515
  0
LINE
  8
0
 62
     4
 10
94.714539
 20
-46.659500
 11
94.714539
 21
-50.759506
  0
LINE
  8
0
  6
CENTER
 62
     2
 10
96.714539
 20
-45.873001
 11
96.714539
 21
-51.462326
  0
LINE
  8
0
 62
     4
 10
111.800507
 20
-46.459503
 11
116.714539
 21
-46.459503
  0
LINE
  8
0
 62
     4
 10
111.800507
 20
-50.959503
 11
116.714539
 21
-50.959503
  0
LINE
  8
0
 62
     4
 10
116.714539
 20
-46.459503
 11
116.714539
 21
-50.959503
  0
LINE
  8
0
 62
     4
 10
96.068787
 20
-49.779850
 11
97.784897
 21
-48.063744
  0
LINE
  8
0
 62
     4
 10
95.644508
 20
-49.355530
 11
97.360603
 21
-47.639435
  0
LINE
  8
0
 10
-281.250000
 20
195.500000
 11
282.099976
 21
195.500000
  0
LINE
  8
0
 10
-281.250000
 20
195.500000
 11
-281.250000
 21
-195.000000
  0
LINE
  8
0
 10
282.099976
 20
195.500000
 11
282.099976
 21
-195.000000
  0
LINE
  8
0
 10
-281.250000
 20
-195.000000
 11
282.099976
 21
-195.000000
  0
LINE
  8
0
 10
162.099976
 20
-175.000000
 11
162.099976
 21
-195.000000
  0
LINE
  8
0
 10
162.099976
 20
-175.000000
 11
282.099976
 21
-175.000000
  0
LINE
  8
0
 10
162.099976
 20
175.500000
 11
282.099976
 21
175.500000
  0
LINE
  8
0
 10
-281.250000
 20
175.500000
 11
-161.250000
 21
175.500000
  0
LINE
  8
0
 10
162.099976
 20
195.500000
 11
162.099976
 21
175.500000
  0
LINE
  8
0
 10
-161.250000
 20
195.500000
 11
-161.250000
 21
175.500000
  0
LINE
  8
0
 10
-271.250000
 20
-133.000000
 11
-271.250000
 21
-185.000000
  0
LINE
  8
0
 10
-271.250000
 20
-185.000000
 11
-6.250000
 21
-185.000000
  0
LINE
  8
0
 10
-271.250000
 20
-155.000015
 11
-6.250000
 21
-155.000015
  0
LINE
  8
0
 10
-271.250000
 20
-133.000000
 11
-6.250000
 21
-133.000000
  0
LINE
  8
0
 10
-226.250000
 20
-133.000000
 11
-226.250000
 21
-185.000000
  0
LINE
  8
0
 10
-204.250000
 20
-133.000000
 11
-204.250000
 21
-185.000000
  0
LINE
  8
0
 10
-182.250000
 20
-133.000000
 11
-182.250000
 21
-185.000000
  0
LINE
  8
0
 10
-160.250000
 20
-133.000000
 11
-160.250000
 21
-185.000000
  0
LINE
  8
0
 10
-138.250000
 20
-133.000000
 11
-138.250000
 21
-185.000000
  0
LINE
  8
0
 10
-116.250000
 20
-133.000000
 11
-116.250000
 21
-185.000000
  0
LINE
  8
0
 10
-94.250000
 20
-133.000000
 11
-94.250000
 21
-185.000000
  0
LINE
  8
0
 10
-6.250000
 20
-133.000000
 11
-6.250000
 21
-185.000000
  0
LINE
  8
0
 10
-271.250000
 20
-175.000015
 11
-6.250000
 21
-175.000015
  0
LINE
  8
0
 10
-271.250031
 20
-165.000000
 11
-6.250000
 21
-165.000000
  0
LINE
  8
0
 10
-271.250000
 20
-141.000000
 11
-234.517441
 21
-141.000000
  0
LINE
  8
0
 10
-234.517502
 20
-141.000046
 11
-226.250092
 21
-155.000061
  0
LINE
  8
0
 10
-72.250000
 20
-133.000000
 11
-72.250000
 21
-185.000000
  0
LINE
  8
0
 10
-50.250000
 20
-133.000000
 11
-50.250000
 21
-185.000000
  0
LINE
  8
0
 10
-28.250000
 20
-133.000000
 11
-28.250000
 21
-185.000000
  0
CIRCLE
  8
0
 62
     2
 10
-52.999977
 20
111.999954
 40
2.000000
  0
CIRCLE
  8
0
 62
     2
 10
-52.999977
 20
67.999969
 40
2.000000
  0
CIRCLE
  8
0
 10
37.000023
 20
117.499985
 40
2.250000
  0
CIRCLE
  8
0
 10
81.999992
 20
89.999985
 40
2.250000
  0
CIRCLE
  8
0
 10
37.000023
 20
62.499985
 40
2.250000
  0
CIRCLE
  8
0
 10
-13.000008
 20
89.999985
 40
2.250000
  0
ARC
  8
0
 10
-30.453743
 20
86.535873
 40
2.453746
 50
331.927582
 51
28.072393
  0
ARC
  8
0
 10
-30.453743
 20
93.464058
 40
2.453746
 50
331.927582
 51
28.072393
  0
ARC
  8
0
 10
-37.381966
 20
89.999962
 40
9.381962
 50
345.750000
 51
14.249960
  0
ARC
  8
0
 10
-34.546242
 20
93.464058
 40
2.453748
 50
151.927612
 51
208.072388
  0
ARC
  8
0
 10
-27.618050
 20
89.999962
 40
9.381963
 50
165.749985
 51
194.249908
  0
ARC
  8
0
 10
-34.546242
 20
86.535873
 40
2.453748
 50
151.927612
 51
208.072388
  0
ARC
  8
0
 10
-28.026253
 20
93.464058
 40
2.453748
 50
151.927612
 51
208.072388
  0
ARC
  8
0
 10
-21.098030
 20
89.999962
 40
9.381963
 50
165.749985
 51
194.249908
  0
ARC
  8
0
 10
-28.026253
 20
86.535873
 40
2.453748
 50
151.927612
 51
208.072388
  0
ARC
  8
0
 10
104.546272
 20
86.535889
 40
2.453744
 50
331.927551
 51
28.072351
  0
ARC
  8
0
 10
98.026268
 20
93.464081
 40
2.453744
 50
331.927551
 51
28.072351
  0
ARC
  8
0
 10
97.618050
 20
89.999985
 40
9.381967
 50
345.750000
 51
14.249957
  0
ARC
  8
0
 10
98.026268
 20
86.535889
 40
2.453744
 50
331.927551
 51
28.072351
  0
ARC
  8
0
 10
91.098030
 20
89.999985
 40
9.381967
 50
345.750000
 51
14.249957
  0
ARC
  8
0
 10
100.453743
 20
93.464081
 40
2.453744
 50
151.927567
 51
208.072433
  0
ARC
  8
0
 10
107.381966
 20
89.999985
 40
9.381967
 50
165.750000
 51
194.249908
  0
ARC
  8
0
 10
104.546272
 20
93.464081
 40
2.453744
 50
331.927551
 51
28.072351
  0
ARC
  8
0
 10
100.453743
 20
86.535889
 40
2.453744
 50
151.927567
 51
208.072433
  0
ARC
  8
0
 10
37.000023
 20
117.499985
 40
3.999999
 50
118.954552
 51
61.045448
  0
CIRCLE
  8
0
 10
-13.000008
 20
89.999985
 40
4.000000
  0
ARC
  8
0
 10
37.000023
 20
62.499985
 40
4.000001
 50
298.955170
 51
241.044830
  0
CIRCLE
  8
0
 10
81.999992
 20
89.999985
 40
4.000000
  0
CIRCLE
  8
0
 10
113.000023
 20
67.999969
 40
1.620000
  0
CIRCLE
  8
0
 62
     2
 10
113.000023
 20
67.999969
 40
2.000000
  0
CIRCLE
  8
0
 10
113.000023
 20
111.999977
 40
1.620000
  0
CIRCLE
  8
0
 62
     2
 10
113.000023
 20
111.999977
 40
2.000000
  0
CIRCLE
  8
0
 10
-52.999977
 20
111.999954
 40
1.650000
  0
CIRCLE
  8
0
 10
-52.999977
 20
67.999969
 40
1.650000
  0
CIRCLE
  8
0
 10
-135.500092
 20
104.000053
 40
4.500000
  0
CIRCLE
  8
0
 62
     2
 10
-135.500092
 20
117.500023
 40
2.000000
  0
CIRCLE
  8
0
 10
-135.500092
 20
104.000053
 40
5.500000
  0
CIRCLE
  8
0
 10
-135.500092
 20
76.000038
 40
5.500000
  0
CIRCLE
  8
0
 62
     2
 10
-135.500092
 20
62.500023
 40
2.000000
  0
CIRCLE
  8
0
 10
-135.500092
 20
104.000053
 40
5.000000
  0
CIRCLE
  8
0
 10
-135.500092
 20
76.000038
 40
5.000000
  0
CIRCLE
  8
0
 10
-135.500092
 20
76.000038
 40
4.500000
  0
CIRCLE
  8
0
 10
-135.500092
 20
117.500023
 40
1.650000
  0
CIRCLE
  8
0
 10
-135.500092
 20
62.500023
 40
1.650000
  0
CIRCLE
  8
0
 10
176.500153
 20
117.500038
 40
1.620000
  0
CIRCLE
  8
0
 62
     2
 10
176.500153
 20
117.500038
 40
2.000000
  0
CIRCLE
  8
0
 62
     2
 10
176.500153
 20
62.500038
 40
2.000000
  0
CIRCLE
  8
0
 10
176.500153
 20
104.000069
 40
5.500000
  0
CIRCLE
  8
0
 10
176.500153
 20
76.000053
 40
5.500000
  0
CIRCLE
  8
0
 10
176.500153
 20
104.000069
 40
5.000000
  0
CIRCLE
  8
0
 10
176.500153
 20
76.000053
 40
5.000000
  0
CIRCLE
  8
0
 10
176.500153
 20
76.000053
 40
4.500000
  0
CIRCLE
  8
0
 10
176.500153
 20
104.000069
 40
4.500000
  0
CIRCLE
  8
0
 10
176.500153
 20
62.500038
 40
1.620000
  0
ARC
  8
0
 10
93.407471
 20
9.999982
 40
7.072556
 50
343.573639
 51
351.871582
  0
ARC
  8
0
 10
93.407471
 20
6.000012
 40
7.072561
 50
343.573700
 51
16.426376
  0
ARC
  8
0
 10
99.927460
 20
6.000012
 40
7.072561
 50
343.573700
 51
16.426376
  0
CIRCLE
  8
0
 62
     2
 10
17.999983
 20
14.000012
 40
2.500000
  0
CIRCLE
  8
0
 62
     2
 10
52.000015
 20
14.000012
 40
2.500000
  0
ARC
  8
0
 10
-35.072571
 20
6.000012
 40
7.072560
 50
343.573639
 51
16.426319
  0
ARC
  8
0
 10
-35.072571
 20
9.999982
 40
7.072560
 50
343.573639
 51
351.871613
  0
ARC
  8
0
 10
-29.927462
 20
9.999982
 40
7.072558
 50
188.128403
 51
196.426376
  0
ARC
  8
0
 10
-29.927462
 20
6.000012
 40
7.072558
 50
163.573624
 51
196.426300
  0
ARC
  8
0
 10
-23.407473
 20
9.999982
 40
7.072560
 50
188.128403
 51
196.426361
  0
ARC
  8
0
 10
-23.407473
 20
6.000012
 40
7.072560
 50
163.573639
 51
196.426300
  0
ARC
  8
0
 10
105.072571
 20
6.000012
 40
7.072562
 50
163.573700
 51
196.426346
  0
ARC
  8
0
 10
105.072571
 20
9.999982
 40
7.072556
 50
188.128403
 51
196.426376
  0
ARC
  8
0
 10
99.927460
 20
9.999982
 40
7.072560
 50
343.573761
 51
359.190063
  0
CIRCLE
  8
0
 10
17.999983
 20
14.000012
 40
2.100000
  0
CIRCLE
  8
0
 10
52.000015
 20
14.000012
 40
2.100000
  0
ARC
  8
0
 62
     4
 10
-107.639130
 20
-98.859528
 40
2.050003
 50
180.000000
 51
270.000000
  0
ARC
  8
0
 62
     4
 10
-107.639130
 20
-98.859528
 40
2.050003
 50
270.000000
 51
0.000000
  0
CIRCLE
  8
0
 62
     4
 10
-61.096390
 20
-53.759521
 40
1.250000
  0
CIRCLE
  8
0
 62
     4
 10
-61.096390
 20
-53.759521
 40
1.400000
  0
ARC
  8
0
 62
     4
 10
51.671814
 20
-98.859528
 40
2.049999
 50
180.000000
 51
270.000000
  0
ARC
  8
0
 62
     4
 10
51.671814
 20
-98.859528
 40
2.050003
 50
271.259888
 51
0.000000
  0
CIRCLE
  8
0
 62
     4
 10
114.443695
 20
-49.050507
 40
0.250000
  0
CIRCLE
  8
0
 62
     4
 10
113.831818
 20
-48.391357
 40
0.450000
  0
CIRCLE
  8
0
 62
     4
 10
113.831818
 20
-48.391357
 40
0.250000
  0
ARC
  8
0
 62
     4
 10
114.214539
 20
-48.709503
 40
3.300002
 50
137.014145
 51
222.985855
  0
CIRCLE
  8
0
 62
     4
 10
96.714539
 20
-48.709503
 40
1.250000
  0
CIRCLE
  8
0
 62
     4
 10
96.714539
 20
-48.709503
 40
1.400000
  0
CIRCLE
  8
0
 62
     4
 10
114.121887
 20
-48.709503
 40
1.300000
  0
CIRCLE
  8
0
 62
     4
 10
114.443695
 20
-49.050507
 40
0.450000
  0
TEXT
  8
0
 10
196.250259
 20
180.830002
 40
6.300000
  1
Ver. 1.0
 50
0.000000
 41
1.052632
 51
0.000000
  7
STANDARD
  0
TEXT
  8
0
 10
167.564667
 20
-192.100006
 40
9.000000
  1
KOGANEI CORP.
 50
0.000000
 41
1.052632
 51
0.000000
  7
STANDARD
  0
TEXT
  8
0
 10
-275.449738
 20
180.830002
 40
6.300000
  1
TWIN ROD CYLINDER
 50
0.000000
 41
1.052632
 51
0.000000
  7
STANDARD
  0
TEXT
  8
0
 10
-258.127045
 20
-154.550003
 40
4.500000
  1
PLACE
 50
0.000000
 41
1.052632
 51
0.000000
  7
STANDARD
  0
TEXT
  8
0
 10
-220.142654
 20
-147.050003
 40
4.500000
  1
10
 50
0.000000
 41
1.052632
 51
0.000000
  7
STANDARD
  0
TEXT
  8
0
 10
-212.642654
 20
-131.050003
 40
4.500000
  1
STRETCH LIST
 50
0.000000
 41
1.052632
 51
0.000000
  7
STANDARD
  0
TEXT
  8
0
 10
-270.049713
 20
155.830002
 40
6.300000
  1
MODEL:ATBDAD20*ST(10)
 50
0.000000
 41
1.052632
 51
0.000000
  7
STANDARD
  0
TEXT
  8
0
 10
-26.642656
 20
-132.050003
 40
4.500000
  1
(mm)
 50
0.000000
 41
1.052632
 51
0.000000
  7
STANDARD
  0
TEXT
  8
0
 10
-267.127045
 20
-140.050003
 40
4.500000
  1
STROKE
 50
0.000000
 41
1.052632
 51
0.000000
  7
STANDARD
  0
TEXT
  8
0
 10
-267.127045
 20
-148.550003
 40
4.500000
  1
STRETCH
 50
0.000000
 41
1.052632
 51
0.000000
  7
STANDARD
  0
TEXT
  8
0
 10
-251.585724
 20
-163.320007
 40
4.800000
  1
A
 50
0.000000
 41
1.052632
 51
0.000000
  7
STANDARD
  0
TEXT
  8
0
 10
-251.585724
 20
-173.320007
 40
4.800000
  1
B
 50
0.000000
 41
1.052632
 51
0.000000
  7
STANDARD
  0
TEXT
  8
0
 10
-251.585724
 20
-183.320007
 40
4.800000
  1
C
 50
0.000000
 41
1.052632
 51
0.000000
  7
STANDARD
  0
TEXT
  8
0
 10
-198.142853
 20
-147.050003
 40
4.500000
  1
20
 50
0.000000
 41
1.052632
 51
0.000000
  7
STANDARD
  0
TEXT
  8
0
 10
-176.142853
 20
-147.050003
 40
4.500000
  1
30
 50
0.000000
 41
1.052632
 51
0.000000
  7
STANDARD
  0
TEXT
  8
0
 10
-154.142853
 20
-147.050003
 40
4.500000
  1
40
 50
0.000000
 41
1.052632
 51
0.000000
  7
STANDARD
  0
TEXT
  8
0
 10
-132.142853
 20
-147.050003
 40
4.500000
  1
50
 50
0.000000
 41
1.052632
 51
0.000000
  7
STANDARD
  0
TEXT
  8
0
 10
-110.142853
 20
-147.050003
 40
4.500000
  1
60
 50
0.000000
 41
1.052632
 51
0.000000
  7
STANDARD
  0
TEXT
  8
0
 10
-24.392857
 20
-147.050003
 40
4.500000
  1
100
 50
0.000000
 41
1.052632
 51
0.000000
  7
STANDARD
  0
TEXT
  8
0
 10
-22.142857
 20
-183.049973
 40
4.500000
  1
90
 50
0.000000
 41
1.052632
 51
0.000000
  7
STANDARD
  0
TEXT
  8
0
 10
-217.892853
 20
-163.050003
 40
4.500000
  1
0
 50
0.000000
 41
1.052632
 51
0.000000
  7
STANDARD
  0
TEXT
  8
0
 10
-217.892853
 20
-173.049988
 40
4.500000
  1
0
 50
0.000000
 41
1.052632
 51
0.000000
  7
STANDARD
  0
TEXT
  8
0
 10
-217.892853
 20
-183.049973
 40
4.500000
  1
0
 50
0.000000
 41
1.052632
 51
0.000000
  7
STANDARD
  0
TEXT
  8
0
 10
-198.142853
 20
-183.049973
 40
4.500000
  1
10
 50
0.000000
 41
1.052632
 51
0.000000
  7
STANDARD
  0
TEXT
  8
0
 10
-176.142853
 20
-183.049973
 40
4.500000
  1
20
 50
0.000000
 41
1.052632
 51
0.000000
  7
STANDARD
  0
TEXT
  8
0
 10
-154.142853
 20
-183.049973
 40
4.500000
  1
30
 50
0.000000
 41
1.052632
 51
0.000000
  7
STANDARD
  0
TEXT
  8
0
 10
-132.142853
 20
-183.049973
 40
4.500000
  1
40
 50
0.000000
 41
1.052632
 51
0.000000
  7
STANDARD
  0
TEXT
  8
0
 10
-110.142853
 20
-183.049973
 40
4.500000
  1
50
 50
0.000000
 41
1.052632
 51
0.000000
  7
STANDARD
  0
TEXT
  8
0
 62
     3
 10
-51.862728
 20
151.253006
 40
4.500000
  1
STRETCH LINE C
 50
0.000000
 41
1.052632
 51
0.000000
  7
STANDARD
  0
TEXT
  8
0
 62
     3
 10
1.637272
 20
141.253006
 40
4.500000
  1
STRETCH LINE A
 50
0.000000
 41
1.052632
 51
0.000000
  7
STANDARD
  0
TEXT
  8
0
 62
     3
 10
33.637272
 20
131.253006
 40
4.500000
  1
STRETCH LINE B
 50
0.000000
 41
1.052632
 51
0.000000
  7
STANDARD
  0
TEXT
  8
0
 10
-88.142853
 20
-183.049973
 40
4.500000
  1
60
 50
0.000000
 41
1.052632
 51
0.000000
  7
STANDARD
  0
TEXT
  8
0
 10
-88.142853
 20
-147.050003
 40
4.500000
  1
70
 50
0.000000
 41
1.052632
 51
0.000000
  7
STANDARD
  0
TEXT
  8
0
 10
-66.142853
 20
-183.049973
 40
4.500000
  1
70
 50
0.000000
 41
1.052632
 51
0.000000
  7
STANDARD
  0
TEXT
  8
0
 10
-66.142853
 20
-147.050003
 40
4.500000
  1
80
 50
0.000000
 41
1.052632
 51
0.000000
  7
STANDARD
  0
TEXT
  8
0
 10
-44.142857
 20
-183.049973
 40
4.500000
  1
80
 50
0.000000
 41
1.052632
 51
0.000000
  7
STANDARD
  0
TEXT
  8
0
 10
-44.142857
 20
-147.050003
 40
4.500000
  1
90
 50
0.000000
 41
1.052632
 51
0.000000
  7
STANDARD
  0
TEXT
  8
0
 10
-176.142853
 20
-173.049988
 40
4.500000
  1
10
 50
0.000000
 41
1.052632
 51
0.000000
  7
STANDARD
  0
TEXT
  8
0
 10
-132.142853
 20
-173.049988
 40
4.500000
  1
20
 50
0.000000
 41
1.052632
 51
0.000000
  7
STANDARD
  0
TEXT
  8
0
 10
-195.892853
 20
-173.050003
 40
4.500000
  1
5
 50
0.000000
 41
1.052632
 51
0.000000
  7
STANDARD
  0
TEXT
  8
0
 10
-110.142853
 20
-173.049988
 40
4.500000
  1
25
 50
0.000000
 41
1.052632
 51
0.000000
  7
STANDARD
  0
TEXT
  8
0
 10
-176.142853
 20
-163.050003
 40
4.500000
  1
10
 50
0.000000
 41
1.052632
 51
0.000000
  7
STANDARD
  0
TEXT
  8
0
 10
-88.142853
 20
-173.049988
 40
4.500000
  1
30
 50
0.000000
 41
1.052632
 51
0.000000
  7
STANDARD
  0
TEXT
  8
0
 10
-154.142853
 20
-173.050003
 40
4.500000
  1
15
 50
0.000000
 41
1.052632
 51
0.000000
  7
STANDARD
  0
TEXT
  8
0
 10
-132.142853
 20
-163.050003
 40
4.500000
  1
20
 50
0.000000
 41
1.052632
 51
0.000000
  7
STANDARD
  0
TEXT
  8
0
 10
-110.142853
 20
-163.050003
 40
4.500000
  1
25
 50
0.000000
 41
1.052632
 51
0.000000
  7
STANDARD
  0
TEXT
  8
0
 10
-88.142853
 20
-163.050003
 40
4.500000
  1
30
 50
0.000000
 41
1.052632
 51
0.000000
  7
STANDARD
  0
TEXT
  8
0
 10
-22.142857
 20
-163.050003
 40
4.500000
  1
45
 50
0.000000
 41
1.052632
 51
0.000000
  7
STANDARD
  0
TEXT
  8
0
 10
-66.142853
 20
-173.049988
 40
4.500000
  1
35
 50
0.000000
 41
1.052632
 51
0.000000
  7
STANDARD
  0
TEXT
  8
0
 10
-44.142857
 20
-173.049988
 40
4.500000
  1
40
 50
0.000000
 41
1.052632
 51
0.000000
  7
STANDARD
  0
TEXT
  8
0
 10
-22.142857
 20
-173.049988
 40
4.500000
  1
45
 50
0.000000
 41
1.052632
 51
0.000000
  7
STANDARD
  0
TEXT
  8
0
 10
-195.892853
 20
-163.050003
 40
4.500000
  1
5
 50
0.000000
 41
1.052632
 51
0.000000
  7
STANDARD
  0
TEXT
  8
0
 10
-66.142853
 20
-163.050003
 40
4.500000
  1
35
 50
0.000000
 41
1.052632
 51
0.000000
  7
STANDARD
  0
TEXT
  8
0
 10
-44.142857
 20
-163.050003
 40
4.500000
  1
40
 50
0.000000
 41
1.052632
 51
0.000000
  7
STANDARD
  0
TEXT
  8
0
 10
-154.142853
 20
-163.050003
 40
4.500000
  1
15
 50
0.000000
 41
1.052632
 51
0.000000
  7
STANDARD
  0
ENDSEC
  0
EOF
