  0
SECTION
  2
HEADER
  0
ENDSEC
  0
SECTION
  2
TABLES
  0
TABLE
  2
LTYPE
 70
     4
  0
LTYPE
  2
CONTINUOUS
 70
    64
  3
Solid line
 72
    65
 73
     0
 40
0.000000
  0
LTYPE
  2
DASHED
 70
    64
  3
__ __ __ __ __ __ __ __ __ __ __ __ __ __ __
 72
    65
 73
     2
 40
3.500000
 49
2.000000
 49
-1.500000
  0
LTYPE
  2
CENTER
 70
    64
  3
____ _ ____ _ ____ _ ____ _ ____ _ ____ _ ____
 72
    65
 73
     4
 40
17.500000
 49
13.000000
 49
-1.500000
 49
1.500000
 49
-1.500000
  0
LTYPE
  2
PHANTOM
 70
    64
  3
_____ _ _ _____ _ _ _____ _ _ _____ _ _ ____  
 72
    65
 73
     6
 40
15.500000
 49
8.000000
 49
-1.500000
 49
1.500000
 49
-1.500000
 49
1.500000
 49
-1.500000
  0
LTYPE
  2
DASHED1
 70
    64
  3
__ __ __ __ __ __ __ __ __ __ __ __ __ __ __
 72
    65
 73
     2
 40
1.500000
 49
1.000000
 49
-0.500000
  0
LTYPE
  2
DASHED2
 70
    64
  3
__ __ __ __ __ __ __ __ __ __ __ __ __ __ __
 72
    65
 73
     2
 40
3.500000
 49
2.500000
 49
-1.000000
  0
LTYPE
  2
DASHED3
 70
    64
  3
__ __ __ __ __ __ __ __ __ __ __ __ __ __ __
 72
    65
 73
     2
 40
6.000000
 49
4.000000
 49
-2.000000
  0
LTYPE
  2
DASHED4
 70
    64
  3
__ __ __ __ __ __ __ __ __ __ __ __ __ __ __
 72
    65
 73
     2
 40
12.000000
 49
10.000000
 49
-2.000000
  0
LTYPE
  2
DASHED5
 70
    64
  3
__ __ __ __ __ __ __ __ __ __ __ __ __ __ __
 72
    65
 73
     2
 40
17.000000
 49
15.000000
 49
-2.000000
  0
LTYPE
  2
DASHED6
 70
    64
  3
__ __ __ __ __ __ __ __ __ __ __ __ __ __ __
 72
    65
 73
     2
 40
29.000000
 49
27.000000
 49
-2.000000
  0
LTYPE
  2
PHANTOM1
 70
    64
  3
_____ _ _ _____ _ _ _____ _ _ _____ _ _ ____  
 72
    65
 73
     6
 40
31.000000
 49
25.000000
 49
-1.500000
 49
1.000000
 49
-1.000000
 49
1.000000
 49
-1.500000
  0
LTYPE
  2
PHANTOM2
 70
    64
  3
_____ _ _ _____ _ _ _____ _ _ _____ _ _ ____  
 72
    65
 73
     6
 40
36.000000
 49
27.000000
 49
-1.500000
 49
2.500000
 49
-1.000000
 49
2.500000
 49
-1.500000
  0
LTYPE
  2
PHANTOM3
 70
    64
  3
_____ _ _ _____ _ _ _____ _ _ _____ _ _ ____  
 72
    65
 73
     6
 40
78.000000
 49
64.000000
 49
-2.000000
 49
4.000000
 49
-2.000000
 49
4.000000
 49
-2.000000
  0
LTYPE
  2
CENTER1
 70
    64
  3
____ _ ____ _ ____ _ ____ _ ____ _ ____ _ ____
 72
    65
 73
     4
 40
19.000000
 49
14.000000
 49
-1.000000
 49
3.000000
 49
-1.000000
  0
LTYPE
  2
CENTER2
 70
    64
  3
____ _ ____ _ ____ _ ____ _ ____ _ ____ _ ____
 72
    65
 73
     4
 40
28.500000
 49
25.000000
 49
-1.000000
 49
1.500000
 49
-1.000000
  0
LTYPE
  2
CENTER3
 70
    64
  3
____ _ ____ _ ____ _ ____ _ ____ _ ____ _ ____
 72
    65
 73
     4
 40
31.500000
 49
27.000000
 49
-1.000000
 49
2.500000
 49
-1.000000
  0
LTYPE
  2
CENTER4
 70
    64
  3
____ _ ____ _ ____ _ ____ _ ____ _ ____ _ ____
 72
    65
 73
     4
 40
50.000000
 49
45.000000
 49
-1.000000
 49
3.000000
 49
-1.000000
  0
LTYPE
  2
CENTER5
 70
    64
  3
____ _ ____ _ ____ _ ____ _ ____ _ ____ _ ____
 72
    65
 73
     4
 40
100.000000
 49
92.000000
 49
-2.000000
 49
4.000000
 49
-2.000000
  0
LTYPE
  2
SBK1
 70
    64
  3
______ _ _ _ ______ _ _ _ ______ _ _ _ _____  
 72
    65
 73
     8
 40
60.500000
 49
45.000000
 49
-2.000000
 49
2.500000
 49
-2.000000
 49
2.500000
 49
-2.000000
 49
2.500000
 49
-2.000000
  0
LTYPE
  2
SBK2
 70
    64
  3
______ _ _ _ ______ _ _ _ ______ _ _ _ _____  
 72
    65
 73
     8
 40
84.000000
 49
64.000000
 49
-2.000000
 49
4.000000
 49
-2.000000
 49
4.000000
 49
-2.000000
 49
4.000000
 49
-2.000000
  0
LTYPE
  2
STCH
 70
    64
  3
__ __ __ __ __ __ __ __ __ __ __ __ __ __ __
 72
    65
 73
     2
 40
3.000000
 49
1.000000
 49
-2.000000
  0
LTYPE
  2
MTCH
 70
    64
  3
_____ _ _ _____ _ _ _____ _ _ _____ _ _ ____  
 72
    65
 73
     6
 40
80.000000
 49
66.000000
 49
-2.000000
 49
4.000000
 49
-2.000000
 49
4.000000
 49
-2.000000
  0
ENDTAB
  0
TABLE
  2
LAYER
 70
     1
  0
LAYER
  2
0
 70
     0
 62
     7
  6
CONTINUOUS
  0
ENDTAB
  0
TABLE
  2
STYLE
 70
     1
  0
STYLE
  2
STANDARD
 70
     0
 40
0.000000
 41
1.000000
 50
0.000000
 71
     0
 42
0.200000
  3
txt
  4
BIGFONT
  0
ENDTAB
  0
TABLE
  2
VIEW
 70
     0
  0
ENDTAB
  0
ENDSEC
  0
SECTION
  2
BLOCKS
  0
ENDSEC
  0
SECTION
  2
ENTITIES
  0
LINE
  8
0
  6
PHANTOM
 62
     3
 10
-43.500000
 20
168.000000
 11
-43.500000
 21
31.500000
  0
LINE
  8
0
 10
-50.999962
 20
137.000015
 11
-50.999962
 21
43.000008
  0
LINE
  8
0
 10
-67.999962
 20
137.000015
 11
-67.999962
 21
43.000008
  0
LINE
  8
0
 10
-67.999947
 20
137.000031
 11
-50.999969
 21
137.000031
  0
LINE
  8
0
 10
-67.999947
 20
43.000015
 11
-50.999969
 21
43.000015
  0
LINE
  8
0
  6
CENTER
 62
     2
 10
-72.091576
 20
90.000008
 11
87.043350
 21
90.000008
  0
LINE
  8
0
  6
CENTER
 62
     2
 10
-72.714241
 20
111.000008
 11
-22.707457
 21
111.000008
  0
LINE
  8
0
  6
CENTER
 62
     2
 10
-72.714241
 20
69.000008
 11
-22.016233
 21
69.000008
  0
LINE
  8
0
 10
-50.999969
 20
103.000015
 11
-27.999968
 21
103.000015
  0
LINE
  8
0
 10
-50.999969
 20
119.000008
 11
-27.999968
 21
119.000008
  0
LINE
  8
0
 10
-50.999969
 20
61.000000
 11
-27.999968
 21
61.000000
  0
LINE
  8
0
 10
-50.999969
 20
77.000000
 11
-27.999968
 21
77.000000
  0
LINE
  8
0
 10
-49.999962
 20
95.000000
 11
-49.999962
 21
85.000000
  0
LINE
  8
0
 10
-50.999969
 20
95.000008
 11
-49.999969
 21
95.000008
  0
LINE
  8
0
 10
-50.999969
 20
85.000008
 11
-49.999969
 21
85.000008
  0
LINE
  8
0
 10
-39.553383
 20
95.773514
 11
-35.999985
 21
95.773514
  0
LINE
  8
0
 10
-39.999989
 20
95.000023
 11
-39.553410
 21
95.773521
  0
LINE
  8
0
 10
-39.999962
 20
95.000000
 11
-39.999962
 21
85.000000
  0
LINE
  8
0
 10
-39.553383
 20
92.886772
 11
-35.999985
 21
92.886772
  0
LINE
  8
0
 10
-39.553383
 20
87.113266
 11
-35.999985
 21
87.113266
  0
LINE
  8
0
 10
-39.999973
 20
85.000038
 11
-39.553387
 21
84.226532
  0
LINE
  8
0
 10
-39.553383
 20
84.226517
 11
-35.999985
 21
84.226517
  0
LINE
  8
0
 10
-35.999992
 20
95.773514
 11
-35.999992
 21
84.226517
  0
LINE
  8
0
 10
-35.999985
 20
93.000015
 11
-31.999971
 21
93.000015
  0
LINE
  8
0
 10
-35.999985
 20
87.000015
 11
-31.999971
 21
87.000015
  0
LINE
  8
0
  6
CENTER
 62
     2
 10
-65.499947
 20
126.000000
 11
-53.247078
 21
126.000000
  0
LINE
  8
0
  6
CENTER
 62
     2
 10
-65.499947
 20
54.000008
 11
-53.389854
 21
54.000008
  0
LINE
  8
0
  6
CENTER
 62
     2
 10
-59.499962
 20
132.361572
 11
-59.499962
 21
119.042885
  0
LINE
  8
0
  6
CENTER
 62
     2
 10
-59.499962
 20
61.396530
 11
-59.499962
 21
47.697231
  0
LINE
  8
0
 10
-31.999996
 20
95.000023
 11
-31.553404
 21
95.773544
  0
LINE
  8
0
 10
-31.999990
 20
95.000000
 11
-31.999990
 21
85.000000
  0
LINE
  8
0
 10
-31.999952
 20
85.000023
 11
-31.553368
 21
84.226517
  0
LINE
  8
0
 62
     2
 10
-35.999985
 20
92.250023
 11
-31.999971
 21
92.250023
  0
LINE
  8
0
 62
     2
 10
-35.999985
 20
87.750015
 11
-31.999971
 21
87.750015
  0
LINE
  8
0
 10
-48.999992
 20
114.440941
 11
-48.999992
 21
107.559074
  0
LINE
  8
0
 10
-50.999969
 20
114.440948
 11
-48.999977
 21
114.440948
  0
LINE
  8
0
 10
-50.999969
 20
107.559082
 11
-48.999977
 21
107.559082
  0
LINE
  8
0
 10
-50.999969
 20
65.559090
 11
-48.999977
 21
65.559090
  0
LINE
  8
0
 10
-50.999969
 20
72.440956
 11
-48.999977
 21
72.440956
  0
LINE
  8
0
 10
-48.999992
 20
72.440948
 11
-48.999992
 21
65.559082
  0
LINE
  8
0
  6
PHANTOM
 62
     3
 10
42.500000
 20
100.000008
 11
42.500000
 21
80.000008
  0
LINE
  8
0
  6
PHANTOM
 62
     3
 10
21.500002
 20
158.000000
 11
21.500002
 21
31.500000
  0
LINE
  8
0
 10
83.000015
 20
137.000015
 11
83.000015
 21
43.000008
  0
LINE
  8
0
 10
-26.999929
 20
138.000015
 11
82.000031
 21
138.000015
  0
LINE
  8
0
 10
-26.999952
 20
42.000015
 11
82.000031
 21
42.000015
  0
LINE
  8
0
 10
-28.000002
 20
137.000000
 11
-27.000008
 21
138.000000
  0
LINE
  8
0
 10
82.999947
 20
136.999954
 11
81.999954
 21
137.999954
  0
LINE
  8
0
 10
83.000008
 20
43.000008
 11
82.000015
 21
42.000008
  0
LINE
  8
0
 10
-27.999962
 20
43.000027
 11
-26.999956
 21
42.000023
  0
LINE
  8
0
  6
CENTER
 62
     2
 10
35.500031
 20
131.500000
 11
48.500038
 21
131.500000
  0
LINE
  8
0
  6
CENTER
 62
     2
 10
35.500031
 20
48.500000
 11
48.500038
 21
48.500000
  0
LINE
  8
0
  6
CENTER
 62
     2
 10
-10.999990
 20
96.500000
 11
-10.999990
 21
83.500000
  0
LINE
  8
0
  6
CENTER
 62
     2
 10
42.000023
 20
138.000000
 11
42.000023
 21
125.000000
  0
LINE
  8
0
  6
CENTER
 62
     2
 10
42.000023
 20
55.000000
 11
42.000023
 21
41.999992
  0
LINE
  8
0
  6
CENTER
 62
     2
 10
53.999992
 20
96.500000
 11
53.999992
 21
83.500000
  0
LINE
  8
0
 10
-31.553392
 20
95.773514
 11
-28.446550
 21
95.773514
  0
LINE
  8
0
 10
-31.553392
 20
92.886772
 11
-28.446550
 21
92.886772
  0
LINE
  8
0
 10
-31.553392
 20
87.113266
 11
-28.446550
 21
87.113266
  0
LINE
  8
0
 10
-31.553392
 20
84.226517
 11
-28.446550
 21
84.226517
  0
LINE
  8
0
 10
-27.999989
 20
85.000023
 11
-28.446569
 21
84.226524
  0
LINE
  8
0
 10
-27.999941
 20
95.000008
 11
-28.446529
 21
95.773521
  0
LINE
  8
0
 10
-27.999975
 20
95.500015
 11
83.000031
 21
95.500015
  0
LINE
  8
0
 10
-27.999968
 20
92.300003
 11
-14.867796
 21
92.300003
  0
LINE
  8
0
 10
-27.999968
 20
129.500031
 11
37.968895
 21
129.500031
  0
LINE
  8
0
 10
-27.999968
 20
126.300011
 11
83.000031
 21
126.300011
  0
LINE
  8
0
 10
46.031166
 20
129.500031
 11
83.000031
 21
129.500031
  0
LINE
  8
0
 10
57.867805
 20
92.300003
 11
83.000031
 21
92.300003
  0
LINE
  8
0
 10
-7.132156
 20
92.300003
 11
50.132179
 21
92.300003
  0
LINE
  8
0
 10
-27.999975
 20
137.000000
 11
-27.999975
 21
43.000008
  0
LINE
  8
0
  6
PHANTOM
 62
     3
 10
42.500000
 20
80.000008
 11
52.500000
 21
80.000008
  0
LINE
  8
0
  6
PHANTOM
 62
     3
 10
52.500000
 20
148.000000
 11
52.500000
 21
100.000008
  0
LINE
  8
0
  6
PHANTOM
 62
     3
 10
42.500000
 20
100.000008
 11
52.500000
 21
100.000008
  0
LINE
  8
0
  6
PHANTOM
 62
     3
 10
52.500000
 20
80.000008
 11
52.500000
 21
31.500000
  0
LINE
  8
0
 62
     2
 10
-48.999977
 20
114.440948
 11
-50.999969
 21
107.559082
  0
LINE
  8
0
 62
     2
 10
-48.999977
 20
107.559082
 11
-50.999969
 21
114.440941
  0
LINE
  8
0
 62
     2
 10
-48.999973
 20
72.440933
 11
-50.999966
 21
65.559067
  0
LINE
  8
0
 62
     2
 10
-48.999977
 20
65.559067
 11
-50.999969
 21
72.440933
  0
LINE
  8
0
  6
CENTER
 62
     2
 10
-148.000061
 20
142.928619
 11
-148.000061
 21
34.814323
  0
LINE
  8
0
  6
CENTER
 62
     2
 10
-170.143341
 20
90.000031
 11
-126.235519
 21
90.000031
  0
LINE
  8
0
 10
-129.000061
 20
137.000031
 11
-129.000061
 21
43.000031
  0
LINE
  8
0
 10
-167.000061
 20
137.000031
 11
-167.000061
 21
43.000031
  0
LINE
  8
0
 10
-167.000046
 20
43.000038
 11
-129.000031
 21
43.000038
  0
LINE
  8
0
 10
-167.000046
 20
137.000061
 11
-129.000031
 21
137.000061
  0
LINE
  8
0
  6
CENTER
 62
     2
 10
-153.500031
 20
131.500031
 11
-142.500031
 21
131.500031
  0
LINE
  8
0
  6
CENTER
 62
     2
 10
-159.000046
 20
111.000031
 11
-137.000046
 21
111.000031
  0
LINE
  8
0
  6
CENTER
 62
     2
 10
-159.000046
 20
69.000031
 11
-137.000046
 21
69.000031
  0
LINE
  8
0
  6
CENTER
 62
     2
 10
-153.500031
 20
48.500046
 11
-142.500031
 21
48.500046
  0
LINE
  8
0
 10
-129.000015
 20
138.000015
 11
-128.000046
 21
137.000031
  0
LINE
  8
0
 10
-129.000031
 20
138.000031
 11
-146.400055
 21
138.000031
  0
LINE
  8
0
 10
-149.600082
 20
138.000031
 11
-167.000046
 21
138.000031
  0
LINE
  8
0
 10
-167.999969
 20
136.999969
 11
-166.999954
 21
137.999969
  0
LINE
  8
0
 10
-168.000061
 20
137.000031
 11
-168.000061
 21
129.500031
  0
LINE
  8
0
 10
-128.000061
 20
137.000031
 11
-128.000061
 21
129.500031
  0
LINE
  8
0
 10
-128.000061
 20
92.300003
 11
-128.000061
 21
43.000031
  0
LINE
  8
0
 10
-168.000061
 20
92.300003
 11
-168.000061
 21
43.000031
  0
LINE
  8
0
 10
-129.000031
 20
42.000038
 11
-167.000046
 21
42.000038
  0
LINE
  8
0
 10
-168.000076
 20
43.000114
 11
-167.000076
 21
42.000092
  0
LINE
  8
0
 10
-127.999977
 20
43.000004
 11
-128.999985
 21
42.000008
  0
LINE
  8
0
 10
-148.000031
 20
115.618813
 11
-144.000015
 21
113.309410
  0
LINE
  8
0
 10
-152.000137
 20
113.309486
 11
-148.000137
 21
115.618889
  0
LINE
  8
0
 10
-152.000061
 20
108.690636
 11
-152.000061
 21
113.309433
  0
LINE
  8
0
 10
-148.000046
 20
106.381248
 11
-152.000046
 21
108.690651
  0
LINE
  8
0
 10
-144.000153
 20
108.690773
 11
-148.000168
 21
106.381371
  0
LINE
  8
0
 10
-144.000092
 20
113.309418
 11
-144.000092
 21
108.690628
  0
LINE
  8
0
 10
-152.000046
 20
66.690674
 11
-148.000061
 21
64.381271
  0
LINE
  8
0
 10
-152.000061
 20
71.309425
 11
-152.000061
 21
66.690636
  0
LINE
  8
0
 10
-148.000061
 20
73.618752
 11
-152.000031
 21
71.309372
  0
LINE
  8
0
 10
-144.000107
 20
71.309456
 11
-148.000046
 21
73.618828
  0
LINE
  8
0
 10
-148.000031
 20
64.381210
 11
-144.000046
 21
66.690613
  0
LINE
  8
0
 10
-144.000061
 20
66.690651
 11
-144.000061
 21
71.309448
  0
LINE
  8
0
 10
-128.499954
 20
92.300003
 11
-129.000015
 21
91.799950
  0
LINE
  8
0
 10
-128.000046
 20
95.500038
 11
-128.470016
 21
95.500038
  0
LINE
  8
0
 10
-128.000046
 20
92.300011
 11
-128.470016
 21
92.300011
  0
LINE
  8
0
 10
-128.500305
 20
95.500053
 11
-129.000168
 21
95.999908
  0
LINE
  8
0
 10
-128.499954
 20
92.300003
 11
-129.000015
 21
91.799950
  0
LINE
  8
0
 10
-128.000046
 20
95.500038
 11
-128.500305
 21
95.500038
  0
LINE
  8
0
 10
-128.000046
 20
92.300011
 11
-128.500046
 21
92.300011
  0
LINE
  8
0
 10
-150.083618
 20
137.000122
 11
-149.600113
 21
137.483627
  0
LINE
  8
0
 10
-149.600067
 20
138.000031
 11
-149.600067
 21
137.483582
  0
LINE
  8
0
 10
-146.400085
 20
138.000031
 11
-146.400085
 21
137.483582
  0
LINE
  8
0
 10
-146.400131
 20
137.483383
 11
-145.916779
 21
137.000031
  0
LINE
  8
0
 10
-167.483383
 20
95.499916
 11
-167.000031
 21
95.983261
  0
LINE
  8
0
 10
-167.000168
 20
91.816498
 11
-167.483658
 21
92.299988
  0
LINE
  8
0
 10
-168.000046
 20
92.300011
 11
-167.483597
 21
92.300011
  0
LINE
  8
0
 10
-168.000046
 20
95.500038
 11
-167.483582
 21
95.500038
  0
LINE
  8
0
 10
-168.000046
 20
126.300011
 11
-167.483597
 21
126.300011
  0
LINE
  8
0
 10
-167.000122
 20
125.816490
 11
-167.483612
 21
126.299988
  0
LINE
  8
0
 10
-168.000046
 20
129.500061
 11
-167.483582
 21
129.500061
  0
LINE
  8
0
 10
-167.483414
 20
129.499893
 11
-167.000061
 21
129.983246
  0
LINE
  8
0
 10
-168.000061
 20
126.300011
 11
-168.000061
 21
95.500038
  0
LINE
  8
0
 10
-128.500168
 20
129.499908
 11
-129.000153
 21
129.999893
  0
LINE
  8
0
 10
-128.500015
 20
126.299973
 11
-129.000061
 21
125.799919
  0
LINE
  8
0
 10
-128.000046
 20
129.500061
 11
-128.470016
 21
129.500061
  0
LINE
  8
0
 10
-128.000046
 20
126.300011
 11
-128.470016
 21
126.300011
  0
LINE
  8
0
 10
-128.500168
 20
129.499908
 11
-129.000153
 21
129.999893
  0
LINE
  8
0
 10
-128.500015
 20
126.299973
 11
-129.000061
 21
125.799919
  0
LINE
  8
0
 10
-128.000046
 20
129.500061
 11
-128.500290
 21
129.500061
  0
LINE
  8
0
 10
-128.000046
 20
126.300011
 11
-128.500046
 21
126.300011
  0
LINE
  8
0
 10
-128.000061
 20
126.300011
 11
-128.000061
 21
95.500038
  0
LINE
  8
0
 10
189.000122
 20
137.000031
 11
189.000122
 21
129.500031
  0
LINE
  8
0
 10
149.000122
 20
137.000031
 11
149.000122
 21
129.500031
  0
LINE
  8
0
  6
CENTER
 62
     2
 10
169.000122
 20
143.557190
 11
169.000122
 21
34.814323
  0
LINE
  8
0
 10
150.000122
 20
138.000031
 11
167.400101
 21
138.000031
  0
LINE
  8
0
 10
150.000122
 20
42.000038
 11
188.000137
 21
42.000038
  0
LINE
  8
0
 10
150.000122
 20
138.000092
 11
149.000137
 21
137.000107
  0
LINE
  8
0
 10
189.000031
 20
136.999939
 11
188.000015
 21
137.999954
  0
LINE
  8
0
 10
189.000168
 20
42.999947
 11
188.000168
 21
41.999928
  0
LINE
  8
0
 10
149.000168
 20
43.000099
 11
150.000168
 21
42.000095
  0
LINE
  8
0
  6
CENTER
 62
     2
 10
143.428726
 20
90.000031
 11
193.714447
 21
90.000031
  0
LINE
  8
0
  6
CENTER
 62
     2
 10
143.428726
 20
69.000031
 11
193.714447
 21
69.000031
  0
LINE
  8
0
  6
CENTER
 62
     2
 10
143.428726
 20
111.000031
 11
193.714447
 21
111.000031
  0
LINE
  8
0
 10
170.600128
 20
138.000031
 11
188.000137
 21
138.000031
  0
LINE
  8
0
 10
149.000122
 20
92.300026
 11
149.000122
 21
43.000031
  0
LINE
  8
0
 10
189.000122
 20
92.300026
 11
189.000122
 21
43.000031
  0
LINE
  8
0
 10
188.000183
 20
91.800026
 11
186.400192
 21
91.800026
  0
LINE
  8
0
 10
188.500137
 20
92.300026
 11
188.000153
 21
91.800034
  0
LINE
  8
0
 10
188.499893
 20
95.499771
 11
187.999908
 21
95.999763
  0
LINE
  8
0
 10
188.000183
 20
96.000023
 11
186.400192
 21
96.000023
  0
LINE
  8
0
 10
189.000153
 20
95.500038
 11
188.500183
 21
95.500038
  0
LINE
  8
0
 10
189.000153
 20
92.300026
 11
188.500183
 21
92.300026
  0
LINE
  8
0
 10
150.000275
 20
91.800026
 11
151.570145
 21
91.800026
  0
LINE
  8
0
 10
149.000168
 20
92.300026
 11
149.500015
 21
92.300026
  0
LINE
  8
0
 10
149.000168
 20
95.500038
 11
149.499771
 21
95.500038
  0
LINE
  8
0
 10
149.499954
 20
92.299904
 11
149.999939
 21
91.799911
  0
LINE
  8
0
 10
150.000153
 20
91.800026
 11
151.600143
 21
91.800026
  0
LINE
  8
0
 10
150.000153
 20
96.000023
 11
151.600143
 21
96.000023
  0
LINE
  8
0
 10
149.499893
 20
95.500198
 11
149.999924
 21
96.000237
  0
LINE
  8
0
 10
166.900116
 20
136.983582
 11
166.900116
 21
135.383575
  0
LINE
  8
0
 10
166.900131
 20
136.983521
 11
167.400116
 21
137.483521
  0
LINE
  8
0
 10
167.400085
 20
138.000031
 11
167.400085
 21
137.483582
  0
LINE
  8
0
 10
170.600113
 20
138.000031
 11
170.600113
 21
137.483582
  0
LINE
  8
0
 10
170.599945
 20
137.483292
 11
171.099930
 21
136.983307
  0
LINE
  8
0
 10
188.000183
 20
91.800026
 11
186.400192
 21
91.800026
  0
LINE
  8
0
 10
188.500137
 20
92.300026
 11
188.000153
 21
91.800034
  0
LINE
  8
0
 10
188.499893
 20
95.499771
 11
187.999908
 21
95.999763
  0
LINE
  8
0
 10
188.000183
 20
96.000023
 11
186.400192
 21
96.000023
  0
LINE
  8
0
 10
189.000153
 20
95.500038
 11
188.500183
 21
95.500038
  0
LINE
  8
0
 10
189.000153
 20
92.300026
 11
188.500183
 21
92.300026
  0
LINE
  8
0
 10
150.000275
 20
91.800026
 11
151.570145
 21
91.800026
  0
LINE
  8
0
 10
149.000168
 20
92.300026
 11
149.470139
 21
92.300026
  0
LINE
  8
0
 10
149.000168
 20
95.500038
 11
149.470139
 21
95.500038
  0
LINE
  8
0
 10
149.499954
 20
92.299904
 11
149.999939
 21
91.799911
  0
LINE
  8
0
 10
150.000153
 20
91.800026
 11
151.600143
 21
91.800026
  0
LINE
  8
0
 10
150.000153
 20
96.000023
 11
151.600143
 21
96.000023
  0
LINE
  8
0
 10
149.499893
 20
95.500198
 11
149.999924
 21
96.000237
  0
LINE
  8
0
 10
166.900116
 20
136.983582
 11
166.900116
 21
135.383575
  0
LINE
  8
0
 10
166.900131
 20
136.983521
 11
167.400116
 21
137.483521
  0
LINE
  8
0
 10
167.400085
 20
137.983582
 11
167.400085
 21
137.483582
  0
LINE
  8
0
 10
170.600113
 20
138.000031
 11
170.600113
 21
137.483582
  0
LINE
  8
0
 10
171.100128
 20
136.983551
 11
171.100128
 21
135.383575
  0
LINE
  8
0
 10
170.599945
 20
137.483292
 11
171.099930
 21
136.983307
  0
LINE
  8
0
  6
CENTER
 62
     2
 10
145.666733
 20
93.900024
 11
191.381027
 21
93.900024
  0
LINE
  8
0
  6
CENTER
 62
     2
 10
143.975586
 20
127.900024
 11
191.381027
 21
127.900024
  0
LINE
  8
0
 10
149.000122
 20
129.500031
 11
149.000122
 21
129.700012
  0
LINE
  8
0
 10
150.000275
 20
125.800026
 11
151.570145
 21
125.800026
  0
LINE
  8
0
 10
149.000168
 20
126.300011
 11
149.500031
 21
126.300011
  0
LINE
  8
0
 10
149.000168
 20
129.500031
 11
149.499771
 21
129.500031
  0
LINE
  8
0
 10
149.499985
 20
126.299911
 11
149.999969
 21
125.799919
  0
LINE
  8
0
 10
150.000153
 20
125.800026
 11
151.600143
 21
125.800026
  0
LINE
  8
0
 10
150.000153
 20
130.000000
 11
151.600143
 21
130.000000
  0
LINE
  8
0
 10
149.499893
 20
129.500168
 11
149.999908
 21
130.000183
  0
LINE
  8
0
 10
149.000122
 20
129.500031
 11
149.000122
 21
129.700012
  0
LINE
  8
0
 10
150.000275
 20
125.800026
 11
151.570145
 21
125.800026
  0
LINE
  8
0
 10
149.000168
 20
126.300011
 11
149.470139
 21
126.300011
  0
LINE
  8
0
 10
149.000168
 20
129.500031
 11
149.470139
 21
129.500031
  0
LINE
  8
0
 10
149.499985
 20
126.299911
 11
149.999969
 21
125.799919
  0
LINE
  8
0
 10
150.000153
 20
125.800026
 11
151.600143
 21
125.800026
  0
LINE
  8
0
 10
150.000153
 20
130.000000
 11
151.600143
 21
130.000000
  0
LINE
  8
0
 10
149.499893
 20
129.500168
 11
149.999908
 21
130.000183
  0
LINE
  8
0
 10
188.000183
 20
125.800026
 11
186.400192
 21
125.800026
  0
LINE
  8
0
 10
188.500122
 20
126.300003
 11
188.000122
 21
125.800026
  0
LINE
  8
0
 10
188.499893
 20
129.499817
 11
187.999924
 21
129.999802
  0
LINE
  8
0
 10
188.000183
 20
130.000031
 11
186.400192
 21
130.000031
  0
LINE
  8
0
 10
189.000153
 20
129.500061
 11
188.500183
 21
129.500061
  0
LINE
  8
0
 10
189.000153
 20
126.300011
 11
188.500183
 21
126.300011
  0
LINE
  8
0
 10
189.000153
 20
126.300011
 11
188.500183
 21
126.300011
  0
LINE
  8
0
 10
188.000183
 20
125.800026
 11
186.400192
 21
125.800026
  0
LINE
  8
0
 10
188.500122
 20
126.300003
 11
188.000122
 21
125.800026
  0
LINE
  8
0
 10
188.499893
 20
129.499817
 11
187.999924
 21
129.999802
  0
LINE
  8
0
 10
188.000183
 20
130.000031
 11
186.400192
 21
130.000031
  0
LINE
  8
0
 10
189.000153
 20
129.500061
 11
188.500183
 21
129.500061
  0
LINE
  8
0
 10
189.000122
 20
126.300011
 11
189.000122
 21
95.500038
  0
LINE
  8
0
 10
149.000122
 20
126.300011
 11
149.000122
 21
95.500038
  0
LINE
  8
0
  6
PHANTOM
 62
     3
 10
21.500000
 20
31.500000
 11
43.000000
 21
31.500000
  0
LINE
  8
0
  6
PHANTOM
 62
     3
 10
43.000000
 20
31.500000
 11
43.000000
 21
-26.499985
  0
LINE
  8
0
  6
PHANTOM
 62
     3
 10
-43.500000
 20
31.500000
 11
-43.500000
 21
-26.499985
  0
LINE
  8
0
  6
PHANTOM
 62
     3
 10
52.500000
 20
31.500000
 11
52.500000
 21
-26.499985
  0
LINE
  8
0
 10
-27.000021
 20
21.500053
 11
81.999924
 21
21.500053
  0
LINE
  8
0
 10
-27.000021
 20
-18.499947
 11
82.000099
 21
-18.499947
  0
LINE
  8
0
 10
82.999969
 20
20.500053
 11
82.999969
 21
-17.499947
  0
LINE
  8
0
  6
CENTER
 62
     2
 10
-76.802917
 20
1.500053
 11
87.982437
 21
1.500053
  0
LINE
  8
0
 10
-28.000103
 20
20.500099
 11
-27.000109
 21
21.500097
  0
LINE
  8
0
 10
82.999886
 20
20.499973
 11
81.999870
 21
21.499983
  0
LINE
  8
0
 10
-27.999950
 20
-17.499935
 11
-26.999956
 21
-18.499929
  0
LINE
  8
0
 10
83.000084
 20
-17.500139
 11
82.000092
 21
-18.500137
  0
LINE
  8
0
 10
-68.000000
 20
20.500053
 11
-68.000000
 21
-17.499947
  0
LINE
  8
0
 10
-51.000031
 20
20.500053
 11
-51.000031
 21
8.500038
  0
LINE
  8
0
 10
-68.000015
 20
-17.499947
 11
-51.000015
 21
-17.499947
  0
LINE
  8
0
 10
-68.000015
 20
20.500053
 11
-51.000015
 21
20.500053
  0
LINE
  8
0
 10
-49.000023
 20
9.500069
 11
-28.000036
 21
9.500069
  0
LINE
  8
0
 10
-50.000031
 20
-5.499962
 11
-50.000031
 21
-11.499962
  0
LINE
  8
0
 10
-40.000031
 20
-6.499962
 11
-40.000031
 21
-11.499962
  0
LINE
  8
0
 10
-40.000015
 20
-11.499962
 11
-36.000031
 21
-11.499962
  0
LINE
  8
0
 10
-36.000031
 20
-6.499962
 11
-36.000031
 21
-11.499962
  0
LINE
  8
0
 10
-36.000031
 20
-9.499947
 11
-32.000023
 21
-9.499947
  0
LINE
  8
0
 10
-51.000015
 20
-11.499962
 11
-50.000023
 21
-11.499962
  0
LINE
  8
0
 10
-32.000031
 20
-6.499962
 11
-32.000031
 21
-11.499962
  0
LINE
  8
0
 10
-32.000023
 20
-11.499962
 11
-28.000013
 21
-11.499962
  0
LINE
  8
0
 10
-28.000046
 20
20.500053
 11
-28.000046
 21
-17.499947
  0
LINE
  8
0
 10
-49.000023
 20
-6.499962
 11
-28.000036
 21
-6.499962
  0
LINE
  8
0
 62
     2
 10
-36.000031
 20
-8.749947
 11
-32.000023
 21
-8.749947
  0
LINE
  8
0
 10
-53.000015
 20
8.500038
 11
-49.000023
 21
8.500038
  0
LINE
  8
0
 10
-53.000015
 20
-5.499962
 11
-49.000023
 21
-5.499962
  0
LINE
  8
0
 10
-49.000061
 20
9.500053
 11
-49.000061
 21
8.500038
  0
LINE
  8
0
 10
-49.000061
 20
-5.499962
 11
-49.000061
 21
-6.499962
  0
LINE
  8
0
 10
-53.000061
 20
8.500038
 11
-53.000061
 21
-5.499962
  0
LINE
  8
0
 10
-51.000031
 20
-5.499962
 11
-51.000031
 21
-17.499947
  0
LINE
  8
0
  6
CENTER
 62
     2
 10
29.999954
 20
8.000053
 11
29.999954
 21
-4.999947
  0
LINE
  8
0
  6
CENTER
 62
     2
 10
67.999969
 20
8.000053
 11
67.999969
 21
-4.999947
  0
LINE
  8
0
 62
     4
 10
-37.341675
 20
-107.309509
 11
-32.596375
 21
-107.309509
  0
LINE
  8
0
 62
     4
 10
-41.096405
 20
-109.909515
 11
-37.340607
 21
-109.909515
  0
LINE
  8
0
 62
     4
 10
-35.840576
 20
-109.909515
 11
-32.596375
 21
-109.909515
  0
LINE
  8
0
 62
     4
 10
-63.096405
 20
-106.309525
 11
-41.096405
 21
-106.309525
  0
LINE
  8
0
 62
     4
 10
-58.396393
 20
-110.909515
 11
-41.096405
 21
-110.909515
  0
LINE
  8
0
 62
     4
 10
-41.096405
 20
-106.309525
 11
-41.096405
 21
-110.909515
  0
LINE
  8
0
 62
     4
 10
-63.096405
 20
-108.109528
 11
-63.096405
 21
-106.309525
  0
LINE
  8
0
 62
     4
 10
-58.396393
 20
-109.351486
 11
-58.396393
 21
-110.909515
  0
LINE
  8
0
 62
     4
 10
-63.096405
 20
-108.109528
 11
-58.846390
 21
-108.109528
  0
LINE
  8
0
  6
CENTER
 62
     1
 10
-61.096390
 20
-105.502808
 11
-61.096390
 21
-111.741425
  0
LINE
  8
0
 62
     4
 10
-58.846390
 20
-108.109528
 11
-58.846390
 21
-109.351486
  0
LINE
  8
0
 62
     4
 10
-59.096390
 20
-108.109528
 11
-59.096390
 21
-108.909515
  0
LINE
  8
0
 62
     4
 10
-63.096405
 20
-108.109528
 11
-63.096405
 21
-108.909515
  0
LINE
  8
0
 62
     4
 10
-63.096405
 20
-108.909515
 11
-59.096390
 21
-108.909515
  0
LINE
  8
0
 62
     4
 10
-58.896393
 20
-108.109528
 11
-58.896393
 21
-110.109528
  0
LINE
  8
0
 62
     4
 10
-58.896393
 20
-110.109528
 11
-58.396393
 21
-110.109528
  0
LINE
  8
0
 62
     4
 10
-58.846390
 20
-109.351486
 11
-58.396393
 21
-109.351486
  0
LINE
  8
0
 62
     4
 10
-32.596375
 20
-107.309509
 11
-32.596375
 21
-109.909515
  0
LINE
  8
0
  6
CENTER
 62
     1
 10
-34.319275
 20
-108.159439
 11
-22.387207
 21
-108.159439
  0
LINE
  8
0
  6
CENTER
 62
     1
 10
-34.268982
 20
-109.059433
 11
-22.345337
 21
-109.059433
  0
LINE
  8
0
 62
     4
 10
-22.596375
 20
-107.909454
 11
-22.596375
 21
-108.409454
  0
LINE
  8
0
 62
     4
 10
-22.596375
 20
-108.809448
 11
-22.596375
 21
-109.309448
  0
LINE
  8
0
 62
     4
 10
-25.596375
 20
-107.709442
 11
-25.596375
 21
-109.509460
  0
LINE
  8
0
 62
     4
 10
-32.596375
 20
-109.509445
 11
-28.590820
 21
-109.509445
  0
LINE
  8
0
 62
     4
 10
-32.596375
 20
-108.609421
 11
-29.110413
 21
-108.609421
  0
LINE
  8
0
 62
     4
 10
-27.610413
 20
-108.609421
 11
-25.596375
 21
-108.609421
  0
LINE
  8
0
 62
     4
 10
-27.090820
 20
-109.509445
 11
-25.596375
 21
-109.509445
  0
LINE
  8
0
 62
     4
 10
-32.596375
 20
-107.709427
 11
-29.630066
 21
-107.709427
  0
LINE
  8
0
 62
     4
 10
-28.130066
 20
-107.709427
 11
-25.596375
 21
-107.709427
  0
LINE
  8
0
 62
     4
 10
-25.596375
 20
-107.909439
 11
-22.596375
 21
-107.909439
  0
LINE
  8
0
 62
     4
 10
-25.596375
 20
-108.409439
 11
-22.596375
 21
-108.409439
  0
LINE
  8
0
 62
     4
 10
-25.596375
 20
-108.809433
 11
-22.596375
 21
-108.809433
  0
LINE
  8
0
 62
     4
 10
-25.596375
 20
-109.309433
 11
-22.596375
 21
-109.309433
  0
LINE
  8
0
 62
     1
 10
-28.860390
 20
-106.444504
 11
-26.360392
 21
-110.774635
  0
LINE
  8
0
  6
CENTER
 62
     1
 10
-42.410767
 20
-108.609512
 11
-32.596375
 21
-108.609512
  0
LINE
  8
0
 62
     1
 10
-30.360470
 20
-106.444481
 11
-27.860468
 21
-110.774612
  0
LINE
  8
0
 62
     1
 10
-37.841137
 20
-106.444458
 11
-35.341137
 21
-110.774590
  0
LINE
  8
0
 62
     1
 10
-39.341129
 20
-106.444527
 11
-36.841141
 21
-110.774628
  0
LINE
  8
0
 62
     4
 10
-62.121399
 20
-110.309525
 11
-60.071396
 21
-110.309525
  0
LINE
  8
0
 62
     4
 10
-60.070984
 20
-110.309975
 11
-59.846008
 21
-110.084991
  0
LINE
  8
0
 62
     4
 10
-62.121353
 20
-110.309555
 11
-62.346348
 21
-110.084557
  0
LINE
  8
0
 62
     4
 10
-62.346390
 20
-108.908707
 11
-62.346390
 21
-110.084534
  0
LINE
  8
0
 62
     1
 10
-62.121399
 20
-108.908707
 11
-62.121399
 21
-110.309525
  0
LINE
  8
0
 62
     1
 10
-60.071396
 20
-108.908707
 11
-60.071396
 21
-110.309525
  0
LINE
  8
0
 62
     4
 10
-59.846390
 20
-108.908707
 11
-59.846390
 21
-110.084518
  0
LINE
  8
0
 62
     4
 10
-62.346390
 20
-110.084534
 11
-59.846390
 21
-110.084534
  0
LINE
  8
0
 62
     4
 10
-62.346390
 20
-105.809525
 11
-62.346390
 21
-106.309525
  0
LINE
  8
0
 62
     1
 10
-62.121399
 20
-105.809525
 11
-62.121399
 21
-106.309525
  0
LINE
  8
0
 62
     1
 10
-60.071396
 20
-105.809525
 11
-60.071396
 21
-106.309525
  0
LINE
  8
0
 62
     4
 10
-59.846390
 20
-105.809525
 11
-59.846390
 21
-106.309525
  0
LINE
  8
0
 62
     4
 10
-62.346390
 20
-105.809525
 11
-59.846390
 21
-105.809525
  0
LINE
  8
0
 62
     4
 10
-63.096405
 20
-107.309525
 11
-41.096405
 21
-107.309525
  0
LINE
  8
0
 62
     4
 10
-63.096405
 20
-106.759506
 11
-41.096405
 21
-106.759506
  0
LINE
  8
0
 62
     4
 10
-41.096405
 20
-107.309509
 11
-38.841705
 21
-107.309509
  0
LINE
  8
0
 62
     4
 10
-108.889130
 20
-105.809525
 11
-106.389130
 21
-105.809525
  0
LINE
  8
0
  6
CENTER
 62
     1
 10
-107.639130
 20
-104.256561
 11
-107.639130
 21
-112.969315
  0
LINE
  8
0
 62
     4
 10
-109.689117
 20
-107.309525
 11
-109.689117
 21
-108.859528
  0
LINE
  8
0
 62
     4
 10
-109.689194
 20
-107.309502
 11
-109.139183
 21
-106.759491
  0
LINE
  8
0
 62
     4
 10
-109.139130
 20
-106.309525
 11
-109.139130
 21
-106.759521
  0
LINE
  8
0
 62
     4
 10
-109.139130
 20
-106.309525
 11
-106.139130
 21
-106.309525
  0
LINE
  8
0
 62
     4
 10
-106.139130
 20
-106.309525
 11
-106.139130
 21
-106.759521
  0
LINE
  8
0
 62
     4
 10
-105.589104
 20
-107.309441
 11
-106.139107
 21
-106.759438
  0
LINE
  8
0
 62
     4
 10
-105.589127
 20
-107.309525
 11
-105.589127
 21
-108.859528
  0
LINE
  8
0
 62
     4
 10
-109.689117
 20
-108.109528
 11
-105.589127
 21
-108.109528
  0
LINE
  8
0
 62
     4
 10
-109.689133
 20
-108.908707
 11
-105.589127
 21
-108.908707
  0
LINE
  8
0
 62
     4
 10
-108.664139
 20
-110.309525
 11
-106.614136
 21
-110.309525
  0
LINE
  8
0
 62
     4
 10
-106.613693
 20
-110.309975
 11
-106.388687
 21
-110.084969
  0
LINE
  8
0
 62
     4
 10
-108.664101
 20
-110.309532
 11
-108.889091
 21
-110.084541
  0
LINE
  8
0
 62
     4
 10
-108.889130
 20
-108.908707
 11
-108.889130
 21
-110.084534
  0
LINE
  8
0
 62
     1
 10
-108.664139
 20
-108.908707
 11
-108.664139
 21
-110.309525
  0
LINE
  8
0
 62
     1
 10
-106.614136
 20
-108.908707
 11
-106.614136
 21
-110.309525
  0
LINE
  8
0
 62
     4
 10
-106.389130
 20
-108.908707
 11
-106.389130
 21
-110.084518
  0
LINE
  8
0
 62
     4
 10
-108.889130
 20
-110.084534
 11
-106.389130
 21
-110.084534
  0
LINE
  8
0
 62
     4
 10
-108.889130
 20
-105.809525
 11
-108.889130
 21
-106.309525
  0
LINE
  8
0
 62
     1
 10
-108.664139
 20
-105.809525
 11
-108.664139
 21
-106.309525
  0
LINE
  8
0
 62
     1
 10
-106.614136
 20
-105.809525
 11
-106.614136
 21
-106.309525
  0
LINE
  8
0
 62
     4
 10
-106.389130
 20
-105.809525
 11
-106.389130
 21
-106.309525
  0
LINE
  8
0
  6
CENTER
 62
     1
 10
-65.896942
 20
-65.759521
 11
-35.688889
 21
-65.759521
  0
LINE
  8
0
 62
     4
 10
-63.096405
 20
-67.259521
 11
-41.096405
 21
-67.259521
  0
LINE
  8
0
 62
     4
 10
-63.096405
 20
-64.259521
 11
-41.096405
 21
-64.259521
  0
LINE
  8
0
 62
     4
 10
-63.096405
 20
-67.809525
 11
-41.096405
 21
-67.809525
  0
LINE
  8
0
 62
     4
 10
-63.096405
 20
-63.709518
 11
-41.096405
 21
-63.709518
  0
LINE
  8
0
 62
     4
 10
-63.096405
 20
-63.709518
 11
-63.096405
 21
-67.809525
  0
LINE
  8
0
 62
     4
 10
-41.096405
 20
-63.709518
 11
-41.096405
 21
-67.809525
  0
LINE
  8
0
  6
CENTER
 62
     1
 10
-61.096390
 20
-62.923019
 11
-61.096390
 21
-68.512344
  0
LINE
  8
0
 62
     4
 10
-62.141678
 20
-66.472603
 11
-60.408340
 21
-64.739265
  0
LINE
  8
0
 62
     4
 10
-61.788132
 20
-66.826195
 11
-60.154789
 21
-65.192856
  0
LINE
  8
0
 62
     1
 10
-40.007183
 20
-63.594440
 11
-37.507183
 21
-67.924561
  0
LINE
  8
0
 62
     4
 10
-41.096405
 20
-64.459518
 11
-39.507751
 21
-64.459518
  0
LINE
  8
0
 62
     4
 10
-41.096405
 20
-67.059525
 11
-38.006622
 21
-67.059525
  0
LINE
  8
0
 62
     4
 10
112.821899
 20
-95.654785
 11
112.821899
 21
-90.909485
  0
LINE
  8
0
 62
     4
 10
112.821899
 20
-99.409515
 11
112.821899
 21
-97.154785
  0
LINE
  8
0
 62
     4
 10
115.421875
 20
-94.153687
 11
115.421875
 21
-90.909485
  0
LINE
  8
0
 62
     4
 10
94.714539
 20
-106.309525
 11
110.814545
 21
-106.309525
  0
LINE
  8
0
 62
     4
 10
99.414520
 20
-110.909515
 11
116.714539
 21
-110.909515
  0
LINE
  8
0
 62
     4
 10
116.714539
 20
-99.409515
 11
116.714539
 21
-110.909515
  0
LINE
  8
0
 62
     4
 10
94.714539
 20
-108.909515
 11
94.714539
 21
-106.309525
  0
LINE
  8
0
 62
     4
 10
99.414520
 20
-109.291687
 11
99.414520
 21
-110.909515
  0
LINE
  8
0
  6
CENTER
 62
     1
 10
96.714539
 20
-105.579269
 11
96.714539
 21
-111.482193
  0
LINE
  8
0
 62
     4
 10
110.814514
 20
-99.409515
 11
110.814514
 21
-106.309525
  0
LINE
  8
0
 62
     4
 10
94.714539
 20
-108.109528
 11
98.988342
 21
-108.109528
  0
LINE
  8
0
 62
     4
 10
94.714539
 20
-108.909515
 11
98.714539
 21
-108.909515
  0
LINE
  8
0
 62
     4
 10
98.714539
 20
-108.109528
 11
98.714539
 21
-108.909515
  0
LINE
  8
0
 62
     4
 10
110.814545
 20
-99.409515
 11
116.714539
 21
-99.409515
  0
LINE
  8
0
 62
     4
 10
98.914520
 20
-110.109528
 11
99.414520
 21
-110.109528
  0
LINE
  8
0
 62
     4
 10
98.914520
 20
-108.109528
 11
98.914520
 21
-110.109528
  0
LINE
  8
0
 62
     4
 10
98.988342
 20
-109.291687
 11
99.414520
 21
-109.291687
  0
LINE
  8
0
 62
     4
 10
98.988342
 20
-108.109528
 11
98.988342
 21
-109.291687
  0
LINE
  8
0
 62
     4
 10
94.714539
 20
-107.309525
 11
116.714539
 21
-107.309525
  0
LINE
  8
0
 62
     4
 10
94.714539
 20
-106.759521
 11
116.714539
 21
-106.759521
  0
LINE
  8
0
 62
     4
 10
110.814514
 20
-105.159515
 11
116.714539
 21
-105.159515
  0
LINE
  8
0
 62
     4
 10
110.814514
 20
-105.909515
 11
116.714539
 21
-105.909515
  0
LINE
  8
0
 62
     4
 10
110.814514
 20
-100.909515
 11
116.714539
 21
-100.909515
  0
LINE
  8
0
 62
     4
 10
112.821899
 20
-90.909485
 11
115.421875
 21
-90.909485
  0
LINE
  8
0
  6
CENTER
 62
     1
 10
113.671814
 20
-92.632416
 11
113.671814
 21
-80.700333
  0
LINE
  8
0
  6
CENTER
 62
     1
 10
114.571808
 20
-92.582123
 11
114.571808
 21
-80.658478
  0
LINE
  8
0
 62
     4
 10
113.421814
 20
-80.909485
 11
113.921814
 21
-80.909485
  0
LINE
  8
0
 62
     4
 10
114.321808
 20
-80.909485
 11
114.821808
 21
-80.909485
  0
LINE
  8
0
 62
     4
 10
113.221802
 20
-83.909485
 11
115.021820
 21
-83.909485
  0
LINE
  8
0
 62
     4
 10
115.021820
 20
-90.909485
 11
115.021820
 21
-86.903931
  0
LINE
  8
0
 62
     4
 10
114.121796
 20
-90.909485
 11
114.121796
 21
-87.423553
  0
LINE
  8
0
 62
     4
 10
114.121796
 20
-85.923553
 11
114.121796
 21
-83.909485
  0
LINE
  8
0
 62
     4
 10
115.021820
 20
-85.403931
 11
115.021820
 21
-83.909485
  0
LINE
  8
0
 62
     4
 10
113.221802
 20
-90.909485
 11
113.221802
 21
-87.943176
  0
LINE
  8
0
 62
     4
 10
113.221802
 20
-86.443176
 11
113.221802
 21
-83.909485
  0
LINE
  8
0
 62
     4
 10
113.421814
 20
-83.909485
 11
113.421814
 21
-80.909485
  0
LINE
  8
0
 62
     4
 10
113.921814
 20
-83.909485
 11
113.921814
 21
-80.909485
  0
LINE
  8
0
 62
     4
 10
114.321808
 20
-83.909485
 11
114.321808
 21
-80.909485
  0
LINE
  8
0
 62
     4
 10
114.821808
 20
-83.909485
 11
114.821808
 21
-80.909485
  0
LINE
  8
0
 62
     1
 10
111.956955
 20
-87.173698
 11
116.287102
 21
-84.673683
  0
LINE
  8
0
  6
CENTER
 62
     1
 10
114.121887
 20
-100.723892
 11
114.121887
 21
-90.909485
  0
LINE
  8
0
 62
     1
 10
111.956848
 20
-88.673683
 11
116.287003
 21
-86.173668
  0
LINE
  8
0
 62
     1
 10
111.956825
 20
-96.154404
 11
116.286957
 21
-93.654404
  0
LINE
  8
0
 62
     1
 10
111.956886
 20
-97.654411
 11
116.287010
 21
-95.154419
  0
LINE
  8
0
 62
     4
 10
95.689514
 20
-110.309525
 11
97.739532
 21
-110.309525
  0
LINE
  8
0
 62
     4
 10
97.740067
 20
-110.310036
 11
97.965057
 21
-110.085030
  0
LINE
  8
0
 62
     4
 10
95.689606
 20
-110.309387
 11
95.464622
 21
-110.084404
  0
LINE
  8
0
 62
     4
 10
95.464539
 20
-108.909515
 11
95.464539
 21
-110.084534
  0
LINE
  8
0
 62
     1
 10
95.689514
 20
-108.909515
 11
95.689514
 21
-110.309525
  0
LINE
  8
0
 62
     1
 10
97.739532
 20
-108.909515
 11
97.739532
 21
-110.309525
  0
LINE
  8
0
 62
     4
 10
97.964539
 20
-108.909515
 11
97.964539
 21
-110.084518
  0
LINE
  8
0
 62
     4
 10
95.464539
 20
-110.084534
 11
97.964539
 21
-110.084534
  0
LINE
  8
0
 62
     4
 10
95.464539
 20
-105.809525
 11
95.464539
 21
-106.309525
  0
LINE
  8
0
 62
     1
 10
95.689514
 20
-105.809525
 11
95.689514
 21
-106.309525
  0
LINE
  8
0
 62
     1
 10
97.739532
 20
-105.809525
 11
97.739532
 21
-106.309525
  0
LINE
  8
0
 62
     4
 10
97.964539
 20
-105.809525
 11
97.964539
 21
-106.309525
  0
LINE
  8
0
 62
     4
 10
95.464539
 20
-105.809525
 11
97.964539
 21
-105.809525
  0
LINE
  8
0
 62
     4
 10
115.421875
 20
-99.409515
 11
115.421875
 21
-95.653687
  0
LINE
  8
0
 62
     4
 10
52.971802
 20
-95.653702
 11
52.971802
 21
-99.409515
  0
LINE
  8
0
 62
     4
 10
49.421814
 20
-100.909515
 11
53.921814
 21
-100.909515
  0
LINE
  8
0
 62
     4
 10
49.421814
 20
-99.409515
 11
49.421814
 21
-105.159515
  0
LINE
  8
0
 62
     4
 10
50.171776
 20
-105.909492
 11
49.421814
 21
-105.159531
  0
LINE
  8
0
 62
     4
 10
50.171814
 20
-106.759521
 11
50.171814
 21
-105.909515
  0
LINE
  8
0
 62
     4
 10
49.621750
 20
-107.309441
 11
50.171761
 21
-106.759430
  0
LINE
  8
0
 62
     4
 10
49.621796
 20
-107.309525
 11
49.621796
 21
-108.859528
  0
LINE
  8
0
 62
     4
 10
53.721802
 20
-107.309525
 11
53.721802
 21
-108.859528
  0
LINE
  8
0
 62
     4
 10
53.721809
 20
-107.309555
 11
53.171799
 21
-106.759544
  0
LINE
  8
0
 62
     4
 10
53.171814
 20
-106.759521
 11
53.171814
 21
-105.909515
  0
LINE
  8
0
 62
     4
 10
53.171913
 20
-105.909645
 11
53.921906
 21
-105.159653
  0
LINE
  8
0
 62
     4
 10
53.921814
 20
-99.409515
 11
53.921814
 21
-105.159515
  0
LINE
  8
0
  6
CENTER
 62
     1
 10
51.671814
 20
-93.748566
 11
51.671814
 21
-112.376190
  0
LINE
  8
0
 62
     4
 10
50.171814
 20
-106.309525
 11
53.171814
 21
-106.309525
  0
LINE
  8
0
 62
     4
 10
49.621796
 20
-108.109528
 11
53.721802
 21
-108.109528
  0
LINE
  8
0
 62
     4
 10
49.621796
 20
-108.911972
 11
53.721802
 21
-108.911972
  0
LINE
  8
0
 62
     4
 10
49.421814
 20
-99.409515
 11
53.921814
 21
-99.409515
  0
LINE
  8
0
 62
     1
 10
49.506847
 20
-97.654373
 11
53.836975
 21
-95.154373
  0
LINE
  8
0
 62
     4
 10
50.646790
 20
-110.309525
 11
52.696808
 21
-110.309525
  0
LINE
  8
0
 62
     4
 10
52.697304
 20
-110.310036
 11
52.922295
 21
-110.085030
  0
LINE
  8
0
 62
     4
 10
50.646870
 20
-110.309448
 11
50.421864
 21
-110.084442
  0
LINE
  8
0
 62
     4
 10
50.421814
 20
-108.911972
 11
50.421814
 21
-110.084534
  0
LINE
  8
0
 62
     1
 10
50.646790
 20
-108.911972
 11
50.646790
 21
-110.309525
  0
LINE
  8
0
 62
     1
 10
52.696808
 20
-108.911972
 11
52.696808
 21
-110.309525
  0
LINE
  8
0
 62
     4
 10
52.921814
 20
-108.911972
 11
52.921814
 21
-110.084518
  0
LINE
  8
0
 62
     4
 10
50.421814
 20
-110.084534
 11
52.921814
 21
-110.084534
  0
LINE
  8
0
 62
     4
 10
50.421814
 20
-105.809525
 11
50.421814
 21
-106.309525
  0
LINE
  8
0
 62
     1
 10
50.646790
 20
-105.809525
 11
50.646790
 21
-106.309525
  0
LINE
  8
0
 62
     1
 10
52.696808
 20
-105.809525
 11
52.696808
 21
-106.309525
  0
LINE
  8
0
 62
     4
 10
52.921814
 20
-105.809525
 11
52.921814
 21
-106.309525
  0
LINE
  8
0
 62
     4
 10
50.421814
 20
-105.809525
 11
52.921814
 21
-105.809525
  0
LINE
  8
0
 62
     4
 10
50.371826
 20
-97.154800
 11
50.371826
 21
-99.409515
  0
LINE
  8
0
  6
CENTER
 62
     1
 10
93.385345
 20
-60.709503
 11
118.294525
 21
-60.709503
  0
LINE
  8
0
 62
     4
 10
94.714539
 20
-62.209503
 11
111.275146
 21
-62.209503
  0
LINE
  8
0
 62
     4
 10
94.714539
 20
-59.209503
 11
111.275146
 21
-59.209503
  0
LINE
  8
0
 62
     4
 10
94.714539
 20
-62.759506
 11
111.628510
 21
-62.759506
  0
LINE
  8
0
 62
     4
 10
94.714539
 20
-58.659515
 11
111.628510
 21
-58.659515
  0
LINE
  8
0
 62
     4
 10
94.714539
 20
-58.659500
 11
94.714539
 21
-62.759506
  0
LINE
  8
0
  6
CENTER
 62
     1
 10
96.714539
 20
-57.873001
 11
96.714539
 21
-63.462326
  0
LINE
  8
0
 62
     4
 10
111.800507
 20
-58.459503
 11
116.714539
 21
-58.459503
  0
LINE
  8
0
 62
     4
 10
111.800507
 20
-62.959503
 11
116.714539
 21
-62.959503
  0
LINE
  8
0
 62
     4
 10
116.714539
 20
-58.459503
 11
116.714539
 21
-62.959503
  0
LINE
  8
0
 62
     4
 10
96.068810
 20
-61.779858
 11
97.784920
 21
-60.063751
  0
LINE
  8
0
 62
     4
 10
95.644524
 20
-61.355553
 11
97.360619
 21
-59.639458
  0
LINE
  8
0
 10
-281.250000
 20
195.500000
 11
282.099976
 21
195.500000
  0
LINE
  8
0
 10
-281.250000
 20
195.500000
 11
-281.250000
 21
-195.000000
  0
LINE
  8
0
 10
282.099976
 20
195.500000
 11
282.099976
 21
-195.000000
  0
LINE
  8
0
 10
-281.250000
 20
-195.000000
 11
282.099976
 21
-195.000000
  0
LINE
  8
0
 10
162.099976
 20
-175.000000
 11
162.099976
 21
-195.000000
  0
LINE
  8
0
 10
162.099976
 20
-175.000000
 11
282.099976
 21
-175.000000
  0
LINE
  8
0
 10
162.099976
 20
175.500000
 11
282.099976
 21
175.500000
  0
LINE
  8
0
 10
-281.250000
 20
175.500000
 11
-161.250000
 21
175.500000
  0
LINE
  8
0
 10
162.099976
 20
195.500000
 11
162.099976
 21
175.500000
  0
LINE
  8
0
 10
-161.250000
 20
195.500000
 11
-161.250000
 21
175.500000
  0
LINE
  8
0
 10
-271.250000
 20
-133.000000
 11
-271.250000
 21
-185.000000
  0
LINE
  8
0
 10
-271.250000
 20
-185.000000
 11
-6.250000
 21
-185.000000
  0
LINE
  8
0
 10
-271.250000
 20
-155.000015
 11
-6.250000
 21
-155.000015
  0
LINE
  8
0
 10
-271.250000
 20
-133.000000
 11
-6.250000
 21
-133.000000
  0
LINE
  8
0
 10
-226.250000
 20
-133.000000
 11
-226.250000
 21
-185.000000
  0
LINE
  8
0
 10
-204.250000
 20
-133.000000
 11
-204.250000
 21
-185.000000
  0
LINE
  8
0
 10
-182.250000
 20
-133.000000
 11
-182.250000
 21
-185.000000
  0
LINE
  8
0
 10
-160.250000
 20
-133.000000
 11
-160.250000
 21
-185.000000
  0
LINE
  8
0
 10
-138.250000
 20
-133.000000
 11
-138.250000
 21
-185.000000
  0
LINE
  8
0
 10
-116.250000
 20
-133.000000
 11
-116.250000
 21
-185.000000
  0
LINE
  8
0
 10
-94.250000
 20
-133.000000
 11
-94.250000
 21
-185.000000
  0
LINE
  8
0
 10
-6.250000
 20
-133.000000
 11
-6.250000
 21
-185.000000
  0
LINE
  8
0
 10
-271.250000
 20
-175.000015
 11
-6.250000
 21
-175.000015
  0
LINE
  8
0
 10
-271.250031
 20
-165.000000
 11
-6.250000
 21
-165.000000
  0
LINE
  8
0
 10
-271.250000
 20
-141.000000
 11
-234.517441
 21
-141.000000
  0
LINE
  8
0
 10
-234.517502
 20
-141.000046
 11
-226.250092
 21
-155.000061
  0
LINE
  8
0
 10
-72.250000
 20
-133.000000
 11
-72.250000
 21
-185.000000
  0
LINE
  8
0
 10
-50.250000
 20
-133.000000
 11
-50.250000
 21
-185.000000
  0
LINE
  8
0
 10
-28.250000
 20
-133.000000
 11
-28.250000
 21
-185.000000
  0
CIRCLE
  8
0
 10
-10.999990
 20
90.000008
 40
2.749999
  0
CIRCLE
  8
0
 10
42.000023
 20
131.500000
 40
2.749999
  0
ARC
  8
0
 10
-30.555807
 20
85.669891
 40
2.555820
 50
334.384308
 51
34.384220
  0
ARC
  8
0
 10
-37.444145
 20
94.330147
 40
2.555824
 50
154.384338
 51
214.384216
  0
ARC
  8
0
 10
-30.446569
 20
90.000008
 40
9.553414
 50
162.412048
 51
197.587906
  0
ARC
  8
0
 10
-37.444145
 20
85.669891
 40
2.555820
 50
145.615738
 51
205.615479
  0
CIRCLE
  8
0
 62
     2
 10
-59.499962
 20
126.000000
 40
3.999999
  0
CIRCLE
  8
0
 62
     2
 10
-59.499962
 20
54.000008
 40
3.999999
  0
ARC
  8
0
 10
-29.444159
 20
94.330147
 40
2.555823
 50
154.384140
 51
214.384216
  0
ARC
  8
0
 10
-22.446539
 20
90.000008
 40
9.553423
 50
162.412064
 51
197.587875
  0
ARC
  8
0
 10
-29.444159
 20
85.669891
 40
2.555820
 50
145.615738
 51
205.615692
  0
CIRCLE
  8
0
 10
42.000023
 20
48.500000
 40
4.500000
  0
CIRCLE
  8
0
 10
53.999992
 20
90.000008
 40
2.749999
  0
ARC
  8
0
 10
-37.553398
 20
90.000008
 40
9.553423
 50
342.412079
 51
17.587883
  0
CIRCLE
  8
0
 10
53.999992
 20
90.000008
 40
4.500000
  0
ARC
  8
0
 10
-30.555807
 20
94.330147
 40
2.555821
 50
325.615753
 51
25.615705
  0
CIRCLE
  8
0
 10
-10.999990
 20
90.000008
 40
4.500000
  0
CIRCLE
  8
0
 10
42.000023
 20
131.500000
 40
4.500000
  0
CIRCLE
  8
0
 10
42.000023
 20
48.500000
 40
2.749999
  0
CIRCLE
  8
0
 10
-59.499962
 20
126.000000
 40
3.375000
  0
CIRCLE
  8
0
 10
-59.499962
 20
54.000008
 40
3.375000
  0
CIRCLE
  8
0
 10
-148.000061
 20
69.000031
 40
7.250000
  0
CIRCLE
  8
0
 62
     2
 10
-148.000061
 20
131.500031
 40
2.999999
  0
CIRCLE
  8
0
 62
     2
 10
-148.000061
 20
48.500046
 40
2.999999
  0
CIRCLE
  8
0
 10
-148.000061
 20
111.000031
 40
8.000000
  0
CIRCLE
  8
0
 10
-148.000061
 20
111.000031
 40
7.250000
  0
CIRCLE
  8
0
 10
-148.000061
 20
111.000031
 40
8.750000
  0
CIRCLE
  8
0
 10
-148.000061
 20
69.000031
 40
8.750000
  0
CIRCLE
  8
0
 10
-148.000061
 20
69.000031
 40
8.000000
  0
CIRCLE
  8
0
 10
-148.000061
 20
131.500031
 40
2.500000
  0
CIRCLE
  8
0
 10
-148.000061
 20
48.500046
 40
2.500000
  0
ARC
  8
0
 10
186.400116
 20
127.900024
 40
2.100006
 50
90.000000
 51
270.000000
  0
ARC
  8
0
 10
186.400116
 20
127.900024
 40
2.100006
 50
90.000000
 51
270.000000
  0
ARC
  8
0
 10
151.600082
 20
127.900024
 40
2.099998
 50
270.000000
 51
90.000000
  0
CIRCLE
  8
0
 10
169.000122
 20
111.000031
 40
17.500000
  0
CIRCLE
  8
0
 10
169.000122
 20
69.000031
 40
17.500000
  0
ARC
  8
0
 10
186.400116
 20
93.900024
 40
2.099998
 50
90.000000
 51
270.000000
  0
ARC
  8
0
 10
151.600082
 20
93.900024
 40
2.099998
 50
270.000000
 51
90.000000
  0
ARC
  8
0
 10
169.000122
 20
135.383575
 40
2.100006
 50
180.000000
 51
0.000000
  0
ARC
  8
0
 10
186.400116
 20
93.900024
 40
2.099998
 50
90.000000
 51
270.000000
  0
ARC
  8
0
 10
151.600082
 20
93.900024
 40
2.099998
 50
270.000000
 51
90.000000
  0
ARC
  8
0
 10
169.000122
 20
135.383575
 40
2.100006
 50
180.000000
 51
0.000000
  0
ARC
  8
0
 10
151.600082
 20
127.900024
 40
2.099998
 50
270.000000
 51
90.000000
  0
ARC
  8
0
 10
-32.779144
 20
-8.999962
 40
7.220883
 50
159.743805
 51
200.256073
  0
ARC
  8
0
 10
-24.779144
 20
-8.999962
 40
7.220889
 50
159.743805
 51
200.256058
  0
ARC
  8
0
 10
-35.220917
 20
-8.999962
 40
7.220887
 50
339.743835
 51
20.256098
  0
CIRCLE
  8
0
 62
     2
 10
67.999969
 20
1.500053
 40
5.250000
  0
CIRCLE
  8
0
 62
     2
 10
29.999954
 20
1.500053
 40
5.250000
  0
CIRCLE
  8
0
 10
67.999969
 20
1.500053
 40
3.250000
  0
CIRCLE
  8
0
 10
29.999954
 20
1.500053
 40
3.250000
  0
ARC
  8
0
 62
     4
 10
-107.639130
 20
-108.859528
 40
2.050003
 50
180.000000
 51
270.000000
  0
ARC
  8
0
 62
     4
 10
-107.639130
 20
-108.859528
 40
2.050003
 50
270.000000
 51
0.000000
  0
CIRCLE
  8
0
 62
     4
 10
-61.096390
 20
-65.759521
 40
1.250000
  0
CIRCLE
  8
0
 62
     4
 10
-61.096390
 20
-65.759521
 40
1.400000
  0
ARC
  8
0
 62
     4
 10
51.671814
 20
-108.859528
 40
2.049999
 50
180.000000
 51
270.000000
  0
ARC
  8
0
 62
     4
 10
51.671814
 20
-108.859528
 40
2.050003
 50
271.259888
 51
0.000000
  0
CIRCLE
  8
0
 62
     4
 10
114.443695
 20
-61.050507
 40
0.250000
  0
CIRCLE
  8
0
 62
     4
 10
113.831818
 20
-60.391357
 40
0.450000
  0
CIRCLE
  8
0
 62
     4
 10
113.831818
 20
-60.391357
 40
0.250000
  0
ARC
  8
0
 62
     4
 10
114.214539
 20
-60.709503
 40
3.300002
 50
137.014145
 51
222.985855
  0
CIRCLE
  8
0
 62
     4
 10
96.714539
 20
-60.709503
 40
1.250000
  0
CIRCLE
  8
0
 62
     4
 10
96.714539
 20
-60.709503
 40
1.400000
  0
CIRCLE
  8
0
 62
     4
 10
114.121887
 20
-60.709503
 40
1.300000
  0
CIRCLE
  8
0
 62
     4
 10
114.443695
 20
-61.050507
 40
0.450000
  0
TEXT
  8
0
 10
196.250259
 20
180.830002
 40
6.300000
  1
Ver. 1.0
 50
0.000000
 41
1.052632
 51
0.000000
  7
STANDARD
  0
TEXT
  8
0
 10
167.564667
 20
-192.100006
 40
9.000000
  1
KOGANEI CORP.
 50
0.000000
 41
1.052632
 51
0.000000
  7
STANDARD
  0
TEXT
  8
0
 10
-275.449738
 20
180.830002
 40
6.300000
  1
TWIN ROD CYLINDER
 50
0.000000
 41
1.052632
 51
0.000000
  7
STANDARD
  0
TEXT
  8
0
 10
-258.127045
 20
-154.550003
 40
4.500000
  1
PLACE
 50
0.000000
 41
1.052632
 51
0.000000
  7
STANDARD
  0
TEXT
  8
0
 10
-220.142654
 20
-147.050003
 40
4.500000
  1
10
 50
0.000000
 41
1.052632
 51
0.000000
  7
STANDARD
  0
TEXT
  8
0
 10
-212.642654
 20
-131.050003
 40
4.500000
  1
STRETCH LIST
 50
0.000000
 41
1.052632
 51
0.000000
  7
STANDARD
  0
TEXT
  8
0
 10
-270.049713
 20
155.830002
 40
6.300000
  1
MODEL:ATBDA32*ST(10)
 50
0.000000
 41
1.052632
 51
0.000000
  7
STANDARD
  0
TEXT
  8
0
 10
-26.642656
 20
-132.050003
 40
4.500000
  1
(mm)
 50
0.000000
 41
1.052632
 51
0.000000
  7
STANDARD
  0
TEXT
  8
0
 10
-267.127045
 20
-140.050003
 40
4.500000
  1
STROKE
 50
0.000000
 41
1.052632
 51
0.000000
  7
STANDARD
  0
TEXT
  8
0
 10
-267.127045
 20
-148.550003
 40
4.500000
  1
STRETCH
 50
0.000000
 41
1.052632
 51
0.000000
  7
STANDARD
  0
TEXT
  8
0
 10
-251.585724
 20
-163.320007
 40
4.800000
  1
A
 50
0.000000
 41
1.052632
 51
0.000000
  7
STANDARD
  0
TEXT
  8
0
 10
-251.585724
 20
-173.320007
 40
4.800000
  1
B
 50
0.000000
 41
1.052632
 51
0.000000
  7
STANDARD
  0
TEXT
  8
0
 10
-251.585724
 20
-183.320007
 40
4.800000
  1
C
 50
0.000000
 41
1.052632
 51
0.000000
  7
STANDARD
  0
TEXT
  8
0
 10
-198.142853
 20
-147.050003
 40
4.500000
  1
20
 50
0.000000
 41
1.052632
 51
0.000000
  7
STANDARD
  0
TEXT
  8
0
 10
-176.142853
 20
-147.050003
 40
4.500000
  1
30
 50
0.000000
 41
1.052632
 51
0.000000
  7
STANDARD
  0
TEXT
  8
0
 10
-154.142853
 20
-147.050003
 40
4.500000
  1
40
 50
0.000000
 41
1.052632
 51
0.000000
  7
STANDARD
  0
TEXT
  8
0
 10
-132.142853
 20
-147.050003
 40
4.500000
  1
50
 50
0.000000
 41
1.052632
 51
0.000000
  7
STANDARD
  0
TEXT
  8
0
 10
-110.142853
 20
-147.050003
 40
4.500000
  1
60
 50
0.000000
 41
1.052632
 51
0.000000
  7
STANDARD
  0
TEXT
  8
0
 10
-24.392857
 20
-147.050003
 40
4.500000
  1
100
 50
0.000000
 41
1.052632
 51
0.000000
  7
STANDARD
  0
TEXT
  8
0
 10
-22.142857
 20
-183.049973
 40
4.500000
  1
90
 50
0.000000
 41
1.052632
 51
0.000000
  7
STANDARD
  0
TEXT
  8
0
 10
-217.892853
 20
-163.050003
 40
4.500000
  1
0
 50
0.000000
 41
1.052632
 51
0.000000
  7
STANDARD
  0
TEXT
  8
0
 10
-217.892853
 20
-173.049988
 40
4.500000
  1
0
 50
0.000000
 41
1.052632
 51
0.000000
  7
STANDARD
  0
TEXT
  8
0
 10
-217.892853
 20
-183.049973
 40
4.500000
  1
0
 50
0.000000
 41
1.052632
 51
0.000000
  7
STANDARD
  0
TEXT
  8
0
 10
-198.142853
 20
-183.049973
 40
4.500000
  1
10
 50
0.000000
 41
1.052632
 51
0.000000
  7
STANDARD
  0
TEXT
  8
0
 10
-176.142853
 20
-183.049973
 40
4.500000
  1
20
 50
0.000000
 41
1.052632
 51
0.000000
  7
STANDARD
  0
TEXT
  8
0
 10
-154.142853
 20
-183.049973
 40
4.500000
  1
30
 50
0.000000
 41
1.052632
 51
0.000000
  7
STANDARD
  0
TEXT
  8
0
 10
-132.142853
 20
-183.049973
 40
4.500000
  1
40
 50
0.000000
 41
1.052632
 51
0.000000
  7
STANDARD
  0
TEXT
  8
0
 10
-110.142853
 20
-183.049973
 40
4.500000
  1
50
 50
0.000000
 41
1.052632
 51
0.000000
  7
STANDARD
  0
TEXT
  8
0
 62
     3
 10
-55.862728
 20
168.753006
 40
4.500000
  1
STRETCH LINE C
 50
0.000000
 41
1.052632
 51
0.000000
  7
STANDARD
  0
TEXT
  8
0
 62
     3
 10
9.137272
 20
158.753006
 40
4.500000
  1
STRETCH LINE A
 50
0.000000
 41
1.052632
 51
0.000000
  7
STANDARD
  0
TEXT
  8
0
 62
     3
 10
40.137272
 20
148.753006
 40
4.500000
  1
STRETCH LINE B
 50
0.000000
 41
1.052632
 51
0.000000
  7
STANDARD
  0
TEXT
  8
0
 10
-88.142853
 20
-183.049973
 40
4.500000
  1
60
 50
0.000000
 41
1.052632
 51
0.000000
  7
STANDARD
  0
TEXT
  8
0
 10
-88.142853
 20
-147.050003
 40
4.500000
  1
70
 50
0.000000
 41
1.052632
 51
0.000000
  7
STANDARD
  0
TEXT
  8
0
 10
-66.142853
 20
-183.049973
 40
4.500000
  1
70
 50
0.000000
 41
1.052632
 51
0.000000
  7
STANDARD
  0
TEXT
  8
0
 10
-66.142853
 20
-147.050003
 40
4.500000
  1
80
 50
0.000000
 41
1.052632
 51
0.000000
  7
STANDARD
  0
TEXT
  8
0
 10
-44.142857
 20
-183.049973
 40
4.500000
  1
80
 50
0.000000
 41
1.052632
 51
0.000000
  7
STANDARD
  0
TEXT
  8
0
 10
-44.142857
 20
-147.050003
 40
4.500000
  1
90
 50
0.000000
 41
1.052632
 51
0.000000
  7
STANDARD
  0
TEXT
  8
0
 10
-195.892853
 20
-163.050003
 40
4.500000
  1
0
 50
0.000000
 41
1.052632
 51
0.000000
  7
STANDARD
  0
TEXT
  8
0
 10
-173.892853
 20
-163.050003
 40
4.500000
  1
5
 50
0.000000
 41
1.052632
 51
0.000000
  7
STANDARD
  0
TEXT
  8
0
 10
-198.142853
 20
-173.049988
 40
4.500000
  1
10
 50
0.000000
 41
1.052632
 51
0.000000
  7
STANDARD
  0
TEXT
  8
0
 10
-176.142853
 20
-173.049988
 40
4.500000
  1
15
 50
0.000000
 41
1.052632
 51
0.000000
  7
STANDARD
  0
TEXT
  8
0
 10
-154.142853
 20
-163.050003
 40
4.500000
  1
10
 50
0.000000
 41
1.052632
 51
0.000000
  7
STANDARD
  0
TEXT
  8
0
 10
-132.142853
 20
-163.050003
 40
4.500000
  1
15
 50
0.000000
 41
1.052632
 51
0.000000
  7
STANDARD
  0
TEXT
  8
0
 10
-110.142853
 20
-163.050003
 40
4.500000
  1
20
 50
0.000000
 41
1.052632
 51
0.000000
  7
STANDARD
  0
TEXT
  8
0
 10
-88.142853
 20
-163.050003
 40
4.500000
  1
25
 50
0.000000
 41
1.052632
 51
0.000000
  7
STANDARD
  0
TEXT
  8
0
 10
-66.142853
 20
-163.050003
 40
4.500000
  1
30
 50
0.000000
 41
1.052632
 51
0.000000
  7
STANDARD
  0
TEXT
  8
0
 10
-44.142857
 20
-163.050003
 40
4.500000
  1
35
 50
0.000000
 41
1.052632
 51
0.000000
  7
STANDARD
  0
TEXT
  8
0
 10
-22.142857
 20
-163.050003
 40
4.500000
  1
40
 50
0.000000
 41
1.052632
 51
0.000000
  7
STANDARD
  0
TEXT
  8
0
 10
-154.142853
 20
-173.049988
 40
4.500000
  1
20
 50
0.000000
 41
1.052632
 51
0.000000
  7
STANDARD
  0
TEXT
  8
0
 10
-132.142853
 20
-173.049988
 40
4.500000
  1
25
 50
0.000000
 41
1.052632
 51
0.000000
  7
STANDARD
  0
TEXT
  8
0
 10
-110.142853
 20
-173.049988
 40
4.500000
  1
30
 50
0.000000
 41
1.052632
 51
0.000000
  7
STANDARD
  0
TEXT
  8
0
 10
-88.142853
 20
-173.049988
 40
4.500000
  1
35
 50
0.000000
 41
1.052632
 51
0.000000
  7
STANDARD
  0
TEXT
  8
0
 10
-66.142853
 20
-173.049988
 40
4.500000
  1
40
 50
0.000000
 41
1.052632
 51
0.000000
  7
STANDARD
  0
TEXT
  8
0
 10
-44.142857
 20
-173.049988
 40
4.500000
  1
45
 50
0.000000
 41
1.052632
 51
0.000000
  7
STANDARD
  0
TEXT
  8
0
 10
-22.142857
 20
-173.049988
 40
4.500000
  1
50
 50
0.000000
 41
1.052632
 51
0.000000
  7
STANDARD
  0
ENDSEC
  0
EOF
