  0
SECTION
  2
HEADER
  0
ENDSEC
  0
SECTION
  2
TABLES
  0
TABLE
  2
LTYPE
 70
     4
  0
LTYPE
  2
CONTINUOUS
 70
    64
  3
Solid line
 72
    65
 73
     0
 40
0.000000
  0
LTYPE
  2
DASHED
 70
    64
  3
__ __ __ __ __ __ __ __ __ __ __ __ __ __ __
 72
    65
 73
     2
 40
3.500000
 49
2.000000
 49
-1.500000
  0
LTYPE
  2
CENTER
 70
    64
  3
____ _ ____ _ ____ _ ____ _ ____ _ ____ _ ____
 72
    65
 73
     4
 40
17.500000
 49
13.000000
 49
-1.500000
 49
1.500000
 49
-1.500000
  0
LTYPE
  2
PHANTOM
 70
    64
  3
_____ _ _ _____ _ _ _____ _ _ _____ _ _ ____  
 72
    65
 73
     6
 40
15.500000
 49
8.000000
 49
-1.500000
 49
1.500000
 49
-1.500000
 49
1.500000
 49
-1.500000
  0
LTYPE
  2
DASHED1
 70
    64
  3
__ __ __ __ __ __ __ __ __ __ __ __ __ __ __
 72
    65
 73
     2
 40
1.500000
 49
1.000000
 49
-0.500000
  0
LTYPE
  2
DASHED2
 70
    64
  3
__ __ __ __ __ __ __ __ __ __ __ __ __ __ __
 72
    65
 73
     2
 40
3.500000
 49
2.500000
 49
-1.000000
  0
LTYPE
  2
DASHED3
 70
    64
  3
__ __ __ __ __ __ __ __ __ __ __ __ __ __ __
 72
    65
 73
     2
 40
6.000000
 49
4.000000
 49
-2.000000
  0
LTYPE
  2
DASHED4
 70
    64
  3
__ __ __ __ __ __ __ __ __ __ __ __ __ __ __
 72
    65
 73
     2
 40
12.000000
 49
10.000000
 49
-2.000000
  0
LTYPE
  2
DASHED5
 70
    64
  3
__ __ __ __ __ __ __ __ __ __ __ __ __ __ __
 72
    65
 73
     2
 40
17.000000
 49
15.000000
 49
-2.000000
  0
LTYPE
  2
DASHED6
 70
    64
  3
__ __ __ __ __ __ __ __ __ __ __ __ __ __ __
 72
    65
 73
     2
 40
29.000000
 49
27.000000
 49
-2.000000
  0
LTYPE
  2
PHANTOM1
 70
    64
  3
_____ _ _ _____ _ _ _____ _ _ _____ _ _ ____  
 72
    65
 73
     6
 40
31.000000
 49
25.000000
 49
-1.500000
 49
1.000000
 49
-1.000000
 49
1.000000
 49
-1.500000
  0
LTYPE
  2
PHANTOM2
 70
    64
  3
_____ _ _ _____ _ _ _____ _ _ _____ _ _ ____  
 72
    65
 73
     6
 40
36.000000
 49
27.000000
 49
-1.500000
 49
2.500000
 49
-1.000000
 49
2.500000
 49
-1.500000
  0
LTYPE
  2
PHANTOM3
 70
    64
  3
_____ _ _ _____ _ _ _____ _ _ _____ _ _ ____  
 72
    65
 73
     6
 40
78.000000
 49
64.000000
 49
-2.000000
 49
4.000000
 49
-2.000000
 49
4.000000
 49
-2.000000
  0
LTYPE
  2
CENTER1
 70
    64
  3
____ _ ____ _ ____ _ ____ _ ____ _ ____ _ ____
 72
    65
 73
     4
 40
19.000000
 49
14.000000
 49
-1.000000
 49
3.000000
 49
-1.000000
  0
LTYPE
  2
CENTER2
 70
    64
  3
____ _ ____ _ ____ _ ____ _ ____ _ ____ _ ____
 72
    65
 73
     4
 40
28.500000
 49
25.000000
 49
-1.000000
 49
1.500000
 49
-1.000000
  0
LTYPE
  2
CENTER3
 70
    64
  3
____ _ ____ _ ____ _ ____ _ ____ _ ____ _ ____
 72
    65
 73
     4
 40
31.500000
 49
27.000000
 49
-1.000000
 49
2.500000
 49
-1.000000
  0
LTYPE
  2
CENTER4
 70
    64
  3
____ _ ____ _ ____ _ ____ _ ____ _ ____ _ ____
 72
    65
 73
     4
 40
50.000000
 49
45.000000
 49
-1.000000
 49
3.000000
 49
-1.000000
  0
LTYPE
  2
CENTER5
 70
    64
  3
____ _ ____ _ ____ _ ____ _ ____ _ ____ _ ____
 72
    65
 73
     4
 40
100.000000
 49
92.000000
 49
-2.000000
 49
4.000000
 49
-2.000000
  0
LTYPE
  2
SBK1
 70
    64
  3
______ _ _ _ ______ _ _ _ ______ _ _ _ _____  
 72
    65
 73
     8
 40
60.500000
 49
45.000000
 49
-2.000000
 49
2.500000
 49
-2.000000
 49
2.500000
 49
-2.000000
 49
2.500000
 49
-2.000000
  0
LTYPE
  2
SBK2
 70
    64
  3
______ _ _ _ ______ _ _ _ ______ _ _ _ _____  
 72
    65
 73
     8
 40
84.000000
 49
64.000000
 49
-2.000000
 49
4.000000
 49
-2.000000
 49
4.000000
 49
-2.000000
 49
4.000000
 49
-2.000000
  0
LTYPE
  2
STCH
 70
    64
  3
__ __ __ __ __ __ __ __ __ __ __ __ __ __ __
 72
    65
 73
     2
 40
3.000000
 49
1.000000
 49
-2.000000
  0
LTYPE
  2
MTCH
 70
    64
  3
_____ _ _ _____ _ _ _____ _ _ _____ _ _ ____  
 72
    65
 73
     6
 40
80.000000
 49
66.000000
 49
-2.000000
 49
4.000000
 49
-2.000000
 49
4.000000
 49
-2.000000
  0
ENDTAB
  0
TABLE
  2
LAYER
 70
     1
  0
LAYER
  2
0
 70
     0
 62
     7
  6
CONTINUOUS
  0
ENDTAB
  0
TABLE
  2
STYLE
 70
     1
  0
STYLE
  2
STANDARD
 70
     0
 40
0.000000
 41
1.000000
 50
0.000000
 71
     0
 42
0.200000
  3
txt
  4
BIGFONT
  0
ENDTAB
  0
TABLE
  2
VIEW
 70
     0
  0
ENDTAB
  0
ENDSEC
  0
SECTION
  2
BLOCKS
  0
ENDSEC
  0
SECTION
  2
ENTITIES
  0
LINE
  8
0
  6
PHANTOM
 62
     3
 10
-39.500000
 20
150.500000
 11
-39.500000
 21
36.500000
  0
LINE
  8
0
 10
-36.999992
 20
94.118790
 11
-36.999992
 21
85.881180
  0
LINE
  8
0
 10
-46.999962
 20
93.999985
 11
-46.999962
 21
85.999969
  0
LINE
  8
0
 10
-47.999992
 20
120.499969
 11
-47.999992
 21
59.499969
  0
LINE
  8
0
 10
-57.999992
 20
120.499969
 11
-57.999992
 21
59.499969
  0
LINE
  8
0
  6
CENTER
 62
     2
 10
-56.234993
 20
67.999969
 11
-50.201553
 21
67.999969
  0
LINE
  8
0
  6
CENTER
 62
     2
 10
-56.583069
 20
111.999954
 11
-49.853485
 21
111.999954
  0
LINE
  8
0
 10
-47.999977
 20
98.999985
 11
-27.999985
 21
98.999985
  0
LINE
  8
0
 10
-47.999977
 20
108.999985
 11
-27.999985
 21
108.999985
  0
LINE
  8
0
 10
-47.999977
 20
70.999977
 11
-27.999985
 21
70.999977
  0
LINE
  8
0
 10
-47.999977
 20
80.999977
 11
-27.999985
 21
80.999977
  0
LINE
  8
0
 10
-47.999977
 20
93.999985
 11
-46.999977
 21
93.999985
  0
LINE
  8
0
 10
-47.999977
 20
85.999977
 11
-46.999977
 21
85.999977
  0
LINE
  8
0
  6
CENTER
 62
     2
 10
-64.795906
 20
103.999985
 11
-22.599987
 21
103.999985
  0
LINE
  8
0
  6
CENTER
 62
     2
 10
-65.180794
 20
75.999977
 11
-22.999985
 21
75.999977
  0
LINE
  8
0
  6
CENTER
 62
     2
 10
-52.999992
 20
115.570290
 11
-52.999992
 21
108.260567
  0
LINE
  8
0
  6
CENTER
 62
     2
 10
-52.999992
 20
71.363785
 11
-52.999992
 21
64.402115
  0
LINE
  8
0
 10
-47.999977
 20
106.861794
 11
-45.999985
 21
106.861794
  0
LINE
  8
0
 10
-47.999977
 20
101.138138
 11
-45.999985
 21
101.138138
  0
LINE
  8
0
 10
-47.999977
 20
78.861786
 11
-45.999985
 21
78.861786
  0
LINE
  8
0
 10
-47.999977
 20
73.138153
 11
-45.999985
 21
73.138153
  0
LINE
  8
0
 10
-45.999992
 20
106.861794
 11
-45.999992
 21
101.138153
  0
LINE
  8
0
 10
-45.999992
 20
78.861786
 11
-45.999992
 21
73.138145
  0
LINE
  8
0
 10
-36.711315
 20
94.618797
 11
-33.499992
 21
94.618797
  0
LINE
  8
0
 10
-36.711315
 20
92.309380
 11
-33.499992
 21
92.309380
  0
LINE
  8
0
 10
-36.711315
 20
87.690567
 11
-33.499992
 21
87.690567
  0
LINE
  8
0
 10
-36.711315
 20
85.381165
 11
-33.499992
 21
85.381165
  0
LINE
  8
0
 10
-33.499992
 20
94.618790
 11
-33.499992
 21
85.381165
  0
LINE
  8
0
 10
-36.999985
 20
94.118759
 11
-36.711292
 21
94.618797
  0
LINE
  8
0
 10
-37.000015
 20
85.881111
 11
-36.711346
 21
85.381111
  0
LINE
  8
0
 10
-57.999977
 20
59.499973
 11
-47.999977
 21
59.499973
  0
LINE
  8
0
 10
-57.999977
 20
120.499969
 11
-47.999977
 21
120.499969
  0
LINE
  8
0
  6
PHANTOM
 62
     3
 10
26.000000
 20
99.999985
 11
26.000000
 21
79.999985
  0
LINE
  8
0
  6
PHANTOM
 62
     3
 10
12.500000
 20
140.500000
 11
12.500000
 21
38.750000
  0
LINE
  8
0
  6
CENTER
 62
     2
 10
-13.000008
 20
95.800003
 11
-13.000008
 21
83.800003
  0
LINE
  8
0
  6
CENTER
 62
     2
 10
37.000038
 20
96.199997
 11
37.000038
 21
84.010818
  0
LINE
  8
0
  6
CENTER
 62
     2
 10
27.000023
 20
122.999992
 11
27.000023
 21
111.101402
  0
LINE
  8
0
  6
CENTER
 62
     2
 10
21.199997
 20
62.499981
 11
32.805332
 21
62.499981
  0
LINE
  8
0
  6
CENTER
 62
     2
 10
20.506397
 20
117.499985
 11
33.200012
 21
117.499985
  0
LINE
  8
0
  6
CENTER
 62
     2
 10
27.000023
 20
68.473381
 11
27.000023
 21
56.280212
  0
LINE
  8
0
 10
-27.499931
 20
121.000000
 11
61.285728
 21
121.000000
  0
LINE
  8
0
 10
-27.500000
 20
58.999985
 11
61.285728
 21
58.999985
  0
LINE
  8
0
 10
61.285709
 20
120.999985
 11
62.000004
 21
120.285706
  0
LINE
  8
0
 10
62.000042
 20
59.714325
 11
61.285748
 21
59.000034
  0
LINE
  8
0
  6
CENTER
 62
     2
 10
-62.474846
 20
89.999985
 11
65.632591
 21
89.999985
  0
LINE
  8
0
 10
-28.000008
 20
115.799980
 11
23.379234
 21
115.799980
  0
LINE
  8
0
 10
-27.999985
 20
112.599991
 11
62.000015
 21
112.599991
  0
LINE
  8
0
 10
-28.000008
 20
92.599991
 11
-16.039732
 21
92.599991
  0
LINE
  8
0
 10
-27.999985
 20
95.799980
 11
62.000015
 21
95.799980
  0
LINE
  8
0
 10
30.620796
 20
115.799980
 11
62.000015
 21
115.799980
  0
LINE
  8
0
 10
-9.960281
 20
92.599991
 11
33.960312
 21
92.599991
  0
LINE
  8
0
 10
40.039764
 20
92.599991
 11
62.000015
 21
92.599991
  0
LINE
  8
0
 10
-27.999977
 20
120.499969
 11
-27.999977
 21
59.499969
  0
LINE
  8
0
 10
-30.479988
 20
94.118790
 11
-30.479988
 21
85.881180
  0
LINE
  8
0
 10
-30.191322
 20
94.618797
 11
-28.288681
 21
94.618797
  0
LINE
  8
0
 10
-30.191322
 20
85.381165
 11
-28.288658
 21
85.381165
  0
LINE
  8
0
 10
-28.000031
 20
94.118774
 11
-28.288704
 21
94.618767
  0
LINE
  8
0
 10
-27.999958
 20
85.881157
 11
-28.288631
 21
85.381149
  0
LINE
  8
0
 10
-30.479946
 20
94.118797
 11
-30.191275
 21
94.618790
  0
LINE
  8
0
 10
-30.480074
 20
85.881134
 11
-30.191387
 21
85.381119
  0
LINE
  8
0
 10
-30.191322
 20
87.690567
 11
-28.288658
 21
87.690567
  0
LINE
  8
0
 10
-30.191322
 20
92.309380
 11
-28.288658
 21
92.309380
  0
LINE
  8
0
 10
-33.499992
 20
92.499962
 11
-30.479996
 21
92.499962
  0
LINE
  8
0
 10
-33.499992
 20
87.499962
 11
-30.479996
 21
87.499962
  0
LINE
  8
0
 62
     2
 10
-33.499992
 20
87.904968
 11
-30.479996
 21
87.904968
  0
LINE
  8
0
 62
     2
 10
-33.499992
 20
92.094994
 11
-30.479996
 21
92.094994
  0
LINE
  8
0
 10
-27.499973
 20
120.999954
 11
-27.999962
 21
120.499969
  0
LINE
  8
0
 10
-27.999987
 20
59.499973
 11
-27.499981
 21
58.999969
  0
LINE
  8
0
 10
62.000015
 20
120.285652
 11
62.000015
 21
59.714272
  0
LINE
  8
0
  6
PHANTOM
 62
     3
 10
26.000000
 20
79.999985
 11
36.000000
 21
79.999985
  0
LINE
  8
0
  6
PHANTOM
 62
     3
 10
36.000000
 20
130.500000
 11
36.000000
 21
99.999985
  0
LINE
  8
0
  6
PHANTOM
 62
     3
 10
26.000000
 20
99.999985
 11
36.000000
 21
99.999985
  0
LINE
  8
0
  6
PHANTOM
 62
     3
 10
36.000000
 20
79.999985
 11
36.000000
 21
36.500000
  0
LINE
  8
0
 62
     2
 10
-45.999989
 20
78.861786
 11
-47.999981
 21
73.138153
  0
LINE
  8
0
 62
     2
 10
-45.999985
 20
73.138153
 11
-47.999977
 21
78.861786
  0
LINE
  8
0
 62
     2
 10
-45.999985
 20
101.138176
 11
-47.999981
 21
106.861816
  0
LINE
  8
0
 62
     2
 10
-45.999996
 20
106.861816
 11
-47.999985
 21
101.138184
  0
LINE
  8
0
  6
CENTER
 62
     2
 10
-151.900070
 20
90.000023
 11
-119.900063
 21
90.000023
  0
LINE
  8
0
 10
-147.285782
 20
121.000015
 11
-137.100052
 21
121.000015
  0
LINE
  8
0
  6
CENTER
 62
     2
 10
-142.371841
 20
76.000038
 11
-128.855530
 21
76.000038
  0
LINE
  8
0
  6
CENTER
 62
     2
 10
-142.168594
 20
104.000046
 11
-128.855530
 21
104.000046
  0
LINE
  8
0
  6
CENTER
 62
     2
 10
-135.500076
 20
125.800018
 11
-135.500076
 21
52.600029
  0
LINE
  8
0
 10
-123.500069
 20
120.500046
 11
-123.500069
 21
59.500031
  0
LINE
  8
0
 10
-147.500076
 20
120.500046
 11
-147.500076
 21
59.500031
  0
LINE
  8
0
 10
-123.000069
 20
120.285728
 11
-123.000069
 21
115.800034
  0
LINE
  8
0
 10
-148.000076
 20
120.285728
 11
-148.000076
 21
115.800034
  0
LINE
  8
0
 10
-123.000069
 20
92.600029
 11
-123.000069
 21
59.714310
  0
LINE
  8
0
 10
-148.000076
 20
92.600044
 11
-148.000076
 21
59.714310
  0
LINE
  8
0
  6
CENTER
 62
     2
 10
-138.713303
 20
117.500023
 11
-132.107605
 21
117.500023
  0
LINE
  8
0
  6
CENTER
 62
     2
 10
-138.713303
 20
62.500019
 11
-132.615723
 21
62.500019
  0
LINE
  8
0
 10
-138.000076
 20
105.443413
 11
-138.000076
 21
102.556671
  0
LINE
  8
0
 10
-133.000061
 20
105.443413
 11
-133.000061
 21
102.556671
  0
LINE
  8
0
 10
-135.500137
 20
106.886803
 11
-133.000107
 21
105.443413
  0
LINE
  8
0
 10
-138.000092
 20
102.556656
 11
-135.500076
 21
101.113266
  0
LINE
  8
0
 10
-138.000107
 20
105.443527
 11
-135.500107
 21
106.886894
  0
LINE
  8
0
 10
-135.500092
 20
101.113342
 11
-133.000107
 21
102.556709
  0
LINE
  8
0
 10
-138.000076
 20
77.443413
 11
-138.000076
 21
74.556664
  0
LINE
  8
0
 10
-133.000061
 20
77.443413
 11
-133.000061
 21
74.556664
  0
LINE
  8
0
 10
-135.500061
 20
78.886757
 11
-133.000076
 21
77.443382
  0
LINE
  8
0
 10
-138.000092
 20
74.556671
 11
-135.500076
 21
73.113289
  0
LINE
  8
0
 10
-138.000092
 20
77.443512
 11
-135.500092
 21
78.886887
  0
LINE
  8
0
 10
-135.500076
 20
73.113358
 11
-133.000076
 21
74.556732
  0
LINE
  8
0
 10
-147.500076
 20
59.500011
 11
-123.500069
 21
59.500011
  0
LINE
  8
0
 10
-147.285782
 20
59.000023
 11
-123.714363
 21
59.000023
  0
LINE
  8
0
 10
-147.500076
 20
120.500031
 11
-123.500069
 21
120.500031
  0
LINE
  8
0
 10
-147.285751
 20
120.999985
 11
-148.000046
 21
120.285706
  0
LINE
  8
0
 10
-123.714355
 20
121.000023
 11
-123.000084
 21
120.285751
  0
LINE
  8
0
 10
-148.000061
 20
59.714344
 11
-147.285767
 21
59.000053
  0
LINE
  8
0
 10
-123.000092
 20
59.714382
 11
-123.714394
 21
59.000092
  0
LINE
  8
0
 10
-147.999985
 20
95.800041
 11
-147.500015
 21
95.800041
  0
LINE
  8
0
 10
-147.999985
 20
92.600052
 11
-147.500015
 21
92.600052
  0
LINE
  8
0
 10
-123.000069
 20
112.600029
 11
-123.000069
 21
95.800041
  0
LINE
  8
0
 10
-123.000191
 20
115.800041
 11
-123.500160
 21
115.800041
  0
LINE
  8
0
 10
-123.000191
 20
112.600029
 11
-123.500160
 21
112.600029
  0
LINE
  8
0
 10
-123.000175
 20
95.800041
 11
-123.500130
 21
95.800041
  0
LINE
  8
0
 10
-123.000175
 20
92.600029
 11
-123.500130
 21
92.600029
  0
LINE
  8
0
 10
-137.100052
 20
120.999924
 11
-137.100052
 21
120.499962
  0
LINE
  8
0
 10
-133.900024
 20
120.999924
 11
-133.900024
 21
120.499962
  0
LINE
  8
0
 10
-147.999985
 20
112.600052
 11
-147.500015
 21
112.600052
  0
LINE
  8
0
 10
-147.999985
 20
115.800041
 11
-147.500015
 21
115.800041
  0
LINE
  8
0
 10
-148.000076
 20
112.600052
 11
-148.000076
 21
95.800041
  0
LINE
  8
0
 10
-133.900055
 20
121.000015
 11
-123.714348
 21
121.000015
  0
LINE
  8
0
  6
CENTER
 62
     2
 10
126.500107
 20
125.309715
 11
126.500107
 21
53.084957
  0
LINE
  8
0
 10
114.000107
 20
120.285713
 11
114.000107
 21
115.799980
  0
LINE
  8
0
 10
139.000107
 20
120.285713
 11
139.000107
 21
115.799995
  0
LINE
  8
0
 10
114.714371
 20
121.000000
 11
124.900070
 21
121.000000
  0
LINE
  8
0
  6
CENTER
 62
     2
 10
112.214279
 20
104.000008
 11
141.285080
 21
104.000008
  0
LINE
  8
0
  6
CENTER
 62
     2
 10
110.793015
 20
89.999985
 11
142.964737
 21
89.999985
  0
LINE
  8
0
  6
CENTER
 62
     2
 10
112.214279
 20
76.000000
 11
141.543503
 21
76.000000
  0
LINE
  8
0
 10
114.000107
 20
92.599968
 11
114.000107
 21
59.714272
  0
LINE
  8
0
 10
139.000107
 20
92.599991
 11
139.000107
 21
59.714272
  0
LINE
  8
0
 10
128.100113
 20
121.000000
 11
138.285843
 21
121.000000
  0
LINE
  8
0
 10
114.714401
 20
58.999985
 11
138.285843
 21
58.999985
  0
LINE
  8
0
 10
114.714386
 20
121.000008
 11
114.000092
 21
120.285713
  0
LINE
  8
0
 10
138.285767
 20
121.000000
 11
139.000061
 21
120.285706
  0
LINE
  8
0
 10
114.000099
 20
59.714241
 11
114.714386
 21
58.999962
  0
LINE
  8
0
 10
139.000092
 20
59.714306
 11
138.285797
 21
59.000011
  0
LINE
  8
0
 10
138.000076
 20
92.099983
 11
136.400101
 21
92.099983
  0
LINE
  8
0
 10
138.500137
 20
92.599953
 11
138.000153
 21
92.099968
  0
LINE
  8
0
 10
138.499954
 20
95.799812
 11
137.999939
 21
96.299805
  0
LINE
  8
0
 10
138.000076
 20
96.299988
 11
136.400101
 21
96.299988
  0
LINE
  8
0
 10
139.000046
 20
95.800003
 11
138.500076
 21
95.800003
  0
LINE
  8
0
 10
139.000046
 20
92.599991
 11
138.500229
 21
92.599991
  0
LINE
  8
0
 10
128.600113
 20
119.983543
 11
128.600113
 21
118.383553
  0
LINE
  8
0
 10
128.099960
 20
120.483376
 11
128.599945
 21
119.983391
  0
LINE
  8
0
 10
124.400131
 20
119.983566
 11
124.400131
 21
118.383553
  0
LINE
  8
0
 10
124.400124
 20
119.983490
 11
124.900146
 21
120.483513
  0
LINE
  8
0
 10
124.900070
 20
121.000000
 11
124.900070
 21
120.483574
  0
LINE
  8
0
 10
128.100113
 20
121.000000
 11
128.100113
 21
120.483551
  0
LINE
  8
0
  6
CENTER
 62
     2
 10
110.425369
 20
94.199989
 11
142.964737
 21
94.199989
  0
LINE
  8
0
  6
CENTER
 62
     2
 10
110.793015
 20
114.199989
 11
142.964737
 21
114.199989
  0
LINE
  8
0
 10
138.000076
 20
112.099983
 11
136.400101
 21
112.099983
  0
LINE
  8
0
 10
139.000046
 20
112.599991
 11
138.500229
 21
112.599991
  0
LINE
  8
0
 10
138.500153
 20
112.599945
 11
138.000168
 21
112.099960
  0
LINE
  8
0
 10
138.499954
 20
115.799843
 11
137.999969
 21
116.299835
  0
LINE
  8
0
 10
137.999802
 20
116.299988
 11
136.400101
 21
116.299988
  0
LINE
  8
0
 10
139.000107
 20
115.800003
 11
138.500076
 21
115.800003
  0
LINE
  8
0
 10
139.000107
 20
112.599991
 11
139.000107
 21
95.800003
  0
LINE
  8
0
 10
114.000107
 20
112.599968
 11
114.000107
 21
95.799973
  0
LINE
  8
0
 10
115.000259
 20
112.099983
 11
116.570145
 21
112.099983
  0
LINE
  8
0
 10
114.000107
 20
112.599991
 11
114.500107
 21
112.599991
  0
LINE
  8
0
 10
114.000107
 20
115.799980
 11
114.499832
 21
115.799980
  0
LINE
  8
0
 10
114.500069
 20
112.599983
 11
115.000061
 21
112.099991
  0
LINE
  8
0
 10
115.000168
 20
112.099983
 11
116.600113
 21
112.099983
  0
LINE
  8
0
 10
115.000168
 20
116.299965
 11
116.600113
 21
116.299965
  0
LINE
  8
0
 10
114.499908
 20
115.800087
 11
114.999924
 21
116.300102
  0
LINE
  8
0
 10
115.000259
 20
92.099983
 11
116.570145
 21
92.099983
  0
LINE
  8
0
 10
114.000107
 20
92.599991
 11
114.500107
 21
92.599991
  0
LINE
  8
0
 10
114.000107
 20
95.799980
 11
114.499832
 21
95.799980
  0
LINE
  8
0
 10
114.500069
 20
92.599983
 11
115.000046
 21
92.099998
  0
LINE
  8
0
 10
115.000168
 20
92.099983
 11
116.600113
 21
92.099983
  0
LINE
  8
0
 10
115.000168
 20
96.299965
 11
116.600113
 21
96.299965
  0
LINE
  8
0
 10
114.499886
 20
95.800087
 11
114.999908
 21
96.300110
  0
LINE
  8
0
  6
PHANTOM
 62
     3
 10
12.500000
 20
38.750000
 11
12.500000
 21
-8.499989
  0
LINE
  8
0
  6
PHANTOM
 62
     3
 10
-39.500000
 20
36.500000
 11
-39.500000
 21
-8.499989
  0
LINE
  8
0
  6
PHANTOM
 62
     3
 10
36.000000
 20
36.500000
 11
36.000000
 21
-8.499989
  0
LINE
  8
0
 10
-58.000023
 20
26.000008
 11
-58.000023
 21
2.000023
  0
LINE
  8
0
 10
-47.000023
 20
9.900017
 11
-47.000023
 21
4.000023
  0
LINE
  8
0
 10
-48.000023
 20
26.000008
 11
-48.000023
 21
18.100037
  0
LINE
  8
0
 10
-28.000008
 20
25.785728
 11
-28.000008
 21
2.214302
  0
LINE
  8
0
 10
-37.000023
 20
9.000023
 11
-37.000023
 21
4.500023
  0
LINE
  8
0
  6
CENTER
 62
     2
 10
-61.400024
 20
14.000015
 11
66.739716
 21
14.000015
  0
LINE
  8
0
 10
-27.285728
 20
1.500023
 11
61.499977
 21
1.500023
  0
LINE
  8
0
 10
-58.000023
 20
2.000023
 11
-48.000023
 21
2.000023
  0
LINE
  8
0
 10
-58.000023
 20
26.000031
 11
-48.000023
 21
26.000031
  0
LINE
  8
0
 10
-46.000031
 20
9.000023
 11
-28.000015
 21
9.000023
  0
LINE
  8
0
 10
-46.000031
 20
19.000015
 11
-28.000015
 21
19.000015
  0
LINE
  8
0
 10
-49.000008
 20
18.100037
 11
-49.000008
 21
9.900017
  0
LINE
  8
0
 10
-49.000015
 20
9.900017
 11
-46.000031
 21
9.900017
  0
LINE
  8
0
 10
-49.000015
 20
18.100037
 11
-46.000031
 21
18.100037
  0
LINE
  8
0
 10
-46.000023
 20
19.000015
 11
-46.000023
 21
18.100037
  0
LINE
  8
0
 10
-46.000023
 20
9.900017
 11
-46.000023
 21
9.000023
  0
LINE
  8
0
 10
-48.000023
 20
9.900017
 11
-48.000023
 21
2.000023
  0
LINE
  8
0
 10
-48.000023
 20
4.000023
 11
-47.000023
 21
4.000023
  0
LINE
  8
0
 10
-36.711346
 20
4.000023
 11
-33.500023
 21
4.000023
  0
LINE
  8
0
 10
-33.500023
 20
9.000023
 11
-33.500023
 21
4.000023
  0
LINE
  8
0
 10
-30.480019
 20
9.000023
 11
-30.480019
 21
4.500023
  0
LINE
  8
0
 10
-37.000019
 20
4.500041
 11
-36.711334
 21
4.000024
  0
LINE
  8
0
 10
-30.480051
 20
4.500027
 11
-30.191372
 21
4.000024
  0
LINE
  8
0
 10
-28.000029
 20
4.500020
 11
-28.288712
 21
4.000002
  0
LINE
  8
0
 10
-30.191353
 20
4.000023
 11
-28.288689
 21
4.000023
  0
LINE
  8
0
 10
-33.500023
 20
5.500023
 11
-30.480026
 21
5.500023
  0
LINE
  8
0
 62
     2
 10
-33.500023
 20
5.905022
 11
-30.480026
 21
5.905022
  0
LINE
  8
0
 10
-27.285728
 20
26.500015
 11
61.499977
 21
26.500015
  0
LINE
  8
0
 10
-27.285728
 20
26.500010
 11
-28.000017
 21
25.785721
  0
LINE
  8
0
 10
-27.999998
 20
2.214302
 11
-27.285717
 21
1.500019
  0
LINE
  8
0
 10
61.999985
 20
26.000031
 11
61.999985
 21
2.000023
  0
LINE
  8
0
 10
61.499973
 20
26.500000
 11
61.999977
 21
26.000000
  0
LINE
  8
0
 10
62.000015
 20
1.999974
 11
61.500011
 21
1.499966
  0
LINE
  8
0
  6
CENTER
 62
     2
 10
17.999977
 20
17.500038
 11
17.999977
 21
10.500023
  0
LINE
  8
0
  6
CENTER
 62
     2
 10
49.999977
 20
17.500038
 11
49.999977
 21
10.500023
  0
LINE
  8
0
 10
25.063499
 20
26.500023
 11
25.063499
 21
21.000031
  0
LINE
  8
0
 10
28.936485
 20
26.500023
 11
28.936485
 21
21.000031
  0
LINE
  8
0
 10
25.063492
 20
21.000031
 11
28.936478
 21
21.000031
  0
LINE
  8
0
 10
25.063499
 20
1.500023
 11
25.063499
 21
7.000008
  0
LINE
  8
0
 10
28.936485
 20
1.500023
 11
28.936485
 21
7.000008
  0
LINE
  8
0
 10
25.063492
 20
7.000023
 11
28.936478
 21
7.000023
  0
LINE
  8
0
 62
     4
 10
-37.341675
 20
-97.309509
 11
-32.596375
 21
-97.309509
  0
LINE
  8
0
 62
     4
 10
-41.096405
 20
-99.909515
 11
-37.340607
 21
-99.909515
  0
LINE
  8
0
 62
     4
 10
-35.840576
 20
-99.909515
 11
-32.596375
 21
-99.909515
  0
LINE
  8
0
 62
     4
 10
-63.096405
 20
-96.309525
 11
-41.096405
 21
-96.309525
  0
LINE
  8
0
 62
     4
 10
-58.396393
 20
-100.909523
 11
-41.096405
 21
-100.909523
  0
LINE
  8
0
 62
     4
 10
-41.096405
 20
-96.309525
 11
-41.096405
 21
-100.909523
  0
LINE
  8
0
 62
     4
 10
-63.096405
 20
-98.109520
 11
-63.096405
 21
-96.309525
  0
LINE
  8
0
 62
     4
 10
-58.396393
 20
-99.351486
 11
-58.396393
 21
-100.909523
  0
LINE
  8
0
 62
     4
 10
-63.096405
 20
-98.109520
 11
-58.846390
 21
-98.109520
  0
LINE
  8
0
  6
CENTER
 62
     1
 10
-61.096390
 20
-95.502808
 11
-61.096390
 21
-101.741425
  0
LINE
  8
0
 62
     4
 10
-58.846390
 20
-98.109520
 11
-58.846390
 21
-99.351486
  0
LINE
  8
0
 62
     4
 10
-59.096390
 20
-98.109520
 11
-59.096390
 21
-98.909523
  0
LINE
  8
0
 62
     4
 10
-63.096405
 20
-98.109520
 11
-63.096405
 21
-98.909523
  0
LINE
  8
0
 62
     4
 10
-63.096405
 20
-98.909523
 11
-59.096390
 21
-98.909523
  0
LINE
  8
0
 62
     4
 10
-58.896393
 20
-98.109520
 11
-58.896393
 21
-100.109520
  0
LINE
  8
0
 62
     4
 10
-58.896393
 20
-100.109520
 11
-58.396393
 21
-100.109520
  0
LINE
  8
0
 62
     4
 10
-58.846390
 20
-99.351486
 11
-58.396393
 21
-99.351486
  0
LINE
  8
0
 62
     4
 10
-32.596375
 20
-97.309509
 11
-32.596375
 21
-99.909515
  0
LINE
  8
0
  6
CENTER
 62
     1
 10
-34.319275
 20
-98.159439
 11
-22.387207
 21
-98.159439
  0
LINE
  8
0
  6
CENTER
 62
     1
 10
-34.268982
 20
-99.059433
 11
-22.345337
 21
-99.059433
  0
LINE
  8
0
 62
     4
 10
-22.596375
 20
-97.909454
 11
-22.596375
 21
-98.409454
  0
LINE
  8
0
 62
     4
 10
-22.596375
 20
-98.809448
 11
-22.596375
 21
-99.309448
  0
LINE
  8
0
 62
     4
 10
-25.596375
 20
-97.709442
 11
-25.596375
 21
-99.509460
  0
LINE
  8
0
 62
     4
 10
-32.596375
 20
-99.509445
 11
-28.590820
 21
-99.509445
  0
LINE
  8
0
 62
     4
 10
-32.596375
 20
-98.609421
 11
-29.110413
 21
-98.609421
  0
LINE
  8
0
 62
     4
 10
-27.610413
 20
-98.609421
 11
-25.596375
 21
-98.609421
  0
LINE
  8
0
 62
     4
 10
-27.090820
 20
-99.509445
 11
-25.596375
 21
-99.509445
  0
LINE
  8
0
 62
     4
 10
-32.596375
 20
-97.709427
 11
-29.630066
 21
-97.709427
  0
LINE
  8
0
 62
     4
 10
-28.130066
 20
-97.709427
 11
-25.596375
 21
-97.709427
  0
LINE
  8
0
 62
     4
 10
-25.596375
 20
-97.909439
 11
-22.596375
 21
-97.909439
  0
LINE
  8
0
 62
     4
 10
-25.596375
 20
-98.409439
 11
-22.596375
 21
-98.409439
  0
LINE
  8
0
 62
     4
 10
-25.596375
 20
-98.809433
 11
-22.596375
 21
-98.809433
  0
LINE
  8
0
 62
     4
 10
-25.596375
 20
-99.309433
 11
-22.596375
 21
-99.309433
  0
LINE
  8
0
 62
     1
 10
-28.860390
 20
-96.444504
 11
-26.360388
 21
-100.774628
  0
LINE
  8
0
  6
CENTER
 62
     1
 10
-42.410767
 20
-98.609512
 11
-32.596375
 21
-98.609512
  0
LINE
  8
0
 62
     1
 10
-30.360456
 20
-96.444473
 11
-27.860455
 21
-100.774597
  0
LINE
  8
0
 62
     1
 10
-37.841129
 20
-96.444450
 11
-35.341129
 21
-100.774582
  0
LINE
  8
0
 62
     1
 10
-39.341110
 20
-96.444519
 11
-36.841114
 21
-100.774635
  0
LINE
  8
0
 62
     4
 10
-62.121399
 20
-100.309525
 11
-60.071396
 21
-100.309525
  0
LINE
  8
0
 62
     4
 10
-60.070972
 20
-100.309967
 11
-59.845989
 21
-100.084976
  0
LINE
  8
0
 62
     4
 10
-62.121357
 20
-100.309540
 11
-62.346352
 21
-100.084549
  0
LINE
  8
0
 62
     4
 10
-62.346390
 20
-98.908707
 11
-62.346390
 21
-100.084526
  0
LINE
  8
0
 62
     1
 10
-62.121399
 20
-98.908707
 11
-62.121399
 21
-100.309525
  0
LINE
  8
0
 62
     1
 10
-60.071396
 20
-98.908707
 11
-60.071396
 21
-100.309525
  0
LINE
  8
0
 62
     4
 10
-59.846390
 20
-98.908707
 11
-59.846390
 21
-100.084518
  0
LINE
  8
0
 62
     4
 10
-62.346390
 20
-100.084526
 11
-59.846390
 21
-100.084526
  0
LINE
  8
0
 62
     4
 10
-62.346390
 20
-95.809525
 11
-62.346390
 21
-96.309525
  0
LINE
  8
0
 62
     1
 10
-62.121399
 20
-95.809525
 11
-62.121399
 21
-96.309525
  0
LINE
  8
0
 62
     1
 10
-60.071396
 20
-95.809525
 11
-60.071396
 21
-96.309525
  0
LINE
  8
0
 62
     4
 10
-59.846390
 20
-95.809525
 11
-59.846390
 21
-96.309525
  0
LINE
  8
0
 62
     4
 10
-62.346390
 20
-95.809525
 11
-59.846390
 21
-95.809525
  0
LINE
  8
0
 62
     4
 10
-63.096405
 20
-97.309525
 11
-41.096405
 21
-97.309525
  0
LINE
  8
0
 62
     4
 10
-63.096405
 20
-96.759506
 11
-41.096405
 21
-96.759506
  0
LINE
  8
0
 62
     4
 10
-41.096405
 20
-97.309509
 11
-38.841705
 21
-97.309509
  0
LINE
  8
0
 62
     4
 10
-108.889130
 20
-95.809525
 11
-106.389130
 21
-95.809525
  0
LINE
  8
0
  6
CENTER
 62
     1
 10
-107.639130
 20
-94.256554
 11
-107.639130
 21
-102.969315
  0
LINE
  8
0
 62
     4
 10
-109.689117
 20
-97.309525
 11
-109.689117
 21
-98.859520
  0
LINE
  8
0
 62
     4
 10
-109.689186
 20
-97.309502
 11
-109.139183
 21
-96.759491
  0
LINE
  8
0
 62
     4
 10
-109.139130
 20
-96.309525
 11
-109.139130
 21
-96.759521
  0
LINE
  8
0
 62
     4
 10
-109.139130
 20
-96.309525
 11
-106.139130
 21
-96.309525
  0
LINE
  8
0
 62
     4
 10
-106.139130
 20
-96.309525
 11
-106.139130
 21
-96.759521
  0
LINE
  8
0
 62
     4
 10
-105.589119
 20
-97.309471
 11
-106.139114
 21
-96.759460
  0
LINE
  8
0
 62
     4
 10
-105.589127
 20
-97.309525
 11
-105.589127
 21
-98.859520
  0
LINE
  8
0
 62
     4
 10
-109.689117
 20
-98.109520
 11
-105.589127
 21
-98.109520
  0
LINE
  8
0
 62
     4
 10
-109.689133
 20
-98.908707
 11
-105.589127
 21
-98.908707
  0
LINE
  8
0
 62
     4
 10
-108.664139
 20
-100.309525
 11
-106.614136
 21
-100.309525
  0
LINE
  8
0
 62
     4
 10
-106.613701
 20
-100.309998
 11
-106.388702
 21
-100.084984
  0
LINE
  8
0
 62
     4
 10
-108.664116
 20
-100.309563
 11
-108.889114
 21
-100.084564
  0
LINE
  8
0
 62
     4
 10
-108.889130
 20
-98.908707
 11
-108.889130
 21
-100.084526
  0
LINE
  8
0
 62
     1
 10
-108.664139
 20
-98.908707
 11
-108.664139
 21
-100.309525
  0
LINE
  8
0
 62
     1
 10
-106.614136
 20
-98.908707
 11
-106.614136
 21
-100.309525
  0
LINE
  8
0
 62
     4
 10
-106.389130
 20
-98.908707
 11
-106.389130
 21
-100.084518
  0
LINE
  8
0
 62
     4
 10
-108.889130
 20
-100.084526
 11
-106.389130
 21
-100.084526
  0
LINE
  8
0
 62
     4
 10
-108.889130
 20
-95.809525
 11
-108.889130
 21
-96.309525
  0
LINE
  8
0
 62
     1
 10
-108.664139
 20
-95.809525
 11
-108.664139
 21
-96.309525
  0
LINE
  8
0
 62
     1
 10
-106.614136
 20
-95.809525
 11
-106.614136
 21
-96.309525
  0
LINE
  8
0
 62
     4
 10
-106.389130
 20
-95.809525
 11
-106.389130
 21
-96.309525
  0
LINE
  8
0
  6
CENTER
 62
     1
 10
-65.896942
 20
-53.759521
 11
-35.688889
 21
-53.759521
  0
LINE
  8
0
 62
     4
 10
-63.096405
 20
-55.259521
 11
-41.096405
 21
-55.259521
  0
LINE
  8
0
 62
     4
 10
-63.096405
 20
-52.259521
 11
-41.096405
 21
-52.259521
  0
LINE
  8
0
 62
     4
 10
-63.096405
 20
-55.809525
 11
-41.096405
 21
-55.809525
  0
LINE
  8
0
 62
     4
 10
-63.096405
 20
-51.709518
 11
-41.096405
 21
-51.709518
  0
LINE
  8
0
 62
     4
 10
-63.096405
 20
-51.709518
 11
-63.096405
 21
-55.809525
  0
LINE
  8
0
 62
     4
 10
-41.096405
 20
-51.709518
 11
-41.096405
 21
-55.809525
  0
LINE
  8
0
  6
CENTER
 62
     1
 10
-61.096390
 20
-50.923019
 11
-61.096390
 21
-56.512344
  0
LINE
  8
0
 62
     4
 10
-62.141674
 20
-54.472595
 11
-60.408337
 21
-52.739258
  0
LINE
  8
0
 62
     4
 10
-61.788120
 20
-54.826176
 11
-60.154781
 21
-53.192837
  0
LINE
  8
0
 62
     1
 10
-40.007179
 20
-51.594425
 11
-37.507179
 21
-55.924553
  0
LINE
  8
0
 62
     4
 10
-41.096405
 20
-52.459518
 11
-39.507751
 21
-52.459518
  0
LINE
  8
0
 62
     4
 10
-41.096405
 20
-55.059525
 11
-38.006622
 21
-55.059525
  0
LINE
  8
0
 62
     4
 10
112.821899
 20
-85.654793
 11
112.821899
 21
-80.909485
  0
LINE
  8
0
 62
     4
 10
112.821899
 20
-89.409523
 11
112.821899
 21
-87.154778
  0
LINE
  8
0
 62
     4
 10
115.421875
 20
-84.153694
 11
115.421875
 21
-80.909485
  0
LINE
  8
0
 62
     4
 10
94.714539
 20
-96.309525
 11
110.814545
 21
-96.309525
  0
LINE
  8
0
 62
     4
 10
99.414520
 20
-100.909523
 11
116.714539
 21
-100.909523
  0
LINE
  8
0
 62
     4
 10
116.714539
 20
-89.409523
 11
116.714539
 21
-100.909523
  0
LINE
  8
0
 62
     4
 10
94.714539
 20
-98.909523
 11
94.714539
 21
-96.309525
  0
LINE
  8
0
 62
     4
 10
99.414520
 20
-99.291679
 11
99.414520
 21
-100.909523
  0
LINE
  8
0
  6
CENTER
 62
     1
 10
96.714539
 20
-95.579269
 11
96.714539
 21
-101.482193
  0
LINE
  8
0
 62
     4
 10
110.814514
 20
-89.409523
 11
110.814514
 21
-96.309525
  0
LINE
  8
0
 62
     4
 10
94.714539
 20
-98.109528
 11
98.988342
 21
-98.109528
  0
LINE
  8
0
 62
     4
 10
94.714539
 20
-98.909523
 11
98.714539
 21
-98.909523
  0
LINE
  8
0
 62
     4
 10
98.714539
 20
-98.109520
 11
98.714539
 21
-98.909523
  0
LINE
  8
0
 62
     4
 10
110.814545
 20
-89.409523
 11
116.714539
 21
-89.409523
  0
LINE
  8
0
 62
     4
 10
98.914520
 20
-100.109528
 11
99.414520
 21
-100.109528
  0
LINE
  8
0
 62
     4
 10
98.914520
 20
-98.109528
 11
98.914520
 21
-100.109528
  0
LINE
  8
0
 62
     4
 10
98.988342
 20
-99.291679
 11
99.414520
 21
-99.291679
  0
LINE
  8
0
 62
     4
 10
98.988342
 20
-98.109528
 11
98.988342
 21
-99.291679
  0
LINE
  8
0
 62
     4
 10
94.714539
 20
-97.309525
 11
116.714539
 21
-97.309525
  0
LINE
  8
0
 62
     4
 10
94.714539
 20
-96.759521
 11
116.714539
 21
-96.759521
  0
LINE
  8
0
 62
     4
 10
110.814514
 20
-95.159508
 11
116.714539
 21
-95.159508
  0
LINE
  8
0
 62
     4
 10
110.814514
 20
-95.909508
 11
116.714539
 21
-95.909508
  0
LINE
  8
0
 62
     4
 10
110.814514
 20
-90.909523
 11
116.714539
 21
-90.909523
  0
LINE
  8
0
 62
     4
 10
112.821899
 20
-80.909485
 11
115.421875
 21
-80.909485
  0
LINE
  8
0
  6
CENTER
 62
     1
 10
113.671814
 20
-82.632416
 11
113.671814
 21
-70.700333
  0
LINE
  8
0
  6
CENTER
 62
     1
 10
114.571808
 20
-82.582123
 11
114.571808
 21
-70.658478
  0
LINE
  8
0
 62
     4
 10
113.421814
 20
-70.909485
 11
113.921814
 21
-70.909485
  0
LINE
  8
0
 62
     4
 10
114.321808
 20
-70.909485
 11
114.821808
 21
-70.909485
  0
LINE
  8
0
 62
     4
 10
113.221802
 20
-73.909485
 11
115.021820
 21
-73.909485
  0
LINE
  8
0
 62
     4
 10
115.021820
 20
-80.909485
 11
115.021820
 21
-76.903938
  0
LINE
  8
0
 62
     4
 10
114.121796
 20
-80.909485
 11
114.121796
 21
-77.423553
  0
LINE
  8
0
 62
     4
 10
114.121796
 20
-75.923553
 11
114.121796
 21
-73.909485
  0
LINE
  8
0
 62
     4
 10
115.021820
 20
-75.403938
 11
115.021820
 21
-73.909485
  0
LINE
  8
0
 62
     4
 10
113.221802
 20
-80.909485
 11
113.221802
 21
-77.943176
  0
LINE
  8
0
 62
     4
 10
113.221802
 20
-76.443176
 11
113.221802
 21
-73.909485
  0
LINE
  8
0
 62
     4
 10
113.421814
 20
-73.909485
 11
113.421814
 21
-70.909485
  0
LINE
  8
0
 62
     4
 10
113.921814
 20
-73.909485
 11
113.921814
 21
-70.909485
  0
LINE
  8
0
 62
     4
 10
114.321808
 20
-73.909485
 11
114.321808
 21
-70.909485
  0
LINE
  8
0
 62
     4
 10
114.821808
 20
-73.909485
 11
114.821808
 21
-70.909485
  0
LINE
  8
0
 62
     1
 10
111.956955
 20
-77.173668
 11
116.287102
 21
-74.673645
  0
LINE
  8
0
  6
CENTER
 62
     1
 10
114.121887
 20
-90.723892
 11
114.121887
 21
-80.909485
  0
LINE
  8
0
 62
     1
 10
111.956856
 20
-78.673660
 11
116.287010
 21
-76.173645
  0
LINE
  8
0
 62
     1
 10
111.956825
 20
-86.154358
 11
116.286949
 21
-83.654350
  0
LINE
  8
0
 62
     1
 10
111.956871
 20
-87.654343
 11
116.286987
 21
-85.154350
  0
LINE
  8
0
 62
     4
 10
95.689514
 20
-100.309525
 11
97.739532
 21
-100.309525
  0
LINE
  8
0
 62
     4
 10
97.740097
 20
-100.310066
 11
97.965088
 21
-100.085068
  0
LINE
  8
0
 62
     4
 10
95.689598
 20
-100.309395
 11
95.464615
 21
-100.084412
  0
LINE
  8
0
 62
     4
 10
95.464539
 20
-98.909523
 11
95.464539
 21
-100.084526
  0
LINE
  8
0
 62
     1
 10
95.689514
 20
-98.909523
 11
95.689514
 21
-100.309525
  0
LINE
  8
0
 62
     1
 10
97.739532
 20
-98.909523
 11
97.739532
 21
-100.309525
  0
LINE
  8
0
 62
     4
 10
97.964539
 20
-98.909523
 11
97.964539
 21
-100.084518
  0
LINE
  8
0
 62
     4
 10
95.464539
 20
-100.084526
 11
97.964539
 21
-100.084526
  0
LINE
  8
0
 62
     4
 10
95.464539
 20
-95.809525
 11
95.464539
 21
-96.309525
  0
LINE
  8
0
 62
     1
 10
95.689514
 20
-95.809525
 11
95.689514
 21
-96.309525
  0
LINE
  8
0
 62
     1
 10
97.739532
 20
-95.809525
 11
97.739532
 21
-96.309525
  0
LINE
  8
0
 62
     4
 10
97.964539
 20
-95.809525
 11
97.964539
 21
-96.309525
  0
LINE
  8
0
 62
     4
 10
95.464539
 20
-95.809525
 11
97.964539
 21
-95.809525
  0
LINE
  8
0
 62
     4
 10
115.421875
 20
-89.409523
 11
115.421875
 21
-85.653687
  0
LINE
  8
0
 62
     4
 10
52.971802
 20
-85.653702
 11
52.971802
 21
-89.409523
  0
LINE
  8
0
 62
     4
 10
49.421814
 20
-90.909523
 11
53.921814
 21
-90.909523
  0
LINE
  8
0
 62
     4
 10
49.421814
 20
-89.409523
 11
49.421814
 21
-95.159523
  0
LINE
  8
0
 62
     4
 10
50.171764
 20
-95.909492
 11
49.421799
 21
-95.159531
  0
LINE
  8
0
 62
     4
 10
50.171814
 20
-96.759521
 11
50.171814
 21
-95.909523
  0
LINE
  8
0
 62
     4
 10
49.621777
 20
-97.309456
 11
50.171787
 21
-96.759445
  0
LINE
  8
0
 62
     4
 10
49.621796
 20
-97.309525
 11
49.621796
 21
-98.859520
  0
LINE
  8
0
 62
     4
 10
53.721802
 20
-97.309525
 11
53.721802
 21
-98.859520
  0
LINE
  8
0
 62
     4
 10
53.721794
 20
-97.309555
 11
53.171791
 21
-96.759552
  0
LINE
  8
0
 62
     4
 10
53.171814
 20
-96.759521
 11
53.171814
 21
-95.909523
  0
LINE
  8
0
 62
     4
 10
53.171894
 20
-95.909630
 11
53.921890
 21
-95.159630
  0
LINE
  8
0
 62
     4
 10
53.921814
 20
-89.409523
 11
53.921814
 21
-95.159523
  0
LINE
  8
0
  6
CENTER
 62
     1
 10
51.671814
 20
-83.748566
 11
51.671814
 21
-102.376190
  0
LINE
  8
0
 62
     4
 10
50.171814
 20
-96.309525
 11
53.171814
 21
-96.309525
  0
LINE
  8
0
 62
     4
 10
49.621796
 20
-98.109520
 11
53.721802
 21
-98.109520
  0
LINE
  8
0
 62
     4
 10
49.621796
 20
-98.911972
 11
53.721802
 21
-98.911972
  0
LINE
  8
0
 62
     4
 10
49.421814
 20
-89.409523
 11
53.921814
 21
-89.409523
  0
LINE
  8
0
 62
     1
 10
49.506836
 20
-87.654343
 11
53.836964
 21
-85.154350
  0
LINE
  8
0
 62
     4
 10
50.646790
 20
-100.309525
 11
52.696808
 21
-100.309525
  0
LINE
  8
0
 62
     4
 10
52.697315
 20
-100.310051
 11
52.922310
 21
-100.085052
  0
LINE
  8
0
 62
     4
 10
50.646858
 20
-100.309448
 11
50.421852
 21
-100.084442
  0
LINE
  8
0
 62
     4
 10
50.421814
 20
-98.911972
 11
50.421814
 21
-100.084526
  0
LINE
  8
0
 62
     1
 10
50.646790
 20
-98.911972
 11
50.646790
 21
-100.309525
  0
LINE
  8
0
 62
     1
 10
52.696808
 20
-98.911972
 11
52.696808
 21
-100.309525
  0
LINE
  8
0
 62
     4
 10
52.921814
 20
-98.911972
 11
52.921814
 21
-100.084518
  0
LINE
  8
0
 62
     4
 10
50.421814
 20
-100.084526
 11
52.921814
 21
-100.084526
  0
LINE
  8
0
 62
     4
 10
50.421814
 20
-95.809525
 11
50.421814
 21
-96.309525
  0
LINE
  8
0
 62
     1
 10
50.646790
 20
-95.809525
 11
50.646790
 21
-96.309525
  0
LINE
  8
0
 62
     1
 10
52.696808
 20
-95.809525
 11
52.696808
 21
-96.309525
  0
LINE
  8
0
 62
     4
 10
52.921814
 20
-95.809525
 11
52.921814
 21
-96.309525
  0
LINE
  8
0
 62
     4
 10
50.421814
 20
-95.809525
 11
52.921814
 21
-95.809525
  0
LINE
  8
0
 62
     4
 10
50.371826
 20
-87.154800
 11
50.371826
 21
-89.409523
  0
LINE
  8
0
  6
CENTER
 62
     1
 10
93.385345
 20
-48.709511
 11
118.294525
 21
-48.709511
  0
LINE
  8
0
 62
     4
 10
94.714539
 20
-50.209511
 11
111.275146
 21
-50.209511
  0
LINE
  8
0
 62
     4
 10
94.714539
 20
-47.209511
 11
111.275146
 21
-47.209511
  0
LINE
  8
0
 62
     4
 10
94.714539
 20
-50.759506
 11
111.628510
 21
-50.759506
  0
LINE
  8
0
 62
     4
 10
94.714539
 20
-46.659508
 11
111.628510
 21
-46.659508
  0
LINE
  8
0
 62
     4
 10
94.714539
 20
-46.659500
 11
94.714539
 21
-50.759506
  0
LINE
  8
0
  6
CENTER
 62
     1
 10
96.714539
 20
-45.873001
 11
96.714539
 21
-51.462326
  0
LINE
  8
0
 62
     4
 10
111.800507
 20
-46.459511
 11
116.714539
 21
-46.459511
  0
LINE
  8
0
 62
     4
 10
111.800507
 20
-50.959511
 11
116.714539
 21
-50.959511
  0
LINE
  8
0
 62
     4
 10
116.714539
 20
-46.459503
 11
116.714539
 21
-50.959503
  0
LINE
  8
0
 62
     4
 10
96.068794
 20
-49.779846
 11
97.784897
 21
-48.063740
  0
LINE
  8
0
 62
     4
 10
95.644516
 20
-49.355518
 11
97.360611
 21
-47.639423
  0
LINE
  8
0
 10
-281.250000
 20
195.500000
 11
282.099976
 21
195.500000
  0
LINE
  8
0
 10
-281.250000
 20
195.500000
 11
-281.250000
 21
-195.000000
  0
LINE
  8
0
 10
282.099976
 20
195.500000
 11
282.099976
 21
-195.000000
  0
LINE
  8
0
 10
-281.250000
 20
-195.000000
 11
282.099976
 21
-195.000000
  0
LINE
  8
0
 10
162.099976
 20
-175.000000
 11
162.099976
 21
-195.000000
  0
LINE
  8
0
 10
162.099976
 20
-175.000000
 11
282.099976
 21
-175.000000
  0
LINE
  8
0
 10
162.099976
 20
175.500000
 11
282.099976
 21
175.500000
  0
LINE
  8
0
 10
-281.250000
 20
175.500000
 11
-161.250000
 21
175.500000
  0
LINE
  8
0
 10
162.099976
 20
195.500000
 11
162.099976
 21
175.500000
  0
LINE
  8
0
 10
-161.250000
 20
195.500000
 11
-161.250000
 21
175.500000
  0
LINE
  8
0
 10
-271.250000
 20
-133.000000
 11
-271.250000
 21
-185.000000
  0
LINE
  8
0
 10
-271.250000
 20
-185.000000
 11
-6.250000
 21
-185.000000
  0
LINE
  8
0
 10
-271.250000
 20
-155.000015
 11
-6.250000
 21
-155.000015
  0
LINE
  8
0
 10
-271.250000
 20
-133.000000
 11
-6.250000
 21
-133.000000
  0
LINE
  8
0
 10
-226.250000
 20
-133.000000
 11
-226.250000
 21
-185.000000
  0
LINE
  8
0
 10
-204.250000
 20
-133.000000
 11
-204.250000
 21
-185.000000
  0
LINE
  8
0
 10
-182.250000
 20
-133.000000
 11
-182.250000
 21
-185.000000
  0
LINE
  8
0
 10
-160.250000
 20
-133.000000
 11
-160.250000
 21
-185.000000
  0
LINE
  8
0
 10
-138.250000
 20
-133.000000
 11
-138.250000
 21
-185.000000
  0
LINE
  8
0
 10
-116.250000
 20
-133.000000
 11
-116.250000
 21
-185.000000
  0
LINE
  8
0
 10
-94.250000
 20
-133.000000
 11
-94.250000
 21
-185.000000
  0
LINE
  8
0
 10
-6.250000
 20
-133.000000
 11
-6.250000
 21
-185.000000
  0
LINE
  8
0
 10
-271.250000
 20
-175.000015
 11
-6.250000
 21
-175.000015
  0
LINE
  8
0
 10
-271.250031
 20
-165.000000
 11
-6.250000
 21
-165.000000
  0
LINE
  8
0
 10
-271.250000
 20
-141.000000
 11
-234.517441
 21
-141.000000
  0
LINE
  8
0
 10
-234.517502
 20
-141.000046
 11
-226.250092
 21
-155.000061
  0
LINE
  8
0
 10
-72.250000
 20
-133.000000
 11
-72.250000
 21
-185.000000
  0
LINE
  8
0
 10
-50.250000
 20
-133.000000
 11
-50.250000
 21
-185.000000
  0
LINE
  8
0
 10
-28.250000
 20
-133.000000
 11
-28.250000
 21
-185.000000
  0
ARC
  8
0
 10
-30.453743
 20
86.535866
 40
2.453746
 50
331.927582
 51
28.072393
  0
ARC
  8
0
 10
-30.453743
 20
93.464058
 40
2.453746
 50
331.927582
 51
28.072393
  0
CIRCLE
  8
0
 10
-13.000008
 20
89.999985
 40
2.250000
  0
CIRCLE
  8
0
 62
     2
 10
-52.999992
 20
111.999954
 40
2.000000
  0
CIRCLE
  8
0
 62
     2
 10
-52.999992
 20
67.999969
 40
2.000000
  0
ARC
  8
0
 10
-34.546242
 20
93.464058
 40
2.453748
 50
151.927612
 51
208.072388
  0
ARC
  8
0
 10
-27.618034
 20
89.999962
 40
9.381963
 50
165.749985
 51
194.249908
  0
ARC
  8
0
 10
-34.546242
 20
86.535866
 40
2.453748
 50
151.927612
 51
208.072388
  0
ARC
  8
0
 10
27.000023
 20
117.499985
 40
3.999998
 50
118.954529
 51
61.045471
  0
CIRCLE
  8
0
 10
37.000038
 20
89.999985
 40
4.000000
  0
ARC
  8
0
 10
-28.026253
 20
93.464058
 40
2.453748
 50
151.927612
 51
208.072388
  0
ARC
  8
0
 10
-37.381966
 20
89.999962
 40
9.381962
 50
345.750000
 51
14.249960
  0
CIRCLE
  8
0
 10
-13.000008
 20
89.999985
 40
4.000000
  0
ARC
  8
0
 10
27.000023
 20
62.499981
 40
4.000001
 50
298.955170
 51
241.044861
  0
ARC
  8
0
 10
-21.098015
 20
89.999962
 40
9.381963
 50
165.749985
 51
194.249908
  0
ARC
  8
0
 10
-28.026253
 20
86.535866
 40
2.453748
 50
151.927612
 51
208.072388
  0
CIRCLE
  8
0
 10
27.000023
 20
117.499985
 40
2.250000
  0
CIRCLE
  8
0
 10
37.000038
 20
89.999985
 40
2.250000
  0
CIRCLE
  8
0
 10
27.000023
 20
62.499981
 40
2.250000
  0
CIRCLE
  8
0
 10
-52.999992
 20
111.999954
 40
1.650000
  0
CIRCLE
  8
0
 10
-52.999992
 20
67.999969
 40
1.650000
  0
CIRCLE
  8
0
 10
-135.500076
 20
76.000038
 40
4.500000
  0
CIRCLE
  8
0
 10
-135.500076
 20
76.000038
 40
5.000000
  0
CIRCLE
  8
0
 10
-135.500076
 20
104.000046
 40
4.500000
  0
CIRCLE
  8
0
 10
-135.500076
 20
104.000046
 40
5.500000
  0
CIRCLE
  8
0
 10
-135.500076
 20
76.000038
 40
5.500000
  0
CIRCLE
  8
0
 62
     2
 10
-135.500076
 20
117.500023
 40
2.000000
  0
CIRCLE
  8
0
 62
     2
 10
-135.500076
 20
62.500019
 40
2.000000
  0
CIRCLE
  8
0
 10
-135.500076
 20
104.000046
 40
5.000000
  0
CIRCLE
  8
0
 10
-135.500076
 20
117.500023
 40
1.650000
  0
CIRCLE
  8
0
 10
-135.500076
 20
62.500019
 40
1.650000
  0
ARC
  8
0
 10
116.600113
 20
114.199966
 40
2.099998
 50
270.000000
 51
90.000000
  0
ARC
  8
0
 10
116.600113
 20
94.199966
 40
2.099998
 50
270.000000
 51
90.000000
  0
CIRCLE
  8
0
 10
126.500107
 20
104.000008
 40
11.500001
  0
CIRCLE
  8
0
 10
126.500107
 20
76.000000
 40
11.500001
  0
ARC
  8
0
 10
136.400101
 20
94.199989
 40
2.099998
 50
90.000000
 51
270.000000
  0
ARC
  8
0
 10
126.500107
 20
118.383553
 40
2.099998
 50
180.000000
 51
0.000000
  0
ARC
  8
0
 10
136.400101
 20
114.199989
 40
2.099998
 50
90.000000
 51
270.000000
  0
CIRCLE
  8
0
 62
     2
 10
49.999977
 20
14.000015
 40
2.500000
  0
ARC
  8
0
 10
-23.407463
 20
6.000023
 40
7.072560
 50
163.573639
 51
196.426300
  0
CIRCLE
  8
0
 62
     2
 10
17.999977
 20
14.000015
 40
2.500000
  0
ARC
  8
0
 10
-35.072594
 20
6.000023
 40
7.072560
 50
343.573639
 51
16.426319
  0
ARC
  8
0
 10
-35.072594
 20
10.000023
 40
7.072560
 50
343.573639
 51
351.871613
  0
ARC
  8
0
 10
-29.927467
 20
10.000023
 40
7.072560
 50
188.128403
 51
196.426361
  0
ARC
  8
0
 10
-29.927467
 20
6.000023
 40
7.072560
 50
163.573639
 51
196.426300
  0
ARC
  8
0
 10
-23.407463
 20
10.000023
 40
7.072560
 50
188.128403
 51
196.426361
  0
CIRCLE
  8
0
 10
17.999977
 20
14.000015
 40
2.100000
  0
CIRCLE
  8
0
 10
49.999977
 20
14.000015
 40
2.100000
  0
ARC
  8
0
 62
     4
 10
-107.639130
 20
-98.859520
 40
2.050003
 50
180.000000
 51
270.000000
  0
ARC
  8
0
 62
     4
 10
-107.639130
 20
-98.859520
 40
2.050003
 50
270.000000
 51
0.000000
  0
CIRCLE
  8
0
 62
     4
 10
-61.096390
 20
-53.759521
 40
1.250000
  0
CIRCLE
  8
0
 62
     4
 10
-61.096390
 20
-53.759521
 40
1.400000
  0
ARC
  8
0
 62
     4
 10
51.671814
 20
-98.859520
 40
2.049999
 50
180.000000
 51
270.000000
  0
ARC
  8
0
 62
     4
 10
51.671814
 20
-98.859520
 40
2.050003
 50
271.259888
 51
0.000000
  0
CIRCLE
  8
0
 62
     4
 10
114.443695
 20
-49.050514
 40
0.250000
  0
CIRCLE
  8
0
 62
     4
 10
113.831818
 20
-48.391357
 40
0.450000
  0
CIRCLE
  8
0
 62
     4
 10
113.831818
 20
-48.391357
 40
0.250000
  0
ARC
  8
0
 62
     4
 10
114.214539
 20
-48.709511
 40
3.300002
 50
137.014145
 51
222.985855
  0
CIRCLE
  8
0
 62
     4
 10
96.714539
 20
-48.709511
 40
1.250000
  0
CIRCLE
  8
0
 62
     4
 10
96.714539
 20
-48.709511
 40
1.400000
  0
CIRCLE
  8
0
 62
     4
 10
114.121887
 20
-48.709511
 40
1.300000
  0
CIRCLE
  8
0
 62
     4
 10
114.443695
 20
-49.050514
 40
0.450000
  0
TEXT
  8
0
 10
196.250259
 20
180.830002
 40
6.300000
  1
Ver. 1.0
 50
0.000000
 41
1.052632
 51
0.000000
  7
STANDARD
  0
TEXT
  8
0
 10
167.564667
 20
-192.100006
 40
9.000000
  1
KOGANEI CORP.
 50
0.000000
 41
1.052632
 51
0.000000
  7
STANDARD
  0
TEXT
  8
0
 10
-275.449738
 20
180.830002
 40
6.300000
  1
TWIN ROD CYLINDER
 50
0.000000
 41
1.052632
 51
0.000000
  7
STANDARD
  0
TEXT
  8
0
 10
-258.127045
 20
-154.550003
 40
4.500000
  1
PLACE
 50
0.000000
 41
1.052632
 51
0.000000
  7
STANDARD
  0
TEXT
  8
0
 10
-220.142654
 20
-147.050003
 40
4.500000
  1
10
 50
0.000000
 41
1.052632
 51
0.000000
  7
STANDARD
  0
TEXT
  8
0
 10
-212.642654
 20
-131.050003
 40
4.500000
  1
STRETCH LIST
 50
0.000000
 41
1.052632
 51
0.000000
  7
STANDARD
  0
TEXT
  8
0
 10
-270.049713
 20
155.830002
 40
6.300000
  1
MODEL:ATBDA20*ST(10)
 50
0.000000
 41
1.052632
 51
0.000000
  7
STANDARD
  0
TEXT
  8
0
 10
-26.642656
 20
-132.050003
 40
4.500000
  1
(mm)
 50
0.000000
 41
1.052632
 51
0.000000
  7
STANDARD
  0
TEXT
  8
0
 10
-267.127045
 20
-140.050003
 40
4.500000
  1
STROKE
 50
0.000000
 41
1.052632
 51
0.000000
  7
STANDARD
  0
TEXT
  8
0
 10
-267.127045
 20
-148.550003
 40
4.500000
  1
STRETCH
 50
0.000000
 41
1.052632
 51
0.000000
  7
STANDARD
  0
TEXT
  8
0
 10
-251.585724
 20
-163.320007
 40
4.800000
  1
A
 50
0.000000
 41
1.052632
 51
0.000000
  7
STANDARD
  0
TEXT
  8
0
 10
-251.585724
 20
-173.320007
 40
4.800000
  1
B
 50
0.000000
 41
1.052632
 51
0.000000
  7
STANDARD
  0
TEXT
  8
0
 10
-251.585724
 20
-183.320007
 40
4.800000
  1
C
 50
0.000000
 41
1.052632
 51
0.000000
  7
STANDARD
  0
TEXT
  8
0
 10
-198.142853
 20
-147.050003
 40
4.500000
  1
20
 50
0.000000
 41
1.052632
 51
0.000000
  7
STANDARD
  0
TEXT
  8
0
 10
-176.142853
 20
-147.050003
 40
4.500000
  1
30
 50
0.000000
 41
1.052632
 51
0.000000
  7
STANDARD
  0
TEXT
  8
0
 10
-154.142853
 20
-147.050003
 40
4.500000
  1
40
 50
0.000000
 41
1.052632
 51
0.000000
  7
STANDARD
  0
TEXT
  8
0
 10
-132.142853
 20
-147.050003
 40
4.500000
  1
50
 50
0.000000
 41
1.052632
 51
0.000000
  7
STANDARD
  0
TEXT
  8
0
 10
-110.142853
 20
-147.050003
 40
4.500000
  1
60
 50
0.000000
 41
1.052632
 51
0.000000
  7
STANDARD
  0
TEXT
  8
0
 10
-24.392857
 20
-147.050003
 40
4.500000
  1
100
 50
0.000000
 41
1.052632
 51
0.000000
  7
STANDARD
  0
TEXT
  8
0
 10
-22.142857
 20
-183.049973
 40
4.500000
  1
90
 50
0.000000
 41
1.052632
 51
0.000000
  7
STANDARD
  0
TEXT
  8
0
 10
-217.892853
 20
-163.050003
 40
4.500000
  1
0
 50
0.000000
 41
1.052632
 51
0.000000
  7
STANDARD
  0
TEXT
  8
0
 10
-217.892853
 20
-173.049988
 40
4.500000
  1
0
 50
0.000000
 41
1.052632
 51
0.000000
  7
STANDARD
  0
TEXT
  8
0
 10
-217.892853
 20
-183.049973
 40
4.500000
  1
0
 50
0.000000
 41
1.052632
 51
0.000000
  7
STANDARD
  0
TEXT
  8
0
 10
-198.142853
 20
-183.049973
 40
4.500000
  1
10
 50
0.000000
 41
1.052632
 51
0.000000
  7
STANDARD
  0
TEXT
  8
0
 10
-176.142853
 20
-183.049973
 40
4.500000
  1
20
 50
0.000000
 41
1.052632
 51
0.000000
  7
STANDARD
  0
TEXT
  8
0
 10
-154.142853
 20
-183.049973
 40
4.500000
  1
30
 50
0.000000
 41
1.052632
 51
0.000000
  7
STANDARD
  0
TEXT
  8
0
 10
-132.142853
 20
-183.049973
 40
4.500000
  1
40
 50
0.000000
 41
1.052632
 51
0.000000
  7
STANDARD
  0
TEXT
  8
0
 10
-110.142853
 20
-183.049973
 40
4.500000
  1
50
 50
0.000000
 41
1.052632
 51
0.000000
  7
STANDARD
  0
TEXT
  8
0
 62
     3
 10
-51.862728
 20
151.253006
 40
4.500000
  1
STRETCH LINE C
 50
0.000000
 41
1.052632
 51
0.000000
  7
STANDARD
  0
TEXT
  8
0
 62
     3
 10
-13.362728
 20
141.253006
 40
4.500000
  1
STRETCH LINE A
 50
0.000000
 41
1.052632
 51
0.000000
  7
STANDARD
  0
TEXT
  8
0
 62
     3
 10
23.637272
 20
131.253006
 40
4.500000
  1
STRETCH LINE B
 50
0.000000
 41
1.052632
 51
0.000000
  7
STANDARD
  0
TEXT
  8
0
 10
-88.142853
 20
-183.049973
 40
4.500000
  1
60
 50
0.000000
 41
1.052632
 51
0.000000
  7
STANDARD
  0
TEXT
  8
0
 10
-88.142853
 20
-147.050003
 40
4.500000
  1
70
 50
0.000000
 41
1.052632
 51
0.000000
  7
STANDARD
  0
TEXT
  8
0
 10
-66.142853
 20
-183.049973
 40
4.500000
  1
70
 50
0.000000
 41
1.052632
 51
0.000000
  7
STANDARD
  0
TEXT
  8
0
 10
-66.142853
 20
-147.050003
 40
4.500000
  1
80
 50
0.000000
 41
1.052632
 51
0.000000
  7
STANDARD
  0
TEXT
  8
0
 10
-44.142857
 20
-183.049973
 40
4.500000
  1
80
 50
0.000000
 41
1.052632
 51
0.000000
  7
STANDARD
  0
TEXT
  8
0
 10
-44.142857
 20
-147.050003
 40
4.500000
  1
90
 50
0.000000
 41
1.052632
 51
0.000000
  7
STANDARD
  0
TEXT
  8
0
 10
-195.892853
 20
-163.050003
 40
4.500000
  1
0
 50
0.000000
 41
1.052632
 51
0.000000
  7
STANDARD
  0
TEXT
  8
0
 10
-198.142853
 20
-173.049988
 40
4.500000
  1
10
 50
0.000000
 41
1.052632
 51
0.000000
  7
STANDARD
  0
TEXT
  8
0
 10
-173.892853
 20
-163.050003
 40
4.500000
  1
0
 50
0.000000
 41
1.052632
 51
0.000000
  7
STANDARD
  0
TEXT
  8
0
 10
-176.142853
 20
-173.049988
 40
4.500000
  1
20
 50
0.000000
 41
1.052632
 51
0.000000
  7
STANDARD
  0
TEXT
  8
0
 10
-151.892853
 20
-163.050003
 40
4.500000
  1
5
 50
0.000000
 41
1.052632
 51
0.000000
  7
STANDARD
  0
TEXT
  8
0
 10
-154.142853
 20
-173.049988
 40
4.500000
  1
25
 50
0.000000
 41
1.052632
 51
0.000000
  7
STANDARD
  0
TEXT
  8
0
 10
-132.142853
 20
-163.050003
 40
4.500000
  1
10
 50
0.000000
 41
1.052632
 51
0.000000
  7
STANDARD
  0
TEXT
  8
0
 10
-132.142853
 20
-173.049988
 40
4.500000
  1
30
 50
0.000000
 41
1.052632
 51
0.000000
  7
STANDARD
  0
TEXT
  8
0
 10
-110.142853
 20
-163.050003
 40
4.500000
  1
15
 50
0.000000
 41
1.052632
 51
0.000000
  7
STANDARD
  0
TEXT
  8
0
 10
-88.142853
 20
-163.050003
 40
4.500000
  1
20
 50
0.000000
 41
1.052632
 51
0.000000
  7
STANDARD
  0
TEXT
  8
0
 10
-66.142853
 20
-163.050003
 40
4.500000
  1
25
 50
0.000000
 41
1.052632
 51
0.000000
  7
STANDARD
  0
TEXT
  8
0
 10
-44.142857
 20
-163.050003
 40
4.500000
  1
30
 50
0.000000
 41
1.052632
 51
0.000000
  7
STANDARD
  0
TEXT
  8
0
 10
-22.142857
 20
-163.050003
 40
4.500000
  1
35
 50
0.000000
 41
1.052632
 51
0.000000
  7
STANDARD
  0
TEXT
  8
0
 10
-110.142853
 20
-173.049988
 40
4.500000
  1
35
 50
0.000000
 41
1.052632
 51
0.000000
  7
STANDARD
  0
TEXT
  8
0
 10
-88.142853
 20
-173.049988
 40
4.500000
  1
40
 50
0.000000
 41
1.052632
 51
0.000000
  7
STANDARD
  0
TEXT
  8
0
 10
-66.142853
 20
-173.049988
 40
4.500000
  1
45
 50
0.000000
 41
1.052632
 51
0.000000
  7
STANDARD
  0
TEXT
  8
0
 10
-44.142857
 20
-173.049988
 40
4.500000
  1
50
 50
0.000000
 41
1.052632
 51
0.000000
  7
STANDARD
  0
TEXT
  8
0
 10
-22.142857
 20
-173.049988
 40
4.500000
  1
55
 50
0.000000
 41
1.052632
 51
0.000000
  7
STANDARD
  0
ENDSEC
  0
EOF
