  0
SECTION
  2
HEADER
  0
ENDSEC
  0
SECTION
  2
TABLES
  0
TABLE
  2
LTYPE
 70
     4
  0
LTYPE
  2
CONTINUOUS
 70
    64
  3
Solid line
 72
    65
 73
     0
 40
0.000000
  0
LTYPE
  2
DASHED
 70
    64
  3
__ __ __ __ __ __ __ __ __ __ __ __ __ __ __
 72
    65
 73
     2
 40
3.500000
 49
2.000000
 49
-1.500000
  0
LTYPE
  2
CENTER
 70
    64
  3
____ _ ____ _ ____ _ ____ _ ____ _ ____ _ ____
 72
    65
 73
     4
 40
17.500000
 49
13.000000
 49
-1.500000
 49
1.500000
 49
-1.500000
  0
LTYPE
  2
PHANTOM
 70
    64
  3
_____ _ _ _____ _ _ _____ _ _ _____ _ _ ____  
 72
    65
 73
     6
 40
15.500000
 49
8.000000
 49
-1.500000
 49
1.500000
 49
-1.500000
 49
1.500000
 49
-1.500000
  0
LTYPE
  2
DASHED1
 70
    64
  3
__ __ __ __ __ __ __ __ __ __ __ __ __ __ __
 72
    65
 73
     2
 40
1.500000
 49
1.000000
 49
-0.500000
  0
LTYPE
  2
DASHED2
 70
    64
  3
__ __ __ __ __ __ __ __ __ __ __ __ __ __ __
 72
    65
 73
     2
 40
3.500000
 49
2.500000
 49
-1.000000
  0
LTYPE
  2
DASHED3
 70
    64
  3
__ __ __ __ __ __ __ __ __ __ __ __ __ __ __
 72
    65
 73
     2
 40
6.000000
 49
4.000000
 49
-2.000000
  0
LTYPE
  2
DASHED4
 70
    64
  3
__ __ __ __ __ __ __ __ __ __ __ __ __ __ __
 72
    65
 73
     2
 40
12.000000
 49
10.000000
 49
-2.000000
  0
LTYPE
  2
DASHED5
 70
    64
  3
__ __ __ __ __ __ __ __ __ __ __ __ __ __ __
 72
    65
 73
     2
 40
17.000000
 49
15.000000
 49
-2.000000
  0
LTYPE
  2
DASHED6
 70
    64
  3
__ __ __ __ __ __ __ __ __ __ __ __ __ __ __
 72
    65
 73
     2
 40
29.000000
 49
27.000000
 49
-2.000000
  0
LTYPE
  2
PHANTOM1
 70
    64
  3
_____ _ _ _____ _ _ _____ _ _ _____ _ _ ____  
 72
    65
 73
     6
 40
31.000000
 49
25.000000
 49
-1.500000
 49
1.000000
 49
-1.000000
 49
1.000000
 49
-1.500000
  0
LTYPE
  2
PHANTOM2
 70
    64
  3
_____ _ _ _____ _ _ _____ _ _ _____ _ _ ____  
 72
    65
 73
     6
 40
36.000000
 49
27.000000
 49
-1.500000
 49
2.500000
 49
-1.000000
 49
2.500000
 49
-1.500000
  0
LTYPE
  2
PHANTOM3
 70
    64
  3
_____ _ _ _____ _ _ _____ _ _ _____ _ _ ____  
 72
    65
 73
     6
 40
78.000000
 49
64.000000
 49
-2.000000
 49
4.000000
 49
-2.000000
 49
4.000000
 49
-2.000000
  0
LTYPE
  2
CENTER1
 70
    64
  3
____ _ ____ _ ____ _ ____ _ ____ _ ____ _ ____
 72
    65
 73
     4
 40
19.000000
 49
14.000000
 49
-1.000000
 49
3.000000
 49
-1.000000
  0
LTYPE
  2
CENTER2
 70
    64
  3
____ _ ____ _ ____ _ ____ _ ____ _ ____ _ ____
 72
    65
 73
     4
 40
28.500000
 49
25.000000
 49
-1.000000
 49
1.500000
 49
-1.000000
  0
LTYPE
  2
CENTER3
 70
    64
  3
____ _ ____ _ ____ _ ____ _ ____ _ ____ _ ____
 72
    65
 73
     4
 40
31.500000
 49
27.000000
 49
-1.000000
 49
2.500000
 49
-1.000000
  0
LTYPE
  2
CENTER4
 70
    64
  3
____ _ ____ _ ____ _ ____ _ ____ _ ____ _ ____
 72
    65
 73
     4
 40
50.000000
 49
45.000000
 49
-1.000000
 49
3.000000
 49
-1.000000
  0
LTYPE
  2
CENTER5
 70
    64
  3
____ _ ____ _ ____ _ ____ _ ____ _ ____ _ ____
 72
    65
 73
     4
 40
100.000000
 49
92.000000
 49
-2.000000
 49
4.000000
 49
-2.000000
  0
LTYPE
  2
SBK1
 70
    64
  3
______ _ _ _ ______ _ _ _ ______ _ _ _ _____  
 72
    65
 73
     8
 40
60.500000
 49
45.000000
 49
-2.000000
 49
2.500000
 49
-2.000000
 49
2.500000
 49
-2.000000
 49
2.500000
 49
-2.000000
  0
LTYPE
  2
SBK2
 70
    64
  3
______ _ _ _ ______ _ _ _ ______ _ _ _ _____  
 72
    65
 73
     8
 40
84.000000
 49
64.000000
 49
-2.000000
 49
4.000000
 49
-2.000000
 49
4.000000
 49
-2.000000
 49
4.000000
 49
-2.000000
  0
LTYPE
  2
STCH
 70
    64
  3
__ __ __ __ __ __ __ __ __ __ __ __ __ __ __
 72
    65
 73
     2
 40
3.000000
 49
1.000000
 49
-2.000000
  0
LTYPE
  2
MTCH
 70
    64
  3
_____ _ _ _____ _ _ _____ _ _ _____ _ _ ____  
 72
    65
 73
     6
 40
80.000000
 49
66.000000
 49
-2.000000
 49
4.000000
 49
-2.000000
 49
4.000000
 49
-2.000000
  0
ENDTAB
  0
TABLE
  2
LAYER
 70
     1
  0
LAYER
  2
0
 70
     0
 62
     7
  6
CONTINUOUS
  0
ENDTAB
  0
TABLE
  2
STYLE
 70
     1
  0
STYLE
  2
STANDARD
 70
     0
 40
0.000000
 41
1.000000
 50
0.000000
 71
     0
 42
0.200000
  3
txt
  4
BIGFONT
  0
ENDTAB
  0
TABLE
  2
VIEW
 70
     0
  0
ENDTAB
  0
ENDSEC
  0
SECTION
  2
BLOCKS
  0
ENDSEC
  0
SECTION
  2
ENTITIES
  0
LINE
  8
0
 10
-383.358887
 20
-125.002060
 11
-383.358887
 21
-254.602051
  0
LINE
  8
0
 10
-353.358887
 20
-125.002060
 11
-353.358887
 21
-254.602051
  0
LINE
  8
0
 10
-323.358887
 20
-125.002060
 11
-323.358887
 21
-254.602051
  0
LINE
  8
0
 10
-383.358887
 20
-254.602051
 11
-323.358887
 21
-254.602051
  0
LINE
  8
0
 10
-383.358887
 20
-243.802048
 11
-323.358887
 21
-243.802048
  0
LINE
  8
0
 10
-383.358887
 20
-233.002045
 11
-323.358887
 21
-233.002045
  0
LINE
  8
0
 10
-383.358887
 20
-222.202057
 11
-323.358887
 21
-222.202057
  0
LINE
  8
0
 10
-383.358887
 20
-211.402054
 11
-323.358887
 21
-211.402054
  0
LINE
  8
0
 10
-383.358887
 20
-200.602051
 11
-323.358887
 21
-200.602051
  0
LINE
  8
0
 10
-383.358887
 20
-189.802048
 11
-323.358887
 21
-189.802048
  0
LINE
  8
0
 10
-383.358887
 20
-179.002045
 11
-323.358887
 21
-179.002045
  0
LINE
  8
0
 10
-383.358887
 20
-168.202057
 11
-323.358887
 21
-168.202057
  0
LINE
  8
0
 10
-383.358887
 20
-157.402039
 11
-323.358887
 21
-157.402039
  0
LINE
  8
0
 10
-383.358887
 20
-146.602051
 11
-323.358887
 21
-146.602051
  0
LINE
  8
0
 10
-383.358887
 20
-135.802048
 11
-323.358887
 21
-135.802048
  0
LINE
  8
0
 10
-383.358887
 20
-125.002045
 11
-323.358887
 21
-125.002045
  0
LINE
  8
0
 10
299.799988
 20
276.250000
 11
299.799988
 21
261.250000
  0
LINE
  8
0
 10
299.799988
 20
-256.750000
 11
299.799988
 21
-276.750000
  0
LINE
  8
0
 10
299.799988
 20
261.250000
 11
399.799988
 21
261.250000
  0
LINE
  8
0
 10
299.799988
 20
-256.750000
 11
399.799988
 21
-256.750000
  0
LINE
  8
0
 10
-420.500000
 20
297.000000
 11
420.500000
 21
297.000000
  0
LINE
  8
0
 10
-420.500000
 20
-297.000000
 11
420.500000
 21
-297.000000
  0
LINE
  8
0
 10
420.500000
 20
297.000000
 11
420.500000
 21
-297.000000
  0
LINE
  8
0
 10
-420.500000
 20
297.000000
 11
-420.500000
 21
-297.000000
  0
LINE
  8
0
 10
399.799988
 20
276.250000
 11
399.799988
 21
-276.750000
  0
LINE
  8
0
 10
-399.250000
 20
276.250000
 11
-399.250000
 21
-276.750000
  0
LINE
  8
0
 10
-399.250000
 20
276.250000
 11
399.799988
 21
276.250000
  0
LINE
  8
0
 10
-399.250000
 20
-276.750000
 11
399.799988
 21
-276.750000
  0
LINE
  8
0
 62
     3
 10
-392.944336
 20
229.121658
 11
-354.673096
 21
267.392914
  0
LINE
  8
0
 62
     3
 10
-354.673126
 20
267.392944
 11
-354.673126
 21
241.368500
  0
LINE
  8
0
 62
     3
 10
-350.080566
 20
236.775940
 11
-343.446899
 21
236.775940
  0
LINE
  8
0
 62
     3
 10
-343.446899
 20
236.775940
 11
-344.365417
 21
234.479660
  0
LINE
  8
0
 62
     3
 10
-392.944397
 20
229.121689
 11
-364.623627
 21
229.121689
  0
LINE
  8
0
 62
     3
 10
-364.623749
 20
229.121780
 11
-363.666748
 21
231.418060
  0
LINE
  8
0
 62
     1
 10
-363.666748
 20
231.418060
 11
-363.028748
 21
232.948914
  0
LINE
  8
0
 62
     1
 10
-344.365417
 20
234.479660
 11
-344.977753
 21
232.948807
  0
LINE
  8
0
 62
     1
 10
-350.080566
 20
234.479675
 11
-344.365387
 21
234.479675
  0
LINE
  8
0
 62
     1
 10
-387.400665
 20
231.417969
 11
-363.666626
 21
231.417969
  0
LINE
  8
0
 62
     1
 10
-387.400696
 20
231.417953
 11
-356.969421
 21
261.849243
  0
LINE
  8
0
 62
     1
 10
-356.969391
 20
261.849243
 11
-356.969391
 21
241.368500
  0
LINE
  8
0
 62
     5
 10
-374.465393
 20
236.775940
 11
-361.433655
 21
236.775940
  0
LINE
  8
0
 62
     5
 10
-374.465332
 20
236.775894
 11
-362.327332
 21
248.913895
  0
LINE
  8
0
 62
     5
 10
-362.327393
 20
248.913940
 11
-362.327393
 21
241.368500
  0
LINE
  8
0
 62
     5
 10
-350.080566
 20
229.121689
 11
-346.508606
 21
229.121689
  0
LINE
  8
0
 62
     5
 10
-350.080566
 20
232.948822
 11
-344.977753
 21
232.948822
  0
LINE
  8
0
 62
     5
 10
-344.977753
 20
232.948807
 11
-346.508606
 21
229.121689
  0
LINE
  8
0
 62
     5
 10
-363.028748
 20
232.948914
 11
-361.433777
 21
236.776031
  0
LINE
  8
0
 62
     5
 10
-383.704895
 20
232.948822
 11
-363.028656
 21
232.948822
  0
LINE
  8
0
 62
     5
 10
-383.704865
 20
232.948822
 11
-358.500244
 21
258.153442
  0
LINE
  8
0
 62
     5
 10
-358.500244
 20
258.153442
 11
-358.500244
 21
241.368500
  0
LINE
  8
0
 10
-399.250000
 20
212.610382
 11
-172.975800
 21
212.610382
  0
LINE
  8
0
 10
-172.975800
 20
212.610382
 11
-172.975800
 21
276.250000
  0
ARC
  8
0
 62
     3
 10
-350.080566
 20
241.368500
 40
4.592560
 50
180.000000
 51
270.000000
  0
ARC
  8
0
 62
     1
 10
-350.080566
 20
241.368500
 40
6.888824
 50
180.000000
 51
270.000000
  0
ARC
  8
0
 62
     5
 10
-350.080566
 20
241.368500
 40
12.246796
 50
180.000000
 51
270.000000
  0
ARC
  8
0
 62
     5
 10
-350.080566
 20
241.368500
 40
8.419678
 50
180.000000
 51
270.000000
  0
TEXT
  8
0
 10
-374.966034
 20
-134.802032
 40
6.000000
  1
ST
 50
0.000000
 41
1.052632
 51
0.000000
  7
STANDARD
  0
TEXT
  8
0
 10
-377.966034
 20
-145.602051
 40
6.000000
  1
200
 50
0.000000
 41
1.052632
 51
0.000000
  7
STANDARD
  0
TEXT
  8
0
 10
-377.966034
 20
-156.402039
 40
6.000000
  1
250
 50
0.000000
 41
1.052632
 51
0.000000
  7
STANDARD
  0
TEXT
  8
0
 10
-377.966034
 20
-167.202042
 40
6.000000
  1
300
 50
0.000000
 41
1.052632
 51
0.000000
  7
STANDARD
  0
TEXT
  8
0
 10
-377.966034
 20
-178.002045
 40
6.000000
  1
350
 50
0.000000
 41
1.052632
 51
0.000000
  7
STANDARD
  0
TEXT
  8
0
 10
-377.966034
 20
-188.802032
 40
6.000000
  1
400
 50
0.000000
 41
1.052632
 51
0.000000
  7
STANDARD
  0
TEXT
  8
0
 10
-377.966034
 20
-199.602051
 40
6.000000
  1
450
 50
0.000000
 41
1.052632
 51
0.000000
  7
STANDARD
  0
TEXT
  8
0
 10
-377.966034
 20
-210.402039
 40
6.000000
  1
500
 50
0.000000
 41
1.052632
 51
0.000000
  7
STANDARD
  0
TEXT
  8
0
 10
-377.966034
 20
-221.202042
 40
6.000000
  1
550
 50
0.000000
 41
1.052632
 51
0.000000
  7
STANDARD
  0
TEXT
  8
0
 10
-377.966034
 20
-232.002045
 40
6.000000
  1
600
 50
0.000000
 41
1.052632
 51
0.000000
  7
STANDARD
  0
TEXT
  8
0
 10
-377.966034
 20
-242.802048
 40
6.000000
  1
800
 50
0.000000
 41
1.052632
 51
0.000000
  7
STANDARD
  0
TEXT
  8
0
 10
-380.966034
 20
-253.602051
 40
6.000000
  1
1000
 50
0.000000
 41
1.052632
 51
0.000000
  7
STANDARD
  0
TEXT
  8
0
 10
-341.966034
 20
-134.802032
 40
6.000000
  1
A
 50
0.000000
 41
1.052632
 51
0.000000
  7
STANDARD
  0
TEXT
  8
0
 10
-347.966034
 20
-145.602051
 40
6.000000
  1
400
 50
0.000000
 41
1.052632
 51
0.000000
  7
STANDARD
  0
TEXT
  8
0
 10
-347.966034
 20
-156.402039
 40
6.000000
  1
450
 50
0.000000
 41
1.052632
 51
0.000000
  7
STANDARD
  0
TEXT
  8
0
 10
-347.966034
 20
-167.202042
 40
6.000000
  1
500
 50
0.000000
 41
1.052632
 51
0.000000
  7
STANDARD
  0
TEXT
  8
0
 10
-347.966034
 20
-178.002045
 40
6.000000
  1
550
 50
0.000000
 41
1.052632
 51
0.000000
  7
STANDARD
  0
TEXT
  8
0
 10
-347.966034
 20
-188.802032
 40
6.000000
  1
600
 50
0.000000
 41
1.052632
 51
0.000000
  7
STANDARD
  0
TEXT
  8
0
 10
-347.966034
 20
-199.602051
 40
6.000000
  1
650
 50
0.000000
 41
1.052632
 51
0.000000
  7
STANDARD
  0
TEXT
  8
0
 10
-347.966034
 20
-210.402039
 40
6.000000
  1
700
 50
0.000000
 41
1.052632
 51
0.000000
  7
STANDARD
  0
TEXT
  8
0
 10
-347.966034
 20
-221.202042
 40
6.000000
  1
750
 50
0.000000
 41
1.052632
 51
0.000000
  7
STANDARD
  0
TEXT
  8
0
 10
-347.966034
 20
-232.002045
 40
6.000000
  1
800
 50
0.000000
 41
1.052632
 51
0.000000
  7
STANDARD
  0
TEXT
  8
0
 10
-350.966034
 20
-242.802048
 40
6.000000
  1
1000
 50
0.000000
 41
1.052632
 51
0.000000
  7
STANDARD
  0
TEXT
  8
0
 10
-350.966034
 20
-253.602051
 40
6.000000
  1
1200
 50
0.000000
 41
1.052632
 51
0.000000
  7
STANDARD
  0
TEXT
  8
0
 10
305.721680
 20
264.529999
 40
5.800000
  1
DATE: MAY ,1992
 50
0.000000
 41
1.052632
 51
0.000000
  7
STANDARD
  0
TEXT
  8
0
 10
-327.892914
 20
237.150192
 40
9.200000
  1
RTB SLIDE TABLE
 50
0.000000
 41
1.052632
 51
0.000000
  7
STANDARD
  0
TEXT
  8
0
 10
-393.901611
 20
217.592209
 40
7.259630
  1
alpha series
 50
0.000000
 41
0.612674
 51
0.000000
  7
STANDARD
  0
TEXT
  8
0
 10
-377.749939
 20
198.149963
 40
6.000000
  1
MODEL: ARTB 16*ST(200)
 50
0.000000
 41
1.052632
 51
0.000000
  7
STANDARD
  0
TEXT
  8
0
 10
-337.749939
 20
188.149963
 40
6.000000
  1
(WITH SENSOR SWITCH)
 50
0.000000
 41
1.052632
 51
0.000000
  7
STANDARD
  0
TEXT
  8
0
 10
-393.791443
 20
-119.333290
 40
6.000000
  1
DIMENSINS OF A
 50
0.000000
 41
1.052632
 51
0.000000
  7
STANDARD
  0
TEXT
  8
0
 10
-343.667999
 20
-266.601715
 40
6.000000
  1
(MM)
 50
0.000000
 41
1.052632
 51
0.000000
  7
STANDARD
  0
TEXT
  8
0
 10
295.700867
 20
-272.049988
 40
7.000000
  1
KOGANEI CORP.
 50
0.000000
 41
1.139832
 51
0.000000
  7
STANDARD
  0
POINT
  8
0
 10
-65.999985
 20
-79.999992
  0
POINT
  8
0
 10
219.000015
 20
-79.999992
  0
LINE
  8
0
 10
-165.999969
 20
-23.000023
 11
-120.999962
 21
-23.000023
  0
LINE
  8
0
 10
-150.999969
 20
-79.999992
 11
219.000046
 21
-79.999992
  0
LINE
  8
0
 10
-165.999969
 20
-21.500019
 11
-165.999969
 21
-78.999992
  0
LINE
  8
0
 10
234.000015
 20
-21.500019
 11
234.000015
 21
-78.999992
  0
LINE
  8
0
 10
-65.999985
 20
-12.736023
 11
-65.999985
 21
-88.612488
  0
LINE
  8
0
 10
219.000015
 20
-27.000004
 11
219.000015
 21
-79.999992
  0
LINE
  8
0
 10
-150.999969
 20
-23.000000
 11
-150.999969
 21
-42.500008
  0
LINE
  8
0
 10
-120.999962
 20
-19.999992
 11
-10.999962
 21
-19.999992
  0
LINE
  8
0
 10
-120.999962
 20
-19.999992
 11
-120.999962
 21
-39.999992
  0
LINE
  8
0
 10
-10.999977
 20
-19.999992
 11
-10.999977
 21
-39.999992
  0
LINE
  8
0
 10
-165.999969
 20
-78.999992
 11
-150.999969
 21
-78.999992
  0
LINE
  8
0
 10
219.000046
 20
-78.999992
 11
234.000046
 21
-78.999992
  0
LINE
  8
0
 10
-150.999969
 20
-39.999992
 11
234.000015
 21
-39.999992
  0
LINE
  8
0
 10
-150.999969
 20
-41.499992
 11
-112.999992
 21
-41.499992
  0
LINE
  8
0
 10
-150.999969
 20
-45.499992
 11
-122.999992
 21
-45.499992
  0
LINE
  8
0
 10
-150.999969
 20
-48.499992
 11
-122.999992
 21
-48.499992
  0
LINE
  8
0
 10
-150.999969
 20
-78.999992
 11
219.000046
 21
-78.999992
  0
LINE
  8
0
 10
-150.999969
 20
-27.000004
 11
-120.999962
 21
-27.000004
  0
LINE
  8
0
 10
-10.999977
 20
-23.000023
 11
234.000046
 21
-23.000023
  0
LINE
  8
0
 10
-120.999962
 20
-38.999996
 11
-10.999977
 21
-38.999996
  0
LINE
  8
0
 10
-129.499969
 20
-28.999996
 11
-129.499969
 21
-39.999992
  0
LINE
  8
0
 10
-2.499985
 20
-28.999996
 11
-2.499985
 21
-39.999992
  0
LINE
  8
0
 10
-129.499969
 20
-28.999996
 11
-120.999962
 21
-28.999996
  0
LINE
  8
0
 10
-10.999977
 20
-28.999996
 11
-2.499985
 21
-28.999996
  0
LINE
  8
0
 10
-13.231621
 20
-36.999985
 11
-0.338013
 21
-36.999985
  0
LINE
  8
0
 10
184.284897
 20
-36.999985
 11
270.922241
 21
-36.999985
  0
LINE
  8
0
 10
-191.499969
 20
-42.349987
 11
-191.499969
 21
-31.649990
  0
LINE
  8
0
 10
-198.999985
 20
-42.149979
 11
-198.999985
 21
-31.849991
  0
LINE
  8
0
 10
-181.499969
 20
-42.349987
 11
-181.499969
 21
-31.649990
  0
LINE
  8
0
 10
-181.499969
 20
-42.349987
 11
-191.499969
 21
-42.349987
  0
LINE
  8
0
 10
-181.499969
 20
-31.649990
 11
-191.499969
 21
-31.649990
  0
LINE
  8
0
 10
-180.849609
 20
-42.999664
 11
-181.499603
 21
-42.349663
  0
LINE
  8
0
 10
-181.499603
 20
-31.650318
 11
-180.849579
 21
-31.000305
  0
LINE
  8
0
 10
-180.849976
 20
-43.000000
 11
-180.849976
 21
-31.000008
  0
LINE
  8
0
 10
-191.999969
 20
-42.249989
 11
-191.999969
 21
-31.849991
  0
LINE
  8
0
 10
-192.199951
 20
-42.349987
 11
-198.799973
 21
-42.349987
  0
LINE
  8
0
 10
-192.199951
 20
-31.649990
 11
-198.799973
 21
-31.649990
  0
LINE
  8
0
 10
-191.999817
 20
-42.150063
 11
-192.199799
 21
-42.350048
  0
LINE
  8
0
 10
-191.999802
 20
-31.849800
 11
-192.199768
 21
-31.649826
  0
LINE
  8
0
 10
-199.000092
 20
-42.150112
 11
-198.800110
 21
-42.350079
  0
LINE
  8
0
 10
-199.000107
 20
-31.849834
 11
-198.800140
 21
-31.649857
  0
LINE
  8
0
 10
-191.499969
 20
-38.249985
 11
-191.999969
 21
-38.249985
  0
LINE
  8
0
 10
-191.499969
 20
-35.749985
 11
-191.999969
 21
-35.749985
  0
LINE
  8
0
 10
-169.999969
 20
-42.999977
 11
-180.850006
 21
-42.999977
  0
LINE
  8
0
 10
-169.999969
 20
-42.458477
 11
-181.391449
 21
-42.458477
  0
LINE
  8
0
 10
-169.999969
 20
-31.541500
 11
-181.391479
 21
-31.541500
  0
LINE
  8
0
 10
-169.999969
 20
-30.999989
 11
-180.850006
 21
-30.999989
  0
LINE
  8
0
 10
-165.999969
 20
-43.999996
 11
-165.999969
 21
-29.999992
  0
LINE
  8
0
 10
-169.999969
 20
-43.999969
 11
-169.999969
 21
-29.999992
  0
LINE
  8
0
 10
-165.999969
 20
-43.999996
 11
-165.999969
 21
-29.999992
  0
LINE
  8
0
 10
-115.998940
 20
-36.999985
 11
-129.790100
 21
-36.999985
  0
LINE
  8
0
 10
259.500000
 20
-31.649990
 11
259.500000
 21
-42.349987
  0
LINE
  8
0
 10
267.000000
 20
-31.849991
 11
267.000000
 21
-42.149979
  0
LINE
  8
0
 10
249.500015
 20
-31.649990
 11
249.500015
 21
-42.349987
  0
LINE
  8
0
 10
249.500046
 20
-31.649990
 11
259.500061
 21
-31.649990
  0
LINE
  8
0
 10
249.500046
 20
-42.349987
 11
259.500061
 21
-42.349987
  0
LINE
  8
0
 10
248.849594
 20
-31.000343
 11
249.499588
 21
-31.650326
  0
LINE
  8
0
 10
249.499924
 20
-42.349949
 11
248.849930
 21
-42.999928
  0
LINE
  8
0
 10
248.850021
 20
-30.999989
 11
248.850021
 21
-42.999977
  0
LINE
  8
0
 10
260.000061
 20
-31.849991
 11
260.000061
 21
-42.149979
  0
LINE
  8
0
 10
260.200012
 20
-31.649990
 11
266.800049
 21
-31.649990
  0
LINE
  8
0
 10
260.200012
 20
-42.349987
 11
266.800049
 21
-42.349987
  0
LINE
  8
0
 10
260.000061
 20
-31.850071
 11
260.200073
 21
-31.650051
  0
LINE
  8
0
 10
259.999878
 20
-42.150066
 11
260.199890
 21
-42.350086
  0
LINE
  8
0
 10
267.000183
 20
-31.849873
 11
266.800171
 21
-31.649849
  0
LINE
  8
0
 10
266.999878
 20
-42.149883
 11
266.799866
 21
-42.349903
  0
LINE
  8
0
 10
259.500061
 20
-35.749985
 11
260.000061
 21
-35.749985
  0
LINE
  8
0
 10
259.500061
 20
-38.249985
 11
260.000061
 21
-38.249985
  0
LINE
  8
0
 10
238.000046
 20
-30.999989
 11
248.850021
 21
-30.999989
  0
LINE
  8
0
 10
238.000046
 20
-31.541500
 11
249.391525
 21
-31.541500
  0
LINE
  8
0
 10
238.000046
 20
-42.458477
 11
249.391556
 21
-42.458477
  0
LINE
  8
0
 10
238.000046
 20
-42.999977
 11
248.850021
 21
-42.999977
  0
LINE
  8
0
 10
234.000015
 20
-29.999969
 11
234.000015
 21
-43.999977
  0
LINE
  8
0
 10
238.000046
 20
-29.999969
 11
238.000046
 21
-43.999977
  0
LINE
  8
0
 10
234.000015
 20
-29.999969
 11
234.000015
 21
-43.999977
  0
LINE
  8
0
 10
-190.499969
 20
-52.499992
 11
-188.000000
 21
-52.499992
  0
LINE
  8
0
 10
-195.499985
 20
-53.499989
 11
-192.499969
 21
-53.499989
  0
LINE
  8
0
 10
-195.500122
 20
-53.499828
 11
-196.000122
 21
-53.999832
  0
LINE
  8
0
 10
-192.499908
 20
-53.499962
 11
-191.999908
 21
-53.999954
  0
LINE
  8
0
 10
-190.500092
 20
-52.499825
 11
-191.000092
 21
-52.999817
  0
LINE
  8
0
 10
-191.999969
 20
-42.249985
 11
-191.499969
 21
-42.249985
  0
LINE
  8
0
 10
-191.999969
 20
-55.249996
 11
-190.999969
 21
-55.249996
  0
LINE
  8
0
 10
-188.000092
 20
-52.500160
 11
-187.500092
 21
-53.000145
  0
LINE
  8
0
 10
-187.500000
 20
-52.999992
 11
-185.999969
 21
-52.999992
  0
LINE
  8
0
 10
-181.499832
 20
-51.726624
 11
-180.799835
 21
-51.026627
  0
LINE
  8
0
 10
-169.299881
 20
-51.726467
 11
-169.999908
 21
-51.026451
  0
LINE
  8
0
 10
-180.799988
 20
-51.026497
 11
-170.000000
 21
-51.026497
  0
LINE
  8
0
 10
-169.299927
 20
-52.499969
 11
-165.999908
 21
-52.963760
  0
LINE
  8
0
 10
-169.299927
 20
-53.509792
 11
-165.999908
 21
-53.973583
  0
LINE
  8
0
 10
-190.499969
 20
-62.499992
 11
-188.000000
 21
-62.499992
  0
LINE
  8
0
 10
-195.499985
 20
-61.500000
 11
-192.499969
 21
-61.500000
  0
LINE
  8
0
 10
-195.999954
 20
-54.000008
 11
-195.999954
 21
-61.000008
  0
LINE
  8
0
 10
-190.999969
 20
-52.999992
 11
-190.999969
 21
-62.000008
  0
LINE
  8
0
 10
-190.499939
 20
-52.500004
 11
-190.499939
 21
-62.500004
  0
LINE
  8
0
 10
-195.499954
 20
-53.500000
 11
-195.499954
 21
-61.500008
  0
LINE
  8
0
 10
-191.999969
 20
-53.999996
 11
-191.999969
 21
-61.000000
  0
LINE
  8
0
 10
-192.499969
 20
-53.500000
 11
-192.499969
 21
-61.500008
  0
LINE
  8
0
 10
-192.500122
 20
-61.499821
 11
-192.000122
 21
-60.999802
  0
LINE
  8
0
 10
-195.499832
 20
-61.499916
 11
-195.999847
 21
-60.999897
  0
LINE
  8
0
 10
-190.499832
 20
-62.499935
 11
-190.999817
 21
-61.999947
  0
LINE
  8
0
 10
-191.999969
 20
-59.749989
 11
-190.999969
 21
-59.749989
  0
LINE
  8
0
 10
-187.500000
 20
-52.999992
 11
-187.500000
 21
-62.000008
  0
LINE
  8
0
 10
-188.000000
 20
-52.500004
 11
-188.000000
 21
-62.500004
  0
LINE
  8
0
 10
-188.000107
 20
-62.499912
 11
-187.500122
 21
-61.999916
  0
LINE
  8
0
 10
-187.500000
 20
-61.999992
 11
-185.999969
 21
-61.999992
  0
LINE
  8
0
 10
-185.999969
 20
-62.503502
 11
-185.999969
 21
-52.499992
  0
LINE
  8
0
 10
-181.499969
 20
-51.726501
 11
-181.499969
 21
-63.273506
  0
LINE
  8
0
 10
-180.799988
 20
-51.026505
 11
-180.799988
 21
-63.973503
  0
LINE
  8
0
 10
-181.499817
 20
-63.273399
 11
-180.799805
 21
-63.973396
  0
LINE
  8
0
 10
-180.799988
 20
-63.973492
 11
-170.000000
 21
-63.973492
  0
LINE
  8
0
 10
-170.000000
 20
-51.026497
 11
-170.000000
 21
-63.973503
  0
LINE
  8
0
 10
-169.299896
 20
-63.273628
 11
-169.999893
 21
-63.973633
  0
LINE
  8
0
 10
-169.299988
 20
-51.726501
 11
-169.299988
 21
-63.273506
  0
LINE
  8
0
 10
-169.299957
 20
-62.500061
 11
-165.999939
 21
-62.036270
  0
LINE
  8
0
 10
-169.299942
 20
-61.490234
 11
-165.999939
 21
-61.026443
  0
LINE
  8
0
 10
-185.999969
 20
-52.499992
 11
-181.499969
 21
-52.499992
  0
LINE
  8
0
 10
-185.999969
 20
-62.499992
 11
-181.499969
 21
-62.499992
  0
LINE
  8
0
 10
-185.229950
 20
-57.499992
 11
-181.499969
 21
-57.499992
  0
LINE
  8
0
 10
-198.748520
 20
-57.499992
 11
-162.932159
 21
-57.499992
  0
LINE
  8
0
 10
-165.999969
 20
-32.000008
 11
-150.999969
 21
-32.000008
  0
LINE
  8
0
 10
-165.999969
 20
-40.499996
 11
-150.999969
 21
-40.499996
  0
LINE
  8
0
 10
-165.999969
 20
-47.499996
 11
-150.999969
 21
-47.499996
  0
LINE
  8
0
 10
234.000015
 20
-40.499996
 11
219.000015
 21
-40.499996
  0
LINE
  8
0
 10
234.000015
 20
-47.499996
 11
219.000015
 21
-47.499996
  0
LINE
  8
0
 10
222.498764
 20
-21.300018
 11
230.501328
 21
-21.300018
  0
LINE
  8
0
 10
230.649521
 20
-23.000080
 11
230.500778
 21
-21.300072
  0
LINE
  8
0
 10
222.349686
 20
-22.999969
 11
222.498398
 21
-21.299965
  0
LINE
  8
0
 10
226.100052
 20
-20.900021
 11
226.900040
 21
-20.900021
  0
LINE
  8
0
 10
226.900040
 20
-20.900021
 11
226.900040
 21
-20.507717
  0
LINE
  8
0
 10
226.100021
 20
-20.900021
 11
226.100021
 21
-20.507717
  0
LINE
  8
0
 10
-162.501221
 20
-21.300018
 11
-154.498688
 21
-21.300018
  0
LINE
  8
0
 10
-154.349487
 20
-22.999989
 11
-154.498215
 21
-21.299988
  0
LINE
  8
0
 10
-162.649475
 20
-23.000053
 11
-162.500732
 21
-21.300049
  0
LINE
  8
0
 10
-158.899963
 20
-20.900021
 11
-158.099976
 21
-20.900021
  0
LINE
  8
0
 10
-158.099976
 20
-20.900021
 11
-158.099976
 21
-20.507717
  0
LINE
  8
0
 10
-158.899963
 20
-20.900021
 11
-158.899963
 21
-20.507717
  0
LINE
  8
0
 10
-112.999992
 20
-48.499992
 11
77.000015
 21
-48.499992
  0
LINE
  8
0
 10
-112.999992
 20
-45.499992
 11
77.000015
 21
-45.499992
  0
LINE
  8
0
 10
-112.999992
 20
-41.499992
 11
77.000015
 21
-41.499992
  0
LINE
  8
0
 10
77.000015
 20
-41.499992
 11
219.000046
 21
-41.499992
  0
LINE
  8
0
 10
87.000015
 20
-48.499992
 11
219.000046
 21
-48.499992
  0
LINE
  8
0
 10
-150.999969
 20
-44.500008
 11
-150.999969
 21
-79.999992
  0
LINE
  8
0
 10
-150.999969
 20
-30.000015
 11
-129.499969
 21
-30.000015
  0
LINE
  8
0
 10
-169.999969
 20
-43.999969
 11
-165.999969
 21
-43.999969
  0
LINE
  8
0
 10
197.500046
 20
-30.000015
 11
197.500046
 21
-39.999992
  0
LINE
  8
0
 10
238.000046
 20
-29.999992
 11
234.000046
 21
-29.999992
  0
LINE
  8
0
 10
238.000046
 20
-43.999977
 11
234.000046
 21
-43.999977
  0
LINE
  8
0
 10
-169.999969
 20
-30.000015
 11
-165.999969
 21
-30.000015
  0
LINE
  8
0
 10
-146.999969
 20
-30.000015
 11
-146.999969
 21
-39.999992
  0
LINE
  8
0
 10
-169.709808
 20
-36.999985
 11
-166.290070
 21
-36.999985
  0
LINE
  8
0
 10
-150.709808
 20
-36.999985
 11
-147.290100
 21
-36.999985
  0
LINE
  8
0
 10
219.000046
 20
-30.000015
 11
197.500046
 21
-30.000015
  0
LINE
  8
0
 10
215.000046
 20
-30.000015
 11
215.000046
 21
-39.999992
  0
LINE
  8
0
 10
197.790207
 20
-36.999985
 11
214.709885
 21
-36.999985
  0
LINE
  8
0
 10
215.290176
 20
-36.999985
 11
218.709885
 21
-36.999985
  0
LINE
  8
0
 10
-68.499985
 20
-24.999992
 11
-63.499985
 21
-24.999992
  0
LINE
  8
0
 10
-63.499985
 20
-19.999992
 11
-63.499985
 21
-24.999992
  0
LINE
  8
0
 10
-68.499985
 20
-19.999992
 11
-68.499985
 21
-24.999992
  0
LINE
  8
0
 10
187.500046
 20
-34.999992
 11
197.500046
 21
-34.999992
  0
LINE
  8
0
 10
187.500046
 20
-38.999996
 11
197.500046
 21
-38.999996
  0
LINE
  8
0
 10
187.500046
 20
-34.999992
 11
187.500046
 21
-38.999996
  0
LINE
  8
0
 10
-10.999977
 20
-21.500019
 11
222.481033
 21
-21.500019
  0
LINE
  8
0
 10
-165.999969
 20
-21.500019
 11
-162.518463
 21
-21.500019
  0
LINE
  8
0
 10
-165.999969
 20
-24.500004
 11
-120.999962
 21
-24.500004
  0
LINE
  8
0
 10
230.518509
 20
-21.500019
 11
234.000046
 21
-21.500019
  0
LINE
  8
0
 10
-154.480896
 20
-21.500019
 11
-120.999962
 21
-21.500019
  0
LINE
  8
0
 10
-117.999992
 20
-40.295681
 11
-117.999992
 21
-56.421539
  0
LINE
  8
0
 10
-107.000023
 20
-41.499981
 11
-107.000023
 21
-45.499985
  0
LINE
  8
0
 10
-107.999992
 20
-41.499981
 11
-107.999992
 21
-45.499985
  0
LINE
  8
0
 10
-115.999962
 20
-52.149971
 11
-117.049965
 21
-52.149971
  0
LINE
  8
0
 10
-115.999962
 20
-50.849991
 11
-117.049965
 21
-50.849991
  0
LINE
  8
0
 10
-117.350014
 20
-49.499989
 11
-117.350014
 21
-50.550003
  0
LINE
  8
0
 10
-118.649971
 20
-49.499989
 11
-118.649971
 21
-50.550003
  0
LINE
  8
0
 10
-119.999992
 20
-50.849991
 11
-119.999992
 21
-52.149971
  0
LINE
  8
0
 10
-116.000008
 20
-50.849991
 11
-116.000008
 21
-52.149971
  0
LINE
  8
0
 10
-117.349968
 20
-49.499989
 11
-118.649956
 21
-49.499989
  0
LINE
  8
0
 10
-117.349968
 20
-53.499985
 11
-118.649956
 21
-53.499985
  0
LINE
  8
0
 10
-118.949944
 20
-50.849991
 11
-119.999947
 21
-50.849991
  0
LINE
  8
0
 10
-117.350014
 20
-52.449959
 11
-117.350014
 21
-53.499985
  0
LINE
  8
0
 10
-118.949944
 20
-52.149971
 11
-119.999947
 21
-52.149971
  0
LINE
  8
0
 10
-118.649971
 20
-52.449959
 11
-118.649971
 21
-53.499985
  0
LINE
  8
0
 10
-128.999969
 20
-41.499981
 11
-128.999969
 21
-45.499985
  0
LINE
  8
0
 10
-151.623169
 20
-42.500000
 11
-142.030792
 21
-42.500000
  0
LINE
  8
0
 10
-151.623169
 20
-44.499989
 11
-142.383453
 21
-44.499989
  0
LINE
  8
0
 10
-124.681755
 20
-51.499981
 11
-111.084343
 21
-51.499981
  0
LINE
  8
0
 10
-130.499939
 20
-42.500000
 11
-130.499939
 21
-44.500000
  0
LINE
  8
0
 10
-128.999924
 20
-41.500011
 11
-130.499908
 21
-42.500023
  0
LINE
  8
0
 10
-130.500000
 20
-44.499989
 11
-128.999985
 21
-45.499981
  0
LINE
  8
0
 10
-141.205170
 20
-46.499977
 11
-140.147202
 21
-40.499985
  0
LINE
  8
0
 10
-142.736084
 20
-46.500053
 11
-141.678131
 21
-40.500050
  0
LINE
  8
0
 10
-151.623169
 20
-42.500000
 11
-151.623169
 21
-44.500000
  0
LINE
  8
0
 10
-140.499939
 20
-42.500000
 11
-130.499939
 21
-42.500000
  0
LINE
  8
0
 10
-140.852600
 20
-44.499989
 11
-130.499939
 21
-44.499989
  0
LINE
  8
0
 10
-161.623169
 20
-43.499985
 11
-151.623169
 21
-43.499985
  0
LINE
  8
0
 10
-161.623169
 20
-44.249973
 11
-151.623169
 21
-44.249973
  0
LINE
  8
0
 10
-161.623169
 20
-42.749992
 11
-151.623169
 21
-42.749992
  0
LINE
  8
0
 10
-112.999992
 20
-41.499981
 11
-112.999992
 21
-54.854004
  0
LINE
  8
0
 10
-122.999992
 20
-41.499981
 11
-122.999992
 21
-54.854004
  0
LINE
  8
0
 10
-123.000023
 20
-54.999966
 11
-113.000023
 21
-54.999966
  0
LINE
  8
0
 10
-123.000023
 20
-46.499981
 11
-113.000023
 21
-46.499981
  0
LINE
  8
0
 10
82.000015
 20
-40.295681
 11
82.000015
 21
-56.421539
  0
LINE
  8
0
 10
93.000000
 20
-41.499981
 11
93.000000
 21
-45.499985
  0
LINE
  8
0
 10
92.000015
 20
-41.499981
 11
92.000015
 21
-45.499985
  0
LINE
  8
0
 10
84.000046
 20
-52.149971
 11
82.950058
 21
-52.149971
  0
LINE
  8
0
 10
84.000046
 20
-50.849991
 11
82.950058
 21
-50.849991
  0
LINE
  8
0
 10
82.650009
 20
-49.499989
 11
82.650009
 21
-50.550003
  0
LINE
  8
0
 10
81.350021
 20
-49.499989
 11
81.350021
 21
-50.550003
  0
LINE
  8
0
 10
80.000015
 20
-50.849991
 11
80.000015
 21
-52.149971
  0
LINE
  8
0
 10
84.000015
 20
-50.849991
 11
84.000015
 21
-52.149971
  0
LINE
  8
0
 10
82.650055
 20
-49.499989
 11
81.350052
 21
-49.499989
  0
LINE
  8
0
 10
82.650055
 20
-53.499985
 11
81.350052
 21
-53.499985
  0
LINE
  8
0
 10
81.050064
 20
-50.849991
 11
80.000061
 21
-50.849991
  0
LINE
  8
0
 10
82.650009
 20
-52.449959
 11
82.650009
 21
-53.499985
  0
LINE
  8
0
 10
81.050064
 20
-52.149971
 11
80.000061
 21
-52.149971
  0
LINE
  8
0
 10
81.350021
 20
-52.449959
 11
81.350021
 21
-53.499985
  0
LINE
  8
0
 10
71.000061
 20
-41.499981
 11
71.000061
 21
-45.499985
  0
LINE
  8
0
 10
48.376862
 20
-42.500000
 11
57.969215
 21
-42.500000
  0
LINE
  8
0
 10
48.376862
 20
-44.499989
 11
57.616577
 21
-44.499989
  0
LINE
  8
0
 10
75.318268
 20
-51.499981
 11
88.915665
 21
-51.499981
  0
LINE
  8
0
 10
69.500076
 20
-42.500000
 11
69.500076
 21
-44.500000
  0
LINE
  8
0
 10
71.000092
 20
-41.500000
 11
69.500107
 21
-42.500015
  0
LINE
  8
0
 10
69.500015
 20
-44.499989
 11
71.000031
 21
-45.499981
  0
LINE
  8
0
 10
58.794838
 20
-46.499958
 11
59.852791
 21
-40.499977
  0
LINE
  8
0
 10
57.263901
 20
-46.500038
 11
58.321861
 21
-40.500034
  0
LINE
  8
0
 10
48.376862
 20
-42.500000
 11
48.376862
 21
-44.500000
  0
LINE
  8
0
 10
59.500076
 20
-42.500000
 11
69.500076
 21
-42.500000
  0
LINE
  8
0
 10
59.147423
 20
-44.499989
 11
69.500076
 21
-44.499989
  0
LINE
  8
0
 10
38.376862
 20
-43.499985
 11
48.376862
 21
-43.499985
  0
LINE
  8
0
 10
38.376862
 20
-44.249973
 11
48.376862
 21
-44.249973
  0
LINE
  8
0
 10
38.376862
 20
-42.749992
 11
48.376862
 21
-42.749992
  0
LINE
  8
0
 10
87.000015
 20
-41.499992
 11
87.000015
 21
-54.854004
  0
LINE
  8
0
 10
77.000015
 20
-41.499981
 11
77.000015
 21
-54.854004
  0
LINE
  8
0
 10
77.000015
 20
-54.999966
 11
87.000015
 21
-54.999966
  0
LINE
  8
0
 10
77.000015
 20
-46.499981
 11
87.000015
 21
-46.499981
  0
LINE
  8
0
 10
87.000015
 20
-45.499992
 11
219.000046
 21
-45.499992
  0
LINE
  8
0
 10
219.000046
 20
-39.999996
 11
234.000046
 21
-39.999996
  0
LINE
  8
0
 10
-10.999977
 20
-24.500004
 11
234.000015
 21
-24.500004
  0
LINE
  8
0
 10
-10.999977
 20
-27.000004
 11
234.000015
 21
-27.000004
  0
LINE
  8
0
 10
-190.499969
 20
-47.499992
 11
-188.000000
 21
-47.499992
  0
LINE
  8
0
 10
-195.499985
 20
-46.499996
 11
-192.499969
 21
-46.499996
  0
LINE
  8
0
 10
-195.999954
 20
-42.349987
 11
-195.999954
 21
-46.000008
  0
LINE
  8
0
 10
-190.999969
 20
-42.349987
 11
-190.999969
 21
-47.000008
  0
LINE
  8
0
 10
-190.499939
 20
-42.349987
 11
-190.499939
 21
-47.500004
  0
LINE
  8
0
 10
-195.499954
 20
-42.349987
 11
-195.499954
 21
-46.500008
  0
LINE
  8
0
 10
-191.999969
 20
-42.249985
 11
-191.999969
 21
-46.000000
  0
LINE
  8
0
 10
-192.499969
 20
-42.349987
 11
-192.499969
 21
-46.500008
  0
LINE
  8
0
 10
-192.500122
 20
-46.499821
 11
-192.000122
 21
-45.999813
  0
LINE
  8
0
 10
-195.499817
 20
-46.499920
 11
-195.999832
 21
-45.999897
  0
LINE
  8
0
 10
-190.499832
 20
-47.499908
 11
-190.999817
 21
-46.999920
  0
LINE
  8
0
 10
-191.999969
 20
-44.749989
 11
-190.999969
 21
-44.749989
  0
LINE
  8
0
 10
-187.500000
 20
-42.349987
 11
-187.500000
 21
-47.000008
  0
LINE
  8
0
 10
-188.000000
 20
-42.349987
 11
-188.000000
 21
-47.500004
  0
LINE
  8
0
 10
-188.000122
 20
-47.499901
 11
-187.500122
 21
-46.999908
  0
LINE
  8
0
 10
-187.500000
 20
-46.999996
 11
-185.999969
 21
-46.999996
  0
LINE
  8
0
 10
-185.999969
 20
-47.503502
 11
-185.999969
 21
-42.349987
  0
LINE
  8
0
 10
-181.499969
 20
-42.349987
 11
-181.499969
 21
-48.273506
  0
LINE
  8
0
 10
-180.799988
 20
-42.999977
 11
-180.799988
 21
-48.973503
  0
LINE
  8
0
 10
-181.499817
 20
-48.273392
 11
-180.799805
 21
-48.973389
  0
LINE
  8
0
 10
-180.799988
 20
-48.973492
 11
-170.000000
 21
-48.973492
  0
LINE
  8
0
 10
-170.000000
 20
-42.999977
 11
-170.000000
 21
-48.973503
  0
LINE
  8
0
 10
-169.299881
 20
-48.273613
 11
-169.999908
 21
-48.973633
  0
LINE
  8
0
 10
-169.299988
 20
-43.999969
 11
-169.299988
 21
-48.273506
  0
LINE
  8
0
 10
-169.299988
 20
-47.500065
 11
-165.999954
 21
-47.036274
  0
LINE
  8
0
 10
-169.299957
 20
-46.490238
 11
-165.999969
 21
-46.026451
  0
LINE
  8
0
 10
-185.999969
 20
-47.499992
 11
-181.499969
 21
-47.499992
  0
LINE
  8
0
 10
-185.229950
 20
-42.499992
 11
-181.499969
 21
-42.499992
  0
LINE
  8
0
 10
-150.999969
 20
-61.849991
 11
219.000046
 21
-61.849991
  0
LINE
  8
0
 10
-150.999969
 20
-66.149994
 11
219.000046
 21
-66.149994
  0
LINE
  8
0
 10
-146.709808
 20
-36.999985
 11
-202.379959
 21
-36.999985
  0
LINE
  8
0
 10
-146.709808
 20
-36.999985
 11
-129.790100
 21
-36.999985
  0
ARC
  8
0
 10
-181.556610
 20
-54.999992
 40
4.443370
 50
145.761703
 51
214.238144
  0
ARC
  8
0
 10
-181.556610
 20
-59.999992
 40
4.443370
 50
145.761703
 51
214.238098
  0
ARC
  8
0
 10
226.500015
 20
-30.906410
 40
10.406414
 50
67.387207
 51
87.797165
  0
ARC
  8
0
 10
226.500015
 20
-30.906410
 40
10.406414
 50
92.202835
 51
112.612785
  0
ARC
  8
0
 10
-158.499969
 20
-30.906410
 40
10.406414
 50
92.202835
 51
112.612633
  0
ARC
  8
0
 10
-158.499969
 20
-30.906410
 40
10.406414
 50
67.387207
 51
87.797081
  0
ARC
  8
0
 10
-125.745705
 20
-33.500008
 40
21.254259
 50
170.521805
 51
189.478134
  0
ARC
  8
0
 10
-187.254181
 20
-33.500008
 40
21.254269
 50
350.521790
 51
9.478156
  0
ARC
  8
0
 10
-125.745705
 20
-40.499973
 40
21.254259
 50
170.521805
 51
178.652069
  0
ARC
  8
0
 10
-187.254181
 20
-40.499973
 40
21.254265
 50
350.521851
 51
9.478207
  0
ARC
  8
0
 10
216.748123
 20
-33.499989
 40
21.251951
 50
350.520752
 51
9.479260
  0
ARC
  8
0
 10
255.251999
 20
-33.499989
 40
21.251953
 50
170.520706
 51
189.479233
  0
ARC
  8
0
 10
255.251999
 20
-40.499977
 40
21.251953
 50
170.520706
 51
189.479233
  0
ARC
  8
0
 10
216.748123
 20
-40.499977
 40
21.251953
 50
350.520691
 51
9.479210
  0
ARC
  8
0
 10
-148.745728
 20
-33.500008
 40
21.254238
 50
170.521790
 51
189.478149
  0
ARC
  8
0
 10
-148.745728
 20
-40.499973
 40
21.254238
 50
170.521790
 51
189.478149
  0
ARC
  8
0
 10
-129.745697
 20
-33.500008
 40
21.254267
 50
170.521805
 51
189.478134
  0
ARC
  8
0
 10
-129.745697
 20
-40.499973
 40
21.254267
 50
170.521805
 51
178.652069
  0
ARC
  8
0
 10
-168.254181
 20
-33.500008
 40
21.254238
 50
350.521790
 51
9.478163
  0
ARC
  8
0
 10
-168.254181
 20
-40.499973
 40
21.254248
 50
1.347888
 51
9.478163
  0
ARC
  8
0
 10
-150.754211
 20
-33.500008
 40
21.254269
 50
350.521790
 51
9.478156
  0
ARC
  8
0
 10
-150.754211
 20
-40.499973
 40
21.254263
 50
1.347887
 51
9.478156
  0
ARC
  8
0
 10
197.745804
 20
-33.500008
 40
21.254269
 50
350.521790
 51
9.478156
  0
ARC
  8
0
 10
236.254257
 20
-33.500008
 40
21.254267
 50
170.521805
 51
189.478134
  0
ARC
  8
0
 10
193.745804
 20
-33.500008
 40
21.254269
 50
350.521790
 51
9.478156
  0
ARC
  8
0
 10
218.754288
 20
-33.500008
 40
21.254267
 50
170.521805
 51
189.478134
  0
ARC
  8
0
 10
218.754288
 20
-40.499973
 40
21.254267
 50
170.521805
 51
178.652069
  0
ARC
  8
0
 10
193.745804
 20
-40.499973
 40
21.254263
 50
1.347887
 51
9.478156
  0
ARC
  8
0
 10
197.745804
 20
-40.499973
 40
21.254263
 50
1.347887
 51
9.478156
  0
ARC
  8
0
 10
236.254257
 20
-40.499973
 40
21.254267
 50
170.521805
 51
178.652069
  0
ARC
  8
0
 10
-117.049934
 20
-50.550003
 40
0.299995
 50
180.000000
 51
270.000000
  0
CIRCLE
  8
0
 10
-117.999947
 20
-51.499981
 40
3.150000
  0
ARC
  8
0
 10
-117.049934
 20
-52.449959
 40
0.299995
 50
90.000000
 51
180.000000
  0
ARC
  8
0
 10
-118.949959
 20
-50.550003
 40
0.299995
 50
270.000000
 51
0.000000
  0
ARC
  8
0
 10
-118.949959
 20
-52.449959
 40
0.299995
 50
0.000000
 51
90.000000
  0
ARC
  8
0
 10
82.950089
 20
-50.550003
 40
0.300003
 50
180.000000
 51
270.000000
  0
CIRCLE
  8
0
 10
82.000076
 20
-51.499981
 40
3.150000
  0
ARC
  8
0
 10
82.950089
 20
-52.449959
 40
0.299995
 50
90.000000
 51
180.000000
  0
ARC
  8
0
 10
81.050064
 20
-50.550003
 40
0.299995
 50
270.000000
 51
0.000000
  0
ARC
  8
0
 10
81.050064
 20
-52.449959
 40
0.300003
 50
0.000000
 51
90.000000
  0
ARC
  8
0
 10
-181.556610
 20
-44.999992
 40
4.443370
 50
145.761703
 51
214.238098
  0
POINT
  8
0
 10
-65.999985
 20
109.999969
  0
POINT
  8
0
 10
234.000015
 20
109.999969
  0
LINE
  8
0
 10
234.000015
 20
163.999985
 11
234.000015
 21
55.999969
  0
LINE
  8
0
 10
-165.999969
 20
163.999985
 11
-165.999969
 21
55.999969
  0
LINE
  8
0
 10
-165.999969
 20
164.000015
 11
234.000046
 21
164.000015
  0
LINE
  8
0
 10
-165.999969
 20
55.999969
 11
234.000046
 21
55.999969
  0
LINE
  8
0
 10
-172.820892
 20
109.999969
 11
244.000046
 21
109.999969
  0
LINE
  8
0
 10
-65.999985
 20
167.825150
 11
-65.999985
 21
50.378265
  0
LINE
  8
0
 10
-150.999969
 20
163.999985
 11
-150.999969
 21
149.999985
  0
LINE
  8
0
 10
219.000015
 20
163.999985
 11
219.000015
 21
149.999985
  0
LINE
  8
0
 10
-120.999962
 20
56.999985
 11
-10.999962
 21
56.999985
  0
LINE
  8
0
 10
-120.999962
 20
162.999954
 11
-10.999962
 21
162.999954
  0
LINE
  8
0
 10
-120.999962
 20
162.999954
 11
-120.999962
 21
149.999985
  0
LINE
  8
0
 10
-10.999977
 20
162.999954
 11
-10.999977
 21
149.999985
  0
LINE
  8
0
 10
-120.999962
 20
67.999985
 11
-10.999962
 21
67.999985
  0
LINE
  8
0
 10
-120.999962
 20
151.999985
 11
-10.999962
 21
151.999985
  0
LINE
  8
0
 10
-165.999969
 20
154.000015
 11
-120.999962
 21
154.000015
  0
LINE
  8
0
 10
-165.999969
 20
150.499954
 11
-150.999969
 21
150.499954
  0
LINE
  8
0
 10
-165.999969
 20
69.499969
 11
-150.999969
 21
69.499969
  0
LINE
  8
0
 10
-165.999969
 20
65.999969
 11
-120.999962
 21
65.999969
  0
LINE
  8
0
 10
234.000015
 20
154.000015
 11
-10.999977
 21
154.000015
  0
LINE
  8
0
 10
234.000015
 20
150.499954
 11
219.000015
 21
150.499954
  0
LINE
  8
0
 10
234.000015
 20
69.499969
 11
219.000015
 21
69.499969
  0
LINE
  8
0
 10
234.000015
 20
65.999969
 11
-10.999977
 21
65.999969
  0
LINE
  8
0
 10
-165.999969
 20
69.999969
 11
234.000046
 21
69.999969
  0
LINE
  8
0
 10
-165.999969
 20
149.999954
 11
234.000046
 21
149.999954
  0
LINE
  8
0
 10
-120.999962
 20
69.999969
 11
-120.999962
 21
56.999985
  0
LINE
  8
0
 10
-10.999977
 20
69.999969
 11
-10.999977
 21
56.999985
  0
LINE
  8
0
 10
-150.999969
 20
69.999969
 11
-150.999969
 21
55.999969
  0
LINE
  8
0
 10
219.000015
 20
69.999969
 11
219.000015
 21
55.999969
  0
LINE
  8
0
 10
229.366806
 20
84.999969
 11
270.922241
 21
84.999969
  0
LINE
  8
0
 10
-191.499969
 20
90.349991
 11
-191.499969
 21
79.649963
  0
LINE
  8
0
 10
-198.999985
 20
90.149963
 11
-198.999985
 21
79.849976
  0
LINE
  8
0
 10
-181.499969
 20
90.349991
 11
-181.499969
 21
79.649979
  0
LINE
  8
0
 10
-181.499969
 20
90.349991
 11
-191.499969
 21
90.349991
  0
LINE
  8
0
 10
-181.499969
 20
79.649963
 11
-191.499969
 21
79.649963
  0
LINE
  8
0
 10
-180.849747
 20
90.999771
 11
-181.499741
 21
90.349762
  0
LINE
  8
0
 10
-181.499969
 20
79.650009
 11
-180.849915
 21
78.999977
  0
LINE
  8
0
 10
-180.849976
 20
91.000000
 11
-180.849976
 21
78.999985
  0
LINE
  8
0
 10
-192.000000
 20
90.149963
 11
-192.000000
 21
79.849976
  0
LINE
  8
0
 10
-192.199951
 20
90.349991
 11
-198.799973
 21
90.349991
  0
LINE
  8
0
 10
-192.199951
 20
79.649963
 11
-198.799973
 21
79.649963
  0
LINE
  8
0
 10
-191.999908
 20
90.149979
 11
-192.199921
 21
90.349976
  0
LINE
  8
0
 10
-191.999756
 20
79.849785
 11
-192.199753
 21
79.649780
  0
LINE
  8
0
 10
-198.999756
 20
90.149765
 11
-198.799744
 21
90.349770
  0
LINE
  8
0
 10
-198.999893
 20
79.849976
 11
-198.799927
 21
79.650002
  0
LINE
  8
0
 10
-191.499969
 20
86.249969
 11
-191.999969
 21
86.249969
  0
LINE
  8
0
 10
-191.499969
 20
83.749969
 11
-191.999969
 21
83.749969
  0
LINE
  8
0
 10
-169.999969
 20
90.999969
 11
-180.850006
 21
90.999969
  0
LINE
  8
0
 10
-169.999969
 20
90.458466
 11
-181.391449
 21
90.458466
  0
LINE
  8
0
 10
-169.999969
 20
79.541489
 11
-181.391479
 21
79.541489
  0
LINE
  8
0
 10
-169.999969
 20
78.999985
 11
-180.850006
 21
78.999985
  0
LINE
  8
0
 10
-165.999969
 20
91.999985
 11
-165.999969
 21
77.999985
  0
LINE
  8
0
 10
-169.709808
 20
93.082886
 11
-167.999969
 21
93.082886
  0
LINE
  8
0
 10
-169.709808
 20
89.041443
 11
-167.999969
 21
89.041443
  0
LINE
  8
0
 10
-169.709808
 20
80.958511
 11
-167.999969
 21
80.958511
  0
LINE
  8
0
 10
-169.709808
 20
76.917068
 11
-167.999969
 21
76.917068
  0
LINE
  8
0
 10
-169.999969
 20
91.999985
 11
-169.999969
 21
77.999985
  0
LINE
  8
0
 10
-169.999756
 20
91.999863
 11
-169.709595
 21
93.082756
  0
LINE
  8
0
 10
-169.709747
 20
76.917122
 11
-169.999893
 21
77.999985
  0
LINE
  8
0
 10
-166.290131
 20
93.082886
 11
-167.999969
 21
93.082886
  0
LINE
  8
0
 10
-166.290131
 20
89.041443
 11
-167.999969
 21
89.041443
  0
LINE
  8
0
 10
-166.290131
 20
80.958511
 11
-167.999969
 21
80.958511
  0
LINE
  8
0
 10
-166.290131
 20
76.917068
 11
-167.999969
 21
76.917068
  0
LINE
  8
0
 10
-165.999969
 20
91.999985
 11
-165.999969
 21
77.999985
  0
LINE
  8
0
 10
-165.999832
 20
91.999985
 11
-166.290009
 21
93.082901
  0
LINE
  8
0
 10
-166.289612
 20
76.916908
 11
-165.999451
 21
77.999817
  0
LINE
  8
0
 10
-162.683441
 20
84.999969
 11
-202.379959
 21
84.999969
  0
LINE
  8
0
 10
259.500000
 20
79.649963
 11
259.500000
 21
90.349991
  0
LINE
  8
0
 10
267.000000
 20
79.849976
 11
267.000000
 21
90.149963
  0
LINE
  8
0
 10
249.500015
 20
79.649963
 11
249.500015
 21
90.349991
  0
LINE
  8
0
 10
249.500046
 20
79.649963
 11
259.500061
 21
79.649963
  0
LINE
  8
0
 10
249.500046
 20
90.349991
 11
259.500061
 21
90.349991
  0
LINE
  8
0
 10
248.849991
 20
79.000061
 11
249.499985
 21
79.650055
  0
LINE
  8
0
 10
249.499771
 20
90.349762
 11
248.849747
 21
90.999763
  0
LINE
  8
0
 10
248.850021
 20
78.999985
 11
248.850021
 21
90.999969
  0
LINE
  8
0
 10
260.000061
 20
79.849976
 11
260.000061
 21
90.149963
  0
LINE
  8
0
 10
260.200012
 20
79.649963
 11
266.800049
 21
79.649963
  0
LINE
  8
0
 10
260.200012
 20
90.349991
 11
266.800049
 21
90.349991
  0
LINE
  8
0
 10
259.999878
 20
79.849731
 11
260.199890
 21
79.649734
  0
LINE
  8
0
 10
259.999939
 20
90.149986
 11
260.199951
 21
90.349998
  0
LINE
  8
0
 10
267.000061
 20
79.850067
 11
266.800049
 21
79.650070
  0
LINE
  8
0
 10
266.999817
 20
90.149765
 11
266.799866
 21
90.349762
  0
LINE
  8
0
 10
259.500061
 20
83.749969
 11
260.000061
 21
83.749969
  0
LINE
  8
0
 10
259.500061
 20
86.249969
 11
260.000061
 21
86.249969
  0
LINE
  8
0
 10
238.000046
 20
78.999985
 11
248.850021
 21
78.999985
  0
LINE
  8
0
 10
238.000046
 20
79.541489
 11
249.391525
 21
79.541489
  0
LINE
  8
0
 10
238.000046
 20
90.458466
 11
249.391556
 21
90.458466
  0
LINE
  8
0
 10
238.000046
 20
90.999969
 11
248.850021
 21
90.999969
  0
LINE
  8
0
 10
234.000015
 20
77.999969
 11
234.000015
 21
91.999969
  0
LINE
  8
0
 10
237.709885
 20
76.917068
 11
236.000046
 21
76.917068
  0
LINE
  8
0
 10
237.709885
 20
80.958511
 11
236.000046
 21
80.958511
  0
LINE
  8
0
 10
237.709885
 20
89.041443
 11
236.000046
 21
89.041443
  0
LINE
  8
0
 10
237.709885
 20
93.082886
 11
236.000046
 21
93.082886
  0
LINE
  8
0
 10
238.000046
 20
77.999969
 11
238.000046
 21
91.999969
  0
LINE
  8
0
 10
238.000198
 20
77.999962
 11
237.710037
 21
76.917084
  0
LINE
  8
0
 10
237.709091
 20
93.082649
 11
237.999252
 21
91.999756
  0
LINE
  8
0
 10
234.290237
 20
76.917068
 11
236.000046
 21
76.917068
  0
LINE
  8
0
 10
234.290237
 20
80.958511
 11
236.000046
 21
80.958511
  0
LINE
  8
0
 10
234.290237
 20
89.041443
 11
236.000046
 21
89.041443
  0
LINE
  8
0
 10
234.290237
 20
93.082886
 11
236.000046
 21
93.082886
  0
LINE
  8
0
 10
234.000015
 20
77.999969
 11
234.000015
 21
91.999969
  0
LINE
  8
0
 10
233.999435
 20
77.999809
 11
234.289597
 21
76.916931
  0
LINE
  8
0
 10
234.290207
 20
93.082901
 11
234.000046
 21
91.999977
  0
LINE
  8
0
 10
-194.999985
 20
154.999985
 11
-194.999985
 21
148.000015
  0
LINE
  8
0
 10
-198.457382
 20
151.999954
 11
-167.953705
 21
151.999954
  0
LINE
  8
0
 10
-192.999969
 20
156.999954
 11
-192.699982
 21
156.999954
  0
LINE
  8
0
 10
-192.999969
 20
146.999954
 11
-192.699982
 21
146.999954
  0
LINE
  8
0
 10
-192.699951
 20
156.999985
 11
-192.699951
 21
145.999985
  0
LINE
  8
0
 10
-191.399994
 20
155.899979
 11
-191.399994
 21
147.099991
  0
LINE
  8
0
 10
-190.299988
 20
156.999985
 11
-190.299988
 21
145.999985
  0
LINE
  8
0
 10
-189.200012
 20
156.999985
 11
-189.200012
 21
145.999985
  0
LINE
  8
0
 10
-190.299988
 20
156.999954
 11
-173.917236
 21
156.999954
  0
LINE
  8
0
 10
-190.299988
 20
146.999954
 11
-180.799988
 21
146.999954
  0
LINE
  8
0
 10
-190.299744
 20
156.999664
 11
-191.399719
 21
155.899673
  0
LINE
  8
0
 10
-190.300110
 20
147.000092
 11
-191.400024
 21
148.100006
  0
LINE
  8
0
 10
-191.399963
 20
155.899979
 11
-192.699982
 21
155.899979
  0
LINE
  8
0
 10
-191.399963
 20
148.099960
 11
-192.699982
 21
148.099960
  0
LINE
  8
0
 10
-172.599899
 20
147.294022
 11
-169.999924
 21
145.473511
  0
LINE
  8
0
 10
-172.599945
 20
156.746994
 11
-172.599945
 21
147.294022
  0
LINE
  8
0
 10
-180.799988
 20
146.999985
 11
-180.799988
 21
156.999985
  0
LINE
  8
0
 10
-180.800079
 20
157.000031
 11
-179.699905
 21
155.899872
  0
LINE
  8
0
 10
-179.699921
 20
155.899979
 11
-179.699921
 21
148.099991
  0
LINE
  8
0
 10
-180.800674
 20
147.000824
 11
-179.700668
 21
148.100830
  0
LINE
  8
0
 10
-175.399994
 20
155.199997
 11
-175.399994
 21
148.799973
  0
LINE
  8
0
 10
-179.699951
 20
155.899979
 11
-176.099976
 21
155.899979
  0
LINE
  8
0
 10
-179.699951
 20
148.099960
 11
-176.099976
 21
148.099960
  0
LINE
  8
0
 10
-176.099991
 20
155.899994
 11
-175.400009
 21
155.200012
  0
LINE
  8
0
 10
-176.100342
 20
148.100342
 11
-175.400330
 21
148.800354
  0
LINE
  8
0
 10
-176.099976
 20
155.899979
 11
-176.099976
 21
148.099991
  0
LINE
  8
0
 10
-178.199982
 20
148.099991
 11
-178.199982
 21
147.294022
  0
LINE
  8
0
 10
-178.199677
 20
147.293564
 11
-180.799698
 21
145.473007
  0
LINE
  8
0
 10
-190.499969
 20
143.999985
 11
-188.000000
 21
143.999985
  0
LINE
  8
0
 10
-195.499985
 20
142.999985
 11
-192.499969
 21
142.999985
  0
LINE
  8
0
 10
-195.999954
 20
142.499985
 11
-195.999954
 21
134.499954
  0
LINE
  8
0
 10
-190.999969
 20
143.499985
 11
-190.999969
 21
133.499985
  0
LINE
  8
0
 10
-190.499939
 20
143.999985
 11
-190.499939
 21
132.999985
  0
LINE
  8
0
 10
-195.499954
 20
142.999985
 11
-195.499954
 21
133.999985
  0
LINE
  8
0
 10
-192.000000
 20
142.499985
 11
-192.000000
 21
134.500504
  0
LINE
  8
0
 10
-192.499969
 20
142.999985
 11
-192.499969
 21
133.999985
  0
LINE
  8
0
 10
-195.500275
 20
143.000305
 11
-196.000275
 21
142.500290
  0
LINE
  8
0
 10
-192.499954
 20
142.999969
 11
-192.000046
 21
142.500061
  0
LINE
  8
0
 10
-190.500336
 20
144.000443
 11
-191.000336
 21
143.500458
  0
LINE
  8
0
 10
-191.999969
 20
136.749985
 11
-190.999969
 21
136.749985
  0
LINE
  8
0
 10
-191.999969
 20
141.249985
 11
-190.999969
 21
141.249985
  0
LINE
  8
0
 10
-187.999939
 20
143.999939
 11
-187.499939
 21
143.499969
  0
LINE
  8
0
 10
-187.500000
 20
143.499985
 11
-187.500000
 21
133.499985
  0
LINE
  8
0
 10
-188.000000
 20
143.999985
 11
-188.000000
 21
133.000565
  0
LINE
  8
0
 10
-188.000305
 20
134.000305
 11
-187.500320
 21
134.500305
  0
LINE
  8
0
 10
-187.500000
 20
143.499985
 11
-185.999969
 21
143.499985
  0
LINE
  8
0
 10
-187.500000
 20
134.499954
 11
-185.999969
 21
134.499954
  0
LINE
  8
0
 10
-186.000153
 20
144.003616
 11
-185.555573
 21
144.773621
  0
LINE
  8
0
 10
-185.555420
 20
144.773483
 11
-181.499969
 21
144.773483
  0
LINE
  8
0
 10
-185.555420
 20
141.886734
 11
-181.499969
 21
141.886734
  0
LINE
  8
0
 10
-185.555420
 20
133.226456
 11
-181.499969
 21
133.226456
  0
LINE
  8
0
 10
-186.000092
 20
133.996445
 11
-185.555511
 21
133.226410
  0
LINE
  8
0
 10
-185.999969
 20
132.996262
 11
-185.999969
 21
143.499985
  0
LINE
  8
0
 10
-185.555420
 20
136.113205
 11
-181.499969
 21
136.113205
  0
LINE
  8
0
 10
-181.499969
 20
144.773483
 11
-181.499969
 21
132.226486
  0
LINE
  8
0
 10
-180.799988
 20
145.473495
 11
-180.799988
 21
131.526474
  0
LINE
  8
0
 10
-181.499786
 20
144.773285
 11
-180.799805
 21
145.473282
  0
LINE
  8
0
 10
-181.500000
 20
133.226486
 11
-180.799988
 21
132.526489
  0
LINE
  8
0
 10
-180.799988
 20
132.526474
 11
-170.000000
 21
132.526474
  0
LINE
  8
0
 10
-169.299728
 20
133.226212
 11
-169.999725
 21
132.526215
  0
LINE
  8
0
 10
-169.299988
 20
144.773483
 11
-169.299988
 21
132.225998
  0
LINE
  8
0
 10
-169.299988
 20
144.773437
 11
-169.999985
 21
145.473450
  0
LINE
  8
0
 10
-180.799988
 20
145.473465
 11
-170.000000
 21
145.473465
  0
LINE
  8
0
 10
-169.299988
 20
143.999420
 11
-165.999939
 21
143.535614
  0
LINE
  8
0
 10
-169.299911
 20
133.999390
 11
-165.999908
 21
134.463181
  0
LINE
  8
0
 10
-169.299988
 20
142.989670
 11
-165.999985
 21
142.525879
  0
LINE
  8
0
 10
-169.299866
 20
135.009140
 11
-165.999878
 21
135.472916
  0
LINE
  8
0
 10
-170.000000
 20
152.999985
 11
-170.000000
 21
131.526474
  0
LINE
  8
0
 10
226.500015
 20
85.999969
 11
226.500015
 21
73.999985
  0
LINE
  8
0
 10
220.500015
 20
79.999969
 11
232.500015
 21
79.999969
  0
LINE
  8
0
 10
224.400040
 20
80.499969
 11
224.400040
 21
79.499969
  0
LINE
  8
0
 10
228.600052
 20
80.499969
 11
228.600052
 21
79.499969
  0
LINE
  8
0
 10
226.000046
 20
82.099976
 11
227.000046
 21
82.099976
  0
LINE
  8
0
 10
226.000046
 20
77.899979
 11
227.000046
 21
77.899979
  0
LINE
  8
0
 10
224.400040
 20
80.499969
 11
225.500015
 21
80.499969
  0
LINE
  8
0
 10
224.400040
 20
79.499985
 11
225.500015
 21
79.499985
  0
LINE
  8
0
 10
227.000046
 20
82.099960
 11
227.000046
 21
80.999969
  0
LINE
  8
0
 10
226.000046
 20
82.099960
 11
226.000046
 21
80.999969
  0
LINE
  8
0
 10
226.000046
 20
78.999985
 11
226.000046
 21
77.899948
  0
LINE
  8
0
 10
227.500015
 20
80.499969
 11
228.600052
 21
80.499969
  0
LINE
  8
0
 10
227.000046
 20
78.999985
 11
227.000046
 21
77.899948
  0
LINE
  8
0
 10
227.500015
 20
79.499985
 11
228.600052
 21
79.499985
  0
LINE
  8
0
 10
-158.499969
 20
145.999985
 11
-158.499969
 21
133.999985
  0
LINE
  8
0
 10
-164.499969
 20
139.999954
 11
-152.500000
 21
139.999954
  0
LINE
  8
0
 10
-160.599976
 20
140.499954
 11
-160.599976
 21
139.499985
  0
LINE
  8
0
 10
-156.399963
 20
140.499954
 11
-156.399963
 21
139.499985
  0
LINE
  8
0
 10
-158.999969
 20
142.099991
 11
-157.999969
 21
142.099991
  0
LINE
  8
0
 10
-158.999969
 20
137.899979
 11
-157.999969
 21
137.899979
  0
LINE
  8
0
 10
-160.599976
 20
140.499954
 11
-159.499969
 21
140.499954
  0
LINE
  8
0
 10
-160.599976
 20
139.499985
 11
-159.499969
 21
139.499985
  0
LINE
  8
0
 10
-157.999969
 20
142.099991
 11
-157.999969
 21
140.999985
  0
LINE
  8
0
 10
-158.999969
 20
142.099991
 11
-158.999969
 21
140.999985
  0
LINE
  8
0
 10
-158.999969
 20
138.999985
 11
-158.999969
 21
137.899979
  0
LINE
  8
0
 10
-157.500000
 20
140.499954
 11
-156.399963
 21
140.499954
  0
LINE
  8
0
 10
-157.999969
 20
138.999985
 11
-157.999969
 21
137.899979
  0
LINE
  8
0
 10
-157.500000
 20
139.499985
 11
-156.399963
 21
139.499985
  0
LINE
  8
0
 10
-158.499969
 20
85.999969
 11
-158.499969
 21
73.999985
  0
LINE
  8
0
 10
-164.499969
 20
79.999969
 11
-152.500000
 21
79.999969
  0
LINE
  8
0
 10
-160.599976
 20
80.499969
 11
-160.599976
 21
79.499969
  0
LINE
  8
0
 10
-156.399963
 20
80.499969
 11
-156.399963
 21
79.499969
  0
LINE
  8
0
 10
-158.999969
 20
82.099976
 11
-157.999969
 21
82.099976
  0
LINE
  8
0
 10
-158.999969
 20
77.899979
 11
-157.999969
 21
77.899979
  0
LINE
  8
0
 10
-160.599976
 20
80.499969
 11
-159.499969
 21
80.499969
  0
LINE
  8
0
 10
-160.599976
 20
79.499985
 11
-159.499969
 21
79.499985
  0
LINE
  8
0
 10
-157.999969
 20
82.099960
 11
-157.999969
 21
80.999969
  0
LINE
  8
0
 10
-158.999969
 20
82.099960
 11
-158.999969
 21
80.999969
  0
LINE
  8
0
 10
-158.999969
 20
78.999985
 11
-158.999969
 21
77.899948
  0
LINE
  8
0
 10
-157.500000
 20
80.499969
 11
-156.399963
 21
80.499969
  0
LINE
  8
0
 10
-157.999969
 20
78.999985
 11
-157.999969
 21
77.899948
  0
LINE
  8
0
 10
-157.500000
 20
79.499985
 11
-156.399963
 21
79.499985
  0
LINE
  8
0
 10
226.499985
 20
145.999985
 11
226.499985
 21
133.999985
  0
LINE
  8
0
 10
220.499985
 20
140.000015
 11
232.499985
 21
140.000015
  0
LINE
  8
0
 10
224.400009
 20
140.499954
 11
224.400009
 21
139.499985
  0
LINE
  8
0
 10
228.599991
 20
140.499954
 11
228.599991
 21
139.499985
  0
LINE
  8
0
 10
225.999985
 20
142.099991
 11
226.999985
 21
142.099991
  0
LINE
  8
0
 10
225.999985
 20
137.900009
 11
226.999985
 21
137.900009
  0
LINE
  8
0
 10
224.400009
 20
140.499985
 11
225.499985
 21
140.499985
  0
LINE
  8
0
 10
224.400009
 20
139.499985
 11
225.499985
 21
139.499985
  0
LINE
  8
0
 10
227.000015
 20
142.099991
 11
227.000015
 21
140.999985
  0
LINE
  8
0
 10
225.999985
 20
142.099991
 11
225.999985
 21
140.999985
  0
LINE
  8
0
 10
225.999985
 20
138.999985
 11
225.999985
 21
137.899979
  0
LINE
  8
0
 10
227.499985
 20
140.499985
 11
228.599991
 21
140.499985
  0
LINE
  8
0
 10
227.000015
 20
138.999985
 11
227.000015
 21
137.899979
  0
LINE
  8
0
 10
227.499985
 20
139.499985
 11
228.599991
 21
139.499985
  0
LINE
  8
0
 10
-63.499985
 20
67.999985
 11
-63.499985
 21
56.999985
  0
LINE
  8
0
 10
-68.499985
 20
67.999985
 11
-68.499985
 21
56.999985
  0
LINE
  8
0
 10
-115.999977
 20
62.999985
 11
-105.999977
 21
62.999985
  0
LINE
  8
0
 10
-25.999985
 20
62.999985
 11
-14.894241
 21
62.999985
  0
LINE
  8
0
 10
-115.999977
 20
156.999985
 11
-105.999977
 21
156.999985
  0
LINE
  8
0
 10
-25.999985
 20
156.999985
 11
-15.226074
 21
156.999985
  0
LINE
  8
0
 10
-69.999985
 20
156.999985
 11
-61.999977
 21
156.999985
  0
LINE
  8
0
 10
-110.999977
 20
161.999985
 11
-110.999977
 21
151.999985
  0
LINE
  8
0
 10
-110.999977
 20
67.999985
 11
-110.999977
 21
57.999985
  0
LINE
  8
0
 10
-20.999977
 20
67.999985
 11
-20.999977
 21
57.999985
  0
LINE
  8
0
 10
-20.999977
 20
161.999985
 11
-20.999977
 21
151.999985
  0
LINE
  8
0
 10
214.000015
 20
152.999985
 11
214.000015
 21
149.999985
  0
LINE
  8
0
 10
-145.999969
 20
152.999985
 11
-145.999969
 21
149.999985
  0
LINE
  8
0
 10
-145.999969
 20
152.999985
 11
-120.999962
 21
152.999985
  0
LINE
  8
0
 10
169.000046
 20
152.999985
 11
214.000046
 21
152.999985
  0
LINE
  8
0
 10
-10.999977
 20
151.500015
 11
169.000046
 21
151.500015
  0
LINE
  8
0
 10
169.000046
 20
152.999985
 11
169.000046
 21
149.999985
  0
LINE
  8
0
 10
191.500015
 20
152.999985
 11
191.500015
 21
149.999985
  0
LINE
  8
0
 10
-123.499962
 20
152.999985
 11
-123.499962
 21
149.999985
  0
LINE
  8
0
 10
-165.999969
 20
129.999985
 11
234.000046
 21
129.999985
  0
LINE
  8
0
 10
-165.999969
 20
89.999969
 11
234.000046
 21
89.999969
  0
LINE
  8
0
 10
-165.999969
 20
88.499969
 11
234.000046
 21
88.499969
  0
LINE
  8
0
 10
-165.999969
 20
91.499985
 11
234.000046
 21
91.499985
  0
LINE
  8
0
 10
-165.999969
 20
128.499985
 11
234.000046
 21
128.499985
  0
LINE
  8
0
 10
-165.999969
 20
131.499985
 11
234.000046
 21
131.499985
  0
LINE
  8
0
 10
-122.999886
 20
53.999939
 11
-112.999886
 21
53.999939
  0
LINE
  8
0
 10
-128.999908
 20
55.999969
 11
-128.999908
 21
55.499969
  0
LINE
  8
0
 10
-107.999947
 20
55.999969
 11
-107.999947
 21
55.499969
  0
LINE
  8
0
 10
-128.999908
 20
55.499954
 11
-121.749886
 21
55.499954
  0
LINE
  8
0
 10
-121.749886
 20
55.499954
 11
-107.999947
 21
55.499954
  0
LINE
  8
0
 10
-117.999886
 20
57.002075
 11
-117.999886
 21
47.387650
  0
LINE
  8
0
 10
-112.999886
 20
55.499969
 11
-112.999886
 21
50.999969
  0
LINE
  8
0
 10
-122.999886
 20
55.499969
 11
-122.999886
 21
50.999969
  0
LINE
  8
0
 10
77.000076
 20
53.999985
 11
87.000076
 21
53.999985
  0
LINE
  8
0
 10
71.000061
 20
55.999969
 11
71.000061
 21
55.499969
  0
LINE
  8
0
 10
92.000015
 20
55.999969
 11
92.000015
 21
55.499969
  0
LINE
  8
0
 10
71.000061
 20
55.499985
 11
78.250076
 21
55.499985
  0
LINE
  8
0
 10
78.250076
 20
55.499985
 11
92.000015
 21
55.499985
  0
LINE
  8
0
 10
82.000076
 20
57.002075
 11
82.000076
 21
47.387650
  0
LINE
  8
0
 10
87.000076
 20
55.499969
 11
87.000076
 21
50.999969
  0
LINE
  8
0
 10
77.000076
 20
55.499969
 11
77.000076
 21
50.999969
  0
LINE
  8
0
 10
-198.332382
 20
138.999985
 11
-162.208954
 21
138.999985
  0
LINE
  8
0
 10
-190.499969
 20
132.999985
 11
-188.000000
 21
132.999985
  0
LINE
  8
0
 10
-195.499985
 20
133.999985
 11
-192.499969
 21
133.999985
  0
LINE
  8
0
 10
-192.500275
 20
134.000320
 11
-192.000305
 21
134.500320
  0
LINE
  8
0
 10
-195.499969
 20
133.999969
 11
-195.999954
 21
134.499954
  0
LINE
  8
0
 10
-190.499969
 20
132.999969
 11
-190.999939
 21
133.499954
  0
LINE
  8
0
 10
-188.000320
 20
133.000305
 11
-187.500336
 21
133.500305
  0
LINE
  8
0
 10
-187.500000
 20
133.499985
 11
-185.999969
 21
133.499985
  0
LINE
  8
0
 10
-185.555420
 20
132.226486
 11
-181.499969
 21
132.226486
  0
LINE
  8
0
 10
-186.000092
 20
132.996445
 11
-185.555496
 21
132.226410
  0
LINE
  8
0
 10
-181.499969
 20
132.226471
 11
-180.799973
 21
131.526474
  0
LINE
  8
0
 10
-180.799988
 20
131.526474
 11
-170.000000
 21
131.526474
  0
LINE
  8
0
 10
-169.299713
 20
132.226196
 11
-169.999725
 21
131.526199
  0
LINE
  8
0
 10
-169.299896
 20
132.999374
 11
-165.999908
 21
133.463165
  0
LINE
  8
0
 10
-192.999969
 20
145.999985
 11
-192.699982
 21
145.999985
  0
LINE
  8
0
 10
-190.299988
 20
145.999985
 11
-180.799988
 21
145.999985
  0
LINE
  8
0
 10
-190.300232
 20
146.000198
 11
-191.400162
 21
147.100128
  0
LINE
  8
0
 10
-191.399963
 20
147.099991
 11
-192.699982
 21
147.099991
  0
LINE
  8
0
 10
-122.999886
 20
50.999954
 11
-112.999886
 21
50.999954
  0
LINE
  8
0
 10
-121.149895
 20
50.999969
 11
-121.149895
 21
49.999969
  0
LINE
  8
0
 10
-114.849876
 20
50.999969
 11
-114.849876
 21
49.999969
  0
LINE
  8
0
 10
-118.652504
 20
49.299973
 11
-118.652504
 21
48.552795
  0
LINE
  8
0
 10
-117.355858
 20
49.299973
 11
-117.355858
 21
48.551422
  0
LINE
  8
0
 10
-121.149895
 20
49.999954
 11
-114.849892
 21
49.999954
  0
LINE
  8
0
 10
-118.652504
 20
49.299973
 11
-117.355873
 21
49.299973
  0
LINE
  8
0
 10
77.000076
 20
50.999954
 11
87.000076
 21
50.999954
  0
LINE
  8
0
 10
78.850052
 20
50.999969
 11
78.850052
 21
49.999969
  0
LINE
  8
0
 10
85.150070
 20
50.999969
 11
85.150070
 21
49.999969
  0
LINE
  8
0
 10
81.347458
 20
49.299973
 11
81.347458
 21
48.552795
  0
LINE
  8
0
 10
82.644089
 20
49.299973
 11
82.644089
 21
48.551422
  0
LINE
  8
0
 10
78.850052
 20
49.999969
 11
85.150070
 21
49.999969
  0
LINE
  8
0
 10
81.347458
 20
49.299973
 11
82.644089
 21
49.299973
  0
ARC
  8
0
 10
-162.818604
 20
78.937805
 40
7.181366
 50
163.657181
 51
193.656891
  0
ARC
  8
0
 10
-162.818634
 20
91.062180
 40
7.181371
 50
166.343109
 51
196.342819
  0
ARC
  8
0
 10
-141.709808
 20
85.000000
 40
28.290163
 50
171.786789
 51
188.213196
  0
ARC
  8
0
 10
-173.181305
 20
78.937805
 40
7.181341
 50
346.343048
 51
16.342892
  0
ARC
  8
0
 10
-173.181305
 20
91.062164
 40
7.181337
 50
343.657104
 51
13.656942
  0
ARC
  8
0
 10
-194.290146
 20
85.000000
 40
28.290176
 50
351.786804
 51
8.213158
  0
ARC
  8
0
 10
230.818680
 20
91.062134
 40
7.181366
 50
343.657166
 51
13.656942
  0
ARC
  8
0
 10
230.818680
 20
78.937790
 40
7.181341
 50
346.343048
 51
16.342823
  0
ARC
  8
0
 10
209.709885
 20
84.999954
 40
28.290159
 50
351.786865
 51
8.213223
  0
ARC
  8
0
 10
241.181381
 20
91.062134
 40
7.181341
 50
166.343063
 51
196.342819
  0
ARC
  8
0
 10
241.181381
 20
78.937790
 40
7.181366
 50
163.657181
 51
193.656937
  0
ARC
  8
0
 10
262.290222
 20
84.999969
 40
28.290148
 50
171.786789
 51
188.213196
  0
ARC
  8
0
 10
-192.999939
 20
154.999985
 40
2.000000
 50
90.000000
 51
180.000000
  0
ARC
  8
0
 10
-192.999939
 20
149.000015
 40
2.000000
 50
180.000000
 51
270.000000
  0
ARC
  8
0
 10
-180.799988
 20
146.236710
 40
0.763275
 50
0.000000
 51
90.000000
  0
ARC
  8
0
 10
-174.000000
 20
152.999985
 40
4.000000
 50
0.000000
 51
90.000000
  0
ARC
  8
0
 10
-183.467010
 20
134.669876
 40
2.538633
 50
145.349869
 51
214.650131
  0
ARC
  8
0
 10
-176.405182
 20
138.999985
 40
9.594775
 50
162.490234
 51
197.509567
  0
ARC
  8
0
 10
-180.799988
 20
146.236710
 40
0.763272
 50
340.002991
 51
0.000000
  0
ARC
  8
0
 10
-183.467010
 20
143.330093
 40
2.538633
 50
145.349869
 51
214.650131
  0
CIRCLE
  8
0
 10
226.500015
 20
80.000000
 40
4.150000
  0
ARC
  8
0
 10
225.500046
 20
80.999969
 40
0.500000
 50
270.000000
 51
0.000000
  0
ARC
  8
0
 10
227.500046
 20
80.999969
 40
0.500000
 50
180.000000
 51
270.000000
  0
ARC
  8
0
 10
227.500046
 20
78.999985
 40
0.500000
 50
90.000000
 51
180.000000
  0
ARC
  8
0
 10
225.500046
 20
78.999985
 40
0.500000
 50
0.000000
 51
90.000000
  0
CIRCLE
  8
0
 10
-158.499969
 20
140.000015
 40
4.150000
  0
ARC
  8
0
 10
-159.499969
 20
140.999985
 40
0.500000
 50
270.000000
 51
0.000000
  0
ARC
  8
0
 10
-157.500000
 20
140.999985
 40
0.500000
 50
180.000000
 51
270.000000
  0
ARC
  8
0
 10
-157.500000
 20
139.000015
 40
0.500000
 50
90.000000
 51
180.000000
  0
ARC
  8
0
 10
-159.499969
 20
139.000015
 40
0.500000
 50
0.000000
 51
90.000000
  0
CIRCLE
  8
0
 10
-158.499969
 20
80.000000
 40
4.150000
  0
ARC
  8
0
 10
-159.499969
 20
80.999969
 40
0.500000
 50
270.000000
 51
0.000000
  0
ARC
  8
0
 10
-157.500000
 20
80.999969
 40
0.500000
 50
180.000000
 51
270.000000
  0
ARC
  8
0
 10
-157.500000
 20
78.999985
 40
0.500000
 50
90.000000
 51
180.000000
  0
ARC
  8
0
 10
-159.499969
 20
78.999985
 40
0.500000
 50
0.000000
 51
90.000000
  0
CIRCLE
  8
0
 10
226.499985
 20
140.000015
 40
4.150000
  0
ARC
  8
0
 10
225.500015
 20
140.999985
 40
0.500000
 50
270.000000
 51
0.000000
  0
ARC
  8
0
 10
227.499985
 20
140.999985
 40
0.500000
 50
180.000000
 51
270.000000
  0
ARC
  8
0
 10
227.499985
 20
139.000015
 40
0.500000
 50
90.000000
 51
180.000000
  0
ARC
  8
0
 10
225.500015
 20
139.000015
 40
0.500000
 50
0.000000
 51
90.000000
  0
CIRCLE
  8
0
 10
-110.999977
 20
156.999985
 40
2.999999
  0
CIRCLE
  8
0
 10
-20.999977
 20
156.999985
 40
2.999999
  0
CIRCLE
  8
0
 10
-20.999977
 20
62.999985
 40
2.999999
  0
CIRCLE
  8
0
 10
-110.999977
 20
62.999985
 40
2.999999
  0
CIRCLE
  8
0
 10
-110.999977
 20
156.999985
 40
2.000000
  0
CIRCLE
  8
0
 10
-20.999977
 20
156.999985
 40
2.000000
  0
CIRCLE
  8
0
 10
-20.999977
 20
62.999985
 40
2.000000
  0
CIRCLE
  8
0
 10
-110.999977
 20
62.999985
 40
2.000000
  0
CIRCLE
  8
0
 10
-65.999985
 20
156.999985
 40
2.500000
  0
ARC
  8
0
 10
-137.999969
 20
147.999985
 40
3.499993
 50
34.849674
 51
145.150467
  0
ARC
  8
0
 10
206.000046
 20
147.999985
 40
3.499993
 50
34.849674
 51
145.150330
  0
ARC
  8
0
 10
-183.467010
 20
133.669876
 40
2.538623
 50
173.110855
 51
214.650131
  0
ARC
  8
0
 10
-192.999939
 20
148.000015
 40
2.000000
 50
180.000000
 51
270.000000
  0
ARC
  8
0
 10
-180.799988
 20
145.236740
 40
0.763274
 50
49.678490
 51
90.000000
  0
ARC
  8
0
 10
-117.999886
 20
52.557449
 40
4.057496
 50
219.073196
 51
260.744202
  0
ARC
  8
0
 10
-117.999886
 20
52.557449
 40
4.057497
 50
279.133026
 51
320.926758
  0
ARC
  8
0
 10
82.000076
 20
52.557480
 40
4.057502
 50
219.073135
 51
260.744202
  0
ARC
  8
0
 10
82.000076
 20
52.557480
 40
4.057496
 50
279.132935
 51
320.926819
  0
POINT
  8
0
 10
-262.999725
 20
109.999969
  0
POINT
  8
0
 10
-319.999939
 20
109.999969
  0
LINE
  8
0
 10
-318.999634
 20
164.000015
 11
-288.499847
 21
164.000015
  0
LINE
  8
0
 10
-318.999634
 20
55.999969
 11
-288.499847
 21
55.999969
  0
LINE
  8
0
 10
-259.999939
 20
162.999954
 11
-259.999939
 21
151.999985
  0
LINE
  8
0
 10
-319.999939
 20
162.999954
 11
-319.999939
 21
56.999969
  0
LINE
  8
0
 10
-306.037537
 20
137.999985
 11
-289.740082
 21
137.999985
  0
LINE
  8
0
 10
-271.999786
 20
56.999985
 11
-259.999939
 21
56.999985
  0
LINE
  8
0
 10
-271.999786
 20
162.999954
 11
-259.999939
 21
162.999954
  0
LINE
  8
0
 10
-262.999725
 20
67.999985
 11
-259.999939
 21
67.999985
  0
LINE
  8
0
 10
-262.999725
 20
151.999985
 11
-259.999939
 21
151.999985
  0
LINE
  8
0
 10
-259.999939
 20
67.999985
 11
-259.999939
 21
56.999985
  0
LINE
  8
0
 10
-262.999725
 20
153.999985
 11
-262.999725
 21
150.499954
  0
LINE
  8
0
 10
-317.999390
 20
163.999496
 11
-318.999390
 21
162.999481
  0
LINE
  8
0
 10
-318.999573
 20
56.999859
 11
-317.999786
 21
56.000072
  0
LINE
  8
0
 10
-262.999817
 20
153.999847
 11
-272.999725
 21
163.999756
  0
LINE
  8
0
 10
-288.499847
 20
163.999985
 11
-288.499847
 21
160.499985
  0
LINE
  8
0
 10
-281.499634
 20
163.999985
 11
-281.499634
 21
160.499985
  0
LINE
  8
0
 10
-288.499847
 20
160.499985
 11
-281.499634
 21
160.499985
  0
LINE
  8
0
 10
-281.499634
 20
164.000015
 11
-272.999725
 21
164.000015
  0
LINE
  8
0
 10
-267.499939
 20
69.499969
 11
-262.999725
 21
69.499969
  0
LINE
  8
0
 10
-267.499939
 20
72.499969
 11
-264.999939
 21
72.499969
  0
LINE
  8
0
 10
-267.499939
 20
98.499969
 11
-264.999939
 21
98.499969
  0
LINE
  8
0
 10
-267.499939
 20
95.499939
 11
-264.999939
 21
95.499939
  0
LINE
  8
0
 10
-267.499939
 20
121.499954
 11
-264.999939
 21
121.499954
  0
LINE
  8
0
 10
-267.499939
 20
124.499985
 11
-264.999939
 21
124.499985
  0
LINE
  8
0
 10
-267.499939
 20
150.499954
 11
-262.999725
 21
150.499954
  0
LINE
  8
0
 10
-267.499939
 20
147.499954
 11
-264.999939
 21
147.499954
  0
LINE
  8
0
 10
-267.499939
 20
150.499954
 11
-267.499939
 21
147.499954
  0
LINE
  8
0
 10
-264.999939
 20
147.499954
 11
-264.999939
 21
124.499985
  0
LINE
  8
0
 10
-267.499939
 20
124.499954
 11
-267.499939
 21
121.499954
  0
LINE
  8
0
 10
-267.499939
 20
98.499969
 11
-267.499939
 21
95.499969
  0
LINE
  8
0
 10
-267.499939
 20
72.499969
 11
-267.499939
 21
69.499969
  0
LINE
  8
0
 10
-262.999725
 20
69.499969
 11
-262.999725
 21
66.000000
  0
LINE
  8
0
 10
-262.999573
 20
65.999588
 11
-272.999603
 21
55.999580
  0
LINE
  8
0
 10
-281.499634
 20
55.999969
 11
-272.999725
 21
55.999969
  0
LINE
  8
0
 10
-264.999939
 20
121.499954
 11
-264.999939
 21
98.499969
  0
LINE
  8
0
 10
-264.999939
 20
95.499939
 11
-264.999939
 21
72.499969
  0
LINE
  8
0
 10
-318.499847
 20
134.999985
 11
-309.499786
 21
134.999985
  0
LINE
  8
0
 10
-318.499847
 20
84.999969
 11
-309.499786
 21
84.999969
  0
LINE
  8
0
 10
-313.999634
 20
150.306870
 11
-313.999634
 21
130.499954
  0
LINE
  8
0
 10
-313.999634
 20
89.499985
 11
-313.999634
 21
69.430344
  0
LINE
  8
0
 10
-262.999725
 20
149.499954
 11
-262.999725
 21
131.999954
  0
LINE
  8
0
 10
-266.395721
 20
79.999969
 11
-258.633789
 21
79.999969
  0
LINE
  8
0
 10
-315.999847
 20
145.154678
 11
-315.999847
 21
142.845291
  0
LINE
  8
0
 10
-311.999786
 20
145.154678
 11
-311.999786
 21
142.845291
  0
LINE
  8
0
 10
-315.999908
 20
145.155090
 11
-313.999939
 21
146.309784
  0
LINE
  8
0
 10
-313.999847
 20
141.690903
 11
-311.999847
 21
142.845612
  0
LINE
  8
0
 10
-313.999847
 20
146.309326
 11
-311.999969
 21
145.154694
  0
LINE
  8
0
 10
-315.999847
 20
142.845215
 11
-313.999969
 21
141.690598
  0
LINE
  8
0
 10
-296.999786
 20
159.154648
 11
-296.999786
 21
156.845261
  0
LINE
  8
0
 10
-292.999725
 20
159.154648
 11
-292.999725
 21
156.845261
  0
LINE
  8
0
 10
-297.000031
 20
159.155212
 11
-295.000031
 21
160.309906
  0
LINE
  8
0
 10
-295.000000
 20
155.690979
 11
-293.000000
 21
156.845688
  0
LINE
  8
0
 10
-294.999786
 20
160.309326
 11
-292.999939
 21
159.154709
  0
LINE
  8
0
 10
-296.999817
 20
156.845184
 11
-294.999939
 21
155.690567
  0
LINE
  8
0
 10
-315.999847
 20
77.154663
 11
-315.999847
 21
74.845276
  0
LINE
  8
0
 10
-311.999786
 20
77.154663
 11
-311.999786
 21
74.845276
  0
LINE
  8
0
 10
-315.999939
 20
77.154930
 11
-313.999939
 21
78.309624
  0
LINE
  8
0
 10
-313.999817
 20
73.690765
 11
-311.999817
 21
74.845474
  0
LINE
  8
0
 10
-313.999786
 20
78.309219
 11
-311.999939
 21
77.154602
  0
LINE
  8
0
 10
-315.999786
 20
74.845108
 11
-313.999939
 21
73.690491
  0
LINE
  8
0
 10
-296.999786
 20
63.154694
 11
-296.999786
 21
60.845291
  0
LINE
  8
0
 10
-292.999725
 20
63.154694
 11
-292.999725
 21
60.845291
  0
LINE
  8
0
 10
-297.000000
 20
63.154984
 11
-295.000031
 21
64.309677
  0
LINE
  8
0
 10
-295.000061
 20
59.690807
 11
-293.000061
 21
60.845512
  0
LINE
  8
0
 10
-294.999969
 20
64.309357
 11
-292.999817
 21
63.154572
  0
LINE
  8
0
 10
-297.000000
 20
60.845249
 11
-295.000183
 21
59.690651
  0
LINE
  8
0
 10
-294.999939
 20
68.500000
 11
-294.999939
 21
55.499985
  0
LINE
  8
0
 10
-294.999939
 20
164.499954
 11
-294.999939
 21
153.503372
  0
LINE
  8
0
 10
-301.499634
 20
157.999954
 11
-288.499847
 21
157.999954
  0
LINE
  8
0
 10
-301.499634
 20
61.999985
 11
-288.499847
 21
61.999985
  0
LINE
  8
0
 10
-320.499725
 20
75.999969
 11
-307.499939
 21
75.999969
  0
LINE
  8
0
 10
-320.499725
 20
144.000015
 11
-307.499939
 21
144.000015
  0
LINE
  8
0
 10
-318.999634
 20
162.999954
 11
-318.999634
 21
56.999969
  0
LINE
  8
0
 10
-318.999634
 20
163.999481
 11
-319.999634
 21
162.999466
  0
LINE
  8
0
 10
-319.999756
 20
56.999969
 11
-318.999695
 21
55.999924
  0
LINE
  8
0
 10
-263.000122
 20
70.500259
 11
-264.000122
 21
69.500259
  0
LINE
  8
0
 10
-263.999695
 20
150.499786
 11
-262.999908
 21
149.500000
  0
LINE
  8
0
 10
-276.999786
 20
93.082909
 11
-269.999847
 21
89.041496
  0
LINE
  8
0
 10
-284.000061
 20
89.041809
 11
-277.000000
 21
93.083305
  0
LINE
  8
0
 10
-284.000000
 20
80.958466
 11
-284.000000
 21
89.041489
  0
LINE
  8
0
 10
-276.999939
 20
76.916977
 11
-283.999878
 21
80.958397
  0
LINE
  8
0
 10
-270.000305
 20
80.959175
 11
-277.000366
 21
76.917679
  0
LINE
  8
0
 10
-269.999573
 20
89.041489
 11
-269.999573
 21
80.958466
  0
LINE
  8
0
 10
-285.999847
 20
84.999969
 11
-267.999725
 21
84.999969
  0
LINE
  8
0
 10
-276.999786
 20
95.999969
 11
-276.999786
 21
73.999985
  0
LINE
  8
0
 10
-297.499939
 20
158.675735
 11
-297.499939
 21
128.985733
  0
LINE
  8
0
 10
-302.500305
 20
140.887466
 11
-297.500305
 21
143.774200
  0
LINE
  8
0
 10
-302.499939
 20
135.113235
 11
-302.499939
 21
140.886765
  0
LINE
  8
0
 10
-297.499786
 20
132.226395
 11
-302.499817
 21
135.113174
  0
LINE
  8
0
 10
-292.500275
 20
135.113953
 11
-297.500244
 21
132.227203
  0
LINE
  8
0
 10
-292.499939
 20
140.886765
 11
-292.499939
 21
135.113266
  0
LINE
  8
0
 10
-297.499847
 20
143.773407
 11
-292.499786
 21
140.886627
  0
LINE
  8
0
 10
-301.499634
 20
147.999954
 11
-301.499634
 21
143.089828
  0
LINE
  8
0
 10
-293.499847
 20
147.999954
 11
-293.499847
 21
143.089828
  0
LINE
  8
0
 10
-295.999847
 20
146.230301
 11
-295.999847
 21
143.575211
  0
LINE
  8
0
 10
-298.999634
 20
146.230301
 11
-298.999634
 21
143.575211
  0
LINE
  8
0
 10
-282.499939
 20
165.580521
 11
-282.499939
 21
131.758926
  0
LINE
  8
0
 10
-287.500183
 20
141.887466
 11
-282.500214
 21
144.774200
  0
LINE
  8
0
 10
-287.499939
 20
136.113235
 11
-287.499939
 21
141.886734
  0
LINE
  8
0
 10
-282.499908
 20
133.226456
 11
-287.499664
 21
136.113068
  0
LINE
  8
0
 10
-277.500183
 20
136.113968
 11
-282.500183
 21
133.227219
  0
LINE
  8
0
 10
-277.499939
 20
141.886734
 11
-277.499939
 21
136.113266
  0
LINE
  8
0
 10
-282.499664
 20
144.773315
 11
-277.499908
 21
141.886688
  0
LINE
  8
0
 10
-286.499634
 20
148.999954
 11
-286.499634
 21
144.089828
  0
LINE
  8
0
 10
-278.499847
 20
148.999954
 11
-278.499847
 21
144.089828
  0
LINE
  8
0
 10
-280.999847
 20
147.230301
 11
-280.999847
 21
144.575211
  0
LINE
  8
0
 10
-283.999634
 20
147.230301
 11
-283.999634
 21
144.575211
  0
LINE
  8
0
 10
-266.395721
 20
139.999954
 11
-258.633789
 21
139.999954
  0
LINE
  8
0
 10
-261.299805
 20
144.001236
 11
-261.299805
 21
135.998703
  0
LINE
  8
0
 10
-262.999573
 20
135.849243
 11
-261.299500
 21
135.997986
  0
LINE
  8
0
 10
-262.999847
 20
144.149216
 11
-261.299805
 21
144.000488
  0
LINE
  8
0
 10
-260.899750
 20
140.399979
 11
-260.899750
 21
139.599991
  0
LINE
  8
0
 10
-260.899750
 20
139.599991
 11
-260.507385
 21
139.599991
  0
LINE
  8
0
 10
-260.899750
 20
140.400009
 11
-260.507385
 21
140.400009
  0
LINE
  8
0
 10
-261.299805
 20
84.001251
 11
-261.299805
 21
75.998703
  0
LINE
  8
0
 10
-262.999786
 20
75.849228
 11
-261.299744
 21
75.997963
  0
LINE
  8
0
 10
-263.000000
 20
84.149399
 11
-261.299957
 21
84.000656
  0
LINE
  8
0
 10
-260.899750
 20
80.399948
 11
-260.899750
 21
79.599960
  0
LINE
  8
0
 10
-260.899750
 20
79.599976
 11
-260.507385
 21
79.599976
  0
LINE
  8
0
 10
-260.899750
 20
80.399979
 11
-260.507385
 21
80.399979
  0
LINE
  8
0
 10
-304.176483
 20
150.999985
 11
-289.740082
 21
150.999985
  0
LINE
  8
0
 10
-262.999847
 20
131.999908
 11
-261.499908
 21
130.499954
  0
LINE
  8
0
 10
-261.499695
 20
130.499695
 11
-262.999695
 21
128.999710
  0
LINE
  8
0
 10
-262.999725
 20
90.999878
 11
-261.499786
 21
89.499916
  0
LINE
  8
0
 10
-261.499634
 20
89.499535
 11
-262.999603
 21
87.999535
  0
LINE
  8
0
 10
-262.999725
 20
128.999985
 11
-262.999725
 21
90.999969
  0
LINE
  8
0
 10
-262.999725
 20
87.999969
 11
-262.999725
 21
70.499969
  0
LINE
  8
0
 10
-288.499847
 20
59.499969
 11
-281.499634
 21
59.499969
  0
LINE
  8
0
 10
-288.499847
 20
59.499969
 11
-288.499847
 21
55.999969
  0
LINE
  8
0
 10
-281.499634
 20
59.499969
 11
-281.499634
 21
55.999969
  0
LINE
  8
0
 10
-293.899902
 20
50.499969
 11
-293.899902
 21
49.499969
  0
LINE
  8
0
 10
-287.599670
 20
50.499969
 11
-287.599670
 21
49.499969
  0
LINE
  8
0
 10
-291.402344
 20
48.799957
 11
-291.402344
 21
48.052780
  0
LINE
  8
0
 10
-290.105591
 20
48.799957
 11
-290.105591
 21
48.051392
  0
LINE
  8
0
 10
-293.899902
 20
49.499969
 11
-287.599670
 21
49.499969
  0
LINE
  8
0
 10
-291.402344
 20
48.800003
 11
-290.105591
 21
48.800003
  0
LINE
  8
0
 10
-294.999939
 20
50.499985
 11
-286.499634
 21
50.499985
  0
LINE
  8
0
 10
-281.499634
 20
55.999969
 11
-281.499634
 21
53.386703
  0
LINE
  8
0
 10
-294.999939
 20
55.999969
 11
-294.999939
 21
50.499969
  0
LINE
  8
0
 10
-286.500305
 20
50.500664
 11
-281.500305
 21
53.387394
  0
LINE
  8
0
 10
-290.999847
 20
55.999969
 11
-290.999847
 21
52.999969
  0
LINE
  8
0
 10
-290.999847
 20
52.999985
 11
-286.999786
 21
52.999985
  0
LINE
  8
0
 10
-286.999786
 20
58.999954
 11
-286.999786
 21
52.999969
  0
LINE
  8
0
 10
-285.500061
 20
59.499969
 11
-285.500061
 21
55.499969
  0
LINE
  8
0
 10
-288.000061
 20
57.999969
 11
-288.000061
 21
52.999969
  0
LINE
  8
0
 10
-286.999786
 20
58.499954
 11
-285.500061
 21
58.499954
  0
LINE
  8
0
 10
-285.500061
 20
55.499985
 11
-281.499634
 21
55.499985
  0
LINE
  8
0
 10
-289.928772
 20
129.999985
 11
-280.840118
 21
129.999985
  0
LINE
  8
0
 10
-285.499725
 20
134.602676
 11
-285.499725
 21
125.533432
  0
LINE
  8
0
 10
-284.249725
 20
130.704758
 11
-284.249725
 21
129.295181
  0
LINE
  8
0
 10
-286.749725
 20
130.704758
 11
-286.749725
 21
129.295181
  0
LINE
  8
0
 10
-285.499664
 20
131.434952
 11
-284.249573
 21
130.704681
  0
LINE
  8
0
 10
-284.249695
 20
129.295166
 11
-285.499725
 21
128.564957
  0
LINE
  8
0
 10
-285.499573
 20
128.564911
 11
-286.749664
 21
129.295181
  0
LINE
  8
0
 10
-286.749664
 20
130.704620
 11
-285.499664
 21
131.434845
  0
LINE
  8
0
 10
-307.928925
 20
129.999985
 11
-298.840271
 21
129.999985
  0
LINE
  8
0
 10
-303.499847
 20
134.602676
 11
-303.499847
 21
125.533432
  0
LINE
  8
0
 10
-302.249847
 20
130.704758
 11
-302.249847
 21
129.295181
  0
LINE
  8
0
 10
-304.749847
 20
130.704758
 11
-304.749847
 21
129.295181
  0
LINE
  8
0
 10
-303.499695
 20
131.434982
 11
-302.249603
 21
130.704712
  0
LINE
  8
0
 10
-302.249817
 20
129.295303
 11
-303.499817
 21
128.565063
  0
LINE
  8
0
 10
-303.499634
 20
128.564941
 11
-304.749695
 21
129.295197
  0
LINE
  8
0
 10
-304.749725
 20
130.704742
 11
-303.499725
 21
131.434967
  0
LINE
  8
0
 10
-325.163849
 20
109.999969
 11
-256.224457
 21
109.999969
  0
LINE
  8
0
 10
-286.749725
 20
148.704758
 11
-286.749725
 21
147.295212
  0
LINE
  8
0
 10
-286.499542
 20
147.149048
 11
-286.749786
 21
147.295242
  0
LINE
  8
0
 10
-286.749695
 20
148.704681
 11
-286.420532
 21
148.896973
  0
LINE
  8
0
 10
-307.928925
 20
147.999985
 11
-301.373047
 21
147.999985
  0
LINE
  8
0
 10
-303.499847
 20
152.602707
 11
-303.499847
 21
143.533432
  0
LINE
  8
0
 10
-302.249847
 20
148.704758
 11
-302.249847
 21
147.295212
  0
LINE
  8
0
 10
-304.749847
 20
148.704758
 11
-304.749847
 21
147.295212
  0
LINE
  8
0
 10
-303.499817
 20
149.435059
 11
-302.249725
 21
148.704803
  0
LINE
  8
0
 10
-302.249786
 20
147.295349
 11
-303.499817
 21
146.565125
  0
LINE
  8
0
 10
-303.499756
 20
146.565002
 11
-304.749817
 21
147.295273
  0
LINE
  8
0
 10
-304.749756
 20
148.704803
 11
-303.499756
 21
149.435028
  0
LINE
  8
0
 10
-289.446411
 20
151.999954
 11
-274.614868
 21
151.999954
  0
LINE
  8
0
 10
-289.446411
 20
138.999985
 11
-273.134338
 21
138.999985
  0
CIRCLE
  8
0
 10
-313.999634
 20
134.999985
 40
2.999999
  0
CIRCLE
  8
0
 10
-313.999634
 20
84.999969
 40
2.999999
  0
CIRCLE
  8
0
 10
-313.999634
 20
134.999985
 40
1.849999
  0
CIRCLE
  8
0
 10
-313.999634
 20
84.999969
 40
1.849999
  0
CIRCLE
  8
0
 10
-313.999634
 20
144.000015
 40
4.249999
  0
CIRCLE
  8
0
 10
-313.999634
 20
144.000015
 40
3.730384
  0
CIRCLE
  8
0
 10
-313.999634
 20
144.000015
 40
2.309400
  0
ARC
  8
0
 10
-294.999939
 20
157.999954
 40
4.250000
 50
0.000000
 51
210.223831
  0
ARC
  8
0
 10
-294.999939
 20
157.999954
 40
3.730377
 50
0.000000
 51
213.134491
  0
CIRCLE
  8
0
 10
-294.999939
 20
157.999954
 40
2.309400
  0
CIRCLE
  8
0
 10
-313.999634
 20
75.999969
 40
4.249999
  0
CIRCLE
  8
0
 10
-313.999634
 20
75.999969
 40
3.730384
  0
CIRCLE
  8
0
 10
-313.999634
 20
75.999969
 40
2.309400
  0
CIRCLE
  8
0
 10
-294.999939
 20
61.999985
 40
4.249999
  0
CIRCLE
  8
0
 10
-294.999939
 20
61.999985
 40
3.730384
  0
CIRCLE
  8
0
 10
-294.999939
 20
61.999985
 40
2.309400
  0
CIRCLE
  8
0
 10
-313.999634
 20
144.000015
 40
4.750000
  0
ARC
  8
0
 10
-294.999939
 20
157.999954
 40
4.750000
 50
0.000000
 51
208.755249
  0
CIRCLE
  8
0
 10
-313.999634
 20
75.999969
 40
4.750000
  0
CIRCLE
  8
0
 10
-294.999939
 20
61.999985
 40
4.750000
  0
CIRCLE
  8
0
 10
-276.999786
 20
84.999969
 40
6.000000
  0
CIRCLE
  8
0
 10
-276.999786
 20
84.999969
 40
4.899999
  0
CIRCLE
  8
0
 10
-297.499939
 20
150.999985
 40
5.000000
  0
ARC
  8
0
 10
-297.499939
 20
138.000015
 40
6.473511
 50
0.000000
 51
76.602005
  0
CIRCLE
  8
0
 10
-297.499939
 20
138.000015
 40
5.773499
  0
CIRCLE
  8
0
 10
-297.499939
 20
138.000015
 40
5.000000
  0
CIRCLE
  8
0
 10
-297.499939
 20
138.000015
 40
3.999999
  0
CIRCLE
  8
0
 10
-297.499939
 20
150.999985
 40
2.000000
  0
ARC
  8
0
 10
-297.499939
 20
138.000015
 40
6.473500
 50
103.397995
 51
0.000000
  0
ARC
  8
0
 10
-282.499939
 20
139.000015
 40
6.473500
 50
103.397995
 51
0.000000
  0
CIRCLE
  8
0
 10
-282.499939
 20
151.999954
 40
5.000000
  0
ARC
  8
0
 10
-282.499939
 20
139.000015
 40
6.473511
 50
0.000000
 51
76.602005
  0
CIRCLE
  8
0
 10
-282.499939
 20
139.000015
 40
5.773499
  0
CIRCLE
  8
0
 10
-282.499939
 20
139.000015
 40
5.000000
  0
CIRCLE
  8
0
 10
-282.499939
 20
139.000015
 40
3.999999
  0
CIRCLE
  8
0
 10
-282.499939
 20
151.999954
 40
2.000000
  0
ARC
  8
0
 10
-270.906036
 20
139.999954
 40
10.406403
 50
2.202837
 51
22.612717
  0
ARC
  8
0
 10
-270.906036
 20
139.999954
 40
10.406414
 50
337.387207
 51
357.797150
  0
ARC
  8
0
 10
-270.906036
 20
79.999969
 40
10.406411
 50
337.387238
 51
357.797119
  0
ARC
  8
0
 10
-270.906036
 20
79.999969
 40
10.406403
 50
2.202879
 51
22.612757
  0
CIRCLE
  8
0
 10
-273.499847
 20
84.999969
 40
1.000000
  0
ARC
  8
0
 10
-290.749786
 20
52.057449
 40
4.057498
 50
279.133148
 51
320.926697
  0
ARC
  8
0
 10
-290.749786
 20
52.057449
 40
4.057490
 50
219.073273
 51
260.744202
  0
CIRCLE
  8
0
 10
-283.499847
 20
57.499954
 40
1.499999
  0
CIRCLE
  8
0
 10
-284.000000
 20
57.499954
 40
0.500000
  0
CIRCLE
  8
0
 10
-282.999725
 20
57.499954
 40
0.500000
  0
ARC
  8
0
 10
-288.499847
 20
57.999985
 40
0.500000
 50
0.000000
 51
90.000000
  0
ARC
  8
0
 10
-287.499939
 20
58.999985
 40
0.500000
 50
0.000000
 51
90.000000
  0
ARC
  8
0
 10
-285.499725
 20
129.999985
 40
3.500000
 50
0.000000
 51
46.889374
  0
CIRCLE
  8
0
 10
-285.499725
 20
129.999985
 40
2.750000
  0
CIRCLE
  8
0
 10
-303.499847
 20
129.999985
 40
3.500000
  0
CIRCLE
  8
0
 10
-303.499847
 20
129.999985
 40
2.750000
  0
ARC
  8
0
 10
-285.499725
 20
147.999985
 40
3.500001
 50
122.646530
 51
253.399521
  0
ARC
  8
0
 10
-285.499725
 20
147.999985
 40
2.749996
 50
127.172424
 51
248.677719
  0
ARC
  8
0
 10
-303.499847
 20
147.999985
 40
3.500004
 50
73.189308
 51
304.854187
  0
ARC
  8
0
 10
-303.499847
 20
147.999985
 40
2.750001
 50
68.231293
 51
316.664642
  0
ARC
  8
0
 10
-285.499725
 20
129.999985
 40
3.500005
 50
96.243095
 51
0.000000
  0
ARC
  8
0
 10
-294.999939
 20
157.999954
 40
4.750004
 50
291.936951
 51
0.000000
  0
ARC
  8
0
 10
-294.999939
 20
157.999954
 40
4.250004
 50
290.468658
 51
0.000000
  0
ARC
  8
0
 10
-294.999939
 20
157.999954
 40
3.730382
 50
287.557800
 51
0.000000
  0
POINT
  8
0
 10
354.000153
 20
109.999969
  0
POINT
  8
0
 10
296.999939
 20
109.999969
  0
LINE
  8
0
 10
298.000244
 20
164.000015
 11
328.500031
 21
164.000015
  0
LINE
  8
0
 10
298.000244
 20
55.999969
 11
328.500031
 21
55.999969
  0
LINE
  8
0
 10
356.999939
 20
162.999954
 11
356.999939
 21
151.999985
  0
LINE
  8
0
 10
296.999939
 20
162.999954
 11
296.999939
 21
56.999969
  0
LINE
  8
0
 10
310.962341
 20
137.999985
 11
327.259796
 21
137.999985
  0
LINE
  8
0
 10
345.000092
 20
56.999985
 11
356.999939
 21
56.999985
  0
LINE
  8
0
 10
345.000092
 20
162.999954
 11
356.999939
 21
162.999954
  0
LINE
  8
0
 10
354.000153
 20
67.999985
 11
356.999939
 21
67.999985
  0
LINE
  8
0
 10
354.000153
 20
151.999985
 11
356.999939
 21
151.999985
  0
LINE
  8
0
 10
356.999939
 20
67.999985
 11
356.999939
 21
56.999985
  0
LINE
  8
0
 10
354.000153
 20
153.999985
 11
354.000153
 21
150.499954
  0
LINE
  8
0
 10
299.000488
 20
163.999496
 11
298.000488
 21
162.999481
  0
LINE
  8
0
 10
298.000305
 20
56.999859
 11
299.000092
 21
56.000072
  0
LINE
  8
0
 10
354.000061
 20
153.999847
 11
344.000153
 21
163.999756
  0
LINE
  8
0
 10
328.500031
 20
163.999985
 11
328.500031
 21
160.499985
  0
LINE
  8
0
 10
335.500244
 20
163.999985
 11
335.500244
 21
160.499985
  0
LINE
  8
0
 10
328.500031
 20
160.499985
 11
335.500244
 21
160.499985
  0
LINE
  8
0
 10
335.500244
 20
164.000015
 11
344.000153
 21
164.000015
  0
LINE
  8
0
 10
349.499939
 20
69.499969
 11
354.000153
 21
69.499969
  0
LINE
  8
0
 10
349.499939
 20
72.499969
 11
351.999939
 21
72.499969
  0
LINE
  8
0
 10
349.499939
 20
98.499969
 11
351.999939
 21
98.499969
  0
LINE
  8
0
 10
349.499939
 20
95.499939
 11
351.999939
 21
95.499939
  0
LINE
  8
0
 10
349.499939
 20
121.499954
 11
351.999939
 21
121.499954
  0
LINE
  8
0
 10
349.499939
 20
124.499985
 11
351.999939
 21
124.499985
  0
LINE
  8
0
 10
349.499939
 20
150.499954
 11
354.000153
 21
150.499954
  0
LINE
  8
0
 10
349.499939
 20
147.499954
 11
351.999939
 21
147.499954
  0
LINE
  8
0
 10
349.499939
 20
150.499954
 11
349.499939
 21
147.499954
  0
LINE
  8
0
 10
351.999939
 20
147.499954
 11
351.999939
 21
124.499985
  0
LINE
  8
0
 10
349.499939
 20
124.499954
 11
349.499939
 21
121.499954
  0
LINE
  8
0
 10
349.499939
 20
98.499969
 11
349.499939
 21
95.499969
  0
LINE
  8
0
 10
349.499939
 20
72.499969
 11
349.499939
 21
69.499969
  0
LINE
  8
0
 10
354.000153
 20
69.499969
 11
354.000153
 21
66.000000
  0
LINE
  8
0
 10
354.000305
 20
65.999588
 11
344.000275
 21
55.999580
  0
LINE
  8
0
 10
335.500244
 20
55.999969
 11
344.000153
 21
55.999969
  0
LINE
  8
0
 10
351.999939
 20
121.499954
 11
351.999939
 21
98.499969
  0
LINE
  8
0
 10
351.999939
 20
95.499939
 11
351.999939
 21
72.499969
  0
LINE
  8
0
 10
298.500031
 20
134.999985
 11
307.500092
 21
134.999985
  0
LINE
  8
0
 10
298.500031
 20
84.999969
 11
307.500092
 21
84.999969
  0
LINE
  8
0
 10
303.000244
 20
150.306870
 11
303.000244
 21
130.499954
  0
LINE
  8
0
 10
303.000244
 20
89.499985
 11
303.000244
 21
69.430344
  0
LINE
  8
0
 10
354.000153
 20
149.499954
 11
354.000153
 21
131.999954
  0
LINE
  8
0
 10
350.604156
 20
79.999969
 11
358.366089
 21
79.999969
  0
LINE
  8
0
 10
301.000031
 20
145.154678
 11
301.000031
 21
142.845291
  0
LINE
  8
0
 10
305.000092
 20
145.154678
 11
305.000092
 21
142.845291
  0
LINE
  8
0
 10
300.999969
 20
145.155090
 11
302.999939
 21
146.309784
  0
LINE
  8
0
 10
303.000031
 20
141.690903
 11
305.000031
 21
142.845612
  0
LINE
  8
0
 10
303.000031
 20
146.309326
 11
304.999908
 21
145.154694
  0
LINE
  8
0
 10
301.000031
 20
142.845215
 11
302.999908
 21
141.690598
  0
LINE
  8
0
 10
320.000092
 20
159.154648
 11
320.000092
 21
156.845261
  0
LINE
  8
0
 10
324.000153
 20
159.154648
 11
324.000153
 21
156.845261
  0
LINE
  8
0
 10
319.999847
 20
159.155212
 11
321.999847
 21
160.309906
  0
LINE
  8
0
 10
321.999878
 20
155.690979
 11
323.999878
 21
156.845688
  0
LINE
  8
0
 10
322.000092
 20
160.309326
 11
323.999939
 21
159.154709
  0
LINE
  8
0
 10
320.000061
 20
156.845184
 11
321.999939
 21
155.690567
  0
LINE
  8
0
 10
301.000031
 20
77.154663
 11
301.000031
 21
74.845276
  0
LINE
  8
0
 10
305.000092
 20
77.154663
 11
305.000092
 21
74.845276
  0
LINE
  8
0
 10
300.999939
 20
77.154930
 11
302.999939
 21
78.309624
  0
LINE
  8
0
 10
303.000061
 20
73.690765
 11
305.000061
 21
74.845474
  0
LINE
  8
0
 10
303.000092
 20
78.309219
 11
304.999939
 21
77.154602
  0
LINE
  8
0
 10
301.000092
 20
74.845108
 11
302.999939
 21
73.690491
  0
LINE
  8
0
 10
320.000092
 20
63.154694
 11
320.000092
 21
60.845291
  0
LINE
  8
0
 10
324.000153
 20
63.154694
 11
324.000153
 21
60.845291
  0
LINE
  8
0
 10
319.999878
 20
63.154984
 11
321.999847
 21
64.309677
  0
LINE
  8
0
 10
321.999817
 20
59.690807
 11
323.999817
 21
60.845512
  0
LINE
  8
0
 10
321.999908
 20
64.309357
 11
324.000061
 21
63.154572
  0
LINE
  8
0
 10
319.999878
 20
60.845249
 11
321.999695
 21
59.690651
  0
LINE
  8
0
 10
321.999939
 20
68.500000
 11
321.999939
 21
55.499985
  0
LINE
  8
0
 10
321.999939
 20
164.499954
 11
321.999939
 21
153.503372
  0
LINE
  8
0
 10
315.500244
 20
157.999954
 11
328.500031
 21
157.999954
  0
LINE
  8
0
 10
315.500244
 20
61.999985
 11
328.500031
 21
61.999985
  0
LINE
  8
0
 10
296.500153
 20
75.999969
 11
309.499939
 21
75.999969
  0
LINE
  8
0
 10
296.500153
 20
144.000015
 11
309.499939
 21
144.000015
  0
LINE
  8
0
 10
298.000244
 20
162.999954
 11
298.000244
 21
56.999969
  0
LINE
  8
0
 10
298.000244
 20
163.999481
 11
297.000244
 21
162.999466
  0
LINE
  8
0
 10
297.000122
 20
56.999969
 11
298.000183
 21
55.999924
  0
LINE
  8
0
 10
353.999756
 20
70.500259
 11
352.999756
 21
69.500259
  0
LINE
  8
0
 10
353.000183
 20
150.499786
 11
353.999969
 21
149.500000
  0
LINE
  8
0
 10
340.000092
 20
93.082909
 11
347.000031
 21
89.041496
  0
LINE
  8
0
 10
332.999817
 20
89.041809
 11
339.999878
 21
93.083305
  0
LINE
  8
0
 10
332.999878
 20
80.958466
 11
332.999878
 21
89.041489
  0
LINE
  8
0
 10
339.999939
 20
76.916977
 11
333.000000
 21
80.958397
  0
LINE
  8
0
 10
346.999573
 20
80.959175
 11
339.999512
 21
76.917679
  0
LINE
  8
0
 10
347.000305
 20
89.041489
 11
347.000305
 21
80.958466
  0
LINE
  8
0
 10
331.000031
 20
84.999969
 11
349.000153
 21
84.999969
  0
LINE
  8
0
 10
340.000092
 20
95.999969
 11
340.000092
 21
73.999985
  0
LINE
  8
0
 10
319.499939
 20
158.675735
 11
319.499939
 21
128.985733
  0
LINE
  8
0
 10
314.499573
 20
140.887466
 11
319.499573
 21
143.774200
  0
LINE
  8
0
 10
314.499939
 20
135.113235
 11
314.499939
 21
140.886765
  0
LINE
  8
0
 10
319.500092
 20
132.226395
 11
314.500061
 21
135.113174
  0
LINE
  8
0
 10
324.499603
 20
135.113953
 11
319.499634
 21
132.227203
  0
LINE
  8
0
 10
324.499939
 20
140.886765
 11
324.499939
 21
135.113266
  0
LINE
  8
0
 10
319.500031
 20
143.773407
 11
324.500092
 21
140.886627
  0
LINE
  8
0
 10
315.500244
 20
147.999954
 11
315.500244
 21
143.089828
  0
LINE
  8
0
 10
323.500031
 20
147.999954
 11
323.500031
 21
143.089828
  0
LINE
  8
0
 10
321.000031
 20
146.230301
 11
321.000031
 21
143.575211
  0
LINE
  8
0
 10
318.000244
 20
146.230301
 11
318.000244
 21
143.575211
  0
LINE
  8
0
 10
334.499939
 20
165.580521
 11
334.499939
 21
131.758926
  0
LINE
  8
0
 10
329.499695
 20
141.887466
 11
334.499664
 21
144.774200
  0
LINE
  8
0
 10
329.499939
 20
136.113235
 11
329.499939
 21
141.886734
  0
LINE
  8
0
 10
334.499969
 20
133.226456
 11
329.500214
 21
136.113068
  0
LINE
  8
0
 10
339.499695
 20
136.113968
 11
334.499695
 21
133.227219
  0
LINE
  8
0
 10
339.499939
 20
141.886734
 11
339.499939
 21
136.113266
  0
LINE
  8
0
 10
334.500214
 20
144.773315
 11
339.499969
 21
141.886688
  0
LINE
  8
0
 10
330.500244
 20
148.999954
 11
330.500244
 21
144.089828
  0
LINE
  8
0
 10
338.500031
 20
148.999954
 11
338.500031
 21
144.089828
  0
LINE
  8
0
 10
336.000031
 20
147.230301
 11
336.000031
 21
144.575211
  0
LINE
  8
0
 10
333.000244
 20
147.230301
 11
333.000244
 21
144.575211
  0
LINE
  8
0
 10
350.604156
 20
139.999954
 11
358.366089
 21
139.999954
  0
LINE
  8
0
 10
355.700073
 20
144.001236
 11
355.700073
 21
135.998703
  0
LINE
  8
0
 10
354.000305
 20
135.849243
 11
355.700378
 21
135.997986
  0
LINE
  8
0
 10
354.000031
 20
144.149216
 11
355.700073
 21
144.000488
  0
LINE
  8
0
 10
356.100128
 20
140.399979
 11
356.100128
 21
139.599991
  0
LINE
  8
0
 10
356.100128
 20
139.599991
 11
356.492493
 21
139.599991
  0
LINE
  8
0
 10
356.100128
 20
140.400009
 11
356.492493
 21
140.400009
  0
LINE
  8
0
 10
355.700073
 20
84.001251
 11
355.700073
 21
75.998703
  0
LINE
  8
0
 10
354.000092
 20
75.849228
 11
355.700134
 21
75.997963
  0
LINE
  8
0
 10
353.999878
 20
84.149399
 11
355.699921
 21
84.000656
  0
LINE
  8
0
 10
356.100128
 20
80.399948
 11
356.100128
 21
79.599960
  0
LINE
  8
0
 10
356.100128
 20
79.599976
 11
356.492493
 21
79.599976
  0
LINE
  8
0
 10
356.100128
 20
80.399979
 11
356.492493
 21
80.399979
  0
LINE
  8
0
 10
312.823395
 20
150.999985
 11
327.259796
 21
150.999985
  0
LINE
  8
0
 10
354.000031
 20
131.999908
 11
355.499969
 21
130.499954
  0
LINE
  8
0
 10
355.500183
 20
130.499695
 11
354.000183
 21
128.999710
  0
LINE
  8
0
 10
354.000153
 20
90.999878
 11
355.500092
 21
89.499916
  0
LINE
  8
0
 10
355.500244
 20
89.499535
 11
354.000275
 21
87.999535
  0
LINE
  8
0
 10
354.000153
 20
128.999985
 11
354.000153
 21
90.999969
  0
LINE
  8
0
 10
354.000153
 20
87.999969
 11
354.000153
 21
70.499969
  0
LINE
  8
0
 10
328.500031
 20
59.499969
 11
335.500244
 21
59.499969
  0
LINE
  8
0
 10
328.500031
 20
59.499969
 11
328.500031
 21
55.999969
  0
LINE
  8
0
 10
335.500244
 20
59.499969
 11
335.500244
 21
55.999969
  0
LINE
  8
0
 10
323.099976
 20
50.499969
 11
323.099976
 21
49.499969
  0
LINE
  8
0
 10
329.400208
 20
50.499969
 11
329.400208
 21
49.499969
  0
LINE
  8
0
 10
325.597534
 20
48.799957
 11
325.597534
 21
48.052780
  0
LINE
  8
0
 10
326.894287
 20
48.799957
 11
326.894287
 21
48.051392
  0
LINE
  8
0
 10
323.099976
 20
49.499969
 11
329.400208
 21
49.499969
  0
LINE
  8
0
 10
325.597534
 20
48.800003
 11
326.894287
 21
48.800003
  0
LINE
  8
0
 10
321.999939
 20
50.499985
 11
330.500244
 21
50.499985
  0
LINE
  8
0
 10
335.500244
 20
55.999969
 11
335.500244
 21
53.386703
  0
LINE
  8
0
 10
321.999939
 20
55.999969
 11
321.999939
 21
50.499969
  0
LINE
  8
0
 10
330.499573
 20
50.500664
 11
335.499573
 21
53.387394
  0
LINE
  8
0
 10
326.000031
 20
55.999969
 11
326.000031
 21
52.999969
  0
LINE
  8
0
 10
326.000031
 20
52.999985
 11
330.000092
 21
52.999985
  0
LINE
  8
0
 10
330.000092
 20
58.999954
 11
330.000092
 21
52.999969
  0
LINE
  8
0
 10
331.499817
 20
59.499969
 11
331.499817
 21
55.499969
  0
LINE
  8
0
 10
328.999817
 20
57.999969
 11
328.999817
 21
52.999969
  0
LINE
  8
0
 10
330.000092
 20
58.499954
 11
331.499817
 21
58.499954
  0
LINE
  8
0
 10
331.499817
 20
55.499985
 11
335.500244
 21
55.499985
  0
LINE
  8
0
 10
327.071106
 20
129.999985
 11
336.159760
 21
129.999985
  0
LINE
  8
0
 10
331.500153
 20
134.602676
 11
331.500153
 21
125.533432
  0
LINE
  8
0
 10
332.750153
 20
130.704758
 11
332.750153
 21
129.295181
  0
LINE
  8
0
 10
330.250153
 20
130.704758
 11
330.250153
 21
129.295181
  0
LINE
  8
0
 10
331.500214
 20
131.434952
 11
332.750305
 21
130.704681
  0
LINE
  8
0
 10
332.750183
 20
129.295166
 11
331.500153
 21
128.564957
  0
LINE
  8
0
 10
331.500305
 20
128.564911
 11
330.250214
 21
129.295181
  0
LINE
  8
0
 10
330.250214
 20
130.704620
 11
331.500214
 21
131.434845
  0
LINE
  8
0
 10
309.070953
 20
129.999985
 11
318.159607
 21
129.999985
  0
LINE
  8
0
 10
313.500031
 20
134.602676
 11
313.500031
 21
125.533432
  0
LINE
  8
0
 10
314.750031
 20
130.704758
 11
314.750031
 21
129.295181
  0
LINE
  8
0
 10
312.250031
 20
130.704758
 11
312.250031
 21
129.295181
  0
LINE
  8
0
 10
313.500183
 20
131.434982
 11
314.750275
 21
130.704712
  0
LINE
  8
0
 10
314.750061
 20
129.295303
 11
313.500061
 21
128.565063
  0
LINE
  8
0
 10
313.500244
 20
128.564941
 11
312.250183
 21
129.295197
  0
LINE
  8
0
 10
312.250153
 20
130.704742
 11
313.500153
 21
131.434967
  0
LINE
  8
0
 10
291.836029
 20
109.999969
 11
360.775421
 21
109.999969
  0
LINE
  8
0
 10
330.250153
 20
148.704758
 11
330.250153
 21
147.295212
  0
LINE
  8
0
 10
330.500336
 20
147.149048
 11
330.250092
 21
147.295242
  0
LINE
  8
0
 10
330.250183
 20
148.704681
 11
330.579346
 21
148.896973
  0
LINE
  8
0
 10
309.070953
 20
147.999985
 11
315.626831
 21
147.999985
  0
LINE
  8
0
 10
313.500031
 20
152.602707
 11
313.500031
 21
143.533432
  0
LINE
  8
0
 10
314.750031
 20
148.704758
 11
314.750031
 21
147.295212
  0
LINE
  8
0
 10
312.250031
 20
148.704758
 11
312.250031
 21
147.295212
  0
LINE
  8
0
 10
313.500061
 20
149.435059
 11
314.750153
 21
148.704803
  0
LINE
  8
0
 10
314.750092
 20
147.295349
 11
313.500061
 21
146.565125
  0
LINE
  8
0
 10
313.500122
 20
146.565002
 11
312.250061
 21
147.295273
  0
LINE
  8
0
 10
312.250122
 20
148.704803
 11
313.500122
 21
149.435028
  0
LINE
  8
0
 10
327.553467
 20
151.999954
 11
342.385010
 21
151.999954
  0
LINE
  8
0
 10
327.553467
 20
138.999985
 11
343.865540
 21
138.999985
  0
CIRCLE
  8
0
 10
303.000244
 20
134.999985
 40
2.999999
  0
CIRCLE
  8
0
 10
303.000244
 20
84.999969
 40
2.999999
  0
CIRCLE
  8
0
 10
303.000244
 20
134.999985
 40
1.849999
  0
CIRCLE
  8
0
 10
303.000244
 20
84.999969
 40
1.849999
  0
CIRCLE
  8
0
 10
303.000244
 20
144.000015
 40
4.249999
  0
CIRCLE
  8
0
 10
303.000244
 20
144.000015
 40
3.730384
  0
CIRCLE
  8
0
 10
303.000244
 20
144.000015
 40
2.309400
  0
ARC
  8
0
 10
321.999939
 20
157.999954
 40
4.250000
 50
0.000000
 51
210.223831
  0
ARC
  8
0
 10
321.999939
 20
157.999954
 40
3.730377
 50
0.000000
 51
213.134491
  0
CIRCLE
  8
0
 10
321.999939
 20
157.999954
 40
2.309400
  0
CIRCLE
  8
0
 10
303.000244
 20
75.999969
 40
4.249999
  0
CIRCLE
  8
0
 10
303.000244
 20
75.999969
 40
3.730384
  0
CIRCLE
  8
0
 10
303.000244
 20
75.999969
 40
2.309400
  0
CIRCLE
  8
0
 10
321.999939
 20
61.999985
 40
4.249999
  0
CIRCLE
  8
0
 10
321.999939
 20
61.999985
 40
3.730384
  0
CIRCLE
  8
0
 10
321.999939
 20
61.999985
 40
2.309400
  0
CIRCLE
  8
0
 10
303.000244
 20
144.000015
 40
4.750000
  0
ARC
  8
0
 10
321.999939
 20
157.999954
 40
4.750000
 50
0.000000
 51
208.755249
  0
CIRCLE
  8
0
 10
303.000244
 20
75.999969
 40
4.750000
  0
CIRCLE
  8
0
 10
321.999939
 20
61.999985
 40
4.750000
  0
CIRCLE
  8
0
 10
340.000092
 20
84.999969
 40
6.000000
  0
CIRCLE
  8
0
 10
340.000092
 20
84.999969
 40
4.899999
  0
CIRCLE
  8
0
 10
319.499939
 20
150.999985
 40
5.000000
  0
ARC
  8
0
 10
319.499939
 20
138.000015
 40
6.473511
 50
0.000000
 51
76.602005
  0
CIRCLE
  8
0
 10
319.499939
 20
138.000015
 40
5.773499
  0
CIRCLE
  8
0
 10
319.499939
 20
138.000015
 40
5.000000
  0
CIRCLE
  8
0
 10
319.499939
 20
138.000015
 40
3.999999
  0
CIRCLE
  8
0
 10
319.499939
 20
150.999985
 40
2.000000
  0
ARC
  8
0
 10
319.499939
 20
138.000015
 40
6.473500
 50
103.397995
 51
0.000000
  0
ARC
  8
0
 10
334.499939
 20
139.000015
 40
6.473500
 50
103.397995
 51
0.000000
  0
CIRCLE
  8
0
 10
334.499939
 20
151.999954
 40
5.000000
  0
ARC
  8
0
 10
334.499939
 20
139.000015
 40
6.473511
 50
0.000000
 51
76.602005
  0
CIRCLE
  8
0
 10
334.499939
 20
139.000015
 40
5.773499
  0
CIRCLE
  8
0
 10
334.499939
 20
139.000015
 40
5.000000
  0
CIRCLE
  8
0
 10
334.499939
 20
139.000015
 40
3.999999
  0
CIRCLE
  8
0
 10
334.499939
 20
151.999954
 40
2.000000
  0
ARC
  8
0
 10
346.093842
 20
139.999954
 40
10.406403
 50
2.202837
 51
22.612717
  0
ARC
  8
0
 10
346.093842
 20
139.999954
 40
10.406414
 50
337.387207
 51
357.797150
  0
ARC
  8
0
 10
346.093842
 20
79.999969
 40
10.406411
 50
337.387238
 51
357.797119
  0
ARC
  8
0
 10
346.093842
 20
79.999969
 40
10.406403
 50
2.202879
 51
22.612757
  0
CIRCLE
  8
0
 10
343.500031
 20
84.999969
 40
1.000000
  0
ARC
  8
0
 10
326.250092
 20
52.057449
 40
4.057498
 50
279.133148
 51
320.926697
  0
ARC
  8
0
 10
326.250092
 20
52.057449
 40
4.057490
 50
219.073273
 51
260.744202
  0
CIRCLE
  8
0
 10
333.500031
 20
57.499954
 40
1.499999
  0
CIRCLE
  8
0
 10
332.999878
 20
57.499954
 40
0.500000
  0
CIRCLE
  8
0
 10
334.000153
 20
57.499954
 40
0.500000
  0
ARC
  8
0
 10
328.500031
 20
57.999985
 40
0.500000
 50
0.000000
 51
90.000000
  0
ARC
  8
0
 10
329.499939
 20
58.999985
 40
0.500000
 50
0.000000
 51
90.000000
  0
ARC
  8
0
 10
331.500153
 20
129.999985
 40
3.500000
 50
0.000000
 51
46.889374
  0
CIRCLE
  8
0
 10
331.500153
 20
129.999985
 40
2.750000
  0
CIRCLE
  8
0
 10
313.500031
 20
129.999985
 40
3.500000
  0
CIRCLE
  8
0
 10
313.500031
 20
129.999985
 40
2.750000
  0
ARC
  8
0
 10
331.500153
 20
147.999985
 40
3.500001
 50
122.646530
 51
253.399521
  0
ARC
  8
0
 10
331.500153
 20
147.999985
 40
2.749996
 50
127.172424
 51
248.677719
  0
ARC
  8
0
 10
313.500031
 20
147.999985
 40
3.500004
 50
73.189308
 51
304.854187
  0
ARC
  8
0
 10
313.500031
 20
147.999985
 40
2.750001
 50
68.231293
 51
316.664642
  0
ARC
  8
0
 10
331.500153
 20
129.999985
 40
3.500005
 50
96.243095
 51
0.000000
  0
ARC
  8
0
 10
321.999939
 20
157.999954
 40
4.750004
 50
291.936951
 51
0.000000
  0
ARC
  8
0
 10
321.999939
 20
157.999954
 40
4.250004
 50
290.468658
 51
0.000000
  0
ARC
  8
0
 10
321.999939
 20
157.999954
 40
3.730382
 50
287.557800
 51
0.000000
  0
POINT
  8
0
 10
-65.999985
 20
-179.999969
  0
POINT
  8
0
 10
234.000015
 20
-179.999969
  0
LINE
  8
0
 10
234.000015
 20
-233.999969
 11
234.000015
 21
-125.999962
  0
LINE
  8
0
 10
-165.999969
 20
-233.999969
 11
-165.999969
 21
-125.999962
  0
LINE
  8
0
 10
-165.999969
 20
-233.999969
 11
234.000046
 21
-233.999969
  0
LINE
  8
0
 10
-165.999969
 20
-125.999962
 11
234.000046
 21
-125.999962
  0
LINE
  8
0
 10
-171.514465
 20
-179.999969
 11
245.238144
 21
-179.999969
  0
LINE
  8
0
 10
-150.999969
 20
-233.999969
 11
-150.999969
 21
-125.999962
  0
LINE
  8
0
 10
219.000015
 20
-233.999969
 11
219.000015
 21
-125.999962
  0
LINE
  8
0
 10
-115.999962
 20
-175.999969
 11
-115.999962
 21
-183.999969
  0
LINE
  8
0
 10
182.000046
 20
-177.499969
 11
186.000046
 21
-177.499969
  0
LINE
  8
0
 10
182.000046
 20
-182.499969
 11
186.000046
 21
-182.499969
  0
LINE
  8
0
 10
186.000046
 20
-175.999969
 11
186.000046
 21
-183.999969
  0
LINE
  8
0
 10
184.000046
 20
-175.999969
 11
184.000046
 21
-183.999969
  0
LINE
  8
0
 10
182.000046
 20
-175.999969
 11
182.000046
 21
-183.999969
  0
LINE
  8
0
 10
229.366806
 20
-154.999969
 11
270.922241
 21
-154.999969
  0
LINE
  8
0
 10
-191.499969
 20
-160.349960
 11
-191.499969
 21
-149.649963
  0
LINE
  8
0
 10
-198.999985
 20
-160.149948
 11
-198.999985
 21
-149.849976
  0
LINE
  8
0
 10
-181.499969
 20
-160.349960
 11
-181.499969
 21
-149.649979
  0
LINE
  8
0
 10
-181.499969
 20
-160.349960
 11
-191.499969
 21
-160.349960
  0
LINE
  8
0
 10
-181.499969
 20
-149.649933
 11
-191.499969
 21
-149.649933
  0
LINE
  8
0
 10
-180.849274
 20
-160.999359
 11
-181.499268
 21
-160.349350
  0
LINE
  8
0
 10
-181.499725
 20
-149.650162
 11
-180.849731
 21
-149.000153
  0
LINE
  8
0
 10
-180.849976
 20
-160.999969
 11
-180.849976
 21
-148.999969
  0
LINE
  8
0
 10
-191.999969
 20
-160.149948
 11
-191.999969
 21
-149.849976
  0
LINE
  8
0
 10
-192.199951
 20
-160.349960
 11
-198.799973
 21
-160.349960
  0
LINE
  8
0
 10
-192.199951
 20
-149.649933
 11
-198.799973
 21
-149.649933
  0
LINE
  8
0
 10
-191.999969
 20
-160.150070
 11
-192.199951
 21
-160.350037
  0
LINE
  8
0
 10
-191.999786
 20
-149.849731
 11
-192.199799
 21
-149.649734
  0
LINE
  8
0
 10
-198.999756
 20
-160.149780
 11
-198.799759
 21
-160.349777
  0
LINE
  8
0
 10
-199.000046
 20
-149.849884
 11
-198.800064
 21
-149.649887
  0
LINE
  8
0
 10
-191.499969
 20
-156.249969
 11
-191.999969
 21
-156.249969
  0
LINE
  8
0
 10
-191.499969
 20
-153.749969
 11
-191.999969
 21
-153.749969
  0
LINE
  8
0
 10
-169.999969
 20
-160.999939
 11
-180.850006
 21
-160.999939
  0
LINE
  8
0
 10
-169.999969
 20
-160.458450
 11
-181.391449
 21
-160.458450
  0
LINE
  8
0
 10
-169.999969
 20
-149.541443
 11
-181.391479
 21
-149.541443
  0
LINE
  8
0
 10
-169.999969
 20
-148.999969
 11
-180.850006
 21
-148.999969
  0
LINE
  8
0
 10
-165.999969
 20
-161.999969
 11
-165.999969
 21
-147.999969
  0
LINE
  8
0
 10
-169.709808
 20
-163.082855
 11
-167.999969
 21
-163.082855
  0
LINE
  8
0
 10
-169.709808
 20
-159.041412
 11
-167.999969
 21
-159.041412
  0
LINE
  8
0
 10
-169.709808
 20
-150.958511
 11
-167.999969
 21
-150.958511
  0
LINE
  8
0
 10
-169.709808
 20
-146.917053
 11
-167.999969
 21
-146.917053
  0
LINE
  8
0
 10
-169.999969
 20
-161.999969
 11
-169.999969
 21
-147.999969
  0
LINE
  8
0
 10
-169.999939
 20
-161.999924
 11
-169.709778
 21
-163.082825
  0
LINE
  8
0
 10
-169.710236
 20
-146.916931
 11
-170.000397
 21
-147.999802
  0
LINE
  8
0
 10
-166.290131
 20
-163.082855
 11
-167.999969
 21
-163.082855
  0
LINE
  8
0
 10
-166.290131
 20
-159.041412
 11
-167.999969
 21
-159.041412
  0
LINE
  8
0
 10
-166.290131
 20
-150.958511
 11
-167.999969
 21
-150.958511
  0
LINE
  8
0
 10
-166.290131
 20
-146.917053
 11
-167.999969
 21
-146.917053
  0
LINE
  8
0
 10
-165.999969
 20
-161.999969
 11
-165.999969
 21
-147.999969
  0
LINE
  8
0
 10
-166.000061
 20
-161.999969
 11
-166.290222
 21
-163.082855
  0
LINE
  8
0
 10
-166.290146
 20
-146.917023
 11
-165.999985
 21
-147.999954
  0
LINE
  8
0
 10
-162.683441
 20
-154.999969
 11
-202.379959
 21
-154.999969
  0
LINE
  8
0
 10
259.500000
 20
-149.649963
 11
259.500000
 21
-160.349960
  0
LINE
  8
0
 10
267.000000
 20
-149.849976
 11
267.000000
 21
-160.149948
  0
LINE
  8
0
 10
249.500015
 20
-149.649963
 11
249.500015
 21
-160.349960
  0
LINE
  8
0
 10
249.500046
 20
-149.649933
 11
259.500061
 21
-149.649933
  0
LINE
  8
0
 10
249.500046
 20
-160.349960
 11
259.500061
 21
-160.349960
  0
LINE
  8
0
 10
248.849686
 20
-149.000183
 11
249.499741
 21
-149.650208
  0
LINE
  8
0
 10
249.499710
 20
-160.349808
 11
248.849686
 21
-160.999802
  0
LINE
  8
0
 10
248.850021
 20
-148.999954
 11
248.850021
 21
-160.999939
  0
LINE
  8
0
 10
260.000061
 20
-149.849976
 11
260.000061
 21
-160.149948
  0
LINE
  8
0
 10
260.200012
 20
-149.649933
 11
266.800049
 21
-149.649933
  0
LINE
  8
0
 10
260.200012
 20
-160.349960
 11
266.800049
 21
-160.349960
  0
LINE
  8
0
 10
260.000366
 20
-149.850189
 11
260.200378
 21
-149.650192
  0
LINE
  8
0
 10
259.999939
 20
-160.150070
 11
260.199890
 21
-160.350037
  0
LINE
  8
0
 10
267.000122
 20
-149.849899
 11
266.800110
 21
-149.649902
  0
LINE
  8
0
 10
266.999756
 20
-160.149673
 11
266.799744
 21
-160.349670
  0
LINE
  8
0
 10
259.500061
 20
-153.749969
 11
260.000061
 21
-153.749969
  0
LINE
  8
0
 10
259.500061
 20
-156.249969
 11
260.000061
 21
-156.249969
  0
LINE
  8
0
 10
238.000046
 20
-148.999969
 11
248.850021
 21
-148.999969
  0
LINE
  8
0
 10
238.000046
 20
-149.541443
 11
249.391525
 21
-149.541443
  0
LINE
  8
0
 10
238.000046
 20
-160.458450
 11
249.391556
 21
-160.458450
  0
LINE
  8
0
 10
238.000046
 20
-160.999939
 11
248.850021
 21
-160.999939
  0
LINE
  8
0
 10
234.000015
 20
-147.999954
 11
234.000015
 21
-161.999939
  0
LINE
  8
0
 10
237.709885
 20
-146.917053
 11
236.000046
 21
-146.917053
  0
LINE
  8
0
 10
237.709885
 20
-150.958511
 11
236.000046
 21
-150.958511
  0
LINE
  8
0
 10
237.709885
 20
-159.041412
 11
236.000046
 21
-159.041412
  0
LINE
  8
0
 10
237.709885
 20
-163.082855
 11
236.000046
 21
-163.082855
  0
LINE
  8
0
 10
238.000046
 20
-147.999954
 11
238.000046
 21
-161.999939
  0
LINE
  8
0
 10
238.000534
 20
-147.999893
 11
237.710373
 21
-146.917007
  0
LINE
  8
0
 10
237.710037
 20
-163.082901
 11
238.000198
 21
-162.000015
  0
LINE
  8
0
 10
234.290237
 20
-146.917053
 11
236.000046
 21
-146.917053
  0
LINE
  8
0
 10
234.290237
 20
-150.958511
 11
236.000046
 21
-150.958511
  0
LINE
  8
0
 10
234.290237
 20
-159.041412
 11
236.000046
 21
-159.041412
  0
LINE
  8
0
 10
234.290237
 20
-163.082855
 11
236.000046
 21
-163.082855
  0
LINE
  8
0
 10
234.000015
 20
-147.999954
 11
234.000015
 21
-161.999939
  0
LINE
  8
0
 10
234.000107
 20
-147.999954
 11
234.290268
 21
-146.917068
  0
LINE
  8
0
 10
234.289566
 20
-163.083069
 11
233.999405
 21
-162.000153
  0
LINE
  8
0
 10
-198.799973
 20
-160.349960
 11
-198.799973
 21
-149.649963
  0
LINE
  8
0
 10
-192.199921
 20
-160.349960
 11
-192.199921
 21
-149.649963
  0
LINE
  8
0
 10
260.200012
 20
-160.349960
 11
260.200012
 21
-149.649963
  0
LINE
  8
0
 10
266.800049
 20
-160.349960
 11
266.800049
 21
-149.649963
  0
LINE
  8
0
 10
-194.999985
 20
-224.999954
 11
-194.999985
 21
-217.999954
  0
LINE
  8
0
 10
-198.457382
 20
-220.999969
 11
-168.103516
 21
-220.999969
  0
LINE
  8
0
 10
-192.999969
 20
-225.999969
 11
-192.699982
 21
-225.999969
  0
LINE
  8
0
 10
-192.999969
 20
-215.999969
 11
-192.699982
 21
-215.999969
  0
LINE
  8
0
 10
-190.499969
 20
-202.999954
 11
-188.000000
 21
-202.999954
  0
LINE
  8
0
 10
-195.499985
 20
-203.999954
 11
-192.499969
 21
-203.999954
  0
LINE
  8
0
 10
-195.999954
 20
-212.500458
 11
-195.999954
 21
-204.499969
  0
LINE
  8
0
 10
-190.999969
 20
-213.500671
 11
-190.999969
 21
-203.499969
  0
LINE
  8
0
 10
-192.699951
 20
-226.977310
 11
-192.699951
 21
-215.999969
  0
LINE
  8
0
 10
-191.399994
 20
-225.899963
 11
-191.399994
 21
-217.099945
  0
LINE
  8
0
 10
-190.299988
 20
-226.999969
 11
-190.299988
 21
-215.999969
  0
LINE
  8
0
 10
-189.199982
 20
-226.999969
 11
-189.199982
 21
-215.999969
  0
LINE
  8
0
 10
-190.299988
 20
-225.999969
 11
-173.917236
 21
-225.999969
  0
LINE
  8
0
 10
-190.299988
 20
-215.999969
 11
-180.799988
 21
-215.999969
  0
LINE
  8
0
 10
-190.299713
 20
-225.999771
 11
-191.399719
 21
-224.899780
  0
LINE
  8
0
 10
-190.300125
 20
-215.999786
 11
-191.400116
 21
-217.099792
  0
LINE
  8
0
 10
-191.399963
 20
-224.899963
 11
-192.699982
 21
-224.899963
  0
LINE
  8
0
 10
-191.399963
 20
-217.099945
 11
-192.699982
 21
-217.099945
  0
LINE
  8
0
 10
-190.499939
 20
-213.999954
 11
-190.499939
 21
-202.999954
  0
LINE
  8
0
 10
-195.499954
 20
-212.999939
 11
-195.499954
 21
-203.999954
  0
LINE
  8
0
 10
-191.999969
 20
-212.500061
 11
-191.999969
 21
-204.499969
  0
LINE
  8
0
 10
-192.499969
 20
-212.999939
 11
-192.499969
 21
-203.999954
  0
LINE
  8
0
 10
-192.500275
 20
-204.000275
 11
-192.000275
 21
-204.500290
  0
LINE
  8
0
 10
-195.499985
 20
-204.000015
 11
-195.999969
 21
-204.500000
  0
LINE
  8
0
 10
-190.500046
 20
-202.999893
 11
-191.000031
 21
-203.499893
  0
LINE
  8
0
 10
-191.999969
 20
-205.749939
 11
-190.999969
 21
-205.749939
  0
LINE
  8
0
 10
-191.999969
 20
-210.249954
 11
-190.999969
 21
-210.249954
  0
LINE
  8
0
 10
-187.500000
 20
-213.499939
 11
-187.500000
 21
-203.499969
  0
LINE
  8
0
 10
-188.000000
 20
-213.999954
 11
-188.000000
 21
-202.999954
  0
LINE
  8
0
 10
-188.000290
 20
-203.000229
 11
-187.500305
 21
-203.500229
  0
LINE
  8
0
 10
-187.500000
 20
-212.499954
 11
-185.999969
 21
-212.499954
  0
LINE
  8
0
 10
-187.500000
 20
-203.499969
 11
-185.999969
 21
-203.499969
  0
LINE
  8
0
 10
-186.000336
 20
-213.003662
 11
-185.555756
 21
-213.773682
  0
LINE
  8
0
 10
-185.555420
 20
-213.773453
 11
-181.499969
 21
-213.773453
  0
LINE
  8
0
 10
-185.555420
 20
-210.886719
 11
-181.499969
 21
-210.886719
  0
LINE
  8
0
 10
-185.555420
 20
-202.226471
 11
-181.499969
 21
-202.226471
  0
LINE
  8
0
 10
-186.000168
 20
-202.996368
 11
-185.555573
 21
-202.226349
  0
LINE
  8
0
 10
-185.999969
 20
-202.996475
 11
-185.999969
 21
-214.004318
  0
LINE
  8
0
 10
-185.555420
 20
-205.113190
 11
-181.499969
 21
-205.113190
  0
LINE
  8
0
 10
-181.499969
 20
-214.773437
 11
-181.499969
 21
-202.226471
  0
LINE
  8
0
 10
-180.799988
 20
-215.473206
 11
-180.799988
 21
-201.526459
  0
LINE
  8
0
 10
-181.499817
 20
-213.773315
 11
-180.799805
 21
-214.473328
  0
LINE
  8
0
 10
-181.499908
 20
-202.226471
 11
-180.799927
 21
-201.526489
  0
LINE
  8
0
 10
-180.799988
 20
-201.526443
 11
-170.000000
 21
-201.526443
  0
LINE
  8
0
 10
-170.000000
 20
-222.999939
 11
-170.000000
 21
-201.526459
  0
LINE
  8
0
 10
-169.299805
 20
-202.226227
 11
-169.999802
 21
-201.526245
  0
LINE
  8
0
 10
-169.299988
 20
-214.773376
 11
-169.299988
 21
-202.226471
  0
LINE
  8
0
 10
-169.300034
 20
-213.773407
 11
-170.000061
 21
-214.473434
  0
LINE
  8
0
 10
-180.799988
 20
-214.473450
 11
-170.000000
 21
-214.473450
  0
LINE
  8
0
 10
-172.599991
 20
-216.293976
 11
-170.000000
 21
-214.473434
  0
LINE
  8
0
 10
-172.599945
 20
-225.746948
 11
-172.599945
 21
-216.294006
  0
LINE
  8
0
 10
-180.799988
 20
-215.999969
 11
-180.799988
 21
-225.999969
  0
LINE
  8
0
 10
-180.800064
 20
-225.999817
 11
-179.700058
 21
-224.899811
  0
LINE
  8
0
 10
-179.699921
 20
-224.899979
 11
-179.699921
 21
-217.099945
  0
LINE
  8
0
 10
-180.800659
 20
-216.000763
 11
-179.700653
 21
-217.100739
  0
LINE
  8
0
 10
-175.399994
 20
-224.199982
 11
-175.399994
 21
-217.799957
  0
LINE
  8
0
 10
-179.699951
 20
-224.899963
 11
-176.099976
 21
-224.899963
  0
LINE
  8
0
 10
-179.699951
 20
-217.099945
 11
-176.099976
 21
-217.099945
  0
LINE
  8
0
 10
-176.100006
 20
-224.899948
 11
-175.400024
 21
-224.199966
  0
LINE
  8
0
 10
-176.100281
 20
-217.100327
 11
-175.400284
 21
-217.800323
  0
LINE
  8
0
 10
-176.099976
 20
-224.899979
 11
-176.099976
 21
-217.099945
  0
LINE
  8
0
 10
-169.299896
 20
-213.000427
 11
-165.999878
 21
-212.536636
  0
LINE
  8
0
 10
-169.299957
 20
-203.000092
 11
-165.999924
 21
-203.463898
  0
LINE
  8
0
 10
-169.299927
 20
-211.990204
 11
-165.999924
 21
-211.526413
  0
LINE
  8
0
 10
-169.299988
 20
-204.009964
 11
-165.999985
 21
-204.473755
  0
LINE
  8
0
 10
-178.199982
 20
-217.099945
 11
-178.199982
 21
-216.294006
  0
LINE
  8
0
 10
-180.306183
 20
-215.818695
 11
-180.799713
 21
-215.473129
  0
LINE
  8
0
 10
-122.999886
 20
-120.999962
 11
-112.999886
 21
-120.999962
  0
LINE
  8
0
 10
-122.999886
 20
-123.999977
 11
-112.999886
 21
-123.999977
  0
LINE
  8
0
 10
-121.149895
 20
-120.999962
 11
-121.149895
 21
-119.999969
  0
LINE
  8
0
 10
-114.849876
 20
-120.999962
 11
-114.849876
 21
-119.999969
  0
LINE
  8
0
 10
-118.652504
 20
-119.299980
 11
-118.652504
 21
-118.552803
  0
LINE
  8
0
 10
-117.355858
 20
-119.299980
 11
-117.355858
 21
-118.551407
  0
LINE
  8
0
 10
-121.149895
 20
-119.999992
 11
-114.849892
 21
-119.999992
  0
LINE
  8
0
 10
-118.652504
 20
-119.299980
 11
-117.355873
 21
-119.299980
  0
LINE
  8
0
 10
-128.999908
 20
-125.999962
 11
-128.999908
 21
-125.499977
  0
LINE
  8
0
 10
-107.999947
 20
-125.999962
 11
-107.999947
 21
-125.499977
  0
LINE
  8
0
 10
-128.999908
 20
-125.500000
 11
-121.749886
 21
-125.500000
  0
LINE
  8
0
 10
-121.749886
 20
-125.500000
 11
-107.999947
 21
-125.500000
  0
LINE
  8
0
 10
-117.999886
 20
-127.002075
 11
-117.999886
 21
-117.387665
  0
LINE
  8
0
 10
-112.999886
 20
-125.499977
 11
-112.999886
 21
-120.999962
  0
LINE
  8
0
 10
-122.999886
 20
-125.499977
 11
-122.999886
 21
-120.999962
  0
LINE
  8
0
 10
77.000076
 20
-120.999962
 11
87.000076
 21
-120.999962
  0
LINE
  8
0
 10
77.000076
 20
-123.999977
 11
87.000076
 21
-123.999977
  0
LINE
  8
0
 10
78.850052
 20
-120.999962
 11
78.850052
 21
-119.999969
  0
LINE
  8
0
 10
85.150070
 20
-120.999962
 11
85.150070
 21
-119.999969
  0
LINE
  8
0
 10
81.347458
 20
-119.299980
 11
81.347458
 21
-118.552803
  0
LINE
  8
0
 10
82.644089
 20
-119.299980
 11
82.644089
 21
-118.551407
  0
LINE
  8
0
 10
78.850052
 20
-119.999969
 11
85.150070
 21
-119.999969
  0
LINE
  8
0
 10
81.347458
 20
-119.299980
 11
82.644089
 21
-119.299980
  0
LINE
  8
0
 10
71.000061
 20
-125.999962
 11
71.000061
 21
-125.499977
  0
LINE
  8
0
 10
92.000015
 20
-125.999962
 11
92.000015
 21
-125.499977
  0
LINE
  8
0
 10
71.000061
 20
-125.499977
 11
78.250076
 21
-125.499977
  0
LINE
  8
0
 10
78.250076
 20
-125.499977
 11
92.000015
 21
-125.499977
  0
LINE
  8
0
 10
82.000076
 20
-127.002075
 11
82.000076
 21
-117.387665
  0
LINE
  8
0
 10
87.000076
 20
-125.499977
 11
87.000076
 21
-120.999962
  0
LINE
  8
0
 10
77.000076
 20
-125.499977
 11
77.000076
 21
-120.999962
  0
LINE
  8
0
 10
-150.999969
 20
-145.999969
 11
219.000015
 21
-145.999969
  0
LINE
  8
0
 10
-150.999969
 20
-169.999969
 11
219.000015
 21
-169.999969
  0
LINE
  8
0
 10
-150.999969
 20
-189.999969
 11
219.000015
 21
-189.999969
  0
LINE
  8
0
 10
-150.999969
 20
-213.999969
 11
219.000015
 21
-213.999969
  0
LINE
  8
0
 10
-150.999969
 20
-144.999969
 11
219.000015
 21
-144.999969
  0
LINE
  8
0
 10
-150.999969
 20
-170.999969
 11
219.000015
 21
-170.999969
  0
LINE
  8
0
 10
-150.999969
 20
-188.999969
 11
219.000015
 21
-188.999969
  0
LINE
  8
0
 10
-150.999969
 20
-214.999969
 11
219.000015
 21
-214.999969
  0
LINE
  8
0
 10
-165.999969
 20
-232.999985
 11
234.000046
 21
-232.999985
  0
LINE
  8
0
 10
-165.999969
 20
-126.999962
 11
234.000046
 21
-126.999962
  0
LINE
  8
0
 10
-198.888870
 20
-207.999985
 11
-160.462708
 21
-207.999985
  0
LINE
  8
0
 10
-150.999969
 20
-132.349976
 11
219.000015
 21
-132.349976
  0
LINE
  8
0
 10
-150.999969
 20
-137.649963
 11
219.000015
 21
-137.649963
  0
LINE
  8
0
 10
-150.999969
 20
-222.349976
 11
219.000015
 21
-222.349976
  0
LINE
  8
0
 10
-150.999969
 20
-227.649963
 11
219.000015
 21
-227.649963
  0
LINE
  8
0
 10
-192.999969
 20
-226.999969
 11
-192.699982
 21
-226.999969
  0
LINE
  8
0
 10
-190.499969
 20
-213.999954
 11
-188.000000
 21
-213.999954
  0
LINE
  8
0
 10
-195.499985
 20
-212.999939
 11
-192.499969
 21
-212.999939
  0
LINE
  8
0
 10
-190.299988
 20
-226.999969
 11
-173.917236
 21
-226.999969
  0
LINE
  8
0
 10
-190.299698
 20
-226.999756
 11
-191.399704
 21
-225.899765
  0
LINE
  8
0
 10
-191.399963
 20
-225.899963
 11
-192.699982
 21
-225.899963
  0
LINE
  8
0
 10
-195.500320
 20
-213.000183
 11
-196.000305
 21
-212.500183
  0
LINE
  8
0
 10
-192.499924
 20
-213.000031
 11
-191.999939
 21
-212.500046
  0
LINE
  8
0
 10
-190.500305
 20
-214.000320
 11
-191.000305
 21
-213.500336
  0
LINE
  8
0
 10
-188.000092
 20
-213.999954
 11
-187.500092
 21
-213.499985
  0
LINE
  8
0
 10
-187.500000
 20
-213.499939
 11
-185.999969
 21
-213.499939
  0
LINE
  8
0
 10
-186.000336
 20
-214.003662
 11
-185.555756
 21
-214.773682
  0
LINE
  8
0
 10
-185.555420
 20
-214.773437
 11
-181.499969
 21
-214.773437
  0
LINE
  8
0
 10
-181.499847
 20
-214.773331
 11
-180.799820
 21
-215.473343
  0
LINE
  8
0
 10
-169.300034
 20
-214.773422
 11
-170.000061
 21
-215.473450
  0
LINE
  8
0
 10
-169.299896
 20
-214.000427
 11
-165.999878
 21
-213.536636
  0
LINE
  8
0
 10
-178.199692
 20
-216.293701
 11
-180.799713
 21
-214.473129
  0
CIRCLE
  8
0
 10
-115.999962
 20
-179.999969
 40
2.500000
  0
ARC
  8
0
 10
182.000046
 20
-179.999969
 40
2.500000
 50
90.000000
 51
270.000000
  0
ARC
  8
0
 10
186.000046
 20
-179.999969
 40
2.500000
 50
270.000000
 51
90.000000
  0
ARC
  8
0
 10
241.181351
 20
-161.062134
 40
7.181370
 50
163.657059
 51
193.656769
  0
ARC
  8
0
 10
262.290222
 20
-154.999969
 40
28.290152
 50
171.786743
 51
188.213074
  0
ARC
  8
0
 10
241.181351
 20
-148.937775
 40
7.181341
 50
166.343063
 51
196.342819
  0
ARC
  8
0
 10
-162.818604
 20
-148.937805
 40
7.181375
 50
166.343002
 51
196.342712
  0
ARC
  8
0
 10
-162.818634
 20
-161.062134
 40
7.181370
 50
163.657059
 51
193.656769
  0
ARC
  8
0
 10
-141.709808
 20
-154.999969
 40
28.290167
 50
171.786743
 51
188.213074
  0
ARC
  8
0
 10
-173.181305
 20
-148.937805
 40
7.181337
 50
343.657104
 51
13.656824
  0
ARC
  8
0
 10
-173.181305
 20
-161.062134
 40
7.181341
 50
346.343048
 51
16.342857
  0
ARC
  8
0
 10
-194.290146
 20
-154.999969
 40
28.290165
 50
351.786774
 51
8.213127
  0
ARC
  8
0
 10
230.818649
 20
-161.062134
 40
7.181345
 50
346.342926
 51
16.342707
  0
ARC
  8
0
 10
230.818649
 20
-148.937775
 40
7.181341
 50
343.656982
 51
13.656767
  0
ARC
  8
0
 10
209.709854
 20
-154.999954
 40
28.290169
 50
351.786713
 51
8.213100
  0
ARC
  8
0
 10
-174.000000
 20
-221.999939
 40
4.000000
 50
270.000000
 51
0.000000
  0
ARC
  8
0
 10
-180.799988
 20
-215.236694
 40
0.763275
 50
0.000000
 51
19.997002
  0
ARC
  8
0
 10
-192.999939
 20
-223.999954
 40
2.000000
 50
180.000000
 51
270.000000
  0
ARC
  8
0
 10
-192.999939
 20
-217.999985
 40
2.000000
 50
90.000000
 51
180.000000
  0
ARC
  8
0
 10
-183.467010
 20
-212.330078
 40
2.538633
 50
145.349869
 51
214.649857
  0
ARC
  8
0
 10
-183.467010
 20
-203.669846
 40
2.538633
 50
145.349869
 51
214.650131
  0
ARC
  8
0
 10
-176.405182
 20
-207.999954
 40
9.594775
 50
162.490234
 51
197.509674
  0
ARC
  8
0
 10
-180.799988
 20
-215.236694
 40
0.763275
 50
270.000000
 51
0.000000
  0
ARC
  8
0
 10
-117.999886
 20
-122.557495
 40
4.057498
 50
39.073242
 51
80.866974
  0
ARC
  8
0
 10
-117.999886
 20
-122.557495
 40
4.057496
 50
99.255699
 51
140.926758
  0
ARC
  8
0
 10
82.000076
 20
-122.557472
 40
4.057499
 50
39.073090
 51
80.867081
  0
ARC
  8
0
 10
82.000076
 20
-122.557472
 40
4.057498
 50
99.255806
 51
140.926697
  0
ARC
  8
0
 10
-174.000000
 20
-222.999939
 40
4.000000
 50
270.000000
 51
0.000000
  0
ARC
  8
0
 10
-192.999939
 20
-224.999954
 40
2.000000
 50
180.000000
 51
270.000000
  0
ARC
  8
0
 10
-183.467010
 20
-213.330063
 40
2.538628
 50
176.165176
 51
214.650131
  0
TEXT
  8
0
 10
27.408419
 20
197.857101
 40
6.000000
  1
ST
 50
0.000000
 41
1.052632
 51
0.000000
  7
STANDARD
  0
LINE
  8
0
 10
134.000046
 20
196.857101
 11
-65.999985
 21
196.857101
  0
LINE
  8
0
 10
134.000046
 20
196.857101
 11
131.102264
 21
196.080643
  0
LINE
  8
0
 10
134.000046
 20
196.857101
 11
131.102264
 21
197.633560
  0
LINE
  8
0
 10
-65.999985
 20
196.857101
 11
-63.102207
 21
197.633560
  0
LINE
  8
0
 10
-65.999985
 20
196.857101
 11
-63.102207
 21
196.080643
  0
LINE
  8
0
 10
134.000046
 20
163.999985
 11
134.000046
 21
198.999985
  0
LINE
  8
0
 10
-65.999985
 20
163.999985
 11
-65.999985
 21
198.999985
  0
TEXT
  8
0
 10
-60.164185
 20
37.950779
 40
6.000000
  1
5F8-5
 50
359.899994
 41
1.052632
 51
0.000000
  7
STANDARD
  0
LINE
  8
0
 10
-63.499989
 20
36.923527
 11
-30.415958
 21
36.923527
  0
LINE
  8
0
 10
-68.499985
 20
36.923527
 11
-63.499989
 21
36.923527
  0
LINE
  8
0
 10
-68.499985
 20
36.923527
 11
-71.397758
 21
36.147068
  0
LINE
  8
0
 10
-68.499985
 20
36.923527
 11
-71.397758
 21
37.699986
  0
LINE
  8
0
 10
-68.499985
 20
36.923527
 11
-74.499985
 21
36.923527
  0
LINE
  8
0
 10
-63.499989
 20
36.923527
 11
-60.602211
 21
37.699986
  0
LINE
  8
0
 10
-63.499989
 20
36.923527
 11
-60.602211
 21
36.147068
  0
LINE
  8
0
 10
-63.499989
 20
36.923527
 11
-57.499989
 21
36.923527
  0
LINE
  8
0
 10
-68.499985
 20
56.999985
 11
-68.499985
 21
35.423527
  0
LINE
  8
0
 10
-63.499989
 20
56.999985
 11
-63.499989
 21
35.423527
  0
TEXT
  8
0
 10
298.398590
 20
-178.014145
 40
6.000000
  1
5F8-5
 50
89.900002
 41
1.052632
 51
0.000000
  7
STANDARD
  0
LINE
  8
0
 10
299.425842
 20
-177.499969
 11
299.425842
 21
-148.265915
  0
LINE
  8
0
 10
299.425842
 20
-177.499969
 11
299.425842
 21
-182.499969
  0
LINE
  8
0
 10
299.425842
 20
-177.499969
 11
298.649384
 21
-174.602188
  0
LINE
  8
0
 10
299.425842
 20
-177.499969
 11
300.202301
 21
-174.602188
  0
LINE
  8
0
 10
299.425842
 20
-177.499969
 11
299.425842
 21
-171.499969
  0
LINE
  8
0
 10
299.425842
 20
-182.499969
 11
300.202301
 21
-185.397751
  0
LINE
  8
0
 10
299.425842
 20
-182.499969
 11
298.649384
 21
-185.397751
  0
LINE
  8
0
 10
299.425842
 20
-182.499969
 11
299.425842
 21
-188.499969
  0
LINE
  8
0
 10
186.000046
 20
-177.499969
 11
300.925842
 21
-177.499969
  0
LINE
  8
0
 10
186.000046
 20
-182.499969
 11
300.925842
 21
-182.499969
  0
TEXT
  8
0
 10
27.850100
 20
23.038937
 40
6.000000
  1
A
 50
359.899994
 41
1.052632
 51
0.000000
  7
STANDARD
  0
LINE
  8
0
 10
-165.999969
 20
22.032639
 11
234.000046
 21
22.032639
  0
LINE
  8
0
 10
-165.999969
 20
22.032639
 11
-163.102188
 21
22.809095
  0
LINE
  8
0
 10
-165.999969
 20
22.032639
 11
-163.102188
 21
21.256182
  0
LINE
  8
0
 10
234.000046
 20
22.032639
 11
231.102264
 21
21.256182
  0
LINE
  8
0
 10
234.000046
 20
22.032639
 11
231.102264
 21
22.809095
  0
LINE
  8
0
 10
-165.999969
 20
55.999969
 11
-165.999969
 21
20.532639
  0
LINE
  8
0
 10
234.000046
 20
55.999969
 11
234.000046
 21
20.532639
  0
ENDSEC
  0
EOF
