  0
SECTION
  2
HEADER
  0
ENDSEC
  0
SECTION
  2
TABLES
  0
TABLE
  2
LTYPE
 70
     4
  0
LTYPE
  2
CONTINUOUS
 70
    64
  3
Solid line
 72
    65
 73
     0
 40
0.000000
  0
LTYPE
  2
DASHED
 70
    64
  3
__ __ __ __ __ __ __ __ __ __ __ __ __ __ __
 72
    65
 73
     2
 40
3.500000
 49
2.000000
 49
-1.500000
  0
LTYPE
  2
CENTER
 70
    64
  3
____ _ ____ _ ____ _ ____ _ ____ _ ____ _ ____
 72
    65
 73
     4
 40
17.500000
 49
13.000000
 49
-1.500000
 49
1.500000
 49
-1.500000
  0
LTYPE
  2
PHANTOM
 70
    64
  3
_____ _ _ _____ _ _ _____ _ _ _____ _ _ ____  
 72
    65
 73
     6
 40
15.500000
 49
8.000000
 49
-1.500000
 49
1.500000
 49
-1.500000
 49
1.500000
 49
-1.500000
  0
LTYPE
  2
DASHED1
 70
    64
  3
__ __ __ __ __ __ __ __ __ __ __ __ __ __ __
 72
    65
 73
     2
 40
1.500000
 49
1.000000
 49
-0.500000
  0
LTYPE
  2
DASHED2
 70
    64
  3
__ __ __ __ __ __ __ __ __ __ __ __ __ __ __
 72
    65
 73
     2
 40
3.500000
 49
2.500000
 49
-1.000000
  0
LTYPE
  2
DASHED3
 70
    64
  3
__ __ __ __ __ __ __ __ __ __ __ __ __ __ __
 72
    65
 73
     2
 40
6.000000
 49
4.000000
 49
-2.000000
  0
LTYPE
  2
DASHED4
 70
    64
  3
__ __ __ __ __ __ __ __ __ __ __ __ __ __ __
 72
    65
 73
     2
 40
12.000000
 49
10.000000
 49
-2.000000
  0
LTYPE
  2
DASHED5
 70
    64
  3
__ __ __ __ __ __ __ __ __ __ __ __ __ __ __
 72
    65
 73
     2
 40
17.000000
 49
15.000000
 49
-2.000000
  0
LTYPE
  2
DASHED6
 70
    64
  3
__ __ __ __ __ __ __ __ __ __ __ __ __ __ __
 72
    65
 73
     2
 40
29.000000
 49
27.000000
 49
-2.000000
  0
LTYPE
  2
PHANTOM1
 70
    64
  3
_____ _ _ _____ _ _ _____ _ _ _____ _ _ ____  
 72
    65
 73
     6
 40
31.000000
 49
25.000000
 49
-1.500000
 49
1.000000
 49
-1.000000
 49
1.000000
 49
-1.500000
  0
LTYPE
  2
PHANTOM2
 70
    64
  3
_____ _ _ _____ _ _ _____ _ _ _____ _ _ ____  
 72
    65
 73
     6
 40
36.000000
 49
27.000000
 49
-1.500000
 49
2.500000
 49
-1.000000
 49
2.500000
 49
-1.500000
  0
LTYPE
  2
PHANTOM3
 70
    64
  3
_____ _ _ _____ _ _ _____ _ _ _____ _ _ ____  
 72
    65
 73
     6
 40
78.000000
 49
64.000000
 49
-2.000000
 49
4.000000
 49
-2.000000
 49
4.000000
 49
-2.000000
  0
LTYPE
  2
CENTER1
 70
    64
  3
____ _ ____ _ ____ _ ____ _ ____ _ ____ _ ____
 72
    65
 73
     4
 40
19.000000
 49
14.000000
 49
-1.000000
 49
3.000000
 49
-1.000000
  0
LTYPE
  2
CENTER2
 70
    64
  3
____ _ ____ _ ____ _ ____ _ ____ _ ____ _ ____
 72
    65
 73
     4
 40
28.500000
 49
25.000000
 49
-1.000000
 49
1.500000
 49
-1.000000
  0
LTYPE
  2
CENTER3
 70
    64
  3
____ _ ____ _ ____ _ ____ _ ____ _ ____ _ ____
 72
    65
 73
     4
 40
31.500000
 49
27.000000
 49
-1.000000
 49
2.500000
 49
-1.000000
  0
LTYPE
  2
CENTER4
 70
    64
  3
____ _ ____ _ ____ _ ____ _ ____ _ ____ _ ____
 72
    65
 73
     4
 40
50.000000
 49
45.000000
 49
-1.000000
 49
3.000000
 49
-1.000000
  0
LTYPE
  2
CENTER5
 70
    64
  3
____ _ ____ _ ____ _ ____ _ ____ _ ____ _ ____
 72
    65
 73
     4
 40
100.000000
 49
92.000000
 49
-2.000000
 49
4.000000
 49
-2.000000
  0
LTYPE
  2
SBK1
 70
    64
  3
______ _ _ _ ______ _ _ _ ______ _ _ _ _____  
 72
    65
 73
     8
 40
60.500000
 49
45.000000
 49
-2.000000
 49
2.500000
 49
-2.000000
 49
2.500000
 49
-2.000000
 49
2.500000
 49
-2.000000
  0
LTYPE
  2
SBK2
 70
    64
  3
______ _ _ _ ______ _ _ _ ______ _ _ _ _____  
 72
    65
 73
     8
 40
84.000000
 49
64.000000
 49
-2.000000
 49
4.000000
 49
-2.000000
 49
4.000000
 49
-2.000000
 49
4.000000
 49
-2.000000
  0
LTYPE
  2
STCH
 70
    64
  3
__ __ __ __ __ __ __ __ __ __ __ __ __ __ __
 72
    65
 73
     2
 40
3.000000
 49
1.000000
 49
-2.000000
  0
LTYPE
  2
MTCH
 70
    64
  3
_____ _ _ _____ _ _ _____ _ _ _____ _ _ ____  
 72
    65
 73
     6
 40
80.000000
 49
66.000000
 49
-2.000000
 49
4.000000
 49
-2.000000
 49
4.000000
 49
-2.000000
  0
ENDTAB
  0
TABLE
  2
LAYER
 70
     1
  0
LAYER
  2
0
 70
     0
 62
     7
  6
CONTINUOUS
  0
ENDTAB
  0
TABLE
  2
STYLE
 70
     1
  0
STYLE
  2
STANDARD
 70
     0
 40
0.000000
 41
1.000000
 50
0.000000
 71
     0
 42
0.200000
  3
txt
  4
BIGFONT
  0
ENDTAB
  0
TABLE
  2
VIEW
 70
     0
  0
ENDTAB
  0
ENDSEC
  0
SECTION
  2
BLOCKS
  0
ENDSEC
  0
SECTION
  2
ENTITIES
  0
LINE
  8
0
  6
CENTER
 62
     2
 10
165.356232
 20
-140.578812
 11
175.855759
 21
-140.578812
  0
LINE
  8
0
  6
CENTER
 62
     2
 10
205.356216
 20
-140.578812
 11
215.855759
 21
-140.578812
  0
LINE
  8
0
  6
CENTER
 62
     2
 10
210.662415
 20
-135.737976
 11
210.662415
 21
-145.745361
  0
LINE
  8
0
  6
CENTER
 62
     2
 10
170.662415
 20
-135.737976
 11
170.662415
 21
-145.745361
  0
LINE
  8
0
  6
CENTER
 62
     2
 10
210.662415
 20
-108.737991
 11
210.662415
 21
-118.745361
  0
LINE
  8
0
  6
CENTER
 62
     2
 10
170.662415
 20
-108.737991
 11
170.662415
 21
-118.745361
  0
LINE
  8
0
  6
CENTER
 62
     2
 10
210.662415
 20
-81.737991
 11
210.662415
 21
-91.745377
  0
LINE
  8
0
  6
CENTER
 62
     2
 10
205.356216
 20
-86.578812
 11
215.855759
 21
-86.578812
  0
LINE
  8
0
 10
226.952408
 20
-68.588821
 11
229.362411
 21
-68.588821
  0
LINE
  8
0
 10
226.662415
 20
-75.578812
 11
229.662415
 21
-75.578812
  0
LINE
  8
0
 10
226.662415
 20
-61.588821
 11
229.662415
 21
-61.588821
  0
LINE
  8
0
 10
248.662415
 20
-72.578812
 11
248.662415
 21
-73.828812
  0
LINE
  8
0
 10
248.662415
 20
-64.588821
 11
252.662415
 21
-64.588821
  0
LINE
  8
0
 10
248.662415
 20
-72.578812
 11
252.662415
 21
-72.578812
  0
LINE
  8
0
 10
229.662415
 20
-62.588821
 11
241.912415
 21
-62.588821
  0
LINE
  8
0
 62
     2
 10
229.662415
 20
-63.128815
 11
242.452408
 21
-63.128815
  0
LINE
  8
0
 62
     2
 10
229.662415
 20
-74.038818
 11
242.452408
 21
-74.038818
  0
LINE
  8
0
 10
229.662415
 20
-74.578812
 11
241.912415
 21
-74.578812
  0
LINE
  8
0
 10
229.662415
 20
-75.578812
 11
229.662415
 21
-61.588821
  0
LINE
  8
0
 10
204.962402
 20
-70.078812
 11
204.962402
 21
-67.088821
  0
LINE
  8
0
 10
204.662399
 20
-69.778816
 11
204.962402
 21
-70.078812
  0
LINE
  8
0
 10
204.662384
 20
-67.388824
 11
204.962402
 21
-67.088814
  0
LINE
  8
0
 10
252.662415
 20
-64.588821
 11
252.662415
 21
-72.578812
  0
LINE
  8
0
 10
248.662415
 20
-63.338821
 11
248.662415
 21
-64.588821
  0
LINE
  8
0
 10
251.652405
 20
-64.588821
 11
251.652405
 21
-72.578812
  0
LINE
  8
0
 10
204.962402
 20
-70.078812
 11
212.662415
 21
-70.078812
  0
LINE
  8
0
 10
204.962402
 20
-67.088821
 11
212.662415
 21
-67.088821
  0
LINE
  8
0
 10
241.912415
 20
-62.588821
 11
241.912415
 21
-74.578812
  0
LINE
  8
0
 10
242.662415
 20
-73.828812
 11
248.662415
 21
-73.828812
  0
LINE
  8
0
 10
242.662415
 20
-63.338821
 11
248.662415
 21
-63.338821
  0
LINE
  8
0
 10
242.662399
 20
-63.338818
 11
241.912399
 21
-62.588821
  0
LINE
  8
0
 10
242.662415
 20
-73.828804
 11
241.912415
 21
-74.578812
  0
LINE
  8
0
 10
212.662415
 20
-73.828812
 11
214.662415
 21
-73.828812
  0
LINE
  8
0
 10
212.662415
 20
-63.338821
 11
214.662415
 21
-63.338821
  0
LINE
  8
0
 10
242.662415
 20
-63.338821
 11
242.662415
 21
-73.828812
  0
LINE
  8
0
 10
212.662415
 20
-63.338821
 11
212.662415
 21
-73.828812
  0
LINE
  8
0
  6
CENTER
 62
     2
 10
204.308914
 20
-68.588821
 11
257.501770
 21
-68.588821
  0
LINE
  8
0
 10
204.662415
 20
-67.388824
 11
204.662415
 21
-69.778824
  0
LINE
  8
0
 10
160.362411
 20
-68.588821
 11
157.952423
 21
-68.588821
  0
LINE
  8
0
 10
160.662415
 20
-61.588821
 11
157.662415
 21
-61.588821
  0
LINE
  8
0
 10
160.662415
 20
-75.578812
 11
157.662415
 21
-75.578812
  0
LINE
  8
0
 10
144.662415
 20
-64.588821
 11
144.662415
 21
-63.338821
  0
LINE
  8
0
 10
144.662415
 20
-72.578812
 11
140.662415
 21
-72.578812
  0
LINE
  8
0
 10
144.662415
 20
-64.588821
 11
140.662415
 21
-64.588821
  0
LINE
  8
0
 10
157.662415
 20
-74.578812
 11
151.412415
 21
-74.578812
  0
LINE
  8
0
 62
     2
 10
157.662415
 20
-74.038818
 11
150.862427
 21
-74.038818
  0
LINE
  8
0
 62
     2
 10
157.662415
 20
-63.128815
 11
150.862427
 21
-63.128815
  0
LINE
  8
0
 10
157.662415
 20
-62.588821
 11
151.412415
 21
-62.588821
  0
LINE
  8
0
 10
157.662415
 20
-61.588821
 11
157.662415
 21
-75.578812
  0
LINE
  8
0
 10
140.662415
 20
-72.578812
 11
140.662415
 21
-64.588821
  0
LINE
  8
0
 10
144.662415
 20
-73.828812
 11
144.662415
 21
-72.578812
  0
LINE
  8
0
 10
141.672424
 20
-72.578812
 11
141.672424
 21
-64.588821
  0
LINE
  8
0
 62
     2
 10
178.452408
 20
-63.128815
 11
172.662415
 21
-63.128815
  0
LINE
  8
0
 62
     2
 10
178.452408
 20
-74.038818
 11
172.662415
 21
-74.038818
  0
LINE
  8
0
 10
151.412415
 20
-74.578812
 11
151.412415
 21
-62.588821
  0
LINE
  8
0
 10
177.912415
 20
-74.578812
 11
177.912415
 21
-62.588821
  0
LINE
  8
0
 10
150.662415
 20
-63.338821
 11
144.662415
 21
-63.338821
  0
LINE
  8
0
 10
150.662415
 20
-73.828812
 11
144.662415
 21
-73.828812
  0
LINE
  8
0
 10
150.662430
 20
-73.828827
 11
151.412415
 21
-74.578812
  0
LINE
  8
0
 10
178.652405
 20
-63.338825
 11
177.902420
 21
-62.588837
  0
LINE
  8
0
 10
150.652420
 20
-63.338829
 11
151.402420
 21
-62.588825
  0
LINE
  8
0
 10
178.662415
 20
-73.828827
 11
177.912399
 21
-74.578835
  0
LINE
  8
0
 10
180.662415
 20
-63.338821
 11
178.662415
 21
-63.338821
  0
LINE
  8
0
 10
180.662415
 20
-73.828812
 11
178.662415
 21
-73.828812
  0
LINE
  8
0
 10
177.912415
 20
-62.588821
 11
172.662415
 21
-62.588821
  0
LINE
  8
0
 10
177.912415
 20
-74.578812
 11
172.662415
 21
-74.578812
  0
LINE
  8
0
 10
150.662415
 20
-73.828812
 11
150.662415
 21
-63.338821
  0
LINE
  8
0
 10
178.662415
 20
-73.828812
 11
178.662415
 21
-63.338821
  0
LINE
  8
0
  6
CENTER
 62
     2
 10
183.252975
 20
-68.588821
 11
139.536209
 21
-68.588821
  0
LINE
  8
0
 10
180.662415
 20
-77.578812
 11
180.662415
 21
-61.588821
  0
LINE
  8
0
 10
172.662415
 20
-77.578812
 11
214.662415
 21
-77.578812
  0
LINE
  8
0
 10
160.662415
 20
-78.578812
 11
172.662415
 21
-78.578812
  0
LINE
  8
0
 10
226.662415
 20
-77.578812
 11
245.662415
 21
-77.578812
  0
LINE
  8
0
 10
214.662415
 20
-78.578812
 11
226.662415
 21
-78.578812
  0
LINE
  8
0
 10
214.662415
 20
-60.588821
 11
226.662415
 21
-60.588821
  0
LINE
  8
0
 10
160.662415
 20
-60.588821
 11
172.662415
 21
-60.588821
  0
LINE
  8
0
 10
180.662415
 20
-61.588821
 11
202.662415
 21
-61.588821
  0
LINE
  8
0
 10
226.662415
 20
-78.578812
 11
226.662415
 21
-60.588821
  0
LINE
  8
0
 10
214.662415
 20
-78.578812
 11
214.662415
 21
-60.588821
  0
LINE
  8
0
 10
202.662415
 20
-77.578812
 11
202.662415
 21
-61.588821
  0
LINE
  8
0
 10
172.662415
 20
-78.578812
 11
172.662415
 21
-60.588821
  0
LINE
  8
0
 10
160.662415
 20
-78.578812
 11
160.662415
 21
-60.588821
  0
LINE
  8
0
 10
122.662415
 20
-77.578812
 11
160.662415
 21
-77.578812
  0
LINE
  8
0
 10
151.662415
 20
-109.578812
 11
155.662415
 21
-109.578812
  0
LINE
  8
0
 10
151.662415
 20
-117.578812
 11
151.662415
 21
-109.578812
  0
LINE
  8
0
 10
152.012421
 20
-113.578812
 11
155.302414
 21
-113.578812
  0
LINE
  8
0
 10
151.662415
 20
-117.578812
 11
155.662415
 21
-117.578812
  0
LINE
  8
0
 10
149.162415
 20
-109.578812
 11
149.162415
 21
-117.578812
  0
LINE
  8
0
 10
145.662415
 20
-117.578812
 11
149.162415
 21
-117.578812
  0
LINE
  8
0
 10
145.662415
 20
-109.578812
 11
149.162415
 21
-109.578812
  0
LINE
  8
0
 10
149.162415
 20
-116.078812
 11
151.662415
 21
-116.078812
  0
LINE
  8
0
 10
149.162415
 20
-111.078812
 11
151.662415
 21
-111.078812
  0
LINE
  8
0
 10
146.012421
 20
-113.578812
 11
149.162415
 21
-113.578812
  0
LINE
  8
0
 10
145.662415
 20
-109.578812
 11
145.662415
 21
-117.578812
  0
LINE
  8
0
 10
219.662415
 20
-115.578812
 11
221.662415
 21
-115.578812
  0
LINE
  8
0
 10
219.662415
 20
-111.578812
 11
221.662415
 21
-111.578812
  0
LINE
  8
0
  6
CENTER
 62
     2
 10
220.662415
 20
-108.868813
 11
220.662415
 21
-118.322319
  0
LINE
  8
0
  6
CENTER
 62
     2
 10
180.662415
 20
-108.737991
 11
180.662415
 21
-118.745361
  0
LINE
  8
0
 10
155.662415
 20
-134.078812
 11
245.662415
 21
-134.078812
  0
LINE
  8
0
 10
155.662415
 20
-133.778809
 11
245.662415
 21
-133.778809
  0
LINE
  8
0
 10
155.662415
 20
-121.078812
 11
245.662415
 21
-121.078812
  0
LINE
  8
0
 10
155.662415
 20
-121.378815
 11
245.662415
 21
-121.378815
  0
LINE
  8
0
 10
155.662415
 20
-106.078812
 11
245.662415
 21
-106.078812
  0
LINE
  8
0
 10
155.662415
 20
-105.778809
 11
245.662415
 21
-105.778809
  0
LINE
  8
0
 10
155.662415
 20
-93.378815
 11
245.662415
 21
-93.378815
  0
LINE
  8
0
 10
155.662415
 20
-93.078812
 11
245.662415
 21
-93.078812
  0
LINE
  8
0
  6
CENTER
 62
     2
 10
170.662415
 20
-81.737991
 11
170.662415
 21
-91.745377
  0
LINE
  8
0
  6
CENTER
 62
     2
 10
165.356232
 20
-86.578812
 11
175.855759
 21
-86.578812
  0
LINE
  8
0
 10
155.662415
 20
-77.578812
 11
155.662415
 21
-149.578812
  0
LINE
  8
0
 10
245.662415
 20
-77.578812
 11
245.662415
 21
-149.578812
  0
LINE
  8
0
 10
122.662415
 20
-149.578812
 11
245.662415
 21
-149.578812
  0
LINE
  8
0
 10
134.662415
 20
-148.078812
 11
155.662415
 21
-148.078812
  0
LINE
  8
0
 10
134.662415
 20
-79.078812
 11
155.662415
 21
-79.078812
  0
LINE
  8
0
 10
140.562424
 20
-122.578812
 11
155.662415
 21
-122.578812
  0
LINE
  8
0
 10
140.562424
 20
-132.578812
 11
155.662415
 21
-132.578812
  0
LINE
  8
0
 10
140.562424
 20
-104.578812
 11
155.662415
 21
-104.578812
  0
LINE
  8
0
 10
140.562424
 20
-94.578812
 11
155.662415
 21
-94.578812
  0
LINE
  8
0
  6
CENTER
 62
     2
 10
117.002426
 20
-99.578812
 11
163.450653
 21
-99.578812
  0
LINE
  8
0
  6
CENTER
 62
     2
 10
117.002426
 20
-127.578812
 11
163.450653
 21
-127.578812
  0
LINE
  8
0
 10
134.662415
 20
-77.578812
 11
134.662415
 21
-149.578812
  0
LINE
  8
0
 10
122.662415
 20
-77.578812
 11
122.662415
 21
-149.578812
  0
LINE
  8
0
  6
CENTER
 62
     2
 10
117.002426
 20
-113.578812
 11
255.367111
 21
-113.578812
  0
LINE
  8
0
 10
136.662415
 20
-120.578812
 11
136.662415
 21
-134.578812
  0
LINE
  8
0
 10
134.662415
 20
-120.578812
 11
136.662415
 21
-120.578812
  0
LINE
  8
0
 10
134.662415
 20
-134.578812
 11
136.662415
 21
-134.578812
  0
LINE
  8
0
 10
136.662415
 20
-92.578812
 11
136.662415
 21
-106.578812
  0
LINE
  8
0
 10
134.662415
 20
-92.578812
 11
136.662415
 21
-92.578812
  0
LINE
  8
0
 10
134.662415
 20
-106.578812
 11
136.662415
 21
-106.578812
  0
LINE
  8
0
 10
136.662415
 20
-95.478821
 11
139.662415
 21
-95.478821
  0
LINE
  8
0
 10
139.662415
 20
-95.478821
 11
140.562424
 21
-94.578819
  0
LINE
  8
0
 10
136.662415
 20
-103.678810
 11
139.662415
 21
-103.678810
  0
LINE
  8
0
 10
139.662430
 20
-103.678818
 11
140.562424
 21
-104.578812
  0
LINE
  8
0
 10
136.662415
 20
-131.678802
 11
139.662415
 21
-131.678802
  0
LINE
  8
0
 10
139.662415
 20
-131.678802
 11
140.562424
 21
-132.578812
  0
LINE
  8
0
 10
136.662415
 20
-123.478813
 11
139.662415
 21
-123.478813
  0
LINE
  8
0
 10
139.662430
 20
-123.478806
 11
140.562424
 21
-122.578812
  0
LINE
  8
0
  6
CENTER
 62
     2
 10
143.524277
 20
-88.578812
 11
151.850037
 21
-88.578812
  0
LINE
  8
0
  6
CENTER
 62
     2
 10
147.662415
 20
-92.500824
 11
147.662415
 21
-84.648819
  0
LINE
  8
0
  6
CENTER
 62
     2
 10
142.862427
 20
-138.578812
 11
152.792419
 21
-138.578812
  0
LINE
  8
0
  6
CENTER
 62
     2
 10
147.662415
 20
-134.215485
 11
147.662415
 21
-142.695297
  0
LINE
  8
0
  6
PHANTOM
 62
     3
 10
137.465454
 20
-75.825195
 11
137.465454
 21
-49.839951
  0
LINE
  8
0
  6
PHANTOM
 62
     3
 10
143.662033
 20
-119.578812
 11
143.662033
 21
-107.578812
  0
LINE
  8
0
  6
PHANTOM
 62
     3
 10
143.662033
 20
-107.578812
 11
152.763245
 21
-107.578812
  0
LINE
  8
0
  6
PHANTOM
 62
     3
 10
143.662033
 20
-119.578812
 11
152.763245
 21
-119.578812
  0
LINE
  8
0
  6
PHANTOM
 62
     3
 10
137.465454
 20
-75.825195
 11
152.763245
 21
-75.825195
  0
LINE
  8
0
  6
PHANTOM
 62
     3
 10
152.763245
 20
-107.578812
 11
152.763245
 21
-75.825195
  0
LINE
  8
0
 10
134.662399
 20
-109.584335
 11
135.662399
 21
-109.584335
  0
LINE
  8
0
 10
134.662399
 20
-117.584335
 11
135.662399
 21
-117.584335
  0
LINE
  8
0
 10
135.662399
 20
-109.584335
 11
135.662399
 21
-117.584335
  0
LINE
  8
0
  6
PHANTOM
 62
     3
 10
152.763245
 20
-157.155212
 11
152.763245
 21
-119.578812
  0
LINE
  8
0
  6
PHANTOM
 62
     3
 10
203.836090
 20
-156.649887
 11
203.836090
 21
-49.839951
  0
LINE
  8
0
 10
64.923019
 20
-68.578812
 11
67.343018
 21
-68.578812
  0
LINE
  8
0
 10
64.633026
 20
-75.578812
 11
67.633026
 21
-75.578812
  0
LINE
  8
0
 10
64.633026
 20
-61.578812
 11
67.633026
 21
-61.578812
  0
LINE
  8
0
 10
86.633026
 20
-72.578812
 11
86.633026
 21
-73.828812
  0
LINE
  8
0
 10
86.633026
 20
-64.578812
 11
90.633026
 21
-64.578812
  0
LINE
  8
0
 10
86.633026
 20
-72.578812
 11
90.633026
 21
-72.578812
  0
LINE
  8
0
 10
67.633026
 20
-62.578812
 11
79.883026
 21
-62.578812
  0
LINE
  8
0
 62
     2
 10
67.633026
 20
-63.118820
 11
80.423019
 21
-63.118820
  0
LINE
  8
0
 62
     2
 10
67.633026
 20
-74.038818
 11
80.633026
 21
-74.038818
  0
LINE
  8
0
 10
67.633026
 20
-74.578812
 11
79.883026
 21
-74.578812
  0
LINE
  8
0
 10
67.633026
 20
-75.578812
 11
67.633026
 21
-61.578812
  0
LINE
  8
0
 10
42.933014
 20
-70.078812
 11
42.933014
 21
-67.078812
  0
LINE
  8
0
 10
42.633007
 20
-69.778816
 11
42.933014
 21
-70.078819
  0
LINE
  8
0
 10
42.633018
 20
-67.378807
 11
42.933014
 21
-67.078812
  0
LINE
  8
0
 10
90.633026
 20
-64.578812
 11
90.633026
 21
-72.578812
  0
LINE
  8
0
 10
86.633026
 20
-63.328812
 11
86.633026
 21
-64.578812
  0
LINE
  8
0
 10
89.623016
 20
-64.578812
 11
89.623016
 21
-72.578812
  0
LINE
  8
0
 10
42.933014
 20
-70.078812
 11
50.633026
 21
-70.078812
  0
LINE
  8
0
 10
42.933014
 20
-67.078812
 11
50.633026
 21
-67.078812
  0
LINE
  8
0
 10
79.883026
 20
-62.578812
 11
79.883026
 21
-74.578812
  0
LINE
  8
0
 10
80.633026
 20
-73.828812
 11
86.633026
 21
-73.828812
  0
LINE
  8
0
 10
80.633026
 20
-63.328812
 11
86.633026
 21
-63.328812
  0
LINE
  8
0
 10
80.633018
 20
-63.328808
 11
79.883018
 21
-62.578812
  0
LINE
  8
0
 10
80.633018
 20
-73.828804
 11
79.883011
 21
-74.578812
  0
LINE
  8
0
 10
50.633026
 20
-73.828812
 11
52.633026
 21
-73.828812
  0
LINE
  8
0
 10
50.633026
 20
-63.328812
 11
52.633026
 21
-63.328812
  0
LINE
  8
0
 10
80.633026
 20
-63.328812
 11
80.633026
 21
-73.828812
  0
LINE
  8
0
 10
50.633026
 20
-63.328812
 11
50.633026
 21
-73.828812
  0
LINE
  8
0
  6
CENTER
 62
     2
 10
40.603012
 20
-68.578812
 11
92.713013
 21
-68.578812
  0
LINE
  8
0
 10
42.633026
 20
-67.378815
 11
42.633026
 21
-69.778824
  0
LINE
  8
0
 10
-41.656975
 20
-68.578812
 11
-44.076973
 21
-68.578812
  0
LINE
  8
0
 10
-41.366974
 20
-61.578812
 11
-44.366974
 21
-61.578812
  0
LINE
  8
0
 10
-41.366974
 20
-75.578812
 11
-44.366974
 21
-75.578812
  0
LINE
  8
0
 10
-57.366974
 20
-64.578812
 11
-57.366974
 21
-63.328812
  0
LINE
  8
0
 10
-57.366974
 20
-72.578812
 11
-61.366974
 21
-72.578812
  0
LINE
  8
0
 10
-57.366974
 20
-64.578812
 11
-61.366974
 21
-64.578812
  0
LINE
  8
0
 10
-44.366974
 20
-74.578812
 11
-50.616974
 21
-74.578812
  0
LINE
  8
0
 62
     2
 10
-44.366974
 20
-74.038818
 11
-51.166962
 21
-74.038818
  0
LINE
  8
0
 62
     2
 10
-44.366974
 20
-63.118820
 11
-51.366974
 21
-63.118820
  0
LINE
  8
0
 10
-44.366974
 20
-62.578812
 11
-50.616974
 21
-62.578812
  0
LINE
  8
0
 10
-44.366974
 20
-61.578812
 11
-44.366974
 21
-75.578812
  0
LINE
  8
0
 10
-61.366974
 20
-72.578812
 11
-61.366974
 21
-64.578812
  0
LINE
  8
0
 10
-57.366974
 20
-73.828812
 11
-57.366974
 21
-72.578812
  0
LINE
  8
0
 10
-60.356964
 20
-72.578812
 11
-60.356964
 21
-64.578812
  0
LINE
  8
0
 62
     2
 10
-23.576973
 20
-63.118820
 11
-29.366974
 21
-63.118820
  0
LINE
  8
0
 62
     2
 10
-23.576973
 20
-74.038818
 11
-29.366974
 21
-74.038818
  0
LINE
  8
0
 10
-50.616974
 20
-74.578812
 11
-50.616974
 21
-62.578812
  0
LINE
  8
0
 10
-24.116974
 20
-74.578812
 11
-24.116974
 21
-62.578812
  0
LINE
  8
0
 10
-51.366974
 20
-63.328812
 11
-57.366974
 21
-63.328812
  0
LINE
  8
0
 10
-51.366974
 20
-73.828812
 11
-57.366974
 21
-73.828812
  0
LINE
  8
0
 10
-51.366970
 20
-73.828819
 11
-50.616974
 21
-74.578812
  0
LINE
  8
0
 10
-23.366976
 20
-63.328812
 11
-24.116972
 21
-62.578823
  0
LINE
  8
0
 10
-51.366974
 20
-63.328827
 11
-50.616966
 21
-62.578823
  0
LINE
  8
0
 10
-23.366978
 20
-73.828819
 11
-24.116982
 21
-74.578827
  0
LINE
  8
0
 10
-21.366974
 20
-63.328812
 11
-23.366974
 21
-63.328812
  0
LINE
  8
0
 10
-21.366974
 20
-73.828812
 11
-23.366974
 21
-73.828812
  0
LINE
  8
0
 10
-24.116974
 20
-62.578812
 11
-29.366974
 21
-62.578812
  0
LINE
  8
0
 10
-24.116974
 20
-74.578812
 11
-29.366974
 21
-74.578812
  0
LINE
  8
0
 10
-51.366974
 20
-73.828812
 11
-51.366974
 21
-63.328812
  0
LINE
  8
0
 10
-23.366974
 20
-73.828812
 11
-23.366974
 21
-63.328812
  0
LINE
  8
0
  6
CENTER
 62
     2
 10
-18.046974
 20
-68.578812
 11
-62.257706
 21
-68.578812
  0
LINE
  8
0
 10
-21.366974
 20
-77.578812
 11
-21.366974
 21
-61.578812
  0
LINE
  8
0
 10
-29.366974
 20
-77.578812
 11
52.633026
 21
-77.578812
  0
LINE
  8
0
 10
-41.366974
 20
-78.578812
 11
-29.366974
 21
-78.578812
  0
LINE
  8
0
 10
64.633026
 20
-77.578812
 11
83.633026
 21
-77.578812
  0
LINE
  8
0
 10
52.633026
 20
-78.578812
 11
64.633026
 21
-78.578812
  0
LINE
  8
0
 10
52.633026
 20
-60.578812
 11
64.633026
 21
-60.578812
  0
LINE
  8
0
 10
-41.366974
 20
-60.578812
 11
-29.366974
 21
-60.578812
  0
LINE
  8
0
 10
-21.366974
 20
-61.578812
 11
0.633026
 21
-61.578812
  0
LINE
  8
0
 10
64.633026
 20
-78.578812
 11
64.633026
 21
-60.578812
  0
LINE
  8
0
 10
52.633026
 20
-78.578812
 11
52.633026
 21
-60.578812
  0
LINE
  8
0
 10
0.633026
 20
-77.578812
 11
0.633026
 21
-61.578812
  0
LINE
  8
0
 10
-29.366974
 20
-78.578812
 11
-29.366974
 21
-60.578812
  0
LINE
  8
0
 10
-41.366974
 20
-78.578812
 11
-41.366974
 21
-60.578812
  0
LINE
  8
0
 10
-119.366974
 20
-77.578812
 11
-41.366974
 21
-77.578812
  0
LINE
  8
0
 10
-107.366974
 20
-148.078812
 11
-46.366974
 21
-148.078812
  0
LINE
  8
0
 10
-107.366974
 20
-79.078812
 11
-46.366974
 21
-79.078812
  0
LINE
  8
0
  6
CENTER
 62
     2
 10
-81.366974
 20
-105.898811
 11
-81.366974
 21
-121.164795
  0
LINE
  8
0
  6
CENTER
 62
     2
 10
-94.366974
 20
-134.215485
 11
-94.366974
 21
-142.695297
  0
LINE
  8
0
  6
CENTER
 62
     2
 10
-99.166962
 20
-138.578812
 11
-89.236969
 21
-138.578812
  0
LINE
  8
0
  6
CENTER
 62
     2
 10
-69.366974
 20
-142.695297
 11
-69.366974
 21
-134.168808
  0
LINE
  8
0
  6
CENTER
 62
     2
 10
-73.848068
 20
-138.578812
 11
-64.561630
 21
-138.578812
  0
LINE
  8
0
  6
CENTER
 62
     2
 10
-94.366974
 20
-92.500824
 11
-94.366974
 21
-84.648819
  0
LINE
  8
0
  6
CENTER
 62
     2
 10
-98.505112
 20
-88.578812
 11
-90.179352
 21
-88.578812
  0
LINE
  8
0
  6
CENTER
 62
     2
 10
-69.366974
 20
-84.254883
 11
-69.366974
 21
-92.500824
  0
LINE
  8
0
  6
CENTER
 62
     2
 10
-73.426971
 20
-88.578812
 11
-65.362198
 21
-88.578812
  0
LINE
  8
0
 10
-50.366974
 20
-109.578812
 11
-46.366974
 21
-109.578812
  0
LINE
  8
0
 10
-50.366974
 20
-117.578812
 11
-50.366974
 21
-109.578812
  0
LINE
  8
0
 10
-50.016968
 20
-113.578812
 11
-46.726974
 21
-113.578812
  0
LINE
  8
0
 10
-50.366974
 20
-117.578812
 11
-46.366974
 21
-117.578812
  0
LINE
  8
0
 10
-56.366974
 20
-109.578812
 11
-56.366974
 21
-117.578812
  0
LINE
  8
0
 10
-52.866974
 20
-109.578812
 11
-52.866974
 21
-117.578812
  0
LINE
  8
0
 10
-56.366974
 20
-117.578812
 11
-52.866974
 21
-117.578812
  0
LINE
  8
0
 10
-56.366974
 20
-109.578812
 11
-52.866974
 21
-109.578812
  0
LINE
  8
0
 10
-52.866974
 20
-116.078812
 11
-50.366974
 21
-116.078812
  0
LINE
  8
0
 10
-52.866974
 20
-111.078812
 11
-50.366974
 21
-111.078812
  0
LINE
  8
0
 10
-56.016968
 20
-113.578812
 11
-52.866974
 21
-113.578812
  0
LINE
  8
0
 10
57.633026
 20
-115.578812
 11
59.633026
 21
-115.578812
  0
LINE
  8
0
 10
57.633026
 20
-111.578812
 11
59.633026
 21
-111.578812
  0
LINE
  8
0
  6
CENTER
 62
     2
 10
58.633026
 20
-108.868813
 11
58.633026
 21
-118.038246
  0
LINE
  8
0
  6
CENTER
 62
     2
 10
-21.366974
 20
-108.855453
 11
-21.366974
 21
-118.442497
  0
LINE
  8
0
 10
-46.366974
 20
-134.078812
 11
83.633026
 21
-134.078812
  0
LINE
  8
0
 10
-46.366974
 20
-133.778809
 11
83.633026
 21
-133.778809
  0
LINE
  8
0
 10
-46.366974
 20
-121.078812
 11
83.633026
 21
-121.078812
  0
LINE
  8
0
 10
-46.366974
 20
-121.378815
 11
83.633026
 21
-121.378815
  0
LINE
  8
0
 10
-46.366974
 20
-106.078812
 11
83.633026
 21
-106.078812
  0
LINE
  8
0
 10
-46.366974
 20
-105.778809
 11
83.633026
 21
-105.778809
  0
LINE
  8
0
 10
-46.366974
 20
-93.378815
 11
83.633026
 21
-93.378815
  0
LINE
  8
0
 10
-46.366974
 20
-93.078812
 11
83.633026
 21
-93.078812
  0
LINE
  8
0
  6
CENTER
 62
     2
 10
-31.366974
 20
-136.130753
 11
-31.366974
 21
-145.348068
  0
LINE
  8
0
  6
CENTER
 62
     2
 10
48.633026
 20
-136.130753
 11
48.633026
 21
-145.348068
  0
LINE
  8
0
  6
CENTER
 62
     2
 10
48.633026
 20
-109.232155
 11
48.633026
 21
-118.038246
  0
LINE
  8
0
  6
CENTER
 62
     2
 10
-31.366974
 20
-108.855453
 11
-31.366974
 21
-118.442497
  0
LINE
  8
0
  6
CENTER
 62
     2
 10
43.622559
 20
-140.578812
 11
53.586243
 21
-140.578812
  0
LINE
  8
0
  6
CENTER
 62
     2
 10
43.622559
 20
-86.578812
 11
53.586243
 21
-86.578812
  0
LINE
  8
0
  6
CENTER
 62
     2
 10
-31.366974
 20
-81.693115
 11
-31.366974
 21
-91.634506
  0
LINE
  8
0
  6
CENTER
 62
     2
 10
48.633026
 20
-81.693115
 11
48.633026
 21
-91.634506
  0
LINE
  8
0
  6
CENTER
 62
     2
 10
-35.988796
 20
-86.578812
 11
-26.330711
 21
-86.578812
  0
LINE
  8
0
  6
CENTER
 62
     2
 10
-35.988796
 20
-140.578812
 11
-26.330711
 21
-140.578812
  0
LINE
  8
0
 10
-101.466965
 20
-122.578812
 11
-46.366974
 21
-122.578812
  0
LINE
  8
0
 10
-102.366966
 20
-123.478806
 11
-101.466965
 21
-122.578804
  0
LINE
  8
0
 10
-105.366974
 20
-123.478813
 11
-102.366974
 21
-123.478813
  0
LINE
  8
0
 10
-101.466965
 20
-132.578812
 11
-46.366974
 21
-132.578812
  0
LINE
  8
0
 10
-102.366966
 20
-131.678802
 11
-101.466965
 21
-132.578812
  0
LINE
  8
0
 10
-105.366974
 20
-131.678802
 11
-102.366974
 21
-131.678802
  0
LINE
  8
0
 10
-101.466965
 20
-104.578812
 11
-46.366974
 21
-104.578812
  0
LINE
  8
0
 10
-102.366959
 20
-103.678810
 11
-101.466965
 21
-104.578804
  0
LINE
  8
0
 10
-105.366974
 20
-103.678810
 11
-102.366974
 21
-103.678810
  0
LINE
  8
0
 10
-102.366959
 20
-95.478806
 11
-101.466965
 21
-94.578812
  0
LINE
  8
0
 10
-105.366974
 20
-95.478821
 11
-102.366974
 21
-95.478821
  0
LINE
  8
0
 10
-107.366974
 20
-106.578812
 11
-105.366974
 21
-106.578812
  0
LINE
  8
0
 10
-107.366974
 20
-92.578812
 11
-105.366974
 21
-92.578812
  0
LINE
  8
0
 10
-105.366974
 20
-92.578812
 11
-105.366974
 21
-106.578812
  0
LINE
  8
0
 10
-101.466965
 20
-94.578812
 11
-46.366974
 21
-94.578812
  0
LINE
  8
0
 10
-107.366974
 20
-134.578812
 11
-105.366974
 21
-134.578812
  0
LINE
  8
0
 10
-107.366974
 20
-120.578812
 11
-105.366974
 21
-120.578812
  0
LINE
  8
0
 10
-105.366974
 20
-120.578812
 11
-105.366974
 21
-134.578812
  0
LINE
  8
0
  6
CENTER
 62
     2
 10
-124.316971
 20
-99.578812
 11
-40.339188
 21
-99.578812
  0
LINE
  8
0
  6
CENTER
 62
     2
 10
-124.316971
 20
-127.578812
 11
-40.339188
 21
-127.578812
  0
LINE
  8
0
 10
-107.366974
 20
-77.578812
 11
-107.366974
 21
-149.578812
  0
LINE
  8
0
 10
-119.366974
 20
-77.578812
 11
-119.366974
 21
-149.578812
  0
LINE
  8
0
 10
-46.366974
 20
-77.578812
 11
-46.366974
 21
-149.578812
  0
LINE
  8
0
 10
83.633026
 20
-77.578812
 11
83.633026
 21
-149.578812
  0
LINE
  8
0
 10
-119.366974
 20
-149.578812
 11
83.633026
 21
-149.578812
  0
LINE
  8
0
  6
CENTER
 62
     2
 10
-124.316971
 20
-113.578812
 11
87.759277
 21
-113.578812
  0
LINE
  8
0
  6
CENTER
 62
     2
 10
8.633026
 20
-81.693115
 11
8.633026
 21
-91.634506
  0
LINE
  8
0
  6
CENTER
 62
     2
 10
4.011200
 20
-86.578812
 11
13.669281
 21
-86.578812
  0
LINE
  8
0
  6
CENTER
 62
     2
 10
8.633026
 20
-108.855453
 11
8.633026
 21
-118.442497
  0
LINE
  8
0
  6
CENTER
 62
     2
 10
8.633026
 20
-136.130753
 11
8.633026
 21
-145.348068
  0
LINE
  8
0
  6
CENTER
 62
     2
 10
4.011200
 20
-140.578812
 11
13.669281
 21
-140.578812
  0
LINE
  8
0
  6
PHANTOM
 62
     3
 10
-63.648804
 20
-154.089096
 11
-63.648804
 21
-57.868408
  0
LINE
  8
0
  6
PHANTOM
 62
     3
 10
27.940018
 20
-154.089096
 11
27.940018
 21
-53.629684
  0
LINE
  8
0
 10
-107.366974
 20
-109.584335
 11
-106.366974
 21
-109.584335
  0
LINE
  8
0
 10
-107.366974
 20
-117.584335
 11
-106.366974
 21
-117.584335
  0
LINE
  8
0
 10
-106.366974
 20
-109.584335
 11
-106.366974
 21
-117.584335
  0
LINE
  8
0
  6
PHANTOM
 62
     3
 10
2.634796
 20
-154.089096
 11
2.634796
 21
-47.513718
  0
LINE
  8
0
 10
52.633026
 20
23.339584
 11
64.633026
 21
23.339584
  0
LINE
  8
0
 10
-41.366974
 20
23.339584
 11
-29.366974
 21
23.339584
  0
LINE
  8
0
 10
0.633026
 20
28.339584
 11
28.633026
 21
28.339584
  0
LINE
  8
0
 10
-21.366974
 20
29.339584
 11
0.633026
 21
29.339584
  0
LINE
  8
0
 10
64.633026
 20
7.339584
 11
83.633026
 21
7.339584
  0
LINE
  8
0
 10
-29.366974
 20
7.339584
 11
52.633026
 21
7.339584
  0
LINE
  8
0
 10
-29.366974
 20
8.839584
 11
-15.666974
 21
8.839584
  0
LINE
  8
0
 10
-29.366974
 20
11.339584
 11
28.633026
 21
11.339584
  0
LINE
  8
0
 62
     2
 10
89.623016
 20
21.339582
 11
86.633018
 21
13.339582
  0
LINE
  8
0
 62
     2
 10
86.633011
 20
21.339577
 11
89.623016
 21
13.339578
  0
LINE
  8
0
 10
67.633026
 20
11.339584
 11
79.883026
 21
11.339584
  0
LINE
  8
0
 62
     2
 10
67.633026
 20
11.879578
 11
80.423019
 21
11.879578
  0
LINE
  8
0
 62
     2
 10
67.633026
 20
22.799576
 11
80.423019
 21
22.799576
  0
LINE
  8
0
 10
67.633026
 20
23.339584
 11
79.883026
 21
23.339584
  0
LINE
  8
0
 10
64.923019
 20
9.259583
 11
67.343018
 21
9.259583
  0
LINE
  8
0
 10
64.633011
 20
10.339578
 11
64.923012
 21
9.259580
  0
LINE
  8
0
 10
67.633018
 20
10.339573
 11
67.343018
 21
9.259576
  0
LINE
  8
0
 10
64.923019
 20
13.299576
 11
67.343018
 21
13.299576
  0
LINE
  8
0
 10
67.633026
 20
24.339584
 11
67.633026
 21
10.339584
  0
LINE
  8
0
 10
67.633018
 20
24.339579
 11
67.343018
 21
25.419579
  0
LINE
  8
0
 10
64.923019
 20
25.419571
 11
67.343018
 21
25.419571
  0
LINE
  8
0
 10
64.633018
 20
24.339579
 11
64.923019
 21
25.419577
  0
LINE
  8
0
 10
64.923019
 20
21.379578
 11
67.343018
 21
21.379578
  0
LINE
  8
0
 10
42.933014
 20
18.839584
 11
42.933014
 21
15.839584
  0
LINE
  8
0
 10
42.633007
 20
18.539583
 11
42.933014
 21
18.839590
  0
LINE
  8
0
 10
42.633018
 20
16.139582
 11
42.933014
 21
15.839588
  0
LINE
  8
0
 10
90.633026
 20
13.839584
 11
90.633026
 21
20.839584
  0
LINE
  8
0
 10
90.633018
 20
20.839588
 11
89.623024
 21
22.589582
  0
LINE
  8
0
 10
89.623016
 20
21.339584
 11
89.623016
 21
22.589584
  0
LINE
  8
0
 10
86.633026
 20
21.339584
 11
89.623016
 21
21.339584
  0
LINE
  8
0
 10
86.633026
 20
13.339584
 11
86.633026
 21
21.339584
  0
LINE
  8
0
 10
86.633026
 20
13.339584
 11
89.623016
 21
13.339584
  0
LINE
  8
0
 10
89.623016
 20
12.089584
 11
89.623016
 21
13.339584
  0
LINE
  8
0
 10
90.633011
 20
13.839587
 11
89.623009
 21
12.089579
  0
LINE
  8
0
 10
42.933014
 20
18.839584
 11
50.633026
 21
18.839584
  0
LINE
  8
0
 10
42.933014
 20
15.839584
 11
50.633026
 21
15.839584
  0
LINE
  8
0
 10
79.883026
 20
11.339584
 11
79.883026
 21
23.339584
  0
LINE
  8
0
 10
80.633026
 20
22.589584
 11
89.623016
 21
22.589584
  0
LINE
  8
0
 10
80.633026
 20
12.089584
 11
89.623016
 21
12.089584
  0
LINE
  8
0
 10
80.633018
 20
12.089578
 11
79.883018
 21
11.339580
  0
LINE
  8
0
 10
80.633018
 20
22.589581
 11
79.883011
 21
23.339584
  0
LINE
  8
0
 10
50.633026
 20
22.589584
 11
52.633026
 21
22.589584
  0
LINE
  8
0
 10
50.633026
 20
12.089584
 11
52.633026
 21
12.089584
  0
LINE
  8
0
 10
80.633026
 20
12.089584
 11
80.633026
 21
22.589584
  0
LINE
  8
0
 10
50.633026
 20
12.089584
 11
50.633026
 21
22.589584
  0
LINE
  8
0
  6
CENTER
 62
     2
 10
40.603012
 20
17.339584
 11
92.713013
 21
17.339584
  0
LINE
  8
0
 10
42.633026
 20
16.139572
 11
42.633026
 21
18.539581
  0
LINE
  8
0
 62
     2
 10
-60.356972
 20
13.339580
 11
-57.366970
 21
21.339579
  0
LINE
  8
0
 62
     2
 10
-57.366970
 20
13.339583
 11
-60.356972
 21
21.339582
  0
LINE
  8
0
 10
-44.366974
 20
23.339584
 11
-50.616974
 21
23.339584
  0
LINE
  8
0
 62
     2
 10
-44.366974
 20
22.799576
 11
-51.166962
 21
22.799576
  0
LINE
  8
0
 62
     2
 10
-44.366974
 20
11.879578
 11
-51.166962
 21
11.879578
  0
LINE
  8
0
 10
-41.656975
 20
25.419571
 11
-44.076973
 21
25.419571
  0
LINE
  8
0
 10
-41.366970
 20
24.339573
 11
-41.656971
 21
25.419571
  0
LINE
  8
0
 10
-44.366970
 20
24.339579
 11
-44.076969
 21
25.419579
  0
LINE
  8
0
 10
-41.656975
 20
21.379578
 11
-44.076973
 21
21.379578
  0
LINE
  8
0
 10
-44.366974
 20
10.339584
 11
-44.366974
 21
24.339584
  0
LINE
  8
0
 10
-44.366966
 20
10.339574
 11
-44.076965
 21
9.259575
  0
LINE
  8
0
 10
-41.656975
 20
9.259583
 11
-44.076973
 21
9.259583
  0
LINE
  8
0
 10
-41.366966
 20
10.339577
 11
-41.656963
 21
9.259579
  0
LINE
  8
0
 10
-41.656975
 20
13.299576
 11
-44.076973
 21
13.299576
  0
LINE
  8
0
 10
-61.366974
 20
20.839584
 11
-61.366974
 21
13.839584
  0
LINE
  8
0
 10
-61.366966
 20
13.839574
 11
-60.356972
 21
12.089581
  0
LINE
  8
0
 10
-60.356964
 20
13.339584
 11
-60.356964
 21
12.089584
  0
LINE
  8
0
 10
-57.366974
 20
13.339584
 11
-60.356964
 21
13.339584
  0
LINE
  8
0
 10
-57.366974
 20
21.339584
 11
-57.366974
 21
13.339584
  0
LINE
  8
0
 10
-57.366974
 20
21.339584
 11
-60.356964
 21
21.339584
  0
LINE
  8
0
 10
-60.356964
 20
22.589584
 11
-60.356964
 21
21.339584
  0
LINE
  8
0
 10
-61.366974
 20
20.839584
 11
-60.356979
 21
22.589579
  0
LINE
  8
0
 62
     2
 10
-23.576973
 20
11.879578
 11
-29.366974
 21
11.879578
  0
LINE
  8
0
 62
     2
 10
-23.576973
 20
22.799576
 11
-29.366974
 21
22.799576
  0
LINE
  8
0
 10
-50.616974
 20
23.339584
 11
-50.616974
 21
11.339584
  0
LINE
  8
0
 10
-24.116974
 20
23.339584
 11
-24.116974
 21
11.339584
  0
LINE
  8
0
 10
-51.366974
 20
12.089584
 11
-60.356964
 21
12.089584
  0
LINE
  8
0
 10
-51.366974
 20
22.589584
 11
-60.356964
 21
22.589584
  0
LINE
  8
0
 10
-51.366970
 20
22.589579
 11
-50.616970
 21
23.339581
  0
LINE
  8
0
 10
-23.366983
 20
12.089575
 11
-24.116980
 21
11.339580
  0
LINE
  8
0
 10
-51.366970
 20
12.089582
 11
-50.616959
 21
11.339575
  0
LINE
  8
0
 10
-23.366974
 20
22.589565
 11
-24.116980
 21
23.339571
  0
LINE
  8
0
 10
-21.366974
 20
12.089584
 11
-23.366974
 21
12.089584
  0
LINE
  8
0
 10
-21.366974
 20
22.589584
 11
-23.366974
 21
22.589584
  0
LINE
  8
0
 10
-24.116974
 20
23.339584
 11
-29.366974
 21
23.339584
  0
LINE
  8
0
 10
-51.366974
 20
22.589584
 11
-51.366974
 21
12.089584
  0
LINE
  8
0
 10
-23.366974
 20
22.589584
 11
-23.366974
 21
12.089584
  0
LINE
  8
0
  6
CENTER
 62
     2
 10
-19.046974
 20
17.339584
 11
-62.502182
 21
17.339584
  0
LINE
  8
0
 62
     2
 10
53.053024
 20
-10.660416
 11
64.213013
 21
-10.660416
  0
LINE
  8
0
  6
CENTER
 62
     2
 10
53.073013
 20
0.339584
 11
64.243011
 21
0.339584
  0
LINE
  8
0
  6
CENTER
 62
     2
 10
58.633026
 20
5.719574
 11
58.633026
 21
-15.950416
  0
LINE
  8
0
  6
CENTER
 62
     2
 10
-35.366974
 20
5.989578
 11
-35.366974
 21
-15.940415
  0
LINE
  8
0
 10
-37.366974
 20
-11.820416
 11
-35.366974
 21
-12.970417
  0
LINE
  8
0
 10
-35.366974
 20
-8.350416
 11
-33.366974
 21
-9.510416
  0
LINE
  8
0
 10
-35.366974
 20
-12.970417
 11
-33.366974
 21
-11.820415
  0
LINE
  8
0
 10
-37.366974
 20
-9.510416
 11
-35.366978
 21
-8.350417
  0
LINE
  8
0
 10
-33.366974
 20
-9.510416
 11
-33.366974
 21
-11.820416
  0
LINE
  8
0
 10
-37.366974
 20
-9.510416
 11
-37.366974
 21
-11.820416
  0
LINE
  8
0
 10
-37.366974
 20
-0.820417
 11
-35.366974
 21
-1.970416
  0
LINE
  8
0
 10
-35.366974
 20
2.649585
 11
-33.366974
 21
1.489585
  0
LINE
  8
0
 10
-35.366974
 20
-1.970416
 11
-33.366974
 21
-0.820416
  0
LINE
  8
0
 10
-37.366970
 20
1.489578
 11
-35.366970
 21
2.649578
  0
LINE
  8
0
 10
-33.366974
 20
1.489578
 11
-33.366974
 21
-0.820416
  0
LINE
  8
0
 10
-37.366974
 20
1.489578
 11
-37.366974
 21
-0.820416
  0
LINE
  8
0
 10
56.633026
 20
-11.820417
 11
58.633018
 21
-12.970415
  0
LINE
  8
0
 10
58.633015
 20
-8.350410
 11
60.633018
 21
-9.510411
  0
LINE
  8
0
 10
58.633015
 20
-12.970418
 11
60.633015
 21
-11.820420
  0
LINE
  8
0
 10
56.633018
 20
-9.510423
 11
58.633022
 21
-8.350423
  0
LINE
  8
0
 10
60.633026
 20
-9.510416
 11
60.633026
 21
-11.820416
  0
LINE
  8
0
 10
56.633026
 20
-9.510416
 11
56.633026
 21
-11.820416
  0
LINE
  8
0
 10
56.633018
 20
-0.820420
 11
58.633015
 21
-1.970420
  0
LINE
  8
0
 10
58.633015
 20
2.649578
 11
60.633018
 21
1.489577
  0
LINE
  8
0
 10
58.633011
 20
-1.970408
 11
60.633011
 21
-0.820408
  0
LINE
  8
0
 10
56.633022
 20
1.489590
 11
58.633011
 21
2.649583
  0
LINE
  8
0
 10
60.633026
 20
1.489578
 11
60.633026
 21
-0.820416
  0
LINE
  8
0
 10
56.633026
 20
1.489578
 11
56.633026
 21
-0.820416
  0
LINE
  8
0
  6
CENTER
 62
     2
 10
-40.796974
 20
-10.660416
 11
-29.726974
 21
-10.660416
  0
LINE
  8
0
  6
CENTER
 62
     2
 10
-41.086975
 20
0.339584
 11
-29.726974
 21
0.339584
  0
LINE
  8
0
 10
52.633026
 20
-16.150415
 11
64.633026
 21
-16.150415
  0
LINE
  8
0
 10
52.633026
 20
25.339584
 11
64.633026
 21
25.339584
  0
LINE
  8
0
 10
-41.366974
 20
-16.150415
 11
-29.366974
 21
-16.150415
  0
LINE
  8
0
 10
-41.366974
 20
25.339584
 11
-29.366974
 21
25.339584
  0
LINE
  8
0
 10
-41.366974
 20
25.339584
 11
-41.366974
 21
-16.660416
  0
LINE
  8
0
 10
-29.366974
 20
25.339584
 11
-29.366974
 21
-16.660416
  0
LINE
  8
0
 10
52.633026
 20
25.339584
 11
52.633026
 21
-16.660416
  0
LINE
  8
0
 10
64.633026
 20
25.339584
 11
64.633026
 21
-16.660416
  0
LINE
  8
0
 10
-21.366974
 20
29.339584
 11
-21.366974
 21
11.339584
  0
LINE
  8
0
  6
CENTER
 62
     2
 10
-4.866974
 20
28.589584
 11
-4.866974
 21
15.269577
  0
LINE
  8
0
  6
CENTER
 62
     2
 10
-15.866974
 20
28.559570
 11
-15.866974
 21
15.299576
  0
LINE
  8
0
  6
CENTER
 62
     2
 10
-22.226974
 20
21.839584
 11
1.813019
 21
21.839584
  0
LINE
  8
0
 10
-21.366974
 20
27.839584
 11
0.633026
 21
27.839584
  0
LINE
  8
0
 10
0.633026
 20
29.339584
 11
0.633026
 21
11.339584
  0
LINE
  8
0
 10
-46.366974
 20
11.339584
 11
-46.366974
 21
-16.660416
  0
LINE
  8
0
  6
CENTER
 62
     2
 10
-58.786972
 20
-10.160416
 11
-43.546974
 21
-10.160416
  0
LINE
  8
0
 10
28.633026
 20
12.339584
 11
50.633026
 21
12.339584
  0
LINE
  8
0
 10
33.633026
 20
12.339584
 11
33.633026
 21
14.339584
  0
LINE
  8
0
 62
     2
 10
33.633026
 20
12.439575
 11
43.133026
 21
12.439575
  0
LINE
  8
0
 10
33.633026
 20
12.839584
 11
43.133026
 21
12.839584
  0
LINE
  8
0
 10
29.633011
 20
14.339587
 11
29.983013
 21
14.959593
  0
LINE
  8
0
 10
33.633026
 20
14.339582
 11
33.273026
 21
14.959583
  0
LINE
  8
0
 10
33.273026
 20
14.959579
 11
29.983017
 21
14.959579
  0
LINE
  8
0
 10
33.273026
 20
12.649582
 11
29.983017
 21
12.649582
  0
LINE
  8
0
 10
29.633026
 20
14.339584
 11
28.633026
 21
14.339584
  0
LINE
  8
0
 10
29.633026
 20
14.339584
 11
29.633026
 21
12.339584
  0
LINE
  8
0
 10
81.633026
 20
7.339584
 11
81.633026
 21
12.089584
  0
LINE
  8
0
 62
     2
 10
-52.866974
 20
-12.260416
 11
-50.366974
 21
-12.260416
  0
LINE
  8
0
 10
-52.866974
 20
-12.660416
 11
-50.366974
 21
-12.660416
  0
LINE
  8
0
 10
-56.366962
 20
-14.160408
 11
-56.016964
 21
-14.780409
  0
LINE
  8
0
 10
-56.016968
 20
-14.780416
 11
-52.866974
 21
-14.780416
  0
LINE
  8
0
 10
-56.016968
 20
-12.470416
 11
-52.866974
 21
-12.470416
  0
LINE
  8
0
 10
-52.866974
 20
-9.660416
 11
-52.866974
 21
-14.780416
  0
LINE
  8
0
 10
-56.366974
 20
-9.660416
 11
-56.366974
 21
-14.160416
  0
LINE
  8
0
 10
-46.366974
 20
-14.160414
 11
-46.726974
 21
-14.780414
  0
LINE
  8
0
 10
-50.016968
 20
-12.470416
 11
-46.726974
 21
-12.470416
  0
LINE
  8
0
 10
-50.366974
 20
-14.160416
 11
-50.366974
 21
-9.660416
  0
LINE
  8
0
 10
-50.366974
 20
-14.160416
 11
-50.016972
 21
-14.780415
  0
LINE
  8
0
 10
-50.016968
 20
-14.780416
 11
-46.726974
 21
-14.780416
  0
LINE
  8
0
 10
-105.366974
 20
-7.520416
 11
-102.366974
 21
-7.520416
  0
LINE
  8
0
 10
-105.366974
 20
-1.800416
 11
-102.366974
 21
-1.800416
  0
LINE
  8
0
 10
-105.366974
 20
0.339584
 11
-46.366974
 21
0.339584
  0
LINE
  8
0
 10
-105.366974
 20
-9.660416
 11
-46.366974
 21
-9.660416
  0
LINE
  8
0
 10
-107.366974
 20
-11.660416
 11
-105.366974
 21
-11.660416
  0
LINE
  8
0
 10
-107.366974
 20
2.339584
 11
-105.366974
 21
2.339584
  0
LINE
  8
0
 10
-105.366974
 20
2.339584
 11
-105.366974
 21
-11.660416
  0
LINE
  8
0
 62
     2
 10
-105.366959
 20
-7.520421
 11
-102.366959
 21
-1.800415
  0
LINE
  8
0
 62
     2
 10
-105.366966
 20
-1.800421
 11
-102.366974
 21
-7.520424
  0
LINE
  8
0
 10
-102.366974
 20
-1.800416
 11
-102.366974
 21
-7.520416
  0
LINE
  8
0
 10
24.333023
 20
8.839584
 11
24.333023
 21
11.339584
  0
LINE
  8
0
 10
-3.066986
 20
8.839584
 11
24.333023
 21
8.839584
  0
LINE
  8
0
 10
-3.066986
 20
8.839584
 11
-3.066986
 21
11.339584
  0
LINE
  8
0
 10
-43.066975
 20
8.839584
 11
-41.366974
 21
8.839584
  0
LINE
  8
0
 10
-15.666974
 20
8.839584
 11
-15.666974
 21
11.339584
  0
LINE
  8
0
 10
-43.066975
 20
8.839584
 11
-43.066975
 21
9.259583
  0
LINE
  8
0
  6
CENTER
 62
     2
 10
71.633026
 20
0.494720
 11
71.633026
 21
-10.539532
  0
LINE
  8
0
  6
CENTER
 62
     2
 10
-21.366974
 20
0.494720
 11
-21.366974
 21
-10.539532
  0
LINE
  8
0
 10
-119.366974
 20
-15.150416
 11
-107.366974
 21
-15.150416
  0
LINE
  8
0
 10
83.633026
 20
7.339584
 11
83.633026
 21
-16.660416
  0
LINE
  8
0
 10
-119.366974
 20
29.839584
 11
-107.366974
 21
29.839584
  0
LINE
  8
0
 10
-107.366974
 20
28.339584
 11
-21.366974
 21
28.339584
  0
LINE
  8
0
  6
CENTER
 62
     2
 10
-124.316971
 20
-4.660416
 11
87.293015
 21
-4.660416
  0
LINE
  8
0
 10
-107.366974
 20
30.339584
 11
-107.366974
 21
-15.150416
  0
LINE
  8
0
 10
-119.366974
 20
29.839584
 11
-119.366974
 21
-15.150416
  0
LINE
  8
0
 10
-119.366974
 20
27.839584
 11
-107.366974
 21
27.839584
  0
LINE
  8
0
 10
-107.366974
 20
11.339584
 11
-44.366974
 21
11.339584
  0
LINE
  8
0
 10
28.633026
 20
30.339584
 11
28.633026
 21
11.339584
  0
LINE
  8
0
 10
-46.366974
 20
7.339584
 11
-41.366974
 21
7.339584
  0
LINE
  8
0
 10
-107.366974
 20
30.339584
 11
28.633026
 21
30.339584
  0
LINE
  8
0
 10
43.133026
 20
12.339584
 11
43.133026
 21
12.839584
  0
LINE
  8
0
  6
PHANTOM
 62
     3
 10
39.494308
 20
14.466904
 11
45.954742
 21
14.466904
  0
LINE
  8
0
 10
-107.366974
 20
-14.157585
 11
-106.366974
 21
-14.157585
  0
LINE
  8
0
 10
-106.366974
 20
-11.660416
 11
-106.366974
 21
-14.157585
  0
LINE
  8
0
 10
-17.866989
 20
22.992401
 11
-17.866989
 21
20.692413
  0
LINE
  8
0
 10
-13.866989
 20
22.992401
 11
-13.866989
 21
20.692413
  0
LINE
  8
0
 10
-17.866991
 20
22.992413
 11
-15.866992
 21
24.142410
  0
LINE
  8
0
 10
-15.866989
 20
19.542402
 11
-13.866990
 21
20.692402
  0
LINE
  8
0
 10
-15.866990
 20
24.142416
 11
-13.866990
 21
22.992416
  0
LINE
  8
0
 10
-17.866995
 20
20.692408
 11
-15.866993
 21
19.542408
  0
LINE
  8
0
 10
-6.866989
 20
22.992401
 11
-6.866989
 21
20.692413
  0
LINE
  8
0
 10
-2.866989
 20
22.992401
 11
-2.866989
 21
20.692413
  0
LINE
  8
0
 10
-6.866993
 20
22.992407
 11
-4.866994
 21
24.142406
  0
LINE
  8
0
 10
-4.866991
 20
19.542397
 11
-2.866993
 21
20.692394
  0
LINE
  8
0
 10
-4.866997
 20
24.142403
 11
-2.866997
 21
22.992405
  0
LINE
  8
0
 10
-6.866994
 20
20.692411
 11
-4.866995
 21
19.542412
  0
LINE
  8
0
 10
-46.366974
 20
-16.660416
 11
83.633026
 21
-16.660416
  0
LINE
  8
0
  6
CENTER
 62
     2
 10
-31.366974
 20
-21.660416
 11
-31.366974
 21
-11.660416
  0
LINE
  8
0
  6
CENTER
 62
     2
 10
48.633026
 20
-21.660416
 11
48.633026
 21
-11.660416
  0
LINE
  8
0
  6
PHANTOM
 62
     3
 10
-63.648804
 20
-22.870567
 11
-63.648804
 21
39.119705
  0
LINE
  8
0
  6
PHANTOM
 62
     3
 10
45.954742
 20
-22.870567
 11
45.954742
 21
14.466904
  0
LINE
  8
0
  6
PHANTOM
 62
     3
 10
39.494308
 20
14.466904
 11
39.494308
 21
39.119705
  0
LINE
  8
0
 10
148.633011
 20
62.159580
 11
150.633011
 21
60.159580
  0
LINE
  8
0
 10
146.133011
 20
61.159576
 11
146.133011
 21
77.159576
  0
LINE
  8
0
 10
146.133011
 20
61.159576
 11
149.633011
 21
61.159576
  0
LINE
  8
0
 10
160.033020
 20
64.159576
 11
153.233017
 21
64.159576
  0
LINE
  8
0
 10
160.033020
 20
72.159576
 11
153.233017
 21
72.159576
  0
LINE
  8
0
 10
155.633011
 20
67.579590
 11
155.633011
 21
68.729584
  0
LINE
  8
0
 10
157.633011
 20
67.579590
 11
157.633011
 21
68.729584
  0
LINE
  8
0
 10
157.633026
 20
68.729584
 11
156.633026
 21
69.309586
  0
LINE
  8
0
 10
156.633011
 20
66.999580
 11
155.633011
 21
67.579582
  0
LINE
  8
0
 10
156.633011
 20
69.309586
 11
155.633026
 21
68.729591
  0
LINE
  8
0
 10
157.633026
 20
67.579597
 11
156.633011
 21
66.999588
  0
LINE
  8
0
  6
CENTER
 62
     2
 10
156.633011
 20
58.159576
 11
156.633011
 21
78.159576
  0
LINE
  8
0
 10
160.673019
 20
61.159584
 11
164.713013
 21
68.159576
  0
LINE
  8
0
 10
148.543015
 20
68.159576
 11
152.583008
 21
75.159569
  0
LINE
  8
0
 10
164.713013
 20
68.159584
 11
160.673004
 21
75.159592
  0
LINE
  8
0
 10
152.583008
 20
61.159584
 11
148.543015
 21
68.159584
  0
LINE
  8
0
 10
152.583023
 20
75.159576
 11
160.673019
 21
75.159576
  0
LINE
  8
0
 10
152.583023
 20
61.159576
 11
160.673019
 21
61.159576
  0
LINE
  8
0
  6
CENTER
 62
     2
 10
146.633011
 20
68.159576
 11
166.633011
 21
68.159576
  0
LINE
  8
0
 10
148.633011
 20
62.159576
 11
148.633011
 21
76.159576
  0
LINE
  8
0
 10
150.633026
 20
60.159576
 11
190.133011
 21
60.159576
  0
LINE
  8
0
 10
148.633011
 20
76.159576
 11
166.633011
 21
76.159576
  0
LINE
  8
0
 10
190.133011
 20
60.159576
 11
190.133011
 21
77.188766
  0
LINE
  8
0
  6
CENTER
 62
     2
 10
166.763016
 20
99.159576
 11
193.003006
 21
99.159576
  0
LINE
  8
0
 10
161.163025
 20
112.759575
 11
166.093018
 21
112.759575
  0
LINE
  8
0
 10
161.163025
 20
113.559578
 11
166.093018
 21
113.559578
  0
LINE
  8
0
 10
167.633011
 20
114.229576
 11
167.633011
 21
119.159576
  0
LINE
  8
0
 10
159.133011
 20
112.949577
 11
159.133011
 21
99.159576
  0
LINE
  8
0
 10
164.633011
 20
107.159576
 11
164.633011
 21
102.159576
  0
LINE
  8
0
 10
159.133011
 20
102.159576
 11
164.633011
 21
102.159576
  0
LINE
  8
0
 10
143.633026
 20
79.159584
 11
145.633026
 21
77.159584
  0
LINE
  8
0
 10
143.633026
 20
101.659569
 11
144.133026
 21
102.159576
  0
LINE
  8
0
 10
143.633011
 20
101.659576
 11
143.633011
 21
79.159576
  0
LINE
  8
0
 10
144.133011
 20
124.159576
 11
144.133011
 21
102.159576
  0
LINE
  8
0
 10
143.633026
 20
124.659576
 11
144.133026
 21
124.159576
  0
LINE
  8
0
 10
143.633011
 20
147.159576
 11
143.633011
 21
124.659576
  0
LINE
  8
0
 10
143.633026
 20
147.159561
 11
145.633026
 21
149.159561
  0
LINE
  8
0
 10
167.133011
 20
83.659576
 11
167.133011
 21
93.659576
  0
LINE
  8
0
 10
157.133011
 20
78.659576
 11
162.633011
 21
78.659576
  0
LINE
  8
0
 10
162.633011
 20
76.159576
 11
162.633011
 21
78.659576
  0
LINE
  8
0
 10
154.943024
 20
77.159576
 11
166.633011
 21
77.159576
  0
LINE
  8
0
 10
154.333023
 20
77.159584
 11
154.633011
 21
77.459579
  0
LINE
  8
0
 10
154.943024
 20
77.159576
 11
154.633026
 21
77.469574
  0
LINE
  8
0
 10
145.633011
 20
77.159576
 11
154.333023
 21
77.159576
  0
LINE
  8
0
 10
159.633011
 20
124.159576
 11
159.633011
 21
114.229576
  0
LINE
  8
0
 10
165.943024
 20
109.159569
 11
168.243027
 21
113.159576
  0
LINE
  8
0
 10
159.013016
 20
113.159576
 11
161.323013
 21
117.159569
  0
LINE
  8
0
 10
168.243042
 20
113.159584
 11
165.943039
 21
117.159584
  0
LINE
  8
0
 10
161.323013
 20
109.159576
 11
159.013016
 21
113.159576
  0
LINE
  8
0
 10
161.323013
 20
117.159576
 11
165.943024
 21
117.159576
  0
LINE
  8
0
 10
161.323013
 20
109.159576
 11
165.943024
 21
109.159576
  0
LINE
  8
0
  6
CENTER
 62
     2
 10
139.823013
 20
113.159576
 11
196.273010
 21
113.159576
  0
LINE
  8
0
 10
159.133011
 20
124.159576
 11
164.633011
 21
124.159576
  0
LINE
  8
0
 10
167.633011
 20
107.159576
 11
167.633011
 21
112.079575
  0
LINE
  8
0
 10
164.633011
 20
119.159576
 11
168.633011
 21
119.159576
  0
LINE
  8
0
 10
190.333008
 20
120.959579
 11
190.333008
 21
133.359573
  0
LINE
  8
0
 10
190.633011
 20
105.659576
 11
190.333008
 21
105.359566
  0
LINE
  8
0
 10
190.633011
 20
92.659576
 11
190.333008
 21
92.959587
  0
LINE
  8
0
 10
177.533005
 20
143.759567
 11
179.733017
 21
143.759567
  0
LINE
  8
0
 10
183.233017
 20
143.759583
 11
185.633011
 21
146.159576
  0
LINE
  8
0
 10
183.233017
 20
143.229568
 11
183.233017
 21
143.759567
  0
LINE
  8
0
 10
183.703018
 20
142.759567
 11
183.233017
 21
143.229568
  0
LINE
  8
0
 10
183.703018
 20
141.129562
 11
183.703018
 21
142.759567
  0
LINE
  8
0
 10
179.553009
 20
141.129562
 11
179.553009
 21
142.759567
  0
LINE
  8
0
 10
179.553024
 20
142.759567
 11
180.033005
 21
143.229568
  0
LINE
  8
0
 10
180.033005
 20
143.229568
 11
180.033005
 21
143.459564
  0
LINE
  8
0
 10
177.233017
 20
143.229568
 11
177.233017
 21
143.459564
  0
LINE
  8
0
 10
177.703018
 20
142.759567
 11
177.233017
 21
143.229568
  0
LINE
  8
0
 10
177.703018
 20
141.129562
 11
177.703018
 21
142.759567
  0
LINE
  8
0
 10
174.033005
 20
143.759567
 11
171.633011
 21
146.159576
  0
LINE
  8
0
 10
174.033020
 20
143.229568
 11
174.033020
 21
143.759567
  0
LINE
  8
0
 10
173.553009
 20
142.759567
 11
174.033020
 21
143.229568
  0
LINE
  8
0
 10
173.553024
 20
141.129562
 11
173.553024
 21
142.759567
  0
LINE
  8
0
  6
CENTER
 62
     2
 10
172.483017
 20
141.129562
 11
184.753006
 21
141.129562
  0
LINE
  8
0
  6
CENTER
 62
     2
 10
181.633011
 20
137.959564
 11
181.633011
 21
145.009567
  0
LINE
  8
0
  6
CENTER
 62
     2
 10
175.633011
 20
137.919571
 11
175.633011
 21
145.189575
  0
LINE
  8
0
 10
171.633011
 20
146.159576
 11
171.633011
 21
149.159576
  0
LINE
  8
0
 10
185.633011
 20
146.159576
 11
185.633011
 21
149.159576
  0
LINE
  8
0
 10
190.633011
 20
133.659576
 11
190.333008
 21
133.359573
  0
LINE
  8
0
 10
190.633011
 20
133.659576
 11
190.633011
 21
148.459564
  0
LINE
  8
0
 10
190.633011
 20
120.659569
 11
190.333008
 21
120.959579
  0
LINE
  8
0
 10
190.633011
 20
105.659576
 11
190.633011
 21
120.659576
  0
LINE
  8
0
 10
190.333008
 20
92.959579
 11
190.333008
 21
105.359573
  0
LINE
  8
0
  6
CENTER
 62
     2
 10
178.633011
 20
73.179581
 11
178.633011
 21
146.019562
  0
LINE
  8
0
  6
CENTER
 62
     2
 10
166.763016
 20
127.159576
 11
193.003006
 21
127.159576
  0
LINE
  8
0
 10
190.633011
 20
77.859589
 11
190.633011
 21
92.659576
  0
LINE
  8
0
 10
168.633011
 20
107.159576
 11
168.633011
 21
119.159576
  0
LINE
  8
0
 10
167.133011
 20
142.659576
 11
167.133011
 21
132.659576
  0
LINE
  8
0
 10
165.633011
 20
93.659576
 11
165.633011
 21
104.159576
  0
LINE
  8
0
  6
CENTER
 62
     2
 10
152.503021
 20
89.159576
 11
170.193024
 21
89.159576
  0
LINE
  8
0
  6
CENTER
 62
     2
 10
152.863022
 20
137.159576
 11
170.193024
 21
137.159576
  0
LINE
  8
0
 10
165.633011
 20
104.159569
 11
168.633011
 21
107.159576
  0
LINE
  8
0
 10
166.633011
 20
83.659576
 11
167.133011
 21
83.659576
  0
LINE
  8
0
 10
168.632996
 20
119.159561
 11
165.632996
 21
122.159569
  0
LINE
  8
0
 10
165.633011
 20
122.159576
 11
165.633011
 21
132.659576
  0
LINE
  8
0
 10
166.633011
 20
142.659576
 11
166.633011
 21
149.159576
  0
LINE
  8
0
 10
166.633011
 20
76.159576
 11
166.633011
 21
83.659576
  0
LINE
  8
0
 10
167.633011
 20
77.159576
 11
189.933014
 21
77.159576
  0
LINE
  8
0
 10
166.633011
 20
142.659576
 11
167.133011
 21
142.659576
  0
LINE
  8
0
 10
164.633011
 20
119.159576
 11
164.633011
 21
124.159576
  0
LINE
  8
0
 10
161.633011
 20
93.659576
 11
167.133011
 21
93.659576
  0
LINE
  8
0
 10
164.633011
 20
107.159576
 11
168.633011
 21
107.159576
  0
LINE
  8
0
  6
CENTER
 62
     2
 10
163.633011
 20
119.559578
 11
163.633011
 21
107.159576
  0
LINE
  8
0
 10
159.633011
 20
112.079575
 11
159.633011
 21
102.159576
  0
LINE
  8
0
 10
145.633011
 20
149.159576
 11
189.933014
 21
149.159576
  0
LINE
  8
0
 10
157.133011
 20
78.659576
 11
157.133011
 21
99.159576
  0
LINE
  8
0
 10
159.133011
 20
126.659576
 11
159.133011
 21
113.359573
  0
LINE
  8
0
 10
157.133011
 20
126.659576
 11
159.133011
 21
126.659576
  0
LINE
  8
0
 10
162.633011
 20
149.159576
 11
162.633011
 21
147.659576
  0
LINE
  8
0
 10
157.133011
 20
147.659576
 11
162.633011
 21
147.659576
  0
LINE
  8
0
 10
157.133011
 20
127.159576
 11
164.933014
 21
127.159576
  0
LINE
  8
0
 10
164.933014
 20
132.659576
 11
164.933014
 21
127.159576
  0
LINE
  8
0
 10
161.633011
 20
132.659576
 11
167.133011
 21
132.659576
  0
LINE
  8
0
 10
161.633011
 20
141.659576
 11
161.633011
 21
132.659576
  0
LINE
  8
0
 10
161.633011
 20
141.659576
 11
167.133011
 21
141.659576
  0
LINE
  8
0
 10
164.933014
 20
147.159576
 11
164.933014
 21
141.659576
  0
LINE
  8
0
 10
157.133011
 20
147.159576
 11
164.933014
 21
147.159576
  0
LINE
  8
0
 10
157.133011
 20
147.659576
 11
157.133011
 21
126.659576
  0
LINE
  8
0
 10
161.633011
 20
84.659576
 11
167.133011
 21
84.659576
  0
LINE
  8
0
 10
157.133011
 20
99.159576
 11
164.933014
 21
99.159576
  0
LINE
  8
0
 10
157.133011
 20
79.159576
 11
164.933014
 21
79.159576
  0
LINE
  8
0
 10
164.933014
 20
93.659576
 11
164.933014
 21
99.159576
  0
LINE
  8
0
 10
164.933014
 20
79.159576
 11
164.933014
 21
84.659576
  0
LINE
  8
0
 10
161.633011
 20
84.659576
 11
161.633011
 21
93.659576
  0
LINE
  8
0
 10
-178.366974
 20
60.159576
 11
-176.366974
 21
62.159580
  0
LINE
  8
0
  6
CENTER
 62
     2
 10
-202.466461
 20
83.159576
 11
-212.165985
 21
83.159576
  0
LINE
  8
0
  6
CENTER
 62
     2
 10
-202.466461
 20
143.159576
 11
-212.165985
 21
143.159576
  0
LINE
  8
0
 10
-190.366974
 20
76.159576
 11
-190.366974
 21
77.159576
  0
LINE
  8
0
 10
-173.866974
 20
61.159576
 11
-173.866974
 21
77.159576
  0
LINE
  8
0
 10
-173.866974
 20
61.159576
 11
-177.366974
 21
61.159576
  0
LINE
  8
0
 10
-187.766983
 20
64.159576
 11
-180.966980
 21
64.159576
  0
LINE
  8
0
 10
-187.766983
 20
72.159576
 11
-180.966980
 21
72.159576
  0
LINE
  8
0
 10
-183.366974
 20
67.579590
 11
-183.366974
 21
68.729584
  0
LINE
  8
0
 10
-185.366974
 20
67.579590
 11
-185.366974
 21
68.729584
  0
LINE
  8
0
 10
-185.367004
 20
68.729591
 11
-184.367004
 21
69.309593
  0
LINE
  8
0
 10
-184.366974
 20
66.999580
 11
-183.366974
 21
67.579582
  0
LINE
  8
0
 10
-184.366974
 20
69.309586
 11
-183.366989
 21
68.729591
  0
LINE
  8
0
 10
-185.366989
 20
67.579597
 11
-184.366974
 21
66.999588
  0
LINE
  8
0
  6
CENTER
 62
     2
 10
-184.366974
 20
58.159576
 11
-184.366974
 21
78.159576
  0
LINE
  8
0
 10
-188.406982
 20
61.159576
 11
-192.446976
 21
68.159584
  0
LINE
  8
0
 10
-176.276978
 20
68.159576
 11
-180.316971
 21
75.159569
  0
LINE
  8
0
 10
-192.446960
 20
68.159584
 11
-188.406967
 21
75.159592
  0
LINE
  8
0
 10
-180.316971
 20
61.159588
 11
-176.276978
 21
68.159592
  0
LINE
  8
0
 10
-180.316986
 20
75.159576
 11
-188.406982
 21
75.159576
  0
LINE
  8
0
 10
-180.316986
 20
61.159576
 11
-188.406982
 21
61.159576
  0
LINE
  8
0
  6
CENTER
 62
     2
 10
-174.366974
 20
68.159576
 11
-194.366974
 21
68.159576
  0
LINE
  8
0
 10
-176.366974
 20
62.159576
 11
-176.366974
 21
76.159576
  0
LINE
  8
0
 10
-178.366974
 20
60.159576
 11
-217.866974
 21
60.159576
  0
LINE
  8
0
 10
-176.366974
 20
76.159576
 11
-194.366974
 21
76.159576
  0
LINE
  8
0
 10
-217.866974
 20
60.159576
 11
-217.866974
 21
77.188766
  0
LINE
  8
0
 10
-194.366974
 20
76.159576
 11
-194.366974
 21
77.159576
  0
LINE
  8
0
  6
CENTER
 62
     2
 10
-189.366974
 20
138.579575
 11
-189.366974
 21
148.159576
  0
LINE
  8
0
  6
CENTER
 62
     2
 10
-189.366974
 20
87.729584
 11
-189.366974
 21
78.149582
  0
LINE
  8
0
 10
-171.866989
 20
124.159569
 11
-171.366989
 21
124.659569
  0
LINE
  8
0
 10
-171.366974
 20
124.659576
 11
-171.366974
 21
147.159576
  0
LINE
  8
0
 10
-216.866974
 20
149.159576
 11
-217.666977
 21
149.159576
  0
LINE
  8
0
 10
-216.866974
 20
113.159576
 11
-216.866974
 21
149.159576
  0
LINE
  8
0
 10
-218.066971
 20
133.359573
 11
-218.066971
 21
120.959579
  0
LINE
  8
0
  6
CENTER
 62
     2
 10
-206.366974
 20
136.569565
 11
-206.366974
 21
89.509583
  0
LINE
  8
0
  6
CENTER
 62
     2
 10
-207.366974
 20
138.579575
 11
-207.366974
 21
148.159576
  0
LINE
  8
0
  6
CENTER
 62
     2
 10
-184.773499
 20
143.159576
 11
-194.246521
 21
143.159576
  0
LINE
  8
0
 10
-171.366989
 20
147.159561
 11
-173.366989
 21
149.159561
  0
LINE
  8
0
 10
-171.866959
 20
147.159576
 11
-173.866974
 21
149.159576
  0
LINE
  8
0
 10
-173.366974
 20
149.159576
 11
-216.866974
 21
149.159576
  0
LINE
  8
0
 10
-218.366959
 20
120.659569
 11
-218.066971
 21
120.959572
  0
LINE
  8
0
 10
-218.366974
 20
133.659576
 11
-218.066971
 21
133.359573
  0
LINE
  8
0
  6
CENTER
 62
     2
 10
-196.836975
 20
127.159576
 11
-215.706970
 21
127.159576
  0
LINE
  8
0
 10
-218.366974
 20
148.459564
 11
-218.366974
 21
133.659576
  0
LINE
  8
0
 10
-171.866989
 20
102.159569
 11
-171.366989
 21
101.659569
  0
LINE
  8
0
 10
-171.366974
 20
101.659576
 11
-171.366974
 21
79.159576
  0
LINE
  8
0
 10
-216.866974
 20
77.159576
 11
-217.666977
 21
77.159576
  0
LINE
  8
0
 10
-216.866974
 20
113.159576
 11
-216.866974
 21
77.159576
  0
LINE
  8
0
 10
-218.066971
 20
92.959579
 11
-218.066971
 21
105.359573
  0
LINE
  8
0
  6
CENTER
 62
     2
 10
-206.366974
 20
89.739578
 11
-206.366974
 21
136.439575
  0
LINE
  8
0
  6
CENTER
 62
     2
 10
-207.366974
 20
87.729584
 11
-207.366974
 21
78.149582
  0
LINE
  8
0
  6
CENTER
 62
     2
 10
-184.773499
 20
83.159576
 11
-194.246521
 21
83.159576
  0
LINE
  8
0
 10
-171.366989
 20
79.159576
 11
-173.366974
 21
77.159576
  0
LINE
  8
0
 10
-171.866974
 20
79.159584
 11
-173.866974
 21
77.159576
  0
LINE
  8
0
 10
-171.866974
 20
147.159576
 11
-171.866974
 21
79.159576
  0
LINE
  8
0
 10
-173.366974
 20
77.159576
 11
-216.866974
 21
77.159576
  0
LINE
  8
0
 10
-218.366974
 20
105.659576
 11
-218.366974
 21
120.659576
  0
LINE
  8
0
 10
-218.366974
 20
105.659569
 11
-218.066971
 21
105.359566
  0
LINE
  8
0
 10
-218.366974
 20
92.659576
 11
-218.066971
 21
92.959579
  0
LINE
  8
0
  6
CENTER
 62
     2
 10
-196.836975
 20
99.159576
 11
-215.826981
 21
99.159576
  0
LINE
  8
0
 10
-218.366974
 20
77.859589
 11
-218.366974
 21
92.659576
  0
LINE
  8
0
  6
CENTER
 62
     2
 10
-167.016983
 20
113.159576
 11
-223.426971
 21
113.159576
  0
LINE
  8
0
 10
-207.806992
 20
124.659607
 11
-204.926987
 21
124.659607
  0
LINE
  8
0
 10
-207.806992
 20
129.659607
 11
-204.926987
 21
129.659607
  0
LINE
  8
0
 10
-207.806992
 20
124.659615
 11
-209.246994
 21
127.159615
  0
LINE
  8
0
 10
-203.487000
 20
127.159599
 11
-204.926987
 21
129.659607
  0
LINE
  8
0
 10
-209.246994
 20
127.159584
 11
-207.806992
 21
129.659592
  0
LINE
  8
0
 10
-204.927002
 20
124.659592
 11
-203.487000
 21
127.159592
  0
LINE
  8
0
 10
-207.806992
 20
96.659622
 11
-204.926987
 21
96.659622
  0
LINE
  8
0
 10
-207.806992
 20
101.659607
 11
-204.926987
 21
101.659607
  0
LINE
  8
0
 10
-207.806992
 20
96.659615
 11
-209.246994
 21
99.159622
  0
LINE
  8
0
 10
-203.487000
 20
99.159615
 11
-204.926987
 21
101.659607
  0
LINE
  8
0
 10
-209.246994
 20
99.159599
 11
-207.806992
 21
101.659599
  0
LINE
  8
0
 10
-204.926987
 20
96.659607
 11
-203.487000
 21
99.159607
  0
LINE
  8
0
  6
DASHED
 62
     2
 10
83.273026
 20
113.159576
 11
79.983017
 21
113.159576
  0
LINE
  8
0
 10
52.633026
 20
62.159576
 11
64.633026
 21
62.159576
  0
LINE
  8
0
 10
-41.366974
 20
62.159576
 11
-29.366974
 21
62.159576
  0
LINE
  8
0
 10
0.633026
 20
77.159576
 11
52.633026
 21
77.159576
  0
LINE
  8
0
 10
52.633026
 20
76.159576
 11
64.633026
 21
76.159576
  0
LINE
  8
0
 10
-41.366974
 20
76.159576
 11
-29.366974
 21
76.159576
  0
LINE
  8
0
 10
64.923019
 20
68.159576
 11
67.343018
 21
68.159576
  0
LINE
  8
0
 10
64.633026
 20
75.159576
 11
67.633026
 21
75.159576
  0
LINE
  8
0
 10
64.633026
 20
61.159576
 11
67.633026
 21
61.159576
  0
LINE
  8
0
 10
86.633026
 20
72.159576
 11
86.633026
 21
73.409576
  0
LINE
  8
0
 10
86.633026
 20
64.159576
 11
90.633026
 21
64.159576
  0
LINE
  8
0
 10
86.633026
 20
72.159576
 11
90.633026
 21
72.159576
  0
LINE
  8
0
 10
67.633026
 20
62.159576
 11
79.883026
 21
62.159576
  0
LINE
  8
0
 62
     2
 10
67.633026
 20
62.699585
 11
80.423019
 21
62.699585
  0
LINE
  8
0
 62
     2
 10
67.633026
 20
73.609589
 11
80.433014
 21
73.609589
  0
LINE
  8
0
 10
67.633026
 20
74.159576
 11
79.883026
 21
74.159576
  0
LINE
  8
0
 10
67.633026
 20
75.159576
 11
67.633026
 21
61.159576
  0
LINE
  8
0
 10
42.933014
 20
69.659576
 11
42.933014
 21
66.659576
  0
LINE
  8
0
 10
42.633007
 20
69.359581
 11
42.933014
 21
69.659584
  0
LINE
  8
0
 10
42.633018
 20
66.959572
 11
42.933014
 21
66.659576
  0
LINE
  8
0
 10
90.633026
 20
64.159576
 11
90.633026
 21
72.159576
  0
LINE
  8
0
 10
86.633026
 20
62.909576
 11
86.633026
 21
64.159576
  0
LINE
  8
0
 10
89.623016
 20
64.159576
 11
89.623016
 21
72.159576
  0
LINE
  8
0
 10
42.933014
 20
69.659576
 11
50.633026
 21
69.659576
  0
LINE
  8
0
 10
42.933014
 20
66.659576
 11
50.633026
 21
66.659576
  0
LINE
  8
0
 10
79.883026
 20
62.159576
 11
79.883026
 21
74.159576
  0
LINE
  8
0
 10
80.633026
 20
73.409576
 11
86.633026
 21
73.409576
  0
LINE
  8
0
 10
80.633026
 20
62.909576
 11
86.633026
 21
62.909576
  0
LINE
  8
0
 10
80.633011
 20
62.909573
 11
79.883018
 21
62.159576
  0
LINE
  8
0
 10
80.633018
 20
73.409569
 11
79.883011
 21
74.159576
  0
LINE
  8
0
 10
50.633026
 20
73.409576
 11
52.633026
 21
73.409576
  0
LINE
  8
0
 10
50.633026
 20
62.909576
 11
52.633026
 21
62.909576
  0
LINE
  8
0
 10
80.633026
 20
62.909576
 11
80.633026
 21
73.409576
  0
LINE
  8
0
 10
50.633026
 20
62.909576
 11
50.633026
 21
73.409576
  0
LINE
  8
0
  6
CENTER
 62
     2
 10
40.603012
 20
68.159576
 11
92.713013
 21
68.159576
  0
LINE
  8
0
 10
42.633026
 20
66.959579
 11
42.633026
 21
69.359589
  0
LINE
  8
0
 10
-41.656975
 20
68.159576
 11
-44.076973
 21
68.159576
  0
LINE
  8
0
 10
-41.366974
 20
61.159576
 11
-44.366974
 21
61.159576
  0
LINE
  8
0
 10
-41.366974
 20
75.159576
 11
-44.366974
 21
75.159576
  0
LINE
  8
0
 10
-57.366974
 20
64.159576
 11
-57.366974
 21
62.909576
  0
LINE
  8
0
 10
-57.366974
 20
72.159576
 11
-61.366974
 21
72.159576
  0
LINE
  8
0
 10
-57.366974
 20
64.159576
 11
-61.366974
 21
64.159576
  0
LINE
  8
0
 10
-44.366974
 20
74.159576
 11
-50.616974
 21
74.159576
  0
LINE
  8
0
 62
     2
 10
-44.366974
 20
73.609589
 11
-51.166962
 21
73.609589
  0
LINE
  8
0
 62
     2
 10
-44.366974
 20
62.699585
 11
-51.156967
 21
62.699585
  0
LINE
  8
0
 10
-44.366974
 20
62.159576
 11
-50.616974
 21
62.159576
  0
LINE
  8
0
 10
-44.366974
 20
61.159576
 11
-44.366974
 21
75.159576
  0
LINE
  8
0
 10
-61.366974
 20
72.159576
 11
-61.366974
 21
64.159576
  0
LINE
  8
0
 10
-57.366974
 20
73.409576
 11
-57.366974
 21
72.159576
  0
LINE
  8
0
 10
-60.356964
 20
72.159576
 11
-60.356964
 21
64.159576
  0
LINE
  8
0
 62
     2
 10
-23.576973
 20
62.699585
 11
-29.366974
 21
62.699585
  0
LINE
  8
0
 62
     2
 10
-23.576973
 20
73.609589
 11
-29.366974
 21
73.609589
  0
LINE
  8
0
 10
-50.616974
 20
74.159576
 11
-50.616974
 21
62.159576
  0
LINE
  8
0
 10
-24.116974
 20
74.159576
 11
-24.116974
 21
62.159576
  0
LINE
  8
0
 10
-51.366974
 20
62.909576
 11
-57.366974
 21
62.909576
  0
LINE
  8
0
 10
-51.366974
 20
73.409576
 11
-57.366974
 21
73.409576
  0
LINE
  8
0
 10
-51.366966
 20
73.409584
 11
-50.616970
 21
74.159576
  0
LINE
  8
0
 10
-23.366976
 20
62.909580
 11
-24.116974
 21
62.159588
  0
LINE
  8
0
 10
-51.366974
 20
62.909595
 11
-50.616966
 21
62.159588
  0
LINE
  8
0
 10
-23.366974
 20
73.409576
 11
-24.116980
 21
74.159584
  0
LINE
  8
0
 10
-21.366974
 20
62.909576
 11
-23.366974
 21
62.909576
  0
LINE
  8
0
 10
-21.366974
 20
73.409576
 11
-23.366974
 21
73.409576
  0
LINE
  8
0
 10
-24.116974
 20
62.159576
 11
-29.366974
 21
62.159576
  0
LINE
  8
0
 10
-24.116974
 20
74.159576
 11
-29.366974
 21
74.159576
  0
LINE
  8
0
 10
-51.366974
 20
73.409576
 11
-51.366974
 21
62.909576
  0
LINE
  8
0
 10
-23.366974
 20
73.409576
 11
-23.366974
 21
62.909576
  0
LINE
  8
0
  6
CENTER
 62
     2
 10
-19.046974
 20
68.159576
 11
-62.502182
 21
68.159576
  0
LINE
  8
0
 10
-21.366974
 20
78.159576
 11
-21.366974
 21
61.159576
  0
LINE
  8
0
 10
-119.366974
 20
77.159576
 11
-21.366974
 21
77.159576
  0
LINE
  8
0
 10
64.633026
 20
77.159576
 11
83.633026
 21
77.159576
  0
LINE
  8
0
 10
52.633026
 20
78.159576
 11
64.633026
 21
78.159576
  0
LINE
  8
0
 10
52.633026
 20
60.159576
 11
64.633026
 21
60.159576
  0
LINE
  8
0
 10
-41.366974
 20
60.159576
 11
-29.366974
 21
60.159576
  0
LINE
  8
0
 10
-21.366974
 20
78.159576
 11
0.633026
 21
78.159576
  0
LINE
  8
0
 10
-21.366974
 20
61.159576
 11
0.633026
 21
61.159576
  0
LINE
  8
0
 10
64.633026
 20
78.159576
 11
64.633026
 21
60.159576
  0
LINE
  8
0
 10
52.633026
 20
78.159576
 11
52.633026
 21
60.159576
  0
LINE
  8
0
 10
0.633026
 20
78.159576
 11
0.633026
 21
61.159576
  0
LINE
  8
0
 10
-29.366974
 20
77.159576
 11
-29.366974
 21
60.159576
  0
LINE
  8
0
 10
-41.366974
 20
77.159576
 11
-41.366974
 21
60.159576
  0
LINE
  8
0
 10
43.133026
 20
112.759575
 11
43.133026
 21
110.659576
  0
LINE
  8
0
 10
41.133026
 20
113.559578
 11
41.133026
 21
112.759575
  0
LINE
  8
0
 10
41.133026
 20
112.759575
 11
43.133026
 21
112.759575
  0
LINE
  8
0
 10
41.133026
 20
113.559578
 11
43.133026
 21
113.559578
  0
LINE
  8
0
  6
CENTER
 62
     2
 10
-81.366974
 20
120.929573
 11
-81.366974
 21
105.119576
  0
LINE
  8
0
  6
CENTER
 62
     2
 10
-1.366974
 20
120.498901
 11
-1.366974
 21
105.009575
  0
LINE
  8
0
 10
81.633026
 20
84.659576
 11
81.633026
 21
93.659576
  0
LINE
  8
0
  6
CENTER
 62
     2
 10
24.253021
 20
89.159576
 11
87.293015
 21
89.159576
  0
LINE
  8
0
 10
28.633026
 20
84.159576
 11
83.633026
 21
84.159576
  0
LINE
  8
0
 10
28.633026
 20
93.659576
 11
83.633026
 21
93.659576
  0
LINE
  8
0
 10
28.633026
 20
84.659576
 11
81.633026
 21
84.659576
  0
LINE
  8
0
  6
CENTER
 62
     2
 10
24.253021
 20
137.159576
 11
87.293015
 21
137.159576
  0
LINE
  8
0
 10
28.633026
 20
142.159576
 11
83.633026
 21
142.159576
  0
LINE
  8
0
 10
81.633026
 20
141.659576
 11
81.633026
 21
132.659576
  0
LINE
  8
0
 10
28.633026
 20
132.659576
 11
83.633026
 21
132.659576
  0
LINE
  8
0
 10
28.633026
 20
141.659576
 11
81.633026
 21
141.659576
  0
LINE
  8
0
 10
-107.366974
 20
124.159576
 11
28.633026
 21
124.159576
  0
LINE
  8
0
 10
-107.366974
 20
124.659576
 11
28.633026
 21
124.659576
  0
LINE
  8
0
  6
CENTER
 62
     2
 10
-94.366974
 20
109.180870
 11
-94.366974
 21
117.140800
  0
LINE
  8
0
  6
CENTER
 62
     2
 10
-94.366974
 20
133.558167
 11
-94.366974
 21
142.513092
  0
LINE
  8
0
 10
-119.366974
 20
147.159576
 11
28.633026
 21
147.159576
  0
LINE
  8
0
 10
-119.366974
 20
79.159576
 11
28.633026
 21
79.159576
  0
LINE
  8
0
 10
43.133026
 20
115.659576
 11
43.133026
 21
113.559578
  0
LINE
  8
0
 62
     2
 10
33.633026
 20
115.259575
 11
43.133026
 21
115.259575
  0
LINE
  8
0
 10
33.633026
 20
115.659576
 11
43.133026
 21
115.659576
  0
LINE
  8
0
 10
33.633026
 20
110.659576
 11
43.133026
 21
110.659576
  0
LINE
  8
0
 62
     2
 10
33.633026
 20
111.059578
 11
43.133026
 21
111.059578
  0
LINE
  8
0
 10
33.633026
 20
109.159576
 11
29.633026
 21
109.159576
  0
LINE
  8
0
 10
33.633026
 20
117.159576
 11
29.633026
 21
117.159576
  0
LINE
  8
0
 10
33.633026
 20
109.159576
 11
33.633026
 21
117.159576
  0
LINE
  8
0
 10
-70.366974
 20
115.159576
 11
-68.366974
 21
115.159576
  0
LINE
  8
0
 10
-70.366974
 20
111.159576
 11
-68.366974
 21
111.159576
  0
LINE
  8
0
 10
-119.366974
 20
149.159576
 11
28.633026
 21
149.159576
  0
LINE
  8
0
  6
CENTER
 62
     2
 10
-99.166962
 20
138.159576
 11
-89.886002
 21
138.159576
  0
LINE
  8
0
  6
CENTER
 62
     2
 10
-69.366974
 20
109.180870
 11
-69.366974
 21
117.140800
  0
LINE
  8
0
  6
CENTER
 62
     2
 10
-14.176987
 20
138.159576
 11
-4.888489
 21
138.159576
  0
LINE
  8
0
  6
CENTER
 62
     2
 10
-69.366974
 20
142.513092
 11
-69.366974
 21
133.558167
  0
LINE
  8
0
  6
CENTER
 62
     2
 10
-73.426971
 20
138.159576
 11
-65.135574
 21
138.159576
  0
LINE
  8
0
  6
CENTER
 62
     2
 10
-9.366974
 20
133.558167
 11
-9.366974
 21
142.513092
  0
LINE
  8
0
  6
CENTER
 62
     2
 10
-99.166962
 20
88.159576
 11
-89.236969
 21
88.159576
  0
LINE
  8
0
  6
CENTER
 62
     2
 10
-94.366974
 20
92.379578
 11
-94.366974
 21
84.219589
  0
LINE
  8
0
 10
33.273026
 20
113.159576
 11
29.983017
 21
113.159576
  0
LINE
  8
0
  6
CENTER
 62
     2
 10
-14.176987
 20
88.159576
 11
-4.236984
 21
88.159576
  0
LINE
  8
0
 10
28.633026
 20
101.159576
 11
29.633026
 21
101.159576
  0
LINE
  8
0
 10
29.633026
 20
119.159576
 11
83.633026
 21
119.159576
  0
LINE
  8
0
 10
29.633026
 20
122.159576
 11
83.633026
 21
122.159576
  0
LINE
  8
0
  6
CENTER
 62
     2
 10
-124.316971
 20
113.159576
 11
87.293015
 21
113.159576
  0
LINE
  8
0
 10
28.633026
 20
149.159576
 11
28.633026
 21
77.159576
  0
LINE
  8
0
 10
29.633026
 20
125.159576
 11
29.633026
 21
101.159576
  0
LINE
  8
0
 10
-107.366974
 20
102.159576
 11
28.633026
 21
102.159576
  0
LINE
  8
0
 10
-107.366974
 20
101.659576
 11
28.633026
 21
101.659576
  0
LINE
  8
0
 10
28.633026
 20
125.159576
 11
29.633026
 21
125.159576
  0
LINE
  8
0
 10
28.633026
 20
149.159576
 11
83.633026
 21
149.159576
  0
LINE
  8
0
  6
CENTER
 62
     2
 10
-69.366974
 20
84.529587
 11
-69.366974
 21
92.569580
  0
LINE
  8
0
  6
CENTER
 62
     2
 10
-73.426971
 20
88.159576
 11
-65.866974
 21
88.159576
  0
LINE
  8
0
  6
CENTER
 62
     2
 10
-9.366974
 20
92.379578
 11
-9.366974
 21
84.219589
  0
LINE
  8
0
 10
29.633026
 20
104.159576
 11
83.633026
 21
104.159576
  0
LINE
  8
0
 10
29.633026
 20
107.159576
 11
83.633026
 21
107.159576
  0
LINE
  8
0
 10
-107.366974
 20
149.159576
 11
-107.366974
 21
77.159576
  0
LINE
  8
0
 10
-119.366974
 20
149.159576
 11
-119.366974
 21
77.159576
  0
LINE
  8
0
 10
83.633026
 20
149.159576
 11
83.633026
 21
77.159576
  0
LINE
  8
0
  6
PHANTOM
 62
     3
 10
39.494308
 20
74.148956
 11
43.883026
 21
74.148956
  0
LINE
  8
0
  6
DASHED
 62
     2
 10
-46.366974
 20
77.159592
 11
-46.366974
 21
149.159576
  0
LINE
  8
0
  6
CENTER
 62
     2
 10
-31.366974
 20
107.159576
 11
-31.366974
 21
119.159576
  0
LINE
  8
0
  6
CENTER
 62
     2
 10
48.633026
 20
107.159576
 11
48.633026
 21
119.159576
  0
LINE
  8
0
  6
PHANTOM
 62
     3
 10
43.883026
 20
74.148956
 11
43.883026
 21
158.451492
  0
LINE
  8
0
  6
PHANTOM
 62
     3
 10
-63.648804
 20
39.119720
 11
-63.648804
 21
158.451492
  0
LINE
  8
0
  6
PHANTOM
 62
     3
 10
39.494308
 20
39.119720
 11
39.494308
 21
74.148956
  0
LINE
  8
0
 10
-271.250000
 20
-185.000000
 11
-131.250000
 21
-185.000000
  0
LINE
  8
0
 10
-271.250000
 20
-115.000000
 11
-271.250000
 21
-185.000000
  0
LINE
  8
0
 10
-271.250000
 20
-155.000000
 11
-131.250000
 21
-155.000000
  0
LINE
  8
0
 10
-271.250000
 20
-145.000000
 11
-131.250000
 21
-145.000000
  0
LINE
  8
0
 10
-271.250000
 20
-125.000000
 11
-239.769989
 21
-125.000000
  0
LINE
  8
0
 10
-271.250000
 20
-115.000000
 11
-131.250000
 21
-115.000000
  0
LINE
  8
0
 10
-236.250000
 20
-115.000000
 11
-236.250000
 21
-185.000000
  0
LINE
  8
0
 10
-236.249878
 20
-144.999954
 11
-239.769867
 21
-124.999954
  0
LINE
  8
0
 10
-221.250000
 20
-115.000000
 11
-221.250000
 21
-185.000000
  0
LINE
  8
0
 10
-206.250000
 20
-115.000000
 11
-206.250000
 21
-185.000000
  0
LINE
  8
0
 10
-191.250000
 20
-115.000000
 11
-191.250000
 21
-185.000000
  0
LINE
  8
0
 10
-176.250000
 20
-115.000000
 11
-176.250000
 21
-185.000000
  0
LINE
  8
0
 10
-161.250000
 20
-115.000000
 11
-161.250000
 21
-185.000000
  0
LINE
  8
0
 10
-146.250000
 20
-115.000000
 11
-146.250000
 21
-185.000000
  0
LINE
  8
0
 10
-131.250000
 20
-115.000000
 11
-131.250000
 21
-185.000000
  0
LINE
  8
0
 10
-271.250000
 20
-165.000000
 11
-131.250000
 21
-165.000000
  0
LINE
  8
0
 10
-271.250000
 20
-175.000000
 11
-131.250000
 21
-175.000000
  0
LINE
  8
0
 10
282.099854
 20
195.500000
 11
282.099854
 21
-195.000000
  0
LINE
  8
0
 10
-281.250000
 20
195.500000
 11
282.099854
 21
195.500000
  0
LINE
  8
0
 10
-281.250000
 20
195.500000
 11
-281.250000
 21
-195.000000
  0
LINE
  8
0
 10
-281.250000
 20
-195.000000
 11
282.099854
 21
-195.000000
  0
LINE
  8
0
 10
162.099976
 20
-175.000000
 11
162.099976
 21
-195.000000
  0
LINE
  8
0
 10
162.099976
 20
-175.000000
 11
282.099854
 21
-175.000000
  0
LINE
  8
0
 10
162.099976
 20
175.500000
 11
282.099854
 21
175.500000
  0
LINE
  8
0
 10
-281.250000
 20
175.500000
 11
-161.250000
 21
175.500000
  0
LINE
  8
0
 10
162.099976
 20
195.500000
 11
162.099976
 21
175.500000
  0
LINE
  8
0
 10
-161.250000
 20
195.500000
 11
-161.250000
 21
175.500000
  0
CIRCLE
  8
0
 10
210.662415
 20
-140.578812
 40
2.099999
  0
CIRCLE
  8
0
 62
     2
 10
210.662415
 20
-140.578812
 40
2.500000
  0
CIRCLE
  8
0
 10
170.662415
 20
-140.578812
 40
2.099999
  0
CIRCLE
  8
0
 62
     2
 10
170.662415
 20
-140.578812
 40
2.500000
  0
CIRCLE
  8
0
 10
210.662415
 20
-113.578812
 40
2.099999
  0
CIRCLE
  8
0
 62
     2
 10
210.662415
 20
-113.578812
 40
2.500000
  0
CIRCLE
  8
0
 10
170.662415
 20
-113.578812
 40
2.099999
  0
CIRCLE
  8
0
 62
     2
 10
170.662415
 20
-113.578812
 40
2.500000
  0
CIRCLE
  8
0
 10
210.662415
 20
-86.578812
 40
2.099999
  0
CIRCLE
  8
0
 62
     2
 10
210.662415
 20
-86.578812
 40
2.500000
  0
CIRCLE
  8
0
 10
170.662415
 20
-86.578812
 40
2.099999
  0
CIRCLE
  8
0
 62
     2
 10
170.662415
 20
-86.578812
 40
2.500000
  0
ARC
  8
0
 10
149.876862
 20
-115.578812
 40
5.782455
 50
339.764862
 51
20.235149
  0
ARC
  8
0
 10
149.876862
 20
-111.578812
 40
5.782455
 50
339.764862
 51
20.235149
  0
ARC
  8
0
 10
157.430267
 20
-111.578812
 40
5.775228
 50
159.738342
 51
200.261597
  0
ARC
  8
0
 10
157.430267
 20
-115.578812
 40
5.775228
 50
159.738342
 51
200.261597
  0
ARC
  8
0
 10
151.430267
 20
-115.578812
 40
5.775199
 50
159.738235
 51
200.261642
  0
ARC
  8
0
 10
151.430267
 20
-111.578812
 40
5.775199
 50
159.738235
 51
200.261642
  0
ARC
  8
0
 10
221.653549
 20
-113.578812
 40
2.000020
 50
270.253967
 51
89.746025
  0
ARC
  8
0
 10
219.653549
 20
-113.578812
 40
2.000020
 50
89.746025
 51
270.253967
  0
CIRCLE
  8
0
 10
180.653549
 20
-113.581215
 40
2.000000
  0
CIRCLE
  8
0
 62
     2
 10
147.662415
 20
-88.578812
 40
2.500000
  0
CIRCLE
  8
0
 10
147.662415
 20
-88.578812
 40
2.099999
  0
CIRCLE
  8
0
 62
     2
 10
147.662415
 20
-138.578812
 40
2.500000
  0
CIRCLE
  8
0
 10
147.662415
 20
-138.578812
 40
2.099999
  0
CIRCLE
  8
0
 10
-94.366974
 20
-138.578812
 40
2.099999
  0
CIRCLE
  8
0
 62
     2
 10
-94.366974
 20
-138.578812
 40
2.500000
  0
CIRCLE
  8
0
 10
-69.366974
 20
-138.578812
 40
2.099999
  0
CIRCLE
  8
0
 62
     2
 10
-69.366974
 20
-138.578812
 40
2.500000
  0
CIRCLE
  8
0
 10
48.633026
 20
-140.578812
 40
2.099999
  0
CIRCLE
  8
0
 62
     2
 10
48.633026
 20
-140.578812
 40
2.500000
  0
CIRCLE
  8
0
 10
-31.366974
 20
-140.578812
 40
2.099999
  0
CIRCLE
  8
0
 62
     2
 10
-31.366974
 20
-140.578812
 40
2.500000
  0
CIRCLE
  8
0
 10
-31.366974
 20
-113.578812
 40
2.099999
  0
CIRCLE
  8
0
 62
     2
 10
-31.366974
 20
-113.578812
 40
2.500000
  0
CIRCLE
  8
0
 10
48.633026
 20
-113.578812
 40
2.099999
  0
CIRCLE
  8
0
 62
     2
 10
48.633026
 20
-113.578812
 40
2.500000
  0
CIRCLE
  8
0
 10
48.633026
 20
-86.578812
 40
2.099999
  0
CIRCLE
  8
0
 62
     2
 10
48.633026
 20
-86.578812
 40
2.500000
  0
CIRCLE
  8
0
 10
-31.366974
 20
-86.578812
 40
2.099999
  0
CIRCLE
  8
0
 62
     2
 10
-31.366974
 20
-86.578812
 40
2.500000
  0
CIRCLE
  8
0
 10
-69.366974
 20
-88.578812
 40
2.099999
  0
CIRCLE
  8
0
 62
     2
 10
-69.366974
 20
-88.578812
 40
2.500000
  0
CIRCLE
  8
0
 10
-94.366974
 20
-88.578812
 40
2.099999
  0
CIRCLE
  8
0
 62
     2
 10
-94.366974
 20
-88.578812
 40
2.500000
  0
CIRCLE
  8
0
 10
-81.366989
 20
-113.584335
 40
5.000000
  0
ARC
  8
0
 10
-52.143692
 20
-115.578812
 40
5.774155
 50
339.734497
 51
20.265509
  0
ARC
  8
0
 10
-52.143692
 20
-111.578812
 40
5.774155
 50
339.734497
 51
20.265509
  0
ARC
  8
0
 10
-44.590263
 20
-111.578812
 40
5.783525
 50
159.768753
 51
200.231247
  0
ARC
  8
0
 10
-44.590263
 20
-115.578812
 40
5.783525
 50
159.768753
 51
200.231247
  0
ARC
  8
0
 10
-50.590271
 20
-115.578812
 40
5.783507
 50
159.768692
 51
200.231232
  0
ARC
  8
0
 10
-50.590271
 20
-111.578812
 40
5.783507
 50
159.768692
 51
200.231232
  0
ARC
  8
0
 10
59.633026
 20
-113.578812
 40
2.000000
 50
270.000000
 51
90.000000
  0
ARC
  8
0
 10
57.633026
 20
-113.578812
 40
2.000000
 50
90.000000
 51
270.000000
  0
CIRCLE
  8
0
 10
-21.366989
 20
-113.584335
 40
2.000000
  0
CIRCLE
  8
0
 10
8.633026
 20
-86.578812
 40
2.099999
  0
CIRCLE
  8
0
 62
     2
 10
8.633026
 20
-86.578812
 40
2.500000
  0
CIRCLE
  8
0
 10
8.633026
 20
-113.578812
 40
2.099999
  0
CIRCLE
  8
0
 62
     2
 10
8.633026
 20
-113.578812
 40
2.500000
  0
CIRCLE
  8
0
 62
     2
 10
8.633026
 20
-140.578812
 40
2.500000
  0
CIRCLE
  8
0
 10
8.633026
 20
-140.578812
 40
2.099999
  0
ARC
  8
0
 10
78.900635
 20
17.339584
 40
11.444182
 50
339.541870
 51
20.458117
  0
ARC
  8
0
 10
71.815018
 20
23.399841
 40
7.182007
 50
180.002121
 51
196.337524
  0
ARC
  8
0
 10
92.923203
 20
17.339584
 40
28.290113
 50
171.789749
 51
188.210236
  0
ARC
  8
0
 10
60.450989
 20
23.399841
 40
7.182036
 50
343.662506
 51
359.997864
  0
ARC
  8
0
 10
71.814224
 20
11.279434
 40
7.181205
 50
163.661545
 51
179.998810
  0
ARC
  8
0
 10
60.451782
 20
11.279419
 40
7.181236
 50
0.001217
 51
16.338396
  0
ARC
  8
0
 10
39.342804
 20
17.339584
 40
28.290144
 50
351.789764
 51
8.210239
  0
ARC
  8
0
 10
-49.634613
 20
17.339584
 40
11.444156
 50
159.541809
 51
200.458130
  0
ARC
  8
0
 10
-48.548203
 20
11.279419
 40
7.181236
 50
0.001217
 51
16.338396
  0
ARC
  8
0
 10
-69.657181
 20
17.339584
 40
28.290148
 50
351.789764
 51
8.210238
  0
ARC
  8
0
 10
-37.185768
 20
11.279434
 40
7.181205
 50
163.661545
 51
179.998810
  0
ARC
  8
0
 10
-48.548996
 20
23.399841
 40
7.182033
 50
343.662506
 51
359.997864
  0
ARC
  8
0
 10
-37.184971
 20
23.399841
 40
7.182003
 50
180.002121
 51
196.337524
  0
ARC
  8
0
 10
-16.076797
 20
17.339584
 40
28.290113
 50
171.789749
 51
188.210236
  0
CIRCLE
  8
0
 10
-35.366989
 20
-10.657585
 40
3.730385
  0
CIRCLE
  8
0
 10
-35.366989
 20
-10.657585
 40
4.250000
  0
CIRCLE
  8
0
 10
-35.366989
 20
0.342407
 40
3.730385
  0
CIRCLE
  8
0
 10
-35.366989
 20
0.342407
 40
4.250000
  0
CIRCLE
  8
0
 10
58.633011
 20
-10.657585
 40
3.730385
  0
CIRCLE
  8
0
 10
58.633011
 20
-10.657585
 40
4.250000
  0
CIRCLE
  8
0
 10
58.633011
 20
0.342407
 40
3.730385
  0
CIRCLE
  8
0
 10
58.633011
 20
0.342407
 40
4.250000
  0
CIRCLE
  8
0
 10
-4.866989
 20
21.842407
 40
4.750000
  0
CIRCLE
  8
0
 10
-15.866989
 20
21.842407
 40
4.750000
  0
ARC
  8
0
 10
25.983612
 20
10.365234
 40
7.638961
 50
14.978536
 51
17.399872
  0
ARC
  8
0
 10
37.281631
 20
10.362564
 40
7.648535
 50
162.601608
 51
165.019943
  0
ARC
  8
0
 10
31.678177
 20
13.799728
 40
2.048516
 50
154.253937
 51
214.156738
  0
ARC
  8
0
 10
31.588470
 20
13.807968
 40
2.044405
 50
325.485321
 51
25.545469
  0
ARC
  8
0
 10
-54.322235
 20
-13.620543
 40
2.048148
 50
145.837296
 51
205.751968
  0
ARC
  8
0
 10
-48.723663
 20
-10.162384
 40
7.649780
 50
176.237625
 51
197.560440
  0
ARC
  8
0
 10
-48.411789
 20
-13.619815
 40
2.039539
 50
334.108521
 51
34.302212
  0
ARC
  8
0
 10
-54.010452
 20
-10.163570
 40
7.640075
 50
342.425842
 51
3.776078
  0
ARC
  8
0
 10
-42.723679
 20
-10.162384
 40
7.649780
 50
176.237625
 51
197.560440
  0
ARC
  8
0
 10
-48.322250
 20
-13.620543
 40
2.048135
 50
145.837067
 51
205.752167
  0
CIRCLE
  8
0
 62
     2
 10
-21.366989
 20
-4.657593
 40
2.500000
  0
CIRCLE
  8
0
 10
-21.366989
 20
-4.657593
 40
2.099999
  0
CIRCLE
  8
0
 10
71.633011
 20
-4.657593
 40
2.099999
  0
CIRCLE
  8
0
 62
     2
 10
71.633011
 20
-4.657593
 40
2.500000
  0
CIRCLE
  8
0
 10
-15.866989
 20
21.842407
 40
4.250000
  0
CIRCLE
  8
0
 10
-15.866989
 20
21.842407
 40
3.730385
  0
CIRCLE
  8
0
 10
-4.866989
 20
21.842407
 40
4.250000
  0
CIRCLE
  8
0
 10
-4.866989
 20
21.842407
 40
3.730385
  0
ARC
  8
0
 10
189.933014
 20
77.859589
 40
0.699997
 50
270.000000
 51
0.000000
  0
ARC
  8
0
 10
189.933014
 20
148.459564
 40
0.699997
 50
0.000000
 51
90.000000
  0
CIRCLE
  8
0
 10
156.633026
 20
68.159546
 40
3.500000
  0
CIRCLE
  8
0
 62
     2
 10
156.633026
 20
68.159546
 40
5.500000
  0
CIRCLE
  8
0
 10
156.633026
 20
68.159546
 40
5.250000
  0
CIRCLE
  8
0
 10
156.633026
 20
68.159546
 40
6.000000
  0
CIRCLE
  8
0
 10
156.633026
 20
68.159546
 40
2.000000
  0
CIRCLE
  8
0
 10
156.633026
 20
68.159546
 40
1.650000
  0
CIRCLE
  8
0
 10
156.633026
 20
68.159546
 40
1.000000
  0
CIRCLE
  8
0
 10
156.633026
 20
68.159546
 40
7.000000
  0
CIRCLE
  8
0
 10
178.633011
 20
99.159515
 40
10.750000
  0
CIRCLE
  8
0
 10
178.633011
 20
99.159515
 40
10.500000
  0
CIRCLE
  8
0
 10
178.633011
 20
127.159576
 40
10.750000
  0
CIRCLE
  8
0
 10
178.633011
 20
127.159576
 40
10.500000
  0
ARC
  8
0
 62
     2
 10
163.628021
 20
113.159576
 40
2.064122
 50
191.173920
 51
348.826080
  0
ARC
  8
0
 10
175.628006
 20
141.129562
 40
2.075012
 50
180.000000
 51
0.000000
  0
ARC
  8
0
 10
179.733017
 20
143.459579
 40
0.300003
 50
0.000000
 51
90.000000
  0
ARC
  8
0
 10
177.533035
 20
143.459549
 40
0.300018
 50
90.002914
 51
179.997086
  0
ARC
  8
0
 10
181.628006
 20
141.129562
 40
2.075012
 50
180.000000
 51
0.000000
  0
ARC
  8
0
 62
     2
 10
163.628021
 20
113.159576
 40
2.064122
 50
11.173913
 51
168.826080
  0
ARC
  8
0
 10
167.633026
 20
78.159592
 40
1.000000
 50
180.000443
 51
270.000000
  0
CIRCLE
  8
0
 10
163.632996
 20
113.159576
 40
2.500000
  0
CIRCLE
  8
0
 10
163.632996
 20
113.159576
 40
4.000000
  0
ARC
  8
0
 10
-217.666977
 20
77.859589
 40
0.699997
 50
180.000000
 51
270.000000
  0
ARC
  8
0
 10
-217.666977
 20
148.459564
 40
0.699997
 50
90.000000
 51
180.000000
  0
CIRCLE
  8
0
 10
-189.366974
 20
83.159576
 40
2.099999
  0
CIRCLE
  8
0
 62
     2
 10
-189.366974
 20
83.159576
 40
2.500000
  0
CIRCLE
  8
0
 10
-207.366974
 20
83.159576
 40
2.099999
  0
CIRCLE
  8
0
 62
     2
 10
-207.366974
 20
83.159576
 40
2.500000
  0
CIRCLE
  8
0
 10
-207.366974
 20
143.159576
 40
2.099999
  0
CIRCLE
  8
0
 62
     2
 10
-207.366974
 20
143.159576
 40
2.500000
  0
CIRCLE
  8
0
 10
-189.366974
 20
143.159576
 40
2.099999
  0
CIRCLE
  8
0
 62
     2
 10
-189.366974
 20
143.159576
 40
2.500000
  0
CIRCLE
  8
0
 10
-184.366989
 20
68.159607
 40
3.500000
  0
CIRCLE
  8
0
 62
     2
 10
-184.366989
 20
68.159607
 40
5.500000
  0
CIRCLE
  8
0
 10
-184.366989
 20
68.159607
 40
5.250000
  0
CIRCLE
  8
0
 10
-184.366989
 20
68.159607
 40
6.000000
  0
CIRCLE
  8
0
 10
-184.366989
 20
68.159607
 40
2.000000
  0
CIRCLE
  8
0
 10
-184.366989
 20
68.159607
 40
1.650000
  0
CIRCLE
  8
0
 10
-184.366989
 20
68.159607
 40
1.000000
  0
CIRCLE
  8
0
 10
-184.366989
 20
68.159607
 40
7.000000
  0
CIRCLE
  8
0
 10
-206.366974
 20
127.159637
 40
7.000000
  0
CIRCLE
  8
0
 10
-206.366974
 20
99.159576
 40
7.000000
  0
CIRCLE
  8
0
 10
-206.366974
 20
127.159637
 40
7.500000
  0
CIRCLE
  8
0
 10
-206.366974
 20
99.159576
 40
7.500000
  0
CIRCLE
  8
0
 10
-206.366989
 20
127.159607
 40
5.000000
  0
CIRCLE
  8
0
 10
-206.366989
 20
127.159607
 40
4.307179
  0
CIRCLE
  8
0
 10
-206.366989
 20
99.159607
 40
5.000000
  0
CIRCLE
  8
0
 10
-206.366989
 20
99.159607
 40
4.307179
  0
CIRCLE
  8
0
 10
-9.366974
 20
88.159576
 40
2.099999
  0
CIRCLE
  8
0
 62
     2
 10
-9.366974
 20
88.159576
 40
2.500000
  0
CIRCLE
  8
0
 10
-69.366974
 20
88.159576
 40
2.099999
  0
CIRCLE
  8
0
 62
     2
 10
-69.366974
 20
88.159576
 40
2.500000
  0
CIRCLE
  8
0
 10
-94.366974
 20
88.159576
 40
2.099999
  0
CIRCLE
  8
0
 62
     2
 10
-94.366974
 20
88.159576
 40
2.500000
  0
CIRCLE
  8
0
 10
-9.366974
 20
138.159576
 40
2.099999
  0
CIRCLE
  8
0
 62
     2
 10
-9.366974
 20
138.159576
 40
2.500000
  0
CIRCLE
  8
0
 10
-69.366974
 20
138.159576
 40
2.099999
  0
CIRCLE
  8
0
 62
     2
 10
-69.366974
 20
138.159576
 40
2.500000
  0
CIRCLE
  8
0
 10
-94.366974
 20
138.159576
 40
2.099999
  0
CIRCLE
  8
0
 62
     2
 10
-94.366974
 20
138.159576
 40
2.500000
  0
ARC
  8
0
 10
27.856293
 20
111.159576
 40
5.774155
 50
339.734497
 51
20.265509
  0
ARC
  8
0
 10
27.856293
 20
115.159576
 40
5.774155
 50
339.734497
 51
20.265509
  0
ARC
  8
0
 10
-68.366974
 20
113.159576
 40
2.000000
 50
270.000000
 51
90.000000
  0
ARC
  8
0
 10
-70.366974
 20
113.159576
 40
2.000000
 50
90.000000
 51
270.000000
  0
CIRCLE
  8
0
 10
-94.366989
 20
113.159576
 40
2.000000
  0
ARC
  8
0
 10
35.409714
 20
111.159576
 40
5.783505
 50
159.768692
 51
200.231232
  0
ARC
  8
0
 10
35.409714
 20
115.159576
 40
5.783505
 50
159.768692
 51
200.231232
  0
CIRCLE
  8
0
 10
-1.366989
 20
113.159576
 40
5.000000
  0
CIRCLE
  8
0
 10
-81.366989
 20
113.159576
 40
5.000000
  0
CIRCLE
  8
0
  6
DASHED
 62
     2
 10
-31.366974
 20
113.159576
 40
2.099999
  0
CIRCLE
  8
0
  6
DASHED
 62
     2
 10
-31.366974
 20
113.159576
 40
4.000000
  0
CIRCLE
  8
0
 10
48.633026
 20
113.159576
 40
2.099999
  0
CIRCLE
  8
0
 10
48.633026
 20
113.159576
 40
4.000000
  0
POLYLINE
  8
0
 66
     1
  0
VERTEX
  8
0
 10
229.362411
 20
-68.588821
  0
VERTEX
  8
0
 10
229.490067
 20
-69.456703
  0
VERTEX
  8
0
 10
229.584229
 20
-70.327820
  0
VERTEX
  8
0
 10
229.642471
 20
-71.201942
  0
VERTEX
  8
0
 10
229.662415
 20
-72.078812
  0
VERTEX
  8
0
 10
229.642471
 20
-72.957947
  0
VERTEX
  8
0
 10
229.584229
 20
-73.835426
  0
VERTEX
  8
0
 10
229.490067
 20
-74.709602
  0
VERTEX
  8
0
 10
229.362411
 20
-75.578812
  0
SEQEND
  0
POLYLINE
  8
0
 66
     1
  0
VERTEX
  8
0
 10
229.362411
 20
-61.588821
  0
VERTEX
  8
0
 10
229.490067
 20
-62.458031
  0
VERTEX
  8
0
 10
229.584229
 20
-63.332203
  0
VERTEX
  8
0
 10
229.642471
 20
-64.209686
  0
VERTEX
  8
0
 10
229.662415
 20
-65.088821
  0
VERTEX
  8
0
 10
229.642471
 20
-65.967957
  0
VERTEX
  8
0
 10
229.584229
 20
-66.845436
  0
VERTEX
  8
0
 10
229.490067
 20
-67.719612
  0
VERTEX
  8
0
 10
229.362411
 20
-68.588821
  0
SEQEND
  0
POLYLINE
  8
0
 66
     1
  0
VERTEX
  8
0
 10
226.952408
 20
-68.588821
  0
VERTEX
  8
0
 10
226.826309
 20
-67.719612
  0
VERTEX
  8
0
 10
226.735596
 20
-66.845436
  0
VERTEX
  8
0
 10
226.680801
 20
-65.967957
  0
VERTEX
  8
0
 10
226.662415
 20
-65.088821
  0
VERTEX
  8
0
 10
226.680801
 20
-64.209686
  0
VERTEX
  8
0
 10
226.735596
 20
-63.332203
  0
VERTEX
  8
0
 10
226.826309
 20
-62.458031
  0
VERTEX
  8
0
 10
226.952408
 20
-61.588821
  0
SEQEND
  0
POLYLINE
  8
0
 66
     1
  0
VERTEX
  8
0
 10
226.952408
 20
-75.578812
  0
VERTEX
  8
0
 10
226.826309
 20
-74.709839
  0
VERTEX
  8
0
 10
226.735596
 20
-73.836052
  0
VERTEX
  8
0
 10
226.680801
 20
-72.958649
  0
VERTEX
  8
0
 10
226.662415
 20
-72.078812
  0
VERTEX
  8
0
 10
226.680801
 20
-71.201241
  0
VERTEX
  8
0
 10
226.735596
 20
-70.327202
  0
VERTEX
  8
0
 10
226.826309
 20
-69.456467
  0
VERTEX
  8
0
 10
226.952408
 20
-68.588821
  0
SEQEND
  0
POLYLINE
  8
0
 66
     1
  0
VERTEX
  8
0
 10
157.952423
 20
-68.588821
  0
VERTEX
  8
0
 10
157.826324
 20
-67.719612
  0
VERTEX
  8
0
 10
157.735611
 20
-66.845436
  0
VERTEX
  8
0
 10
157.680801
 20
-65.967957
  0
VERTEX
  8
0
 10
157.662415
 20
-65.088821
  0
VERTEX
  8
0
 10
157.680801
 20
-64.209686
  0
VERTEX
  8
0
 10
157.735611
 20
-63.332203
  0
VERTEX
  8
0
 10
157.826324
 20
-62.458031
  0
VERTEX
  8
0
 10
157.952423
 20
-61.588821
  0
SEQEND
  0
POLYLINE
  8
0
 66
     1
  0
VERTEX
  8
0
 10
157.952423
 20
-75.578812
  0
VERTEX
  8
0
 10
157.826324
 20
-74.709839
  0
VERTEX
  8
0
 10
157.735611
 20
-73.836052
  0
VERTEX
  8
0
 10
157.680801
 20
-72.958649
  0
VERTEX
  8
0
 10
157.662415
 20
-72.078812
  0
VERTEX
  8
0
 10
157.680801
 20
-71.201241
  0
VERTEX
  8
0
 10
157.735611
 20
-70.327202
  0
VERTEX
  8
0
 10
157.826324
 20
-69.456467
  0
VERTEX
  8
0
 10
157.952423
 20
-68.588821
  0
SEQEND
  0
POLYLINE
  8
0
 66
     1
  0
VERTEX
  8
0
 10
160.362411
 20
-68.588821
  0
VERTEX
  8
0
 10
160.490067
 20
-69.456703
  0
VERTEX
  8
0
 10
160.584229
 20
-70.327820
  0
VERTEX
  8
0
 10
160.642471
 20
-71.201942
  0
VERTEX
  8
0
 10
160.662415
 20
-72.078812
  0
VERTEX
  8
0
 10
160.642471
 20
-72.957947
  0
VERTEX
  8
0
 10
160.584229
 20
-73.835426
  0
VERTEX
  8
0
 10
160.490067
 20
-74.709602
  0
VERTEX
  8
0
 10
160.362411
 20
-75.578812
  0
SEQEND
  0
POLYLINE
  8
0
 66
     1
  0
VERTEX
  8
0
 10
160.362411
 20
-61.588821
  0
VERTEX
  8
0
 10
160.490067
 20
-62.458031
  0
VERTEX
  8
0
 10
160.584229
 20
-63.332203
  0
VERTEX
  8
0
 10
160.642471
 20
-64.209686
  0
VERTEX
  8
0
 10
160.662415
 20
-65.088821
  0
VERTEX
  8
0
 10
160.642471
 20
-65.967957
  0
VERTEX
  8
0
 10
160.584229
 20
-66.845436
  0
VERTEX
  8
0
 10
160.490067
 20
-67.719612
  0
VERTEX
  8
0
 10
160.362411
 20
-68.588821
  0
SEQEND
  0
POLYLINE
  8
0
 66
     1
  0
VERTEX
  8
0
 10
67.343018
 20
-68.578812
  0
VERTEX
  8
0
 10
67.469116
 20
-69.448021
  0
VERTEX
  8
0
 10
67.559830
 20
-70.322197
  0
VERTEX
  8
0
 10
67.614639
 20
-71.199677
  0
VERTEX
  8
0
 10
67.633026
 20
-72.078812
  0
VERTEX
  8
0
 10
67.614639
 20
-72.957947
  0
VERTEX
  8
0
 10
67.559830
 20
-73.835426
  0
VERTEX
  8
0
 10
67.469116
 20
-74.709602
  0
VERTEX
  8
0
 10
67.343018
 20
-75.578812
  0
SEQEND
  0
POLYLINE
  8
0
 66
     1
  0
VERTEX
  8
0
 10
67.343018
 20
-61.578812
  0
VERTEX
  8
0
 10
67.469116
 20
-62.448021
  0
VERTEX
  8
0
 10
67.559830
 20
-63.322193
  0
VERTEX
  8
0
 10
67.614639
 20
-64.199677
  0
VERTEX
  8
0
 10
67.633026
 20
-65.078812
  0
VERTEX
  8
0
 10
67.614639
 20
-65.957947
  0
VERTEX
  8
0
 10
67.559830
 20
-66.835426
  0
VERTEX
  8
0
 10
67.469116
 20
-67.709602
  0
VERTEX
  8
0
 10
67.343018
 20
-68.578812
  0
SEQEND
  0
POLYLINE
  8
0
 66
     1
  0
VERTEX
  8
0
 10
64.923019
 20
-68.578812
  0
VERTEX
  8
0
 10
64.796921
 20
-67.709602
  0
VERTEX
  8
0
 10
64.706215
 20
-66.835426
  0
VERTEX
  8
0
 10
64.651413
 20
-65.957947
  0
VERTEX
  8
0
 10
64.633026
 20
-65.078812
  0
VERTEX
  8
0
 10
64.651413
 20
-64.199677
  0
VERTEX
  8
0
 10
64.706215
 20
-63.322193
  0
VERTEX
  8
0
 10
64.796921
 20
-62.448021
  0
VERTEX
  8
0
 10
64.923019
 20
-61.578812
  0
SEQEND
  0
POLYLINE
  8
0
 66
     1
  0
VERTEX
  8
0
 10
64.923019
 20
-75.578812
  0
VERTEX
  8
0
 10
64.796921
 20
-74.709602
  0
VERTEX
  8
0
 10
64.706215
 20
-73.835426
  0
VERTEX
  8
0
 10
64.651413
 20
-72.957947
  0
VERTEX
  8
0
 10
64.633026
 20
-72.078812
  0
VERTEX
  8
0
 10
64.651413
 20
-71.199677
  0
VERTEX
  8
0
 10
64.706215
 20
-70.322197
  0
VERTEX
  8
0
 10
64.796921
 20
-69.448021
  0
VERTEX
  8
0
 10
64.923019
 20
-68.578812
  0
SEQEND
  0
POLYLINE
  8
0
 66
     1
  0
VERTEX
  8
0
 10
-44.076973
 20
-68.578812
  0
VERTEX
  8
0
 10
-44.203072
 20
-67.709602
  0
VERTEX
  8
0
 10
-44.293781
 20
-66.835426
  0
VERTEX
  8
0
 10
-44.348591
 20
-65.957947
  0
VERTEX
  8
0
 10
-44.366974
 20
-65.078812
  0
VERTEX
  8
0
 10
-44.348591
 20
-64.199677
  0
VERTEX
  8
0
 10
-44.293781
 20
-63.322193
  0
VERTEX
  8
0
 10
-44.203072
 20
-62.448021
  0
VERTEX
  8
0
 10
-44.076973
 20
-61.578812
  0
SEQEND
  0
POLYLINE
  8
0
 66
     1
  0
VERTEX
  8
0
 10
-44.076973
 20
-75.578812
  0
VERTEX
  8
0
 10
-44.203072
 20
-74.709602
  0
VERTEX
  8
0
 10
-44.293781
 20
-73.835426
  0
VERTEX
  8
0
 10
-44.348591
 20
-72.957947
  0
VERTEX
  8
0
 10
-44.366974
 20
-72.078812
  0
VERTEX
  8
0
 10
-44.348591
 20
-71.199677
  0
VERTEX
  8
0
 10
-44.293781
 20
-70.322197
  0
VERTEX
  8
0
 10
-44.203072
 20
-69.448021
  0
VERTEX
  8
0
 10
-44.076973
 20
-68.578812
  0
SEQEND
  0
POLYLINE
  8
0
 66
     1
  0
VERTEX
  8
0
 10
-41.656975
 20
-68.578812
  0
VERTEX
  8
0
 10
-41.530876
 20
-69.448021
  0
VERTEX
  8
0
 10
-41.440166
 20
-70.322197
  0
VERTEX
  8
0
 10
-41.385357
 20
-71.199677
  0
VERTEX
  8
0
 10
-41.366974
 20
-72.078812
  0
VERTEX
  8
0
 10
-41.385357
 20
-72.957947
  0
VERTEX
  8
0
 10
-41.440166
 20
-73.835426
  0
VERTEX
  8
0
 10
-41.530876
 20
-74.709602
  0
VERTEX
  8
0
 10
-41.656975
 20
-75.578812
  0
SEQEND
  0
POLYLINE
  8
0
 66
     1
  0
VERTEX
  8
0
 10
-41.656975
 20
-61.578812
  0
VERTEX
  8
0
 10
-41.530876
 20
-62.448021
  0
VERTEX
  8
0
 10
-41.440166
 20
-63.322193
  0
VERTEX
  8
0
 10
-41.385357
 20
-64.199677
  0
VERTEX
  8
0
 10
-41.366974
 20
-65.078812
  0
VERTEX
  8
0
 10
-41.385357
 20
-65.957947
  0
VERTEX
  8
0
 10
-41.440166
 20
-66.835426
  0
VERTEX
  8
0
 10
-41.530876
 20
-67.709602
  0
VERTEX
  8
0
 10
-41.656975
 20
-68.578812
  0
SEQEND
  0
POLYLINE
  8
0
 66
     1
  0
VERTEX
  8
0
 10
67.343018
 20
68.159576
  0
VERTEX
  8
0
 10
67.469116
 20
69.028786
  0
VERTEX
  8
0
 10
67.559830
 20
69.902962
  0
VERTEX
  8
0
 10
67.614639
 20
70.780441
  0
VERTEX
  8
0
 10
67.633026
 20
71.659576
  0
VERTEX
  8
0
 10
67.614639
 20
72.538712
  0
VERTEX
  8
0
 10
67.559830
 20
73.416191
  0
VERTEX
  8
0
 10
67.469116
 20
74.290367
  0
VERTEX
  8
0
 10
67.343018
 20
75.159576
  0
SEQEND
  0
POLYLINE
  8
0
 66
     1
  0
VERTEX
  8
0
 10
67.343018
 20
61.159576
  0
VERTEX
  8
0
 10
67.469116
 20
62.028786
  0
VERTEX
  8
0
 10
67.559830
 20
62.902958
  0
VERTEX
  8
0
 10
67.614639
 20
63.780441
  0
VERTEX
  8
0
 10
67.633026
 20
64.659576
  0
VERTEX
  8
0
 10
67.614639
 20
65.538712
  0
VERTEX
  8
0
 10
67.559830
 20
66.416191
  0
VERTEX
  8
0
 10
67.469116
 20
67.290367
  0
VERTEX
  8
0
 10
67.343018
 20
68.159576
  0
SEQEND
  0
POLYLINE
  8
0
 66
     1
  0
VERTEX
  8
0
 10
64.923019
 20
68.159576
  0
VERTEX
  8
0
 10
64.796921
 20
67.290367
  0
VERTEX
  8
0
 10
64.706215
 20
66.416191
  0
VERTEX
  8
0
 10
64.651413
 20
65.538712
  0
VERTEX
  8
0
 10
64.633026
 20
64.659576
  0
VERTEX
  8
0
 10
64.651413
 20
63.780441
  0
VERTEX
  8
0
 10
64.706215
 20
62.902958
  0
VERTEX
  8
0
 10
64.796921
 20
62.028786
  0
VERTEX
  8
0
 10
64.923019
 20
61.159576
  0
SEQEND
  0
POLYLINE
  8
0
 66
     1
  0
VERTEX
  8
0
 10
64.923019
 20
75.159576
  0
VERTEX
  8
0
 10
64.796921
 20
74.290367
  0
VERTEX
  8
0
 10
64.706215
 20
73.416191
  0
VERTEX
  8
0
 10
64.651413
 20
72.538712
  0
VERTEX
  8
0
 10
64.633026
 20
71.659576
  0
VERTEX
  8
0
 10
64.651413
 20
70.780441
  0
VERTEX
  8
0
 10
64.706215
 20
69.902962
  0
VERTEX
  8
0
 10
64.796921
 20
69.028786
  0
VERTEX
  8
0
 10
64.923019
 20
68.159576
  0
SEQEND
  0
POLYLINE
  8
0
 66
     1
  0
VERTEX
  8
0
 10
-44.076973
 20
68.159576
  0
VERTEX
  8
0
 10
-44.203072
 20
67.290367
  0
VERTEX
  8
0
 10
-44.293781
 20
66.416191
  0
VERTEX
  8
0
 10
-44.348591
 20
65.538712
  0
VERTEX
  8
0
 10
-44.366974
 20
64.659576
  0
VERTEX
  8
0
 10
-44.348591
 20
63.780441
  0
VERTEX
  8
0
 10
-44.293781
 20
62.902958
  0
VERTEX
  8
0
 10
-44.203072
 20
62.028786
  0
VERTEX
  8
0
 10
-44.076973
 20
61.159576
  0
SEQEND
  0
POLYLINE
  8
0
 66
     1
  0
VERTEX
  8
0
 10
-44.076973
 20
75.159576
  0
VERTEX
  8
0
 10
-44.203072
 20
74.290367
  0
VERTEX
  8
0
 10
-44.293781
 20
73.416191
  0
VERTEX
  8
0
 10
-44.348591
 20
72.538712
  0
VERTEX
  8
0
 10
-44.366974
 20
71.659576
  0
VERTEX
  8
0
 10
-44.348591
 20
70.780441
  0
VERTEX
  8
0
 10
-44.293781
 20
69.902962
  0
VERTEX
  8
0
 10
-44.203072
 20
69.028786
  0
VERTEX
  8
0
 10
-44.076973
 20
68.159576
  0
SEQEND
  0
POLYLINE
  8
0
 66
     1
  0
VERTEX
  8
0
 10
-41.656975
 20
68.159576
  0
VERTEX
  8
0
 10
-41.530876
 20
69.028786
  0
VERTEX
  8
0
 10
-41.440166
 20
69.902962
  0
VERTEX
  8
0
 10
-41.385357
 20
70.780441
  0
VERTEX
  8
0
 10
-41.366974
 20
71.659576
  0
VERTEX
  8
0
 10
-41.385357
 20
72.538712
  0
VERTEX
  8
0
 10
-41.440166
 20
73.416191
  0
VERTEX
  8
0
 10
-41.530876
 20
74.290367
  0
VERTEX
  8
0
 10
-41.656975
 20
75.159576
  0
SEQEND
  0
POLYLINE
  8
0
 66
     1
  0
VERTEX
  8
0
 10
-41.656975
 20
61.159576
  0
VERTEX
  8
0
 10
-41.530876
 20
62.028786
  0
VERTEX
  8
0
 10
-41.440166
 20
62.902958
  0
VERTEX
  8
0
 10
-41.385357
 20
63.780441
  0
VERTEX
  8
0
 10
-41.366974
 20
64.659576
  0
VERTEX
  8
0
 10
-41.385357
 20
65.538712
  0
VERTEX
  8
0
 10
-41.440166
 20
66.416191
  0
VERTEX
  8
0
 10
-41.530876
 20
67.290367
  0
VERTEX
  8
0
 10
-41.656975
 20
68.159576
  0
SEQEND
  0
TEXT
  8
0
 10
162.606110
 20
-174.063217
 40
4.500000
  1
MODEL:ARSZ20*10
 50
0.000000
 41
1.052632
 51
0.000000
  7
STANDARD
  0
TEXT
  8
0
 62
     3
 10
104.946732
 20
-46.418270
 40
4.500000
  1
STRETCH LINE C
 50
0.000000
 41
1.052632
 51
0.000000
  7
STANDARD
  0
TEXT
  8
0
 62
     3
 10
-96.167526
 20
-54.446712
 40
4.500000
  1
STRETCH LINE A
 50
0.000000
 41
1.052632
 51
0.000000
  7
STANDARD
  0
TEXT
  8
0
 62
     3
 10
184.182617
 20
-46.399136
 40
4.500000
  1
STRETCH LINE D
 50
0.000000
 41
1.052632
 51
0.000000
  7
STANDARD
  0
TEXT
  8
0
 62
     3
 10
13.739090
 20
-52.012508
 40
4.500000
  1
STRETCH LINE D
 50
0.000000
 41
1.052632
 51
0.000000
  7
STANDARD
  0
TEXT
  8
0
 62
     3
 10
-33.100441
 20
-44.545330
 40
4.500000
  1
STRETCH LINE C
 50
0.000000
 41
1.052632
 51
0.000000
  7
STANDARD
  0
TEXT
  8
0
 62
     3
 10
10.381744
 20
162.312134
 40
4.500000
  1
STRETCH LINE B
 50
0.000000
 41
1.052632
 51
0.000000
  7
STANDARD
  0
TEXT
  8
0
 62
     3
 10
-127.779755
 20
152.312134
 40
4.500000
  1
STRETCH LINE A
 50
0.000000
 41
1.052632
 51
0.000000
  7
STANDARD
  0
TEXT
  8
0
 10
161.356110
 20
-166.063217
 40
4.500000
  1
(ST=10,20,30,40)
 50
0.000000
 41
1.052632
 51
0.000000
  7
STANDARD
  0
TEXT
  8
0
 10
-39.225403
 20
-165.404434
 40
4.500000
  1
(ST=50,60,80)
 50
0.000000
 41
1.052632
 51
0.000000
  7
STANDARD
  0
TEXT
  8
0
 10
-256.392670
 20
-163.050003
 40
4.500000
  1
B
 50
0.000000
 41
1.052632
 51
0.000000
  7
STANDARD
  0
TEXT
  8
0
 10
-256.392670
 20
-153.050003
 40
4.500000
  1
A
 50
0.000000
 41
1.052632
 51
0.000000
  7
STANDARD
  0
TEXT
  8
0
 10
-267.642670
 20
-123.050003
 40
4.500000
  1
STROKE
 50
0.000000
 41
1.052632
 51
0.000000
  7
STANDARD
  0
TEXT
  8
0
 10
-270.892670
 20
-133.324997
 40
4.500000
  1
STRETCH
 50
0.000000
 41
1.052632
 51
0.000000
  7
STANDARD
  0
TEXT
  8
0
 10
-270.892670
 20
-140.074997
 40
4.500000
  1
  PLACE
 50
0.000000
 41
1.052632
 51
0.000000
  7
STANDARD
  0
TEXT
  8
0
 10
-233.642654
 20
-133.050003
 40
4.500000
  1
10
 50
0.000000
 41
1.052632
 51
0.000000
  7
STANDARD
  0
TEXT
  8
0
 10
-218.642654
 20
-133.050003
 40
4.500000
  1
20
 50
0.000000
 41
1.052632
 51
0.000000
  7
STANDARD
  0
TEXT
  8
0
 10
-203.642654
 20
-133.050003
 40
4.500000
  1
30
 50
0.000000
 41
1.052632
 51
0.000000
  7
STANDARD
  0
TEXT
  8
0
 10
-188.642654
 20
-133.050003
 40
4.500000
  1
40
 50
0.000000
 41
1.052632
 51
0.000000
  7
STANDARD
  0
TEXT
  8
0
 10
-173.642654
 20
-133.050003
 40
4.500000
  1
50
 50
0.000000
 41
1.052632
 51
0.000000
  7
STANDARD
  0
TEXT
  8
0
 10
-158.642654
 20
-133.050003
 40
4.500000
  1
60
 50
0.000000
 41
1.052632
 51
0.000000
  7
STANDARD
  0
TEXT
  8
0
 10
-143.642654
 20
-133.050003
 40
4.500000
  1
80
 50
0.000000
 41
1.052632
 51
0.000000
  7
STANDARD
  0
TEXT
  8
0
 10
-228.642654
 20
-113.050003
 40
4.500000
  1
STRETCH LIST
 50
0.000000
 41
1.052632
 51
0.000000
  7
STANDARD
  0
TEXT
  8
0
 10
-148.142654
 20
-113.050003
 40
4.500000
  1
（ｍｍ）
 50
0.000000
 41
0.833333
 51
0.000000
  7
STANDARD
  0
TEXT
  8
0
 10
-218.642654
 20
-173.050003
 40
4.500000
  1
10
 50
0.000000
 41
1.052632
 51
0.000000
  7
STANDARD
  0
TEXT
  8
0
 10
-203.642654
 20
-173.050003
 40
4.500000
  1
20
 50
0.000000
 41
1.052632
 51
0.000000
  7
STANDARD
  0
TEXT
  8
0
 10
-188.642654
 20
-173.050003
 40
4.500000
  1
30
 50
0.000000
 41
1.052632
 51
0.000000
  7
STANDARD
  0
TEXT
  8
0
 10
-171.392654
 20
-173.050003
 40
4.500000
  1
0
 50
0.000000
 41
1.052632
 51
0.000000
  7
STANDARD
  0
TEXT
  8
0
 10
-156.392654
 20
-173.050003
 40
4.500000
  1
5
 50
0.000000
 41
1.052632
 51
0.000000
  7
STANDARD
  0
TEXT
  8
0
 10
-143.642654
 20
-173.050003
 40
4.500000
  1
15
 50
0.000000
 41
1.052632
 51
0.000000
  7
STANDARD
  0
TEXT
  8
0
 10
-231.392654
 20
-173.050003
 40
4.500000
  1
0
 50
0.000000
 41
1.052632
 51
0.000000
  7
STANDARD
  0
TEXT
  8
0
 10
-235.892654
 20
-153.050003
 40
4.500000
  1
-40
 50
0.000000
 41
1.052632
 51
0.000000
  7
STANDARD
  0
TEXT
  8
0
 10
-143.642654
 20
-153.050003
 40
4.500000
  1
30
 50
0.000000
 41
1.052632
 51
0.000000
  7
STANDARD
  0
TEXT
  8
0
 10
-158.642654
 20
-153.050003
 40
4.500000
  1
10
 50
0.000000
 41
1.052632
 51
0.000000
  7
STANDARD
  0
TEXT
  8
0
 10
-171.392654
 20
-153.050003
 40
4.500000
  1
0
 50
0.000000
 41
1.052632
 51
0.000000
  7
STANDARD
  0
TEXT
  8
0
 10
-190.892654
 20
-153.050003
 40
4.500000
  1
-10
 50
0.000000
 41
1.052632
 51
0.000000
  7
STANDARD
  0
TEXT
  8
0
 10
-205.892654
 20
-153.050003
 40
4.500000
  1
-20
 50
0.000000
 41
1.052632
 51
0.000000
  7
STANDARD
  0
TEXT
  8
0
 10
-220.892654
 20
-153.050003
 40
4.500000
  1
-30
 50
0.000000
 41
1.052632
 51
0.000000
  7
STANDARD
  0
TEXT
  8
0
 10
-256.392670
 20
-173.050003
 40
4.500000
  1
C
 50
0.000000
 41
1.052632
 51
0.000000
  7
STANDARD
  0
TEXT
  8
0
 10
-256.392670
 20
-183.050003
 40
4.500000
  1
D
 50
0.000000
 41
1.052632
 51
0.000000
  7
STANDARD
  0
TEXT
  8
0
 10
-156.392654
 20
-183.050003
 40
4.500000
  1
5
 50
0.000000
 41
1.052632
 51
0.000000
  7
STANDARD
  0
TEXT
  8
0
 10
-143.642654
 20
-183.050003
 40
4.500000
  1
15
 50
0.000000
 41
1.052632
 51
0.000000
  7
STANDARD
  0
TEXT
  8
0
 10
-235.892654
 20
-163.050003
 40
4.500000
  1
-40
 50
0.000000
 41
1.052632
 51
0.000000
  7
STANDARD
  0
TEXT
  8
0
 10
-220.892654
 20
-163.050003
 40
4.500000
  1
-30
 50
0.000000
 41
1.052632
 51
0.000000
  7
STANDARD
  0
TEXT
  8
0
 10
-205.892654
 20
-163.050003
 40
4.500000
  1
-20
 50
0.000000
 41
1.052632
 51
0.000000
  7
STANDARD
  0
TEXT
  8
0
 10
-190.892654
 20
-163.050003
 40
4.500000
  1
-10
 50
0.000000
 41
1.052632
 51
0.000000
  7
STANDARD
  0
TEXT
  8
0
 10
-171.392654
 20
-163.050003
 40
4.500000
  1
0
 50
0.000000
 41
1.052632
 51
0.000000
  7
STANDARD
  0
TEXT
  8
0
 10
-158.642654
 20
-163.050003
 40
4.500000
  1
10
 50
0.000000
 41
1.052632
 51
0.000000
  7
STANDARD
  0
TEXT
  8
0
 10
-143.642654
 20
-163.050003
 40
4.500000
  1
30
 50
0.000000
 41
1.052632
 51
0.000000
  7
STANDARD
  0
TEXT
  8
0
 10
-171.392654
 20
-183.050003
 40
4.500000
  1
0
 50
0.000000
 41
1.052632
 51
0.000000
  7
STANDARD
  0
TEXT
  8
0
 10
-231.392654
 20
-183.050003
 40
4.500000
  1
0
 50
0.000000
 41
1.052632
 51
0.000000
  7
STANDARD
  0
TEXT
  8
0
 10
-218.642654
 20
-183.050003
 40
4.500000
  1
10
 50
0.000000
 41
1.052632
 51
0.000000
  7
STANDARD
  0
TEXT
  8
0
 10
-203.642654
 20
-183.050003
 40
4.500000
  1
20
 50
0.000000
 41
1.052632
 51
0.000000
  7
STANDARD
  0
TEXT
  8
0
 10
-188.642654
 20
-183.050003
 40
4.500000
  1
30
 50
0.000000
 41
1.052632
 51
0.000000
  7
STANDARD
  0
TEXT
  8
0
 10
196.250275
 20
180.830002
 40
6.299999
  1
Ｖｅｒ．　１．０
 50
0.000000
 41
0.833333
 51
0.000000
  7
STANDARD
  0
TEXT
  8
0
 10
167.564667
 20
-192.100006
 40
9.000000
  1
KOGANEI CORP.
 50
0.000000
 41
1.052632
 51
0.000000
  7
STANDARD
  0
TEXT
  8
0
 10
-253.399704
 20
180.830002
 40
6.299999
  1
ROD SLIDER
 50
0.000000
 41
1.052631
 51
0.000000
  7
STANDARD
  0
TEXT
  8
0
 10
-270.049713
 20
155.830002
 40
6.299999
  1
MODEL:ARSZ20*ST(50)
 50
0.000000
 41
1.052631
 51
0.000000
  7
STANDARD
  0
ENDSEC
  0
EOF
