  0
SECTION
  2
HEADER
  0
ENDSEC
  0
SECTION
  2
TABLES
  0
TABLE
  2
LTYPE
 70
     4
  0
LTYPE
  2
CONTINUOUS
 70
    64
  3
Solid line
 72
    65
 73
     0
 40
0.000000
  0
LTYPE
  2
DASHED
 70
    64
  3
__ __ __ __ __ __ __ __ __ __ __ __ __ __ __
 72
    65
 73
     2
 40
3.500000
 49
2.000000
 49
-1.500000
  0
LTYPE
  2
CENTER
 70
    64
  3
____ _ ____ _ ____ _ ____ _ ____ _ ____ _ ____
 72
    65
 73
     4
 40
17.500000
 49
13.000000
 49
-1.500000
 49
1.500000
 49
-1.500000
  0
LTYPE
  2
PHANTOM
 70
    64
  3
_____ _ _ _____ _ _ _____ _ _ _____ _ _ ____  
 72
    65
 73
     6
 40
15.500000
 49
8.000000
 49
-1.500000
 49
1.500000
 49
-1.500000
 49
1.500000
 49
-1.500000
  0
LTYPE
  2
DASHED1
 70
    64
  3
__ __ __ __ __ __ __ __ __ __ __ __ __ __ __
 72
    65
 73
     2
 40
1.500000
 49
1.000000
 49
-0.500000
  0
LTYPE
  2
DASHED2
 70
    64
  3
__ __ __ __ __ __ __ __ __ __ __ __ __ __ __
 72
    65
 73
     2
 40
3.500000
 49
2.500000
 49
-1.000000
  0
LTYPE
  2
DASHED3
 70
    64
  3
__ __ __ __ __ __ __ __ __ __ __ __ __ __ __
 72
    65
 73
     2
 40
6.000000
 49
4.000000
 49
-2.000000
  0
LTYPE
  2
DASHED4
 70
    64
  3
__ __ __ __ __ __ __ __ __ __ __ __ __ __ __
 72
    65
 73
     2
 40
12.000000
 49
10.000000
 49
-2.000000
  0
LTYPE
  2
DASHED5
 70
    64
  3
__ __ __ __ __ __ __ __ __ __ __ __ __ __ __
 72
    65
 73
     2
 40
17.000000
 49
15.000000
 49
-2.000000
  0
LTYPE
  2
DASHED6
 70
    64
  3
__ __ __ __ __ __ __ __ __ __ __ __ __ __ __
 72
    65
 73
     2
 40
29.000000
 49
27.000000
 49
-2.000000
  0
LTYPE
  2
PHANTOM1
 70
    64
  3
_____ _ _ _____ _ _ _____ _ _ _____ _ _ ____  
 72
    65
 73
     6
 40
31.000000
 49
25.000000
 49
-1.500000
 49
1.000000
 49
-1.000000
 49
1.000000
 49
-1.500000
  0
LTYPE
  2
PHANTOM2
 70
    64
  3
_____ _ _ _____ _ _ _____ _ _ _____ _ _ ____  
 72
    65
 73
     6
 40
36.000000
 49
27.000000
 49
-1.500000
 49
2.500000
 49
-1.000000
 49
2.500000
 49
-1.500000
  0
LTYPE
  2
PHANTOM3
 70
    64
  3
_____ _ _ _____ _ _ _____ _ _ _____ _ _ ____  
 72
    65
 73
     6
 40
78.000000
 49
64.000000
 49
-2.000000
 49
4.000000
 49
-2.000000
 49
4.000000
 49
-2.000000
  0
LTYPE
  2
CENTER1
 70
    64
  3
____ _ ____ _ ____ _ ____ _ ____ _ ____ _ ____
 72
    65
 73
     4
 40
19.000000
 49
14.000000
 49
-1.000000
 49
3.000000
 49
-1.000000
  0
LTYPE
  2
CENTER2
 70
    64
  3
____ _ ____ _ ____ _ ____ _ ____ _ ____ _ ____
 72
    65
 73
     4
 40
28.500000
 49
25.000000
 49
-1.000000
 49
1.500000
 49
-1.000000
  0
LTYPE
  2
CENTER3
 70
    64
  3
____ _ ____ _ ____ _ ____ _ ____ _ ____ _ ____
 72
    65
 73
     4
 40
31.500000
 49
27.000000
 49
-1.000000
 49
2.500000
 49
-1.000000
  0
LTYPE
  2
CENTER4
 70
    64
  3
____ _ ____ _ ____ _ ____ _ ____ _ ____ _ ____
 72
    65
 73
     4
 40
50.000000
 49
45.000000
 49
-1.000000
 49
3.000000
 49
-1.000000
  0
LTYPE
  2
CENTER5
 70
    64
  3
____ _ ____ _ ____ _ ____ _ ____ _ ____ _ ____
 72
    65
 73
     4
 40
100.000000
 49
92.000000
 49
-2.000000
 49
4.000000
 49
-2.000000
  0
LTYPE
  2
SBK1
 70
    64
  3
______ _ _ _ ______ _ _ _ ______ _ _ _ _____  
 72
    65
 73
     8
 40
60.500000
 49
45.000000
 49
-2.000000
 49
2.500000
 49
-2.000000
 49
2.500000
 49
-2.000000
 49
2.500000
 49
-2.000000
  0
LTYPE
  2
SBK2
 70
    64
  3
______ _ _ _ ______ _ _ _ ______ _ _ _ _____  
 72
    65
 73
     8
 40
84.000000
 49
64.000000
 49
-2.000000
 49
4.000000
 49
-2.000000
 49
4.000000
 49
-2.000000
 49
4.000000
 49
-2.000000
  0
LTYPE
  2
STCH
 70
    64
  3
__ __ __ __ __ __ __ __ __ __ __ __ __ __ __
 72
    65
 73
     2
 40
3.000000
 49
1.000000
 49
-2.000000
  0
LTYPE
  2
MTCH
 70
    64
  3
_____ _ _ _____ _ _ _____ _ _ _____ _ _ ____  
 72
    65
 73
     6
 40
80.000000
 49
66.000000
 49
-2.000000
 49
4.000000
 49
-2.000000
 49
4.000000
 49
-2.000000
  0
ENDTAB
  0
TABLE
  2
LAYER
 70
     1
  0
LAYER
  2
0
 70
     0
 62
     7
  6
CONTINUOUS
  0
ENDTAB
  0
TABLE
  2
STYLE
 70
     1
  0
STYLE
  2
STANDARD
 70
     0
 40
0.000000
 41
1.000000
 50
0.000000
 71
     0
 42
0.200000
  3
txt
  4
BIGFONT
  0
ENDTAB
  0
TABLE
  2
VIEW
 70
     0
  0
ENDTAB
  0
ENDSEC
  0
SECTION
  2
BLOCKS
  0
ENDSEC
  0
SECTION
  2
ENTITIES
  0
LINE
  8
0
  6
CENTER
 62
     2
 10
146.952087
 20
-69.560471
 11
207.676498
 21
-69.560471
  0
LINE
  8
0
 10
165.279037
 20
-77.060471
 11
136.279037
 21
-77.060471
  0
LINE
  8
0
 10
219.279037
 20
-77.060471
 11
175.279037
 21
-77.060471
  0
LINE
  8
0
 10
187.279037
 20
-66.060471
 11
207.279037
 21
-66.060471
  0
LINE
  8
0
 10
207.279037
 20
-66.060471
 11
207.279037
 21
-77.060471
  0
LINE
  8
0
 10
151.279037
 20
-66.560471
 11
151.279037
 21
-65.310471
  0
LINE
  8
0
 10
157.279037
 20
-65.310471
 11
151.279037
 21
-65.310471
  0
LINE
  8
0
 10
157.279037
 20
-73.810471
 11
151.279037
 21
-73.810471
  0
LINE
  8
0
 10
151.279037
 20
-66.560471
 11
147.429047
 21
-66.560471
  0
LINE
  8
0
 10
151.279037
 20
-72.560471
 11
147.429047
 21
-72.560471
  0
LINE
  8
0
 10
148.149048
 20
-72.560471
 11
148.149048
 21
-66.560471
  0
LINE
  8
0
 10
147.429031
 20
-66.560486
 11
147.279037
 21
-66.810486
  0
LINE
  8
0
 10
147.429031
 20
-72.560463
 11
147.279053
 21
-72.310486
  0
LINE
  8
0
 10
147.279037
 20
-72.310471
 11
147.279037
 21
-66.810471
  0
LINE
  8
0
 10
151.279037
 20
-73.810471
 11
151.279037
 21
-72.560471
  0
LINE
  8
0
 10
253.279037
 20
-66.560471
 11
253.279037
 21
-65.310471
  0
LINE
  8
0
 10
247.279037
 20
-65.310471
 11
253.279037
 21
-65.310471
  0
LINE
  8
0
 10
247.279037
 20
-73.810471
 11
253.279037
 21
-73.810471
  0
LINE
  8
0
 10
253.279037
 20
-66.560471
 11
257.139038
 21
-66.560471
  0
LINE
  8
0
 10
253.279037
 20
-72.560471
 11
257.139038
 21
-72.560471
  0
LINE
  8
0
 10
232.279037
 20
-63.560471
 11
229.279037
 21
-63.560471
  0
LINE
  8
0
 10
232.279037
 20
-75.560471
 11
229.279037
 21
-75.560471
  0
LINE
  8
0
 10
256.419037
 20
-72.560471
 11
256.419037
 21
-66.560471
  0
LINE
  8
0
 10
257.139038
 20
-66.560478
 11
257.279022
 21
-66.810471
  0
LINE
  8
0
 10
257.139038
 20
-72.560463
 11
257.279022
 21
-72.310463
  0
LINE
  8
0
 10
229.819031
 20
-69.560471
 11
231.749023
 21
-69.560471
  0
LINE
  8
0
 10
209.579025
 20
-71.060471
 11
209.579025
 21
-68.060471
  0
LINE
  8
0
 10
247.279037
 20
-73.810471
 11
247.279037
 21
-65.310471
  0
LINE
  8
0
 10
246.529037
 20
-74.560471
 11
246.529037
 21
-64.560471
  0
LINE
  8
0
 10
232.279037
 20
-74.560471
 11
246.529037
 21
-74.560471
  0
LINE
  8
0
 10
232.279037
 20
-64.560471
 11
246.529037
 21
-64.560471
  0
LINE
  8
0
 62
     2
 10
232.279037
 20
-65.060471
 11
247.029037
 21
-65.060471
  0
LINE
  8
0
 62
     2
 10
232.279037
 20
-74.060471
 11
247.029037
 21
-74.060471
  0
LINE
  8
0
 10
232.279037
 20
-75.560471
 11
232.279037
 21
-63.560471
  0
LINE
  8
0
 10
209.279037
 20
-68.360474
 11
209.579041
 21
-68.060471
  0
LINE
  8
0
 10
209.279037
 20
-70.760475
 11
209.579041
 21
-71.060463
  0
LINE
  8
0
 10
209.279037
 20
-70.760483
 11
209.279037
 21
-68.360474
  0
LINE
  8
0
 10
209.579025
 20
-71.060471
 11
217.279037
 21
-71.060471
  0
LINE
  8
0
 10
209.579025
 20
-68.060471
 11
217.279037
 21
-68.060471
  0
LINE
  8
0
 10
247.279022
 20
-73.810478
 11
246.529037
 21
-74.560478
  0
LINE
  8
0
 10
247.279022
 20
-65.310463
 11
246.529022
 21
-64.560471
  0
LINE
  8
0
 10
217.279037
 20
-73.810471
 11
219.279037
 21
-73.810471
  0
LINE
  8
0
 10
217.279037
 20
-65.310471
 11
219.279037
 21
-65.310471
  0
LINE
  8
0
 10
257.279053
 20
-72.310471
 11
257.279053
 21
-66.810471
  0
LINE
  8
0
 10
217.279037
 20
-73.810471
 11
217.279037
 21
-65.310471
  0
LINE
  8
0
 10
219.279037
 20
-63.060471
 11
229.279037
 21
-63.060471
  0
LINE
  8
0
 10
229.279037
 20
-63.060471
 11
229.279037
 21
-78.060471
  0
LINE
  8
0
 10
219.279037
 20
-63.060471
 11
219.279037
 21
-78.060471
  0
LINE
  8
0
 10
175.279037
 20
-78.060471
 11
165.279037
 21
-78.060471
  0
LINE
  8
0
 10
162.279037
 20
-63.560471
 11
165.279037
 21
-63.560471
  0
LINE
  8
0
 10
162.279037
 20
-75.560471
 11
165.279037
 21
-75.560471
  0
LINE
  8
0
 10
164.749039
 20
-69.560471
 11
162.819031
 21
-69.560471
  0
LINE
  8
0
 10
157.279037
 20
-73.810471
 11
157.279037
 21
-65.310471
  0
LINE
  8
0
 10
158.029037
 20
-74.560471
 11
158.029037
 21
-64.560471
  0
LINE
  8
0
 10
184.529037
 20
-74.560471
 11
184.529037
 21
-64.560471
  0
LINE
  8
0
 10
185.279037
 20
-73.810471
 11
185.279037
 21
-65.310471
  0
LINE
  8
0
 10
162.279037
 20
-74.560471
 11
158.029037
 21
-74.560471
  0
LINE
  8
0
 10
162.279037
 20
-64.560471
 11
158.029037
 21
-64.560471
  0
LINE
  8
0
 62
     2
 10
162.279037
 20
-65.060471
 11
157.529037
 21
-65.060471
  0
LINE
  8
0
 62
     2
 10
162.279037
 20
-74.060471
 11
157.529037
 21
-74.060471
  0
LINE
  8
0
 10
162.279037
 20
-75.560471
 11
162.279037
 21
-63.560471
  0
LINE
  8
0
 10
157.279037
 20
-73.810478
 11
158.029037
 21
-74.560478
  0
LINE
  8
0
 10
157.279037
 20
-65.310478
 11
158.029053
 21
-64.560486
  0
LINE
  8
0
 10
185.279037
 20
-73.810486
 11
184.529037
 21
-74.560478
  0
LINE
  8
0
 10
185.279037
 20
-65.310486
 11
184.529037
 21
-64.560493
  0
LINE
  8
0
 10
184.529037
 20
-64.560471
 11
175.279037
 21
-64.560471
  0
LINE
  8
0
 10
184.529037
 20
-74.560471
 11
175.279037
 21
-74.560471
  0
LINE
  8
0
 62
     2
 10
185.029037
 20
-74.060471
 11
175.279037
 21
-74.060471
  0
LINE
  8
0
 62
     2
 10
185.029037
 20
-65.060471
 11
175.279037
 21
-65.060471
  0
LINE
  8
0
 10
187.279037
 20
-73.810471
 11
185.279037
 21
-73.810471
  0
LINE
  8
0
 10
187.279037
 20
-65.310471
 11
185.279037
 21
-65.310471
  0
LINE
  8
0
 10
229.279037
 20
-78.060471
 11
219.279037
 21
-78.060471
  0
LINE
  8
0
 10
175.279037
 20
-63.060471
 11
175.279037
 21
-78.060471
  0
LINE
  8
0
 10
165.279037
 20
-63.060471
 11
165.279037
 21
-78.060471
  0
LINE
  8
0
 10
253.279037
 20
-73.810471
 11
253.279037
 21
-72.560471
  0
LINE
  8
0
 10
165.279037
 20
-63.060471
 11
175.279037
 21
-63.060471
  0
LINE
  8
0
 10
158.879044
 20
-104.060471
 11
161.279037
 21
-104.060471
  0
LINE
  8
0
 10
158.879044
 20
-111.060471
 11
158.879044
 21
-104.060471
  0
LINE
  8
0
 10
159.199051
 20
-107.560471
 11
160.969040
 21
-107.560471
  0
LINE
  8
0
 10
158.879044
 20
-111.060471
 11
161.279037
 21
-111.060471
  0
LINE
  8
0
 10
155.279037
 20
-104.060471
 11
155.279037
 21
-111.060471
  0
LINE
  8
0
 10
158.079041
 20
-104.060471
 11
158.079041
 21
-111.060471
  0
LINE
  8
0
 10
155.279037
 20
-111.060471
 11
158.079041
 21
-111.060471
  0
LINE
  8
0
 10
155.279037
 20
-104.060471
 11
158.079041
 21
-104.060471
  0
LINE
  8
0
 10
158.079041
 20
-109.560471
 11
158.879044
 21
-109.560471
  0
LINE
  8
0
 10
158.079041
 20
-105.560471
 11
158.879044
 21
-105.560471
  0
LINE
  8
0
 10
155.599045
 20
-107.560471
 11
158.079041
 21
-107.560471
  0
LINE
  8
0
 10
227.279037
 20
-109.560471
 11
225.279037
 21
-109.560471
  0
LINE
  8
0
 10
227.279037
 20
-105.560471
 11
225.279037
 21
-105.560471
  0
LINE
  8
0
  6
CENTER
 62
     2
 10
176.279037
 20
-112.131813
 11
176.279037
 21
-103.060875
  0
LINE
  8
0
  6
CENTER
 62
     2
 10
216.279037
 20
-112.131813
 11
216.279037
 21
-103.060875
  0
LINE
  8
0
  6
CENTER
 62
     2
 10
226.279037
 20
-112.131813
 11
226.279037
 21
-103.060875
  0
LINE
  8
0
  6
CENTER
 62
     2
 10
186.279037
 20
-112.131813
 11
186.279037
 21
-103.060875
  0
LINE
  8
0
 10
246.279037
 20
-124.060471
 11
161.279037
 21
-124.060471
  0
LINE
  8
0
 10
246.279037
 20
-123.560471
 11
161.279037
 21
-123.560471
  0
LINE
  8
0
 10
246.279037
 20
-91.560471
 11
161.279037
 21
-91.560471
  0
LINE
  8
0
 10
246.279037
 20
-91.060471
 11
161.279037
 21
-91.060471
  0
LINE
  8
0
 10
246.279037
 20
-99.560471
 11
161.279037
 21
-99.560471
  0
LINE
  8
0
 10
246.279037
 20
-100.060471
 11
161.279037
 21
-100.060471
  0
LINE
  8
0
 10
246.279037
 20
-115.560471
 11
161.279037
 21
-115.560471
  0
LINE
  8
0
 10
246.279037
 20
-115.060471
 11
161.279037
 21
-115.060471
  0
LINE
  8
0
 10
246.279037
 20
-138.060471
 11
246.279037
 21
-77.060471
  0
LINE
  8
0
 10
246.279037
 20
-77.060471
 11
229.279037
 21
-77.060471
  0
LINE
  8
0
 10
246.279037
 20
-138.060471
 11
136.279037
 21
-138.060471
  0
LINE
  8
0
 10
161.279037
 20
-138.060471
 11
161.279037
 21
-77.060471
  0
LINE
  8
0
  6
PHANTOM
 62
     3
 10
208.124924
 20
-49.525757
 11
208.124924
 21
-146.464111
  0
LINE
  8
0
 10
187.279037
 20
-77.060471
 11
187.279037
 21
-65.310471
  0
LINE
  8
0
  6
CENTER
 62
     2
 10
166.574448
 20
-119.560471
 11
129.069046
 21
-119.560471
  0
LINE
  8
0
  6
CENTER
 62
     2
 10
166.574448
 20
-95.560471
 11
129.069046
 21
-95.560471
  0
LINE
  8
0
 10
161.279037
 20
-136.560471
 11
144.279037
 21
-136.560471
  0
LINE
  8
0
 10
161.279037
 20
-78.560471
 11
144.279037
 21
-78.560471
  0
LINE
  8
0
 10
161.279037
 20
-99.560471
 11
145.279037
 21
-99.560471
  0
LINE
  8
0
 10
161.279037
 20
-91.560471
 11
145.279037
 21
-91.560471
  0
LINE
  8
0
 10
161.279037
 20
-123.560471
 11
145.279037
 21
-123.560471
  0
LINE
  8
0
 10
161.279037
 20
-115.560471
 11
145.279037
 21
-115.560471
  0
LINE
  8
0
 10
136.279037
 20
-77.060471
 11
136.279037
 21
-138.060471
  0
LINE
  8
0
 10
144.279037
 20
-77.060471
 11
144.279037
 21
-138.060471
  0
LINE
  8
0
 10
145.279037
 20
-113.560471
 11
144.279037
 21
-113.560471
  0
LINE
  8
0
 10
145.279037
 20
-125.560471
 11
144.279037
 21
-125.560471
  0
LINE
  8
0
 10
145.279037
 20
-113.560471
 11
145.279037
 21
-125.560471
  0
LINE
  8
0
 10
145.279037
 20
-89.560471
 11
144.279037
 21
-89.560471
  0
LINE
  8
0
 10
145.279037
 20
-101.560471
 11
144.279037
 21
-101.560471
  0
LINE
  8
0
 10
145.279037
 20
-89.560471
 11
145.279037
 21
-101.560471
  0
LINE
  8
0
 10
148.279037
 20
-98.080475
 11
148.279037
 21
-93.030472
  0
LINE
  8
0
 10
145.279037
 20
-93.030472
 11
148.279037
 21
-93.030472
  0
LINE
  8
0
 10
145.279037
 20
-98.080475
 11
148.279037
 21
-98.080475
  0
LINE
  8
0
 62
     2
 10
145.279068
 20
-93.030479
 11
148.279068
 21
-98.080482
  0
LINE
  8
0
 62
     2
 10
145.279053
 20
-98.080475
 11
148.279053
 21
-93.030479
  0
LINE
  8
0
 10
148.279037
 20
-117.030472
 11
148.279037
 21
-122.080467
  0
LINE
  8
0
 10
145.279037
 20
-122.080467
 11
148.279037
 21
-122.080467
  0
LINE
  8
0
 10
145.279037
 20
-117.030472
 11
148.279037
 21
-117.030472
  0
LINE
  8
0
 62
     2
 10
145.279037
 20
-122.080482
 11
148.279037
 21
-117.030479
  0
LINE
  8
0
 62
     2
 10
145.279037
 20
-117.030472
 11
148.279037
 21
-122.080475
  0
LINE
  8
0
  6
CENTER
 62
     2
 10
156.289047
 20
-83.626205
 11
156.289047
 21
-91.136948
  0
LINE
  8
0
  6
CENTER
 62
     2
 10
160.014694
 20
-87.560471
 11
152.503952
 21
-87.560471
  0
LINE
  8
0
  6
CENTER
 62
     2
 10
166.289032
 20
-100.830475
 11
166.289032
 21
-114.030472
  0
LINE
  8
0
  6
CENTER
 62
     2
 10
156.289047
 20
-131.494736
 11
156.289047
 21
-123.983994
  0
LINE
  8
0
  6
CENTER
 62
     2
 10
160.014694
 20
-127.560471
 11
152.503952
 21
-127.560471
  0
LINE
  8
0
  6
PHANTOM
 62
     3
 10
160.635223
 20
-146.464111
 11
160.635223
 21
-113.560471
  0
LINE
  8
0
  6
PHANTOM
 62
     3
 10
154.540848
 20
-113.560471
 11
154.540848
 21
-101.560471
  0
LINE
  8
0
  6
CENTER
 62
     2
 10
258.789856
 20
-107.560471
 11
132.109787
 21
-107.560471
  0
LINE
  8
0
  6
PHANTOM
 62
     3
 10
160.635223
 20
-113.560471
 11
154.540848
 21
-113.560471
  0
LINE
  8
0
  6
PHANTOM
 62
     3
 10
160.635223
 20
-101.560471
 11
154.540848
 21
-101.560471
  0
LINE
  8
0
  6
PHANTOM
 62
     3
 10
137.976685
 20
-75.426514
 11
160.635223
 21
-75.426514
  0
LINE
  8
0
  6
PHANTOM
 62
     3
 10
137.976685
 20
-75.426514
 11
137.976685
 21
-63.151779
  0
LINE
  8
0
  6
PHANTOM
 62
     3
 10
160.635223
 20
-101.560471
 11
160.635223
 21
-75.426514
  0
LINE
  8
0
 10
145.279037
 20
-104.810440
 11
145.279037
 21
-110.310440
  0
LINE
  8
0
 10
145.279037
 20
-104.810440
 11
144.279037
 21
-104.810440
  0
LINE
  8
0
 10
145.279037
 20
-110.310440
 11
144.279037
 21
-110.310440
  0
LINE
  8
0
  6
CENTER
 62
     2
 10
209.031113
 20
-69.560471
 11
261.069031
 21
-69.560471
  0
LINE
  8
0
  6
CENTER
 62
     2
 10
-47.327106
 20
-119.560471
 11
-122.582504
 21
-119.560471
  0
LINE
  8
0
  6
CENTER
 62
     2
 10
-47.327106
 20
-95.560471
 11
-122.582504
 21
-95.560471
  0
LINE
  8
0
  6
CENTER
 62
     2
 10
-73.858246
 20
-127.560471
 11
-81.368973
 21
-127.560471
  0
LINE
  8
0
  6
CENTER
 62
     2
 10
-93.886856
 20
-127.560471
 11
-101.397598
 21
-127.560471
  0
LINE
  8
0
  6
CENTER
 62
     2
 10
-97.612518
 20
-131.494736
 11
-97.612518
 21
-123.983994
  0
LINE
  8
0
  6
CENTER
 62
     2
 10
-77.612518
 20
-131.494736
 11
-77.612518
 21
-123.983994
  0
LINE
  8
0
 10
45.387482
 20
-77.060471
 11
-38.612518
 21
-77.060471
  0
LINE
  8
0
 10
-48.612518
 20
-77.060471
 11
-117.612518
 21
-77.060471
  0
LINE
  8
0
 10
-26.612518
 20
-66.060471
 11
-6.612518
 21
-66.060471
  0
LINE
  8
0
 10
-6.612518
 20
-66.060471
 11
-6.612518
 21
-77.060471
  0
LINE
  8
0
 10
-62.612518
 20
-66.560471
 11
-62.612518
 21
-65.310471
  0
LINE
  8
0
 10
-56.612518
 20
-65.310471
 11
-62.612518
 21
-65.310471
  0
LINE
  8
0
 10
-56.612518
 20
-73.810471
 11
-62.612518
 21
-73.810471
  0
LINE
  8
0
 10
-62.612518
 20
-66.560471
 11
-66.462509
 21
-66.560471
  0
LINE
  8
0
 10
-62.612518
 20
-72.560471
 11
-66.462509
 21
-72.560471
  0
LINE
  8
0
 10
-65.752518
 20
-72.560471
 11
-65.752518
 21
-66.560471
  0
LINE
  8
0
 10
-66.462517
 20
-66.560486
 11
-66.602516
 21
-66.810486
  0
LINE
  8
0
 10
-66.462517
 20
-72.560478
 11
-66.602516
 21
-72.310478
  0
LINE
  8
0
 10
-66.602509
 20
-72.310471
 11
-66.602509
 21
-66.810471
  0
LINE
  8
0
 10
-62.612518
 20
-73.810471
 11
-62.612518
 21
-72.560471
  0
LINE
  8
0
 10
79.387482
 20
-66.560471
 11
79.387482
 21
-65.310471
  0
LINE
  8
0
 10
73.387482
 20
-65.310471
 11
79.387482
 21
-65.310471
  0
LINE
  8
0
 10
73.387482
 20
-73.810471
 11
79.387482
 21
-73.810471
  0
LINE
  8
0
 10
79.387482
 20
-66.560471
 11
83.237473
 21
-66.560471
  0
LINE
  8
0
 10
79.387482
 20
-72.560471
 11
83.237473
 21
-72.560471
  0
LINE
  8
0
 10
58.387482
 20
-63.560471
 11
55.387482
 21
-63.560471
  0
LINE
  8
0
 10
58.387482
 20
-75.560471
 11
55.387482
 21
-75.560471
  0
LINE
  8
0
 10
82.517471
 20
-72.560471
 11
82.517471
 21
-66.560471
  0
LINE
  8
0
 10
83.237465
 20
-66.560471
 11
83.387466
 21
-66.810471
  0
LINE
  8
0
 10
83.237473
 20
-72.560471
 11
83.387474
 21
-72.310471
  0
LINE
  8
0
 10
55.917480
 20
-69.560471
 11
57.847473
 21
-69.560471
  0
LINE
  8
0
 10
35.687469
 20
-71.060471
 11
35.687469
 21
-68.060471
  0
LINE
  8
0
 10
73.387482
 20
-73.810471
 11
73.387482
 21
-65.310471
  0
LINE
  8
0
 10
72.637482
 20
-74.560471
 11
72.637482
 21
-64.560471
  0
LINE
  8
0
 10
58.387482
 20
-74.560471
 11
72.637482
 21
-74.560471
  0
LINE
  8
0
 10
58.387482
 20
-64.560471
 11
72.637482
 21
-64.560471
  0
LINE
  8
0
 62
     2
 10
58.387482
 20
-65.060471
 11
73.137482
 21
-65.060471
  0
LINE
  8
0
 62
     2
 10
58.387482
 20
-74.060471
 11
73.137482
 21
-74.060471
  0
LINE
  8
0
 10
58.387482
 20
-75.560471
 11
58.387482
 21
-63.560471
  0
LINE
  8
0
 10
35.387474
 20
-68.360474
 11
35.687477
 21
-68.060471
  0
LINE
  8
0
 10
35.387474
 20
-70.760468
 11
35.687469
 21
-71.060463
  0
LINE
  8
0
 10
35.387482
 20
-70.760483
 11
35.387482
 21
-68.360474
  0
LINE
  8
0
 10
35.687469
 20
-71.060471
 11
43.387482
 21
-71.060471
  0
LINE
  8
0
 10
35.687469
 20
-68.060471
 11
43.387482
 21
-68.060471
  0
LINE
  8
0
 10
73.387474
 20
-73.810471
 11
72.637474
 21
-74.560471
  0
LINE
  8
0
 10
73.387474
 20
-65.310471
 11
72.637466
 21
-64.560471
  0
LINE
  8
0
 10
43.387482
 20
-73.810471
 11
45.387482
 21
-73.810471
  0
LINE
  8
0
 10
43.387482
 20
-65.310471
 11
45.387482
 21
-65.310471
  0
LINE
  8
0
 10
83.387482
 20
-72.310471
 11
83.387482
 21
-66.810471
  0
LINE
  8
0
 10
43.387482
 20
-73.810471
 11
43.387482
 21
-65.310471
  0
LINE
  8
0
  6
CENTER
 62
     2
 10
31.637482
 20
-69.560471
 11
87.177475
 21
-69.560471
  0
LINE
  8
0
 10
45.387482
 20
-63.060471
 11
55.387482
 21
-63.060471
  0
LINE
  8
0
 10
55.387482
 20
-63.060471
 11
55.387482
 21
-78.060471
  0
LINE
  8
0
 10
45.387482
 20
-63.060471
 11
45.387482
 21
-78.060471
  0
LINE
  8
0
 10
-38.612518
 20
-78.060471
 11
-48.612518
 21
-78.060471
  0
LINE
  8
0
 10
-51.612518
 20
-63.560471
 11
-48.612518
 21
-63.560471
  0
LINE
  8
0
 10
-51.612518
 20
-75.560471
 11
-48.612518
 21
-75.560471
  0
LINE
  8
0
 10
-49.152519
 20
-69.560471
 11
-51.082520
 21
-69.560471
  0
LINE
  8
0
 10
-56.612518
 20
-73.810471
 11
-56.612518
 21
-65.310471
  0
LINE
  8
0
 10
-55.862518
 20
-74.560471
 11
-55.862518
 21
-64.560471
  0
LINE
  8
0
 10
-29.362518
 20
-74.560471
 11
-29.362518
 21
-64.560471
  0
LINE
  8
0
 10
-28.612518
 20
-73.810471
 11
-28.612518
 21
-65.310471
  0
LINE
  8
0
 10
-51.612518
 20
-74.560471
 11
-55.862518
 21
-74.560471
  0
LINE
  8
0
 10
-51.612518
 20
-64.560471
 11
-55.862518
 21
-64.560471
  0
LINE
  8
0
 62
     2
 10
-51.612518
 20
-65.060471
 11
-56.362518
 21
-65.060471
  0
LINE
  8
0
 62
     2
 10
-51.612518
 20
-74.060471
 11
-56.362518
 21
-74.060471
  0
LINE
  8
0
 10
-51.612518
 20
-75.560471
 11
-51.612518
 21
-63.560471
  0
LINE
  8
0
 10
-56.612514
 20
-73.810471
 11
-55.862507
 21
-74.560478
  0
LINE
  8
0
 10
-56.612514
 20
-65.310471
 11
-55.862518
 21
-64.560478
  0
LINE
  8
0
 10
-28.612516
 20
-73.810486
 11
-29.362513
 21
-74.560478
  0
LINE
  8
0
 10
-28.612518
 20
-65.310486
 11
-29.362522
 21
-64.560478
  0
LINE
  8
0
 10
-29.362518
 20
-64.560471
 11
-38.612518
 21
-64.560471
  0
LINE
  8
0
 10
-29.362518
 20
-74.560471
 11
-38.612518
 21
-74.560471
  0
LINE
  8
0
 62
     2
 10
-28.862518
 20
-74.060471
 11
-38.612518
 21
-74.060471
  0
LINE
  8
0
 62
     2
 10
-28.862518
 20
-65.060471
 11
-38.612518
 21
-65.060471
  0
LINE
  8
0
 10
-26.612518
 20
-73.810471
 11
-28.612518
 21
-73.810471
  0
LINE
  8
0
 10
-26.612518
 20
-65.310471
 11
-28.612518
 21
-65.310471
  0
LINE
  8
0
  6
CENTER
 62
     2
 10
-70.392517
 20
-69.560471
 11
-22.352520
 21
-69.560471
  0
LINE
  8
0
 10
55.387482
 20
-78.060471
 11
45.387482
 21
-78.060471
  0
LINE
  8
0
 10
-38.612518
 20
-63.060471
 11
-38.612518
 21
-78.060471
  0
LINE
  8
0
 10
-48.612518
 20
-63.060471
 11
-48.612518
 21
-78.060471
  0
LINE
  8
0
 10
79.387482
 20
-73.810471
 11
79.387482
 21
-72.560471
  0
LINE
  8
0
 10
-48.612518
 20
-63.060471
 11
-38.612518
 21
-63.060471
  0
LINE
  8
0
 10
-52.612518
 20
-136.560471
 11
-109.612518
 21
-136.560471
  0
LINE
  8
0
 10
-52.612518
 20
-78.560471
 11
-109.612518
 21
-78.560471
  0
LINE
  8
0
  6
CENTER
 62
     2
 10
-87.612518
 20
-100.830475
 11
-87.612518
 21
-114.030472
  0
LINE
  8
0
  6
CENTER
 62
     2
 10
-93.886856
 20
-87.560471
 11
-101.397598
 21
-87.560471
  0
LINE
  8
0
  6
CENTER
 62
     2
 10
-73.858246
 20
-87.560471
 11
-81.368973
 21
-87.560471
  0
LINE
  8
0
  6
CENTER
 62
     2
 10
-97.612518
 20
-83.626205
 11
-97.612518
 21
-91.136948
  0
LINE
  8
0
  6
CENTER
 62
     2
 10
-77.612518
 20
-83.626205
 11
-77.612518
 21
-91.136948
  0
LINE
  8
0
 62
     2
 10
-108.612511
 20
-117.030487
 11
-105.612518
 21
-122.080475
  0
LINE
  8
0
 62
     2
 10
-108.612511
 20
-122.080475
 11
-105.612511
 21
-117.030472
  0
LINE
  8
0
 10
-108.612518
 20
-117.030472
 11
-105.612518
 21
-117.030472
  0
LINE
  8
0
 10
-108.612518
 20
-122.080467
 11
-105.612518
 21
-122.080467
  0
LINE
  8
0
 10
-105.612518
 20
-117.030472
 11
-105.612518
 21
-122.080467
  0
LINE
  8
0
 62
     2
 10
-108.612518
 20
-98.080475
 11
-105.612518
 21
-93.030464
  0
LINE
  8
0
 62
     2
 10
-108.612518
 20
-93.030487
 11
-105.612518
 21
-98.080490
  0
LINE
  8
0
 10
-108.612518
 20
-98.080475
 11
-105.612518
 21
-98.080475
  0
LINE
  8
0
 10
-108.612518
 20
-93.030472
 11
-105.612518
 21
-93.030472
  0
LINE
  8
0
 10
-105.612518
 20
-98.080475
 11
-105.612518
 21
-93.030472
  0
LINE
  8
0
 10
-55.012512
 20
-104.060471
 11
-52.612518
 21
-104.060471
  0
LINE
  8
0
 10
-55.012512
 20
-111.060471
 11
-55.012512
 21
-104.060471
  0
LINE
  8
0
 10
-54.702515
 20
-107.560471
 11
-52.922516
 21
-107.560471
  0
LINE
  8
0
 10
-55.012512
 20
-111.060471
 11
-52.612518
 21
-111.060471
  0
LINE
  8
0
 10
-58.612518
 20
-104.060471
 11
-58.612518
 21
-111.060471
  0
LINE
  8
0
 10
-55.812515
 20
-104.060471
 11
-55.812515
 21
-111.060471
  0
LINE
  8
0
 10
-58.612518
 20
-111.060471
 11
-55.812515
 21
-111.060471
  0
LINE
  8
0
 10
-58.612518
 20
-104.060471
 11
-55.812515
 21
-104.060471
  0
LINE
  8
0
 10
-55.812515
 20
-109.560471
 11
-55.012512
 21
-109.560471
  0
LINE
  8
0
 10
-55.812515
 20
-105.560471
 11
-55.012512
 21
-105.560471
  0
LINE
  8
0
 10
-58.302505
 20
-107.560471
 11
-55.812515
 21
-107.560471
  0
LINE
  8
0
 10
-52.612518
 20
-99.560471
 11
-108.612518
 21
-99.560471
  0
LINE
  8
0
 10
-52.612518
 20
-91.560471
 11
-108.612518
 21
-91.560471
  0
LINE
  8
0
 10
-108.612518
 20
-89.560471
 11
-108.612518
 21
-101.560471
  0
LINE
  8
0
 10
-108.612518
 20
-101.560471
 11
-109.612518
 21
-101.560471
  0
LINE
  8
0
 10
-108.612518
 20
-89.560471
 11
-109.612518
 21
-89.560471
  0
LINE
  8
0
 10
-52.612518
 20
-123.560471
 11
-108.612518
 21
-123.560471
  0
LINE
  8
0
 10
-52.612518
 20
-115.560471
 11
-108.612518
 21
-115.560471
  0
LINE
  8
0
 10
-117.612518
 20
-77.060471
 11
-117.612518
 21
-138.060471
  0
LINE
  8
0
 10
-109.612518
 20
-77.060471
 11
-109.612518
 21
-138.060471
  0
LINE
  8
0
 10
-108.612518
 20
-113.560471
 11
-108.612518
 21
-125.560471
  0
LINE
  8
0
 10
-108.612518
 20
-125.560471
 11
-109.612518
 21
-125.560471
  0
LINE
  8
0
 10
-108.612518
 20
-113.560471
 11
-109.612518
 21
-113.560471
  0
LINE
  8
0
 10
53.387482
 20
-109.560471
 11
51.387482
 21
-109.560471
  0
LINE
  8
0
 10
53.387482
 20
-105.560471
 11
51.387482
 21
-105.560471
  0
LINE
  8
0
  6
CENTER
 62
     2
 10
-37.612518
 20
-112.696785
 11
-37.612518
 21
-102.476959
  0
LINE
  8
0
  6
CENTER
 62
     2
 10
42.387482
 20
-112.696785
 11
42.387482
 21
-102.476959
  0
LINE
  8
0
  6
CENTER
 62
     2
 10
52.387482
 20
-112.696785
 11
52.387482
 21
-102.476959
  0
LINE
  8
0
  6
CENTER
 62
     2
 10
-27.612518
 20
-112.696785
 11
-27.612518
 21
-102.476959
  0
LINE
  8
0
 10
72.387482
 20
-124.060471
 11
-52.612518
 21
-124.060471
  0
LINE
  8
0
 10
72.387482
 20
-123.560471
 11
-52.612518
 21
-123.560471
  0
LINE
  8
0
 10
72.387482
 20
-91.560471
 11
-52.612518
 21
-91.560471
  0
LINE
  8
0
 10
72.387482
 20
-91.060471
 11
-52.612518
 21
-91.060471
  0
LINE
  8
0
 10
72.387482
 20
-99.560471
 11
-52.612518
 21
-99.560471
  0
LINE
  8
0
 10
72.387482
 20
-100.060471
 11
-52.612518
 21
-100.060471
  0
LINE
  8
0
 10
72.387482
 20
-115.560471
 11
-52.612518
 21
-115.560471
  0
LINE
  8
0
 10
72.387482
 20
-115.060471
 11
-52.612518
 21
-115.060471
  0
LINE
  8
0
  6
CENTER
 62
     2
 10
75.181320
 20
-107.560471
 11
-122.582504
 21
-107.560471
  0
LINE
  8
0
 10
72.387482
 20
-138.060471
 11
72.387482
 21
-77.060471
  0
LINE
  8
0
 10
72.387482
 20
-77.060471
 11
55.387482
 21
-77.060471
  0
LINE
  8
0
 10
72.387482
 20
-138.060471
 11
-117.612518
 21
-138.060471
  0
LINE
  8
0
 10
-52.612518
 20
-138.060471
 11
-52.612518
 21
-77.060471
  0
LINE
  8
0
  6
PHANTOM
 62
     3
 10
-72.374710
 20
-63.151779
 11
-72.374710
 21
-146.289658
  0
LINE
  8
0
 10
-26.612518
 20
-77.060471
 11
-26.612518
 21
-65.310471
  0
LINE
  8
0
  6
CENTER
 62
     2
 10
2.387482
 20
-112.696785
 11
2.387482
 21
-102.476959
  0
LINE
  8
0
  6
PHANTOM
 62
     3
 10
22.387482
 20
-146.289658
 11
22.387482
 21
-57.300125
  0
LINE
  8
0
 10
-108.612518
 20
-104.810440
 11
-108.612518
 21
-110.310440
  0
LINE
  8
0
 10
-108.612518
 20
-104.810440
 11
-109.612518
 21
-104.810440
  0
LINE
  8
0
 10
-108.612518
 20
-110.310440
 11
-109.612518
 21
-110.310440
  0
LINE
  8
0
  6
PHANTOM
 62
     3
 10
-4.230286
 20
-146.289658
 11
-4.230286
 21
-49.012512
  0
LINE
  8
0
 10
-117.612518
 20
27.049519
 11
-117.612518
 21
-8.440472
  0
LINE
  8
0
 10
-109.612518
 20
27.549519
 11
-109.612518
 21
-8.440472
  0
LINE
  8
0
 10
12.387482
 20
27.549519
 11
12.387482
 21
12.549519
  0
LINE
  8
0
  6
CENTER
 62
     2
 10
-11.612518
 20
26.029514
 11
-11.612518
 21
16.049519
  0
LINE
  8
0
  6
CENTER
 62
     2
 10
-21.612518
 20
26.029514
 11
-21.612518
 21
16.049519
  0
LINE
  8
0
 10
-6.612518
 20
25.549519
 11
-6.612518
 21
12.549519
  0
LINE
  8
0
 10
-26.612518
 20
25.549519
 11
-26.612518
 21
12.549519
  0
LINE
  8
0
 10
-25.609871
 20
21.049519
 11
-25.609871
 21
24.549519
  0
LINE
  8
0
 10
-7.609894
 20
21.057682
 11
-7.609894
 21
24.549519
  0
LINE
  8
0
 10
55.387482
 20
21.049519
 11
45.387482
 21
21.049519
  0
LINE
  8
0
 10
-38.612518
 20
21.049519
 11
-48.612518
 21
21.049519
  0
LINE
  8
0
 10
-21.612518
 20
17.057682
 11
-11.612518
 21
17.057682
  0
LINE
  8
0
 10
55.677475
 20
10.049519
 11
55.387482
 21
10.049519
  0
LINE
  8
0
 10
45.387482
 20
10.049519
 11
-38.612518
 21
10.049519
  0
LINE
  8
0
 10
-65.892517
 20
12.549519
 11
-109.612518
 21
12.549519
  0
LINE
  8
0
 10
-51.322517
 20
10.049519
 11
-52.612518
 21
10.049519
  0
LINE
  8
0
 10
-48.612518
 20
10.049519
 11
-48.902519
 21
10.049519
  0
LINE
  8
0
 10
-38.612518
 20
23.049519
 11
-48.612518
 21
23.049519
  0
LINE
  8
0
 10
55.387482
 20
23.049519
 11
45.387482
 21
23.049519
  0
LINE
  8
0
 10
-26.612518
 20
12.549519
 11
-26.612518
 21
12.299519
  0
LINE
  8
0
 10
79.387482
 20
19.559528
 11
79.387482
 21
13.539524
  0
LINE
  8
0
  6
CENTER
 62
     2
 10
45.877472
 20
-4.940472
 11
54.897476
 21
-4.940472
  0
LINE
  8
0
  6
CENTER
 62
     2
 10
50.387482
 20
10.029514
 11
50.387482
 21
-9.550471
  0
LINE
  8
0
  6
CENTER
 62
     2
 10
45.877472
 20
5.049528
 11
54.897476
 21
5.049528
  0
LINE
  8
0
 10
51.887474
 20
-4.070475
 11
50.387470
 21
-3.210472
  0
LINE
  8
0
 10
50.387478
 20
-6.670472
 11
48.887474
 21
-5.800472
  0
LINE
  8
0
 10
50.387463
 20
-3.210469
 11
48.887470
 21
-4.070463
  0
LINE
  8
0
 10
51.887474
 20
-5.800466
 11
50.387478
 21
-6.670466
  0
LINE
  8
0
 10
48.887482
 20
-5.800472
 11
48.887482
 21
-4.070472
  0
LINE
  8
0
 10
51.887482
 20
-5.800472
 11
51.887482
 21
-4.070472
  0
LINE
  8
0
 10
51.887466
 20
5.919525
 11
50.387466
 21
6.789523
  0
LINE
  8
0
 10
50.387478
 20
3.319530
 11
48.887482
 21
4.189528
  0
LINE
  8
0
 10
50.387466
 20
6.789518
 11
48.887474
 21
5.919520
  0
LINE
  8
0
 10
51.887474
 20
4.189532
 11
50.387474
 21
3.319532
  0
LINE
  8
0
 10
48.887482
 20
4.189528
 11
48.887482
 21
5.919514
  0
LINE
  8
0
 10
51.887482
 20
4.189528
 11
51.887482
 21
5.919514
  0
LINE
  8
0
 10
55.387482
 20
-9.940472
 11
45.387482
 21
-9.940472
  0
LINE
  8
0
 10
55.387482
 20
-10.440472
 11
55.387482
 21
23.049519
  0
LINE
  8
0
 10
45.387482
 20
-10.440472
 11
45.387482
 21
23.049519
  0
LINE
  8
0
 62
     2
 10
-16.122528
 20
21.049519
 11
-7.102524
 21
21.049519
  0
LINE
  8
0
 10
-10.112527
 20
21.919518
 11
-11.612527
 21
22.789516
  0
LINE
  8
0
 10
-11.612523
 20
19.319527
 11
-13.112523
 21
20.189526
  0
LINE
  8
0
 10
-11.612516
 20
22.789526
 11
-13.112527
 21
21.919519
  0
LINE
  8
0
 10
-10.112523
 20
20.189524
 11
-11.612521
 21
19.319525
  0
LINE
  8
0
 10
-13.112518
 20
20.189518
 11
-13.112518
 21
21.919514
  0
LINE
  8
0
 10
-10.112518
 20
20.189518
 11
-10.112518
 21
21.919514
  0
LINE
  8
0
  6
CENTER
 62
     2
 10
-26.122519
 20
21.049519
 11
-17.102524
 21
21.049519
  0
LINE
  8
0
 10
-20.112528
 20
21.919516
 11
-21.612526
 21
22.789516
  0
LINE
  8
0
 10
-21.612520
 20
19.319525
 11
-23.112522
 21
20.189526
  0
LINE
  8
0
 10
-21.612513
 20
22.789515
 11
-23.112511
 21
21.919516
  0
LINE
  8
0
 10
-20.112524
 20
20.189520
 11
-21.612522
 21
19.319521
  0
LINE
  8
0
 10
-23.112518
 20
20.189518
 11
-23.112518
 21
21.919514
  0
LINE
  8
0
 10
-20.112518
 20
20.189518
 11
-20.112518
 21
21.919514
  0
LINE
  8
0
  6
CENTER
 62
     2
 10
-48.122517
 20
-4.940472
 11
-39.102516
 21
-4.940472
  0
LINE
  8
0
  6
CENTER
 62
     2
 10
-43.612518
 20
10.029514
 11
-43.612518
 21
-9.550471
  0
LINE
  8
0
  6
CENTER
 62
     2
 10
-48.122517
 20
5.049528
 11
-39.102516
 21
5.049528
  0
LINE
  8
0
 10
-42.112518
 20
-4.070473
 11
-43.612518
 21
-3.210473
  0
LINE
  8
0
 10
-43.612518
 20
-6.670473
 11
-45.112522
 21
-5.800472
  0
LINE
  8
0
 10
-43.612518
 20
-3.210472
 11
-45.112518
 21
-4.070472
  0
LINE
  8
0
 10
-42.112518
 20
-5.800470
 11
-43.612522
 21
-6.670471
  0
LINE
  8
0
 10
-45.112518
 20
-5.800472
 11
-45.112518
 21
-4.070472
  0
LINE
  8
0
 10
-42.112518
 20
-5.800472
 11
-42.112518
 21
-4.070472
  0
LINE
  8
0
 10
-42.112522
 20
5.919528
 11
-43.612518
 21
6.789527
  0
LINE
  8
0
 10
-43.612518
 20
3.319525
 11
-45.112518
 21
4.189526
  0
LINE
  8
0
 10
-43.612522
 20
6.789528
 11
-45.112518
 21
5.919529
  0
LINE
  8
0
 10
-42.112522
 20
4.189527
 11
-43.612518
 21
3.319528
  0
LINE
  8
0
 10
-45.112518
 20
4.189528
 11
-45.112518
 21
5.919514
  0
LINE
  8
0
 10
-42.112518
 20
4.189528
 11
-42.112518
 21
5.919514
  0
LINE
  8
0
 62
     2
 10
-62.612514
 20
19.559526
 11
-65.752510
 21
13.539524
  0
LINE
  8
0
 62
     2
 10
-65.752510
 20
19.559521
 11
-62.612518
 21
13.539532
  0
LINE
  8
0
 10
-65.752518
 20
13.539524
 11
-65.752518
 21
12.299519
  0
LINE
  8
0
 10
-65.752518
 20
20.799519
 11
-65.752518
 21
19.559528
  0
LINE
  8
0
 10
-62.612518
 20
13.539524
 11
-65.752518
 21
13.539524
  0
LINE
  8
0
 10
-62.612518
 20
19.559528
 11
-65.752518
 21
19.559528
  0
LINE
  8
0
 10
-62.612518
 20
19.559528
 11
-62.612518
 21
13.539524
  0
LINE
  8
0
 10
-65.752510
 20
12.299521
 11
-66.602509
 21
13.799519
  0
LINE
  8
0
 10
-65.752510
 20
20.799520
 11
-66.602509
 21
19.299519
  0
LINE
  8
0
 10
-49.152519
 20
13.089527
 11
-51.082520
 21
13.089527
  0
LINE
  8
0
 10
-49.152519
 20
20.019520
 11
-51.082520
 21
20.019520
  0
LINE
  8
0
 10
-56.612518
 20
20.799519
 11
-56.612518
 21
12.299519
  0
LINE
  8
0
 10
-55.862518
 20
21.549519
 11
-55.862518
 21
11.549519
  0
LINE
  8
0
 10
-29.362518
 20
21.549519
 11
-29.362518
 21
11.549519
  0
LINE
  8
0
 10
-28.612518
 20
20.799519
 11
-28.612518
 21
12.299519
  0
LINE
  8
0
 10
-51.612518
 20
21.549519
 11
-55.862518
 21
21.549519
  0
LINE
  8
0
 10
-51.612518
 20
11.549519
 11
-55.862518
 21
11.549519
  0
LINE
  8
0
 62
     2
 10
-51.612518
 20
12.049519
 11
-56.362518
 21
12.049519
  0
LINE
  8
0
 62
     2
 10
-51.612518
 20
21.049519
 11
-56.362518
 21
21.049519
  0
LINE
  8
0
 10
-51.612518
 20
10.549530
 11
-51.082512
 21
9.629520
  0
LINE
  8
0
 10
-51.612518
 20
22.549519
 11
-51.612518
 21
10.549519
  0
LINE
  8
0
 10
-51.612522
 20
22.549520
 11
-51.082523
 21
23.479519
  0
LINE
  8
0
 10
-48.612507
 20
10.549519
 11
-49.152508
 21
9.629519
  0
LINE
  8
0
 10
-48.612514
 20
22.549519
 11
-49.152515
 21
23.479525
  0
LINE
  8
0
 10
-49.152519
 20
9.629520
 11
-51.082520
 21
9.629520
  0
LINE
  8
0
 10
-49.152519
 20
23.479527
 11
-51.082520
 21
23.479527
  0
LINE
  8
0
 10
-56.612514
 20
20.799524
 11
-55.862514
 21
21.549524
  0
LINE
  8
0
 10
-56.612514
 20
12.299524
 11
-55.862511
 21
11.549520
  0
LINE
  8
0
 10
-28.612524
 20
20.799517
 11
-29.362526
 21
21.549519
  0
LINE
  8
0
 10
-28.612528
 20
12.299520
 11
-29.362524
 21
11.549525
  0
LINE
  8
0
 10
-29.362518
 20
11.549519
 11
-38.612518
 21
11.549519
  0
LINE
  8
0
 10
-29.362518
 20
21.549519
 11
-38.612518
 21
21.549519
  0
LINE
  8
0
 62
     2
 10
-28.862518
 20
21.049519
 11
-38.612518
 21
21.049519
  0
LINE
  8
0
 62
     2
 10
-28.862518
 20
12.049519
 11
-38.612518
 21
12.049519
  0
LINE
  8
0
 10
-56.612518
 20
20.799519
 11
-65.752518
 21
20.799519
  0
LINE
  8
0
 10
-56.612518
 20
12.299519
 11
-65.752518
 21
12.299519
  0
LINE
  8
0
 10
-26.612518
 20
20.799519
 11
-28.612518
 21
20.799519
  0
LINE
  8
0
 10
-26.612518
 20
12.299519
 11
-28.612518
 21
12.299519
  0
LINE
  8
0
 10
-66.602509
 20
19.299519
 11
-66.602509
 21
13.799519
  0
LINE
  8
0
  6
CENTER
 62
     2
 10
-24.976158
 20
16.549519
 11
-69.402512
 21
16.549519
  0
LINE
  8
0
 10
-38.612518
 20
-9.940472
 11
-48.612518
 21
-9.940472
  0
LINE
  8
0
 62
     2
 10
79.387482
 20
19.559530
 11
82.517479
 21
13.539531
  0
LINE
  8
0
 62
     2
 10
82.517471
 20
19.559528
 11
79.387474
 21
13.539527
  0
LINE
  8
0
 10
82.517471
 20
13.539524
 11
82.517471
 21
12.299519
  0
LINE
  8
0
 10
82.517471
 20
20.799519
 11
82.517471
 21
19.559528
  0
LINE
  8
0
 10
79.387482
 20
13.539524
 11
82.517471
 21
13.539524
  0
LINE
  8
0
 10
79.387482
 20
19.559528
 11
82.517471
 21
19.559528
  0
LINE
  8
0
 10
82.517479
 20
12.299532
 11
83.387474
 21
13.799528
  0
LINE
  8
0
 10
82.517471
 20
20.799520
 11
83.387474
 21
19.299522
  0
LINE
  8
0
 10
55.917480
 20
13.089527
 11
57.847473
 21
13.089527
  0
LINE
  8
0
 10
55.917480
 20
20.019520
 11
57.847473
 21
20.019520
  0
LINE
  8
0
 10
35.687469
 20
18.049519
 11
35.687469
 21
15.049519
  0
LINE
  8
0
 10
73.387482
 20
20.799519
 11
73.387482
 21
12.299519
  0
LINE
  8
0
 10
72.637482
 20
21.549519
 11
72.637482
 21
11.549519
  0
LINE
  8
0
 10
58.387482
 20
21.549519
 11
72.637482
 21
21.549519
  0
LINE
  8
0
 10
58.387482
 20
11.549519
 11
72.637482
 21
11.549519
  0
LINE
  8
0
 62
     2
 10
58.387482
 20
12.049519
 11
73.137482
 21
12.049519
  0
LINE
  8
0
 62
     2
 10
58.387482
 20
21.049519
 11
73.137482
 21
21.049519
  0
LINE
  8
0
 10
58.387478
 20
10.549527
 11
57.847477
 21
9.629526
  0
LINE
  8
0
 10
58.387482
 20
22.549519
 11
58.387482
 21
10.549519
  0
LINE
  8
0
 10
58.387463
 20
22.549530
 11
57.847462
 21
23.479530
  0
LINE
  8
0
 10
55.387474
 20
10.549529
 11
55.917473
 21
9.629534
  0
LINE
  8
0
 10
55.387470
 20
22.549530
 11
55.917473
 21
23.479528
  0
LINE
  8
0
 10
55.917480
 20
9.629520
 11
57.847473
 21
9.629520
  0
LINE
  8
0
 10
55.917480
 20
23.479527
 11
57.847473
 21
23.479527
  0
LINE
  8
0
 10
35.387474
 20
15.349526
 11
35.687469
 21
15.049531
  0
LINE
  8
0
 10
35.387463
 20
17.749529
 11
35.687469
 21
18.049536
  0
LINE
  8
0
 10
35.387482
 20
17.749516
 11
35.387482
 21
15.349522
  0
LINE
  8
0
 10
35.687469
 20
18.049519
 11
43.387482
 21
18.049519
  0
LINE
  8
0
 10
35.687469
 20
15.049519
 11
43.387482
 21
15.049519
  0
LINE
  8
0
 10
73.387474
 20
20.799522
 11
72.637466
 21
21.549528
  0
LINE
  8
0
 10
73.387474
 20
12.299524
 11
72.637474
 21
11.549528
  0
LINE
  8
0
 10
73.387482
 20
20.799519
 11
82.517471
 21
20.799519
  0
LINE
  8
0
 10
73.387482
 20
12.299519
 11
82.517471
 21
12.299519
  0
LINE
  8
0
 10
43.387482
 20
20.799519
 11
45.387482
 21
20.799519
  0
LINE
  8
0
 10
43.387482
 20
12.299519
 11
45.387482
 21
12.299519
  0
LINE
  8
0
 10
83.387482
 20
19.299519
 11
83.387482
 21
13.799519
  0
LINE
  8
0
 10
43.387482
 20
20.799519
 11
43.387482
 21
12.299519
  0
LINE
  8
0
  6
CENTER
 62
     2
 10
33.965012
 20
16.549519
 11
85.777481
 21
16.549519
  0
LINE
  8
0
 10
-38.612518
 20
-10.440472
 11
-38.612518
 21
23.049519
  0
LINE
  8
0
 10
-48.612518
 20
-10.440472
 11
-48.612518
 21
23.049519
  0
LINE
  8
0
 10
-28.112518
 20
11.049519
 11
-38.612518
 21
11.049519
  0
LINE
  8
0
 10
72.387482
 20
10.049519
 11
58.097473
 21
10.049519
  0
LINE
  8
0
 10
-105.612518
 20
-4.440472
 11
-105.612518
 21
-3.540472
  0
LINE
  8
0
 10
-55.012512
 20
-4.440472
 11
-55.012512
 21
-7.940472
  0
LINE
  8
0
 10
-58.612518
 20
-4.440472
 11
-58.612518
 21
-7.940472
  0
LINE
  8
0
  6
CENTER
 62
     2
 10
78.567474
 20
-0.440472
 11
-122.582504
 21
-0.440472
  0
LINE
  8
0
 10
-52.612518
 20
-7.940474
 11
-52.922516
 21
-8.480470
  0
LINE
  8
0
 10
-54.702515
 20
-6.460472
 11
-52.922516
 21
-6.460472
  0
LINE
  8
0
 10
-55.012516
 20
-7.940471
 11
-54.702518
 21
-8.480473
  0
LINE
  8
0
 10
-54.702515
 20
-8.480473
 11
-52.922516
 21
-8.480473
  0
LINE
  8
0
 62
     2
 10
-55.812515
 20
-6.060472
 11
-55.012512
 21
-6.060472
  0
LINE
  8
0
 10
-55.812515
 20
-6.440472
 11
-55.012512
 21
-6.440472
  0
LINE
  8
0
 10
-58.612511
 20
-7.940468
 11
-58.302509
 21
-8.480468
  0
LINE
  8
0
 10
-58.302505
 20
-8.480473
 11
-55.812515
 21
-8.480473
  0
LINE
  8
0
 10
-58.302505
 20
-6.460472
 11
-55.812515
 21
-6.460472
  0
LINE
  8
0
 10
-55.812515
 20
-4.440472
 11
-55.812515
 21
-8.480473
  0
LINE
  8
0
 10
-105.612518
 20
-3.540472
 11
-108.612518
 21
-3.540472
  0
LINE
  8
0
 10
-105.612518
 20
3.549528
 11
-105.612518
 21
2.649528
  0
LINE
  8
0
 10
-105.612518
 20
2.649528
 11
-108.612518
 21
2.649528
  0
LINE
  8
0
 10
-52.612518
 20
-4.440472
 11
-105.612518
 21
-4.440472
  0
LINE
  8
0
 10
-52.612518
 20
3.549528
 11
-105.612518
 21
3.549528
  0
LINE
  8
0
 10
-108.612518
 20
5.549528
 11
-108.612518
 21
-6.440472
  0
LINE
  8
0
 10
-108.612518
 20
5.549528
 11
-109.612518
 21
5.549528
  0
LINE
  8
0
 10
15.787476
 20
14.549519
 11
15.787476
 21
15.549519
  0
LINE
  8
0
 10
43.387482
 20
14.549519
 11
12.387482
 21
14.549519
  0
LINE
  8
0
 10
-28.112518
 20
12.299519
 11
-28.112518
 21
11.049519
  0
LINE
  8
0
 10
-11.362518
 20
12.549519
 11
-11.362518
 21
11.049519
  0
LINE
  8
0
 10
12.137482
 20
12.549519
 11
12.137482
 21
11.049519
  0
LINE
  8
0
 10
12.137482
 20
11.049519
 11
-11.362518
 21
11.049519
  0
LINE
  8
0
 10
13.387475
 20
15.549526
 11
13.697474
 21
16.099525
  0
LINE
  8
0
 10
15.787470
 20
15.549523
 11
15.477470
 21
16.099524
  0
LINE
  8
0
 10
15.477478
 20
16.099522
 11
13.697479
 21
16.099522
  0
LINE
  8
0
 10
13.387482
 20
16.049519
 11
12.387482
 21
16.049519
  0
LINE
  8
0
 10
13.387482
 20
16.049519
 11
13.387482
 21
14.549519
  0
LINE
  8
0
 10
-52.612518
 20
-10.440472
 11
-52.612518
 21
11.549519
  0
LINE
  8
0
  6
CENTER
 62
     2
 10
62.387482
 20
-4.782921
 11
62.387482
 21
4.539022
  0
LINE
  8
0
 10
72.387482
 20
-10.440472
 11
72.387482
 21
10.549519
  0
LINE
  8
0
 10
72.387482
 20
10.549519
 11
62.387482
 21
10.549519
  0
LINE
  8
0
 10
72.387482
 20
-10.440472
 11
-52.612518
 21
-10.440472
  0
LINE
  8
0
 10
62.387482
 20
10.049519
 11
62.387482
 21
11.549519
  0
LINE
  8
0
 10
-109.612518
 20
-8.440472
 11
-117.612518
 21
-8.440472
  0
LINE
  8
0
 10
12.387482
 20
12.549519
 11
-26.612518
 21
12.549519
  0
LINE
  8
0
  6
CENTER
 62
     2
 10
-30.612518
 20
-4.782921
 11
-30.612518
 21
4.539022
  0
LINE
  8
0
 10
-26.612518
 20
25.549519
 11
-109.612518
 21
25.549519
  0
LINE
  8
0
 10
-6.612518
 20
24.549519
 11
-26.612518
 21
24.549519
  0
LINE
  8
0
 10
-6.612518
 20
26.549519
 11
-26.612518
 21
26.549519
  0
LINE
  8
0
 10
-6.612518
 20
26.549519
 11
-6.612518
 21
25.549519
  0
LINE
  8
0
 10
-26.612518
 20
26.549519
 11
-26.612518
 21
25.549519
  0
LINE
  8
0
 10
12.387482
 20
25.549519
 11
-6.612518
 21
25.549519
  0
LINE
  8
0
 10
-109.612518
 20
25.049519
 11
-117.612518
 21
25.049519
  0
LINE
  8
0
 10
-109.612518
 20
27.049519
 11
-117.612518
 21
27.049519
  0
LINE
  8
0
 10
12.387482
 20
27.549519
 11
-109.612518
 21
27.549519
  0
LINE
  8
0
 10
-108.612518
 20
-6.440472
 11
-109.612518
 21
-6.440472
  0
LINE
  8
0
 10
-109.612518
 20
-7.190472
 11
-108.612518
 21
-7.190472
  0
LINE
  8
0
 10
-108.612518
 20
-6.440472
 11
-108.612518
 21
-7.190472
  0
LINE
  8
0
  6
CENTER
 62
     2
 10
-37.612518
 20
-15.440472
 11
-37.612518
 21
-5.440472
  0
LINE
  8
0
  6
CENTER
 62
     2
 10
42.387482
 20
-15.440472
 11
42.387482
 21
-5.440472
  0
LINE
  8
0
  6
PHANTOM
 62
     3
 10
-70.055832
 20
-15.440472
 11
-70.055832
 21
56.723743
  0
LINE
  8
0
  6
PHANTOM
 62
     3
 10
30.484650
 20
-15.440472
 11
30.484650
 21
56.723743
  0
LINE
  8
0
  6
CENTER
 62
     2
 10
152.390106
 20
114.439529
 11
152.390106
 21
94.439529
  0
LINE
  8
0
  6
CENTER
 62
     2
 10
162.390106
 20
104.439529
 11
142.390106
 21
104.439529
  0
LINE
  8
0
  6
CENTER
 62
     2
 10
152.390106
 20
138.439499
 11
152.390106
 21
118.439499
  0
LINE
  8
0
  6
CENTER
 62
     2
 10
162.390106
 20
128.439499
 11
142.390106
 21
128.439499
  0
LINE
  8
0
 10
128.887466
 20
73.939514
 11
130.887466
 21
71.939514
  0
LINE
  8
0
 10
135.887466
 20
126.439514
 11
135.887466
 21
106.439514
  0
LINE
  8
0
 10
128.887466
 20
77.689514
 11
128.887466
 21
73.939514
  0
LINE
  8
0
 10
161.887466
 20
85.959518
 11
161.887466
 21
71.939514
  0
LINE
  8
0
 10
127.387466
 20
74.939514
 11
128.887466
 21
74.939514
  0
LINE
  8
0
 10
131.917480
 20
84.439514
 11
138.847473
 21
84.439514
  0
LINE
  8
0
 10
128.457474
 20
78.439522
 11
131.917465
 21
84.439522
  0
LINE
  8
0
 10
128.887466
 20
84.939514
 11
128.887466
 21
79.179520
  0
LINE
  8
0
 10
130.887482
 20
71.939514
 11
161.887466
 21
71.939514
  0
LINE
  8
0
 10
128.887466
 20
84.939514
 11
141.887466
 21
84.939514
  0
LINE
  8
0
 10
131.917480
 20
72.439514
 11
138.847473
 21
72.439514
  0
LINE
  8
0
 10
142.317474
 20
78.439529
 11
138.847473
 21
84.439522
  0
LINE
  8
0
 10
131.917465
 20
72.439522
 11
128.457474
 21
78.439522
  0
LINE
  8
0
 10
138.847473
 20
72.439522
 11
142.317474
 21
78.439522
  0
LINE
  8
0
 10
135.967468
 20
77.439514
 11
136.537476
 21
78.439514
  0
LINE
  8
0
 10
134.227478
 20
78.439522
 11
134.807465
 21
79.439507
  0
LINE
  8
0
 10
136.537460
 20
78.439537
 11
135.967468
 21
79.439522
  0
LINE
  8
0
 10
134.807465
 20
77.439529
 11
134.227463
 21
78.439522
  0
LINE
  8
0
 10
134.807480
 20
79.439514
 11
135.967468
 21
79.439514
  0
LINE
  8
0
 10
134.807480
 20
77.439514
 11
135.967468
 21
77.439514
  0
LINE
  8
0
 10
132.377472
 20
81.439514
 11
138.397476
 21
81.439514
  0
LINE
  8
0
 10
132.377472
 20
75.439514
 11
138.397476
 21
75.439514
  0
LINE
  8
0
  6
CENTER
 62
     2
 10
127.387466
 20
78.439514
 11
143.387466
 21
78.439514
  0
LINE
  8
0
  6
CENTER
 62
     2
 10
135.387466
 20
70.439514
 11
135.387466
 21
86.439514
  0
LINE
  8
0
 10
127.387466
 20
85.939514
 11
127.387466
 21
74.939514
  0
LINE
  8
0
 10
141.887466
 20
86.939514
 11
141.887466
 21
84.939514
  0
LINE
  8
0
 10
126.387466
 20
85.939514
 11
141.887466
 21
85.939514
  0
LINE
  8
0
 10
137.907471
 20
116.139511
 11
141.867477
 21
116.139511
  0
LINE
  8
0
 10
137.907471
 20
116.739517
 11
141.867477
 21
116.739517
  0
LINE
  8
0
 10
142.887466
 20
114.629517
 11
142.887466
 21
111.439514
  0
LINE
  8
0
 10
137.687469
 20
132.939514
 11
137.687469
 21
139.939514
  0
LINE
  8
0
 10
137.687469
 20
99.939514
 11
137.687469
 21
92.939514
  0
LINE
  8
0
 10
124.387466
 20
126.939514
 11
124.887466
 21
126.439514
  0
LINE
  8
0
 10
124.387466
 20
126.939514
 11
124.387466
 21
144.939514
  0
LINE
  8
0
 10
124.887466
 20
106.439514
 11
124.887466
 21
126.439514
  0
LINE
  8
0
 10
124.387466
 20
105.939514
 11
124.887466
 21
106.439514
  0
LINE
  8
0
  6
CENTER
 62
     2
 10
123.127472
 20
96.439514
 11
144.787476
 21
96.439514
  0
LINE
  8
0
 10
137.687469
 20
139.939514
 11
142.387466
 21
139.939514
  0
LINE
  8
0
 10
137.687469
 20
132.939514
 11
142.387466
 21
132.939514
  0
LINE
  8
0
 10
141.907471
 20
112.939507
 11
143.927460
 21
116.439514
  0
LINE
  8
0
 10
135.847473
 20
116.439507
 11
137.867477
 21
119.939507
  0
LINE
  8
0
 10
143.927460
 20
116.439514
 11
141.907471
 21
119.939514
  0
LINE
  8
0
 10
137.867477
 20
112.939514
 11
135.847473
 21
116.439514
  0
LINE
  8
0
 10
137.867477
 20
119.939514
 11
141.907471
 21
119.939514
  0
LINE
  8
0
 10
137.867477
 20
112.939514
 11
141.907471
 21
112.939514
  0
LINE
  8
0
 10
162.387466
 20
123.939514
 11
162.387466
 21
108.939514
  0
LINE
  8
0
 10
161.887466
 20
108.439507
 11
162.387466
 21
108.939514
  0
LINE
  8
0
 10
141.387466
 20
132.939514
 11
141.387466
 21
124.439514
  0
LINE
  8
0
 10
144.387466
 20
121.439514
 11
144.387466
 21
111.439514
  0
LINE
  8
0
 10
141.387466
 20
124.439499
 11
144.387482
 21
121.439499
  0
LINE
  8
0
 10
161.887451
 20
100.439507
 11
162.387466
 21
99.939507
  0
LINE
  8
0
 10
137.687469
 20
99.939514
 11
142.387466
 21
99.939514
  0
LINE
  8
0
 10
141.387466
 20
108.439514
 11
141.387466
 21
99.939514
  0
LINE
  8
0
 10
141.387466
 20
108.439522
 11
144.387482
 21
111.439522
  0
LINE
  8
0
  6
CENTER
 62
     2
 10
139.887466
 20
121.439514
 11
139.887466
 21
111.439514
  0
LINE
  8
0
 10
142.887466
 20
121.439514
 11
142.887466
 21
118.239517
  0
LINE
  8
0
 10
140.887466
 20
121.439514
 11
144.387466
 21
121.439514
  0
LINE
  8
0
 10
140.887466
 20
111.439514
 11
144.387466
 21
111.439514
  0
LINE
  8
0
 10
135.387466
 20
106.439514
 11
140.887466
 21
106.439514
  0
LINE
  8
0
 10
135.387466
 20
126.439514
 11
140.887466
 21
126.439514
  0
LINE
  8
0
 10
140.887466
 20
111.439514
 11
140.887466
 21
106.439514
  0
LINE
  8
0
 10
140.887466
 20
121.439514
 11
140.887466
 21
126.439514
  0
LINE
  8
0
 10
134.387466
 20
127.439514
 11
135.387466
 21
127.439514
  0
LINE
  8
0
 10
135.387466
 20
127.439514
 11
135.387466
 21
104.939514
  0
LINE
  8
0
 10
134.387466
 20
87.439514
 11
139.387466
 21
87.439514
  0
LINE
  8
0
 10
134.387466
 20
145.439514
 11
139.387466
 21
145.439514
  0
LINE
  8
0
 10
124.387466
 20
87.939514
 11
126.387466
 21
85.939514
  0
LINE
  8
0
 10
124.387459
 20
144.939514
 11
126.387466
 21
146.939514
  0
LINE
  8
0
 10
139.387466
 20
146.939514
 11
139.387466
 21
145.439514
  0
LINE
  8
0
 10
139.387466
 20
84.939514
 11
139.387466
 21
87.439514
  0
LINE
  8
0
 10
142.887466
 20
146.939514
 11
146.387466
 21
146.939514
  0
LINE
  8
0
 10
142.887466
 20
85.939514
 11
161.687469
 21
85.939514
  0
LINE
  8
0
 10
124.387466
 20
87.939514
 11
124.387466
 21
105.939514
  0
LINE
  8
0
 10
137.687469
 20
92.939514
 11
142.387466
 21
92.939514
  0
LINE
  8
0
 10
134.387466
 20
104.939514
 11
134.387466
 21
87.439514
  0
LINE
  8
0
 10
134.387466
 20
87.939514
 11
140.887466
 21
87.939514
  0
LINE
  8
0
 10
140.887466
 20
87.939514
 11
140.887466
 21
92.939514
  0
LINE
  8
0
 10
140.887466
 20
99.939514
 11
140.887466
 21
104.939514
  0
LINE
  8
0
 10
134.387466
 20
104.939514
 11
140.887466
 21
104.939514
  0
LINE
  8
0
 10
140.887466
 20
132.939514
 11
140.887466
 21
127.939514
  0
LINE
  8
0
 10
140.887466
 20
144.939514
 11
140.887466
 21
139.939514
  0
LINE
  8
0
 10
134.387466
 20
144.939514
 11
140.887466
 21
144.939514
  0
LINE
  8
0
 10
134.387466
 20
127.939514
 11
140.887466
 21
127.939514
  0
LINE
  8
0
 10
134.387466
 20
127.439514
 11
134.387466
 21
145.439514
  0
LINE
  8
0
  6
CENTER
 62
     2
 10
122.717468
 20
136.439514
 11
144.987473
 21
136.439514
  0
LINE
  8
0
 10
150.987473
 20
142.509506
 11
150.987473
 21
142.739502
  0
LINE
  8
0
 10
151.457474
 20
140.439514
 11
151.457474
 21
142.039505
  0
LINE
  8
0
 10
151.457474
 20
142.039505
 11
150.987473
 21
142.509506
  0
LINE
  8
0
 10
147.307480
 20
142.039505
 11
147.787476
 21
142.509506
  0
LINE
  8
0
 10
147.307465
 20
140.409500
 11
147.307465
 21
142.059509
  0
LINE
  8
0
 10
147.787460
 20
143.039505
 11
146.387482
 21
144.439499
  0
LINE
  8
0
 10
147.787460
 20
142.509506
 11
147.787460
 21
143.039505
  0
LINE
  8
0
 10
156.987473
 20
142.509506
 11
156.987473
 21
143.039505
  0
LINE
  8
0
 10
157.457474
 20
142.039505
 11
156.987473
 21
142.509506
  0
LINE
  8
0
 10
141.887466
 20
140.439514
 11
141.887466
 21
145.939514
  0
LINE
  8
0
 10
141.887466
 20
140.439514
 11
142.387466
 21
140.439514
  0
LINE
  8
0
 10
142.387466
 20
132.939514
 11
142.387466
 21
140.439514
  0
LINE
  8
0
 10
141.887466
 20
92.439514
 11
141.887466
 21
86.939514
  0
LINE
  8
0
 10
141.887466
 20
92.439514
 11
142.387466
 21
92.439514
  0
LINE
  8
0
 10
161.887466
 20
132.439514
 11
162.387466
 21
132.939514
  0
LINE
  8
0
 10
161.887466
 20
124.439507
 11
162.387466
 21
123.939507
  0
LINE
  8
0
 10
162.387466
 20
99.939514
 11
162.387466
 21
86.639526
  0
LINE
  8
0
 10
161.887466
 20
108.439514
 11
161.887466
 21
100.439514
  0
LINE
  8
0
 10
161.887466
 20
132.439514
 11
161.887466
 21
124.439514
  0
LINE
  8
0
 10
142.387466
 20
99.939514
 11
142.387466
 21
92.439514
  0
LINE
  8
0
 10
158.387466
 20
146.939514
 11
161.687469
 21
146.939514
  0
LINE
  8
0
 10
158.387466
 20
146.939514
 11
158.387466
 21
144.439514
  0
LINE
  8
0
 10
146.387466
 20
146.939514
 11
146.387466
 21
144.439514
  0
LINE
  8
0
 10
156.987473
 20
143.039505
 11
158.387466
 21
144.439499
  0
LINE
  8
0
 10
157.457474
 20
140.409500
 11
157.457474
 21
142.039505
  0
LINE
  8
0
  6
CENTER
 62
     2
 10
155.387466
 20
137.689514
 11
155.387466
 21
145.269501
  0
LINE
  8
0
 10
153.307465
 20
140.439514
 11
153.307465
 21
142.039505
  0
LINE
  8
0
 10
153.307465
 20
142.039505
 11
153.787460
 21
142.509506
  0
LINE
  8
0
 10
153.787460
 20
142.509506
 11
153.787460
 21
142.739502
  0
LINE
  8
0
 10
153.487473
 20
143.039505
 11
151.287460
 21
143.039505
  0
LINE
  8
0
  6
CENTER
 62
     2
 10
149.387466
 20
137.689514
 11
149.387466
 21
145.399506
  0
LINE
  8
0
  6
CENTER
 62
     2
 10
158.637466
 20
140.409500
 11
146.327469
 21
140.409500
  0
LINE
  8
0
  6
CENTER
 62
     2
 10
121.355469
 20
116.439514
 11
165.531754
 21
116.439514
  0
LINE
  8
0
 10
126.387466
 20
146.939514
 11
139.387466
 21
146.939514
  0
LINE
  8
0
 10
162.387466
 20
146.239502
 11
162.387466
 21
132.939514
  0
LINE
  8
0
  6
CENTER
 62
     2
 10
-153.644531
 20
116.439514
 11
-198.023254
 21
116.439514
  0
LINE
  8
0
 10
-163.102509
 20
71.939514
 11
-161.102509
 21
73.939514
  0
LINE
  8
0
  6
CENTER
 62
     2
 10
-182.446350
 20
91.439514
 11
-190.706833
 21
91.439514
  0
LINE
  8
0
  6
CENTER
 62
     2
 10
-182.446350
 20
141.439514
 11
-190.706833
 21
141.439514
  0
LINE
  8
0
 10
-161.102509
 20
77.689514
 11
-161.102509
 21
73.939514
  0
LINE
  8
0
 10
-194.102509
 20
85.959518
 11
-194.102509
 21
71.939514
  0
LINE
  8
0
 10
-159.602509
 20
74.939514
 11
-161.102509
 21
74.939514
  0
LINE
  8
0
 10
-164.142517
 20
84.439514
 11
-171.072510
 21
84.439514
  0
LINE
  8
0
 10
-160.682510
 20
78.439514
 11
-164.142517
 21
84.439537
  0
LINE
  8
0
 10
-161.102509
 20
84.939514
 11
-161.102509
 21
79.179520
  0
LINE
  8
0
 10
-163.102509
 20
71.939514
 11
-194.102509
 21
71.939514
  0
LINE
  8
0
 10
-161.102509
 20
84.939514
 11
-174.102509
 21
84.939514
  0
LINE
  8
0
 10
-164.142517
 20
72.439514
 11
-171.072510
 21
72.439514
  0
LINE
  8
0
 10
-174.532516
 20
78.439529
 11
-171.072510
 21
84.439522
  0
LINE
  8
0
 10
-164.142517
 20
72.439529
 11
-160.682510
 21
78.439522
  0
LINE
  8
0
 10
-171.072510
 20
72.439507
 11
-174.532516
 21
78.439514
  0
LINE
  8
0
 10
-168.182510
 20
77.439507
 11
-168.762512
 21
78.439522
  0
LINE
  8
0
 10
-166.452515
 20
78.439522
 11
-167.032516
 21
79.439514
  0
LINE
  8
0
 10
-168.762512
 20
78.439537
 11
-168.182510
 21
79.439545
  0
LINE
  8
0
 10
-167.032501
 20
77.439529
 11
-166.452515
 21
78.439522
  0
LINE
  8
0
 10
-167.032516
 20
79.439514
 11
-168.182510
 21
79.439514
  0
LINE
  8
0
 10
-167.032516
 20
77.439514
 11
-168.182510
 21
77.439514
  0
LINE
  8
0
 10
-164.592514
 20
81.439514
 11
-170.612518
 21
81.439514
  0
LINE
  8
0
 10
-164.592514
 20
75.439514
 11
-170.612518
 21
75.439514
  0
LINE
  8
0
  6
CENTER
 62
     2
 10
-159.902405
 20
78.439514
 11
-175.602509
 21
78.439514
  0
LINE
  8
0
  6
CENTER
 62
     2
 10
-167.602509
 20
70.439514
 11
-167.602509
 21
86.439514
  0
LINE
  8
0
 10
-159.602509
 20
85.939514
 11
-159.602509
 21
74.939514
  0
LINE
  8
0
 10
-174.102509
 20
85.939514
 11
-174.102509
 21
84.939514
  0
LINE
  8
0
 10
-171.602509
 20
84.939514
 11
-171.602509
 21
85.939514
  0
LINE
  8
0
 10
-192.602509
 20
85.939514
 11
-193.902512
 21
85.939514
  0
LINE
  8
0
 10
-192.602509
 20
146.939514
 11
-193.902512
 21
146.939514
  0
LINE
  8
0
  6
CENTER
 62
     2
 10
-171.602509
 20
146.059509
 11
-171.602509
 21
137.279510
  0
LINE
  8
0
  6
CENTER
 62
     2
 10
-171.602509
 20
96.059525
 11
-171.602509
 21
87.279526
  0
LINE
  8
0
 10
-183.742523
 20
129.939514
 11
-182.872513
 21
128.439499
  0
LINE
  8
0
 10
-186.342529
 20
128.439514
 11
-185.472504
 21
126.939514
  0
LINE
  8
0
 10
-182.872528
 20
128.439514
 11
-183.742523
 21
126.939514
  0
LINE
  8
0
 10
-185.472504
 20
129.939514
 11
-186.342514
 21
128.439514
  0
LINE
  8
0
 10
-185.472504
 20
126.939514
 11
-183.742508
 21
126.939514
  0
LINE
  8
0
 10
-185.472504
 20
129.939514
 11
-183.742508
 21
129.939514
  0
LINE
  8
0
 10
-156.602509
 20
126.939514
 11
-156.602509
 21
144.939514
  0
LINE
  8
0
 10
-157.102509
 20
106.439514
 11
-156.602509
 21
105.939514
  0
LINE
  8
0
 10
-157.102509
 20
126.439514
 11
-156.602509
 21
126.939514
  0
LINE
  8
0
 10
-183.742523
 20
102.939522
 11
-182.872513
 21
104.439522
  0
LINE
  8
0
 10
-186.342514
 20
104.439514
 11
-185.472504
 21
105.939514
  0
LINE
  8
0
 10
-182.872513
 20
104.439529
 11
-183.742508
 21
105.939514
  0
LINE
  8
0
 10
-185.472504
 20
102.939522
 11
-186.342514
 21
104.439514
  0
LINE
  8
0
 10
-185.472504
 20
105.939514
 11
-183.742508
 21
105.939514
  0
LINE
  8
0
 10
-185.472504
 20
102.939514
 11
-183.742508
 21
102.939514
  0
LINE
  8
0
  6
CENTER
 62
     2
 10
-184.602509
 20
112.809517
 11
-184.602509
 21
96.209518
  0
LINE
  8
0
  6
CENTER
 62
     2
 10
-184.602509
 20
136.729507
 11
-184.602509
 21
119.989517
  0
LINE
  8
0
  6
CENTER
 62
     2
 10
-186.602509
 20
96.059525
 11
-186.602509
 21
87.279526
  0
LINE
  8
0
  6
CENTER
 62
     2
 10
-186.602509
 20
146.059509
 11
-186.602509
 21
137.279510
  0
LINE
  8
0
  6
CENTER
 62
     2
 10
-167.436066
 20
141.439514
 11
-175.894943
 21
141.439514
  0
LINE
  8
0
  6
CENTER
 62
     2
 10
-167.436066
 20
91.439514
 11
-175.894943
 21
91.439514
  0
LINE
  8
0
 10
-159.102493
 20
85.939522
 11
-157.102509
 21
87.939522
  0
LINE
  8
0
 10
-159.102509
 20
146.939514
 11
-157.102524
 21
144.939514
  0
LINE
  8
0
 10
-192.602509
 20
146.939514
 11
-192.602509
 21
85.939514
  0
LINE
  8
0
 10
-157.102509
 20
87.939514
 11
-157.102509
 21
144.939514
  0
LINE
  8
0
 10
-156.602509
 20
87.939514
 11
-156.602509
 21
105.939514
  0
LINE
  8
0
 10
-156.602509
 20
87.939514
 11
-158.602509
 21
85.939514
  0
LINE
  8
0
 10
-156.602509
 20
144.939514
 11
-158.602509
 21
146.939514
  0
LINE
  8
0
 10
-158.602509
 20
85.939514
 11
-192.602509
 21
85.939514
  0
LINE
  8
0
 10
-158.602509
 20
146.939514
 11
-192.602509
 21
146.939514
  0
LINE
  8
0
 10
-194.102509
 20
132.439514
 11
-194.602509
 21
132.939514
  0
LINE
  8
0
 10
-194.102509
 20
100.439514
 11
-194.602509
 21
99.939514
  0
LINE
  8
0
 10
-194.602509
 20
123.939514
 11
-194.602509
 21
108.939514
  0
LINE
  8
0
 10
-194.102509
 20
124.439514
 11
-194.602509
 21
123.939514
  0
LINE
  8
0
 10
-194.602509
 20
99.939514
 11
-194.602509
 21
86.639526
  0
LINE
  8
0
 10
-194.102509
 20
108.439514
 11
-194.102509
 21
100.439514
  0
LINE
  8
0
 10
-194.102509
 20
108.439514
 11
-194.602509
 21
108.939514
  0
LINE
  8
0
 10
-194.102509
 20
132.439514
 11
-194.102509
 21
124.439514
  0
LINE
  8
0
  6
CENTER
 62
     2
 10
-176.389343
 20
104.439514
 11
-195.182510
 21
104.439514
  0
LINE
  8
0
  6
CENTER
 62
     2
 10
-176.389343
 20
128.439514
 11
-195.072510
 21
128.439514
  0
LINE
  8
0
 10
-194.602509
 20
146.239502
 11
-194.602509
 21
132.939514
  0
LINE
  8
0
 10
45.387482
 20
73.939514
 11
55.387482
 21
73.939514
  0
LINE
  8
0
 10
-48.612518
 20
73.939514
 11
-38.612518
 21
73.939514
  0
LINE
  8
0
  6
CENTER
 62
     2
 10
-21.612518
 20
81.185669
 11
-21.612518
 21
73.399521
  0
LINE
  8
0
 10
-6.612518
 20
74.939514
 11
-26.612518
 21
74.939514
  0
LINE
  8
0
 10
-25.612518
 20
79.439514
 11
-7.612518
 21
79.439514
  0
LINE
  8
0
 10
-7.612518
 20
79.439514
 11
-7.612518
 21
74.939514
  0
LINE
  8
0
 10
-15.112518
 20
75.739517
 11
-15.112518
 21
79.439514
  0
LINE
  8
0
 10
-15.112515
 20
75.739525
 11
-14.592908
 21
75.439529
  0
LINE
  8
0
 10
-14.592911
 20
75.439514
 11
-8.632141
 21
75.439514
  0
LINE
  8
0
 10
-15.112518
 20
75.739517
 11
-8.112518
 21
75.739517
  0
LINE
  8
0
 10
-8.112524
 20
75.739525
 11
-8.632139
 21
75.439522
  0
LINE
  8
0
 10
-8.112518
 20
75.739517
 11
-8.112518
 21
79.439514
  0
LINE
  8
0
 10
-25.112518
 20
75.739517
 11
-25.112518
 21
79.439514
  0
LINE
  8
0
 10
-25.612518
 20
79.439514
 11
-25.612518
 21
74.939514
  0
LINE
  8
0
 10
-18.112518
 20
75.739517
 11
-18.112518
 21
79.439514
  0
LINE
  8
0
 10
-25.112518
 20
75.739517
 11
-18.112518
 21
75.739517
  0
LINE
  8
0
 10
-24.592903
 20
75.439514
 11
-18.632141
 21
75.439514
  0
LINE
  8
0
 10
-18.112524
 20
75.739525
 11
-18.632141
 21
75.439522
  0
LINE
  8
0
 10
-25.112522
 20
75.739525
 11
-24.592903
 21
75.439522
  0
LINE
  8
0
  6
CENTER
 62
     2
 10
-11.612518
 20
81.185669
 11
-11.612518
 21
73.399521
  0
LINE
  8
0
  6
CENTER
 62
     2
 10
-22.612518
 20
91.923813
 11
-22.612518
 21
100.853668
  0
LINE
  8
0
  6
CENTER
 62
     2
 10
-18.242523
 20
96.439514
 11
-27.072517
 21
96.439514
  0
LINE
  8
0
  6
CENTER
 62
     2
 10
-77.612518
 20
91.923813
 11
-77.612518
 21
100.853668
  0
LINE
  8
0
  6
CENTER
 62
     2
 10
-72.978271
 20
96.439514
 11
-82.449341
 21
96.439514
  0
LINE
  8
0
  6
CENTER
 62
     2
 10
-93.002823
 20
96.439514
 11
-102.672455
 21
96.439514
  0
LINE
  8
0
  6
CENTER
 62
     2
 10
-97.612518
 20
91.923813
 11
-97.612518
 21
100.853668
  0
LINE
  8
0
  6
CENTER
 62
     2
 10
-93.002823
 20
136.439514
 11
-102.672455
 21
136.439514
  0
LINE
  8
0
 10
45.387482
 20
85.939514
 11
12.387482
 21
85.939514
  0
LINE
  8
0
 10
55.387482
 20
86.939514
 11
45.387482
 21
86.939514
  0
LINE
  8
0
 10
45.387482
 20
71.939514
 11
55.387482
 21
71.939514
  0
LINE
  8
0
 10
55.387482
 20
84.939514
 11
45.387482
 21
84.939514
  0
LINE
  8
0
 10
79.387482
 20
75.439514
 11
79.387482
 21
74.189514
  0
LINE
  8
0
 10
73.387482
 20
74.189514
 11
79.387482
 21
74.189514
  0
LINE
  8
0
 10
73.387482
 20
82.689514
 11
79.387482
 21
82.689514
  0
LINE
  8
0
 10
79.387482
 20
75.439514
 11
83.237473
 21
75.439514
  0
LINE
  8
0
 10
79.387482
 20
81.439514
 11
83.237473
 21
81.439514
  0
LINE
  8
0
 10
58.387482
 20
72.439514
 11
55.387482
 21
72.439514
  0
LINE
  8
0
 10
58.387482
 20
84.439514
 11
55.387482
 21
84.439514
  0
LINE
  8
0
 10
82.517471
 20
81.439514
 11
82.517471
 21
75.439514
  0
LINE
  8
0
 10
83.237465
 20
75.439514
 11
83.387466
 21
75.689514
  0
LINE
  8
0
 10
83.237473
 20
81.439514
 11
83.387466
 21
81.189514
  0
LINE
  8
0
 10
55.917480
 20
78.439514
 11
57.847473
 21
78.439514
  0
LINE
  8
0
 10
35.687469
 20
79.939514
 11
35.687469
 21
76.939514
  0
LINE
  8
0
 10
73.387482
 20
82.689514
 11
73.387482
 21
74.189514
  0
LINE
  8
0
 10
72.637482
 20
83.439514
 11
72.637482
 21
73.439514
  0
LINE
  8
0
 10
58.387482
 20
83.439514
 11
72.637482
 21
83.439514
  0
LINE
  8
0
 10
58.387482
 20
73.439514
 11
72.637482
 21
73.439514
  0
LINE
  8
0
 62
     2
 10
58.387482
 20
73.939514
 11
73.137482
 21
73.939514
  0
LINE
  8
0
 62
     2
 10
58.387482
 20
82.939514
 11
73.137482
 21
82.939514
  0
LINE
  8
0
 10
58.387482
 20
84.439514
 11
58.387482
 21
72.439514
  0
LINE
  8
0
 10
35.387474
 20
77.239517
 11
35.687477
 21
76.939514
  0
LINE
  8
0
 10
35.387478
 20
79.639511
 11
35.687469
 21
79.939507
  0
LINE
  8
0
 10
35.387482
 20
79.639526
 11
35.387482
 21
77.239517
  0
LINE
  8
0
 10
35.687469
 20
79.939514
 11
43.387482
 21
79.939514
  0
LINE
  8
0
 10
35.687469
 20
76.939514
 11
43.387482
 21
76.939514
  0
LINE
  8
0
 10
73.387474
 20
82.689514
 11
72.637474
 21
83.439514
  0
LINE
  8
0
 10
73.387474
 20
74.189514
 11
72.637474
 21
73.439514
  0
LINE
  8
0
 10
43.387482
 20
82.689514
 11
45.387482
 21
82.689514
  0
LINE
  8
0
 10
43.387482
 20
74.189514
 11
45.387482
 21
74.189514
  0
LINE
  8
0
 10
83.387482
 20
81.189514
 11
83.387482
 21
75.689514
  0
LINE
  8
0
 10
43.387482
 20
82.689514
 11
43.387482
 21
74.189514
  0
LINE
  8
0
  6
CENTER
 62
     2
 10
33.947479
 20
78.439514
 11
87.177475
 21
78.439514
  0
LINE
  8
0
 10
55.387482
 20
71.939514
 11
55.387482
 21
86.939514
  0
LINE
  8
0
 10
45.387482
 20
71.939514
 11
45.387482
 21
86.939514
  0
LINE
  8
0
 10
79.387482
 20
82.689514
 11
79.387482
 21
81.439514
  0
LINE
  8
0
 10
-26.612518
 20
85.939514
 11
-117.612518
 21
85.939514
  0
LINE
  8
0
 10
-48.612518
 20
71.939514
 11
-38.612518
 21
71.939514
  0
LINE
  8
0
 10
-38.612518
 20
84.939514
 11
-48.612518
 21
84.939514
  0
LINE
  8
0
 10
-29.362518
 20
73.439514
 11
-38.612518
 21
73.439514
  0
LINE
  8
0
 10
-62.612518
 20
75.439514
 11
-62.612518
 21
74.189514
  0
LINE
  8
0
 10
-56.612518
 20
74.189514
 11
-62.612518
 21
74.189514
  0
LINE
  8
0
 10
-56.612518
 20
82.689514
 11
-62.612518
 21
82.689514
  0
LINE
  8
0
 10
-62.612518
 20
75.439514
 11
-66.462509
 21
75.439514
  0
LINE
  8
0
 10
-62.612518
 20
81.439514
 11
-66.462509
 21
81.439514
  0
LINE
  8
0
 10
-65.752518
 20
81.439514
 11
-65.752518
 21
75.439514
  0
LINE
  8
0
 10
-66.462517
 20
75.439529
 11
-66.602516
 21
75.689529
  0
LINE
  8
0
 10
-66.462517
 20
81.439522
 11
-66.602516
 21
81.189522
  0
LINE
  8
0
 10
-66.602509
 20
81.189514
 11
-66.602509
 21
75.689514
  0
LINE
  8
0
 10
-62.612518
 20
82.689514
 11
-62.612518
 21
81.439514
  0
LINE
  8
0
 10
-6.612518
 20
86.939514
 11
-26.612518
 21
86.939514
  0
LINE
  8
0
 10
-6.612518
 20
86.939514
 11
-6.612518
 21
74.939514
  0
LINE
  8
0
 10
-51.612518
 20
72.439514
 11
-48.612518
 21
72.439514
  0
LINE
  8
0
 10
-51.612518
 20
84.439514
 11
-48.612518
 21
84.439514
  0
LINE
  8
0
 10
-49.152519
 20
78.439514
 11
-51.082520
 21
78.439514
  0
LINE
  8
0
 10
-56.612518
 20
82.689514
 11
-56.612518
 21
74.189514
  0
LINE
  8
0
 10
-55.862518
 20
83.439514
 11
-55.862518
 21
73.439514
  0
LINE
  8
0
 10
-29.362518
 20
83.439514
 11
-29.362518
 21
73.439514
  0
LINE
  8
0
 10
-28.612518
 20
82.689514
 11
-28.612518
 21
74.189514
  0
LINE
  8
0
 10
-51.612518
 20
83.439514
 11
-55.862518
 21
83.439514
  0
LINE
  8
0
 10
-51.612518
 20
73.439514
 11
-55.862518
 21
73.439514
  0
LINE
  8
0
 62
     2
 10
-51.612518
 20
73.939514
 11
-56.362518
 21
73.939514
  0
LINE
  8
0
 62
     2
 10
-51.612518
 20
82.939514
 11
-56.362518
 21
82.939514
  0
LINE
  8
0
 10
-51.612518
 20
84.439514
 11
-51.612518
 21
72.439514
  0
LINE
  8
0
 10
-56.612518
 20
82.689514
 11
-55.862511
 21
83.439522
  0
LINE
  8
0
 10
-56.612518
 20
74.189514
 11
-55.862518
 21
73.439522
  0
LINE
  8
0
 10
-28.612518
 20
82.689529
 11
-29.362516
 21
83.439522
  0
LINE
  8
0
 10
-28.612518
 20
74.189529
 11
-29.362526
 21
73.439522
  0
LINE
  8
0
 10
-29.362518
 20
83.439514
 11
-38.612518
 21
83.439514
  0
LINE
  8
0
 62
     2
 10
-28.862518
 20
82.939514
 11
-38.612518
 21
82.939514
  0
LINE
  8
0
 62
     2
 10
-28.862518
 20
73.939514
 11
-38.612518
 21
73.939514
  0
LINE
  8
0
 10
-26.612518
 20
82.689514
 11
-28.612518
 21
82.689514
  0
LINE
  8
0
 10
-26.612518
 20
74.189514
 11
-28.612518
 21
74.189514
  0
LINE
  8
0
  6
CENTER
 62
     2
 10
-69.303864
 20
78.439514
 11
-26.002094
 21
78.439514
  0
LINE
  8
0
 10
-38.612518
 20
71.939514
 11
-38.612518
 21
85.939514
  0
LINE
  8
0
 10
-48.612518
 20
71.939514
 11
-48.612518
 21
85.939514
  0
LINE
  8
0
 10
-26.612518
 20
86.939514
 11
-26.612518
 21
74.189514
  0
LINE
  8
0
 10
23.187469
 20
116.139511
 11
23.187469
 21
114.439514
  0
LINE
  8
0
 10
23.187469
 20
116.139511
 11
21.987473
 21
116.139511
  0
LINE
  8
0
 10
23.187469
 20
116.739517
 11
21.987473
 21
116.739517
  0
LINE
  8
0
 10
21.987473
 20
116.739517
 11
21.987473
 21
116.139511
  0
LINE
  8
0
  6
CENTER
 62
     2
 10
75.557480
 20
96.439514
 11
8.827469
 21
96.439514
  0
LINE
  8
0
 10
62.387482
 20
92.939514
 11
62.387482
 21
99.939514
  0
LINE
  8
0
 10
62.387482
 20
92.939514
 11
12.387482
 21
92.939514
  0
LINE
  8
0
  6
CENTER
 62
     2
 10
75.557480
 20
136.439514
 11
8.827469
 21
136.439514
  0
LINE
  8
0
 10
62.387482
 20
139.939514
 11
62.387482
 21
132.939514
  0
LINE
  8
0
 10
62.387482
 20
139.939514
 11
12.387482
 21
139.939514
  0
LINE
  8
0
  6
CENTER
 62
     2
 10
-7.612518
 20
123.159515
 11
-7.612518
 21
109.959518
  0
LINE
  8
0
  6
CENTER
 62
     2
 10
-87.612518
 20
123.159515
 11
-87.612518
 21
109.959518
  0
LINE
  8
0
 10
23.187469
 20
118.439514
 11
23.187469
 21
116.739517
  0
LINE
  8
0
 10
-109.612518
 20
126.439514
 11
12.387482
 21
126.439514
  0
LINE
  8
0
 10
-109.612518
 20
126.939514
 11
12.387482
 21
126.939514
  0
LINE
  8
0
  6
CENTER
 62
     2
 10
-77.612518
 20
121.349518
 11
-77.612518
 21
111.689514
  0
LINE
  8
0
  6
CENTER
 62
     2
 10
-97.612518
 20
121.349518
 11
-97.612518
 21
111.689514
  0
LINE
  8
0
  6
CENTER
 62
     2
 10
-77.612518
 20
140.955215
 11
-77.612518
 21
132.025360
  0
LINE
  8
0
 10
12.387482
 20
87.939514
 11
-117.612518
 21
87.939514
  0
LINE
  8
0
 10
-109.612518
 20
105.939514
 11
12.387482
 21
105.939514
  0
LINE
  8
0
 10
-109.612518
 20
106.439514
 11
12.387482
 21
106.439514
  0
LINE
  8
0
 10
15.787476
 20
119.939514
 11
13.387482
 21
119.939514
  0
LINE
  8
0
 10
15.477478
 20
116.439514
 11
13.697479
 21
116.439514
  0
LINE
  8
0
 10
15.787476
 20
112.939514
 11
13.387482
 21
112.939514
  0
LINE
  8
0
 62
     2
 10
-72.978271
 20
136.439514
 11
-82.449341
 21
136.439514
  0
LINE
  8
0
 10
12.387482
 20
146.939514
 11
-117.612518
 21
146.939514
  0
LINE
  8
0
 10
12.387482
 20
144.939514
 11
-117.612518
 21
144.939514
  0
LINE
  8
0
 10
-76.612518
 20
118.439514
 11
-78.612518
 21
118.439514
  0
LINE
  8
0
  6
CENTER
 62
     2
 10
-97.612518
 20
140.955215
 11
-97.612518
 21
132.025360
  0
LINE
  8
0
  6
CENTER
 62
     2
 10
-22.612518
 20
140.955215
 11
-22.612518
 21
132.025360
  0
LINE
  8
0
 10
12.387482
 20
126.439514
 11
13.387482
 21
126.439514
  0
LINE
  8
0
 10
12.387482
 20
116.439514
 11
12.387482
 21
146.939514
  0
LINE
  8
0
  6
CENTER
 62
     2
 10
-18.242523
 20
136.439514
 11
-27.072517
 21
136.439514
  0
LINE
  8
0
 10
-76.612518
 20
114.439514
 11
-78.612518
 21
114.439514
  0
LINE
  8
0
 10
12.387482
 20
106.439514
 11
13.387482
 21
106.439514
  0
LINE
  8
0
 10
13.387482
 20
126.439514
 11
13.387482
 21
106.439514
  0
LINE
  8
0
 10
12.387482
 20
85.939514
 11
-6.612518
 21
85.939514
  0
LINE
  8
0
 10
12.387482
 20
116.439514
 11
12.387482
 21
85.939514
  0
LINE
  8
0
 10
-117.612518
 20
146.939514
 11
-117.612518
 21
85.939514
  0
LINE
  8
0
 10
-109.612518
 20
146.939514
 11
-109.612518
 21
85.939514
  0
LINE
  8
0
  6
CENTER
 62
     2
 10
78.897476
 20
116.439514
 11
-122.582504
 21
116.439514
  0
LINE
  8
0
 10
15.787476
 20
114.439514
 11
23.187469
 21
114.439514
  0
LINE
  8
0
 62
     2
 10
15.787476
 20
114.789513
 11
23.187469
 21
114.789513
  0
LINE
  8
0
 10
15.787476
 20
118.439514
 11
23.187469
 21
118.439514
  0
LINE
  8
0
 10
12.387482
 20
92.439514
 11
72.387482
 21
92.439514
  0
LINE
  8
0
 10
12.387482
 20
99.939514
 11
72.387482
 21
99.939514
  0
LINE
  8
0
 10
13.387482
 20
108.439514
 11
72.387482
 21
108.439514
  0
LINE
  8
0
 10
13.387482
 20
124.439514
 11
72.387482
 21
124.439514
  0
LINE
  8
0
 10
13.387482
 20
111.439514
 11
72.387482
 21
111.439514
  0
LINE
  8
0
 10
15.787476
 20
112.939514
 11
15.787476
 21
119.939514
  0
LINE
  8
0
 10
72.387482
 20
146.939514
 11
12.387482
 21
146.939514
  0
LINE
  8
0
 10
72.387482
 20
85.939514
 11
72.387482
 21
146.939514
  0
LINE
  8
0
 10
13.387482
 20
121.439514
 11
72.387482
 21
121.439514
  0
LINE
  8
0
 62
     2
 10
15.787476
 20
118.089516
 11
23.187469
 21
118.089516
  0
LINE
  8
0
 10
12.387482
 20
140.439514
 11
72.387482
 21
140.439514
  0
LINE
  8
0
 10
12.387482
 20
132.939514
 11
72.387482
 21
132.939514
  0
LINE
  8
0
 10
72.387482
 20
85.939514
 11
55.387482
 21
85.939514
  0
LINE
  8
0
  6
DASHED
 62
     2
 10
-52.612518
 20
85.939514
 11
-52.612518
 21
146.939514
  0
LINE
  8
0
  6
CENTER
 62
     2
 10
-37.612518
 20
110.439514
 11
-37.612518
 21
122.439514
  0
LINE
  8
0
  6
CENTER
 62
     2
 10
42.387482
 20
110.439514
 11
42.387482
 21
122.439514
  0
LINE
  8
0
  6
PHANTOM
 62
     3
 10
30.484650
 20
56.723755
 11
30.484650
 21
158.449738
  0
LINE
  8
0
  6
PHANTOM
 62
     3
 10
-70.055832
 20
56.723755
 11
-70.055832
 21
158.449738
  0
LINE
  8
0
 10
-271.250000
 20
-175.000000
 11
-131.250000
 21
-175.000000
  0
LINE
  8
0
 10
-271.250000
 20
-165.000000
 11
-131.250000
 21
-165.000000
  0
LINE
  8
0
 10
-131.250000
 20
-115.000000
 11
-131.250000
 21
-185.000000
  0
LINE
  8
0
 10
-146.250000
 20
-115.000000
 11
-146.250000
 21
-185.000000
  0
LINE
  8
0
 10
-161.250000
 20
-115.000000
 11
-161.250000
 21
-185.000000
  0
LINE
  8
0
 10
-176.250000
 20
-115.000000
 11
-176.250000
 21
-185.000000
  0
LINE
  8
0
 10
-191.250000
 20
-115.000000
 11
-191.250000
 21
-185.000000
  0
LINE
  8
0
 10
-206.250000
 20
-115.000000
 11
-206.250000
 21
-185.000000
  0
LINE
  8
0
 10
-221.250000
 20
-115.000000
 11
-221.250000
 21
-185.000000
  0
LINE
  8
0
 10
-236.249878
 20
-144.999954
 11
-239.769867
 21
-124.999954
  0
LINE
  8
0
 10
-236.250000
 20
-115.000000
 11
-236.250000
 21
-185.000000
  0
LINE
  8
0
 10
-271.250000
 20
-115.000000
 11
-131.250000
 21
-115.000000
  0
LINE
  8
0
 10
-271.250000
 20
-125.000000
 11
-239.769989
 21
-125.000000
  0
LINE
  8
0
 10
-271.250000
 20
-145.000000
 11
-131.250000
 21
-145.000000
  0
LINE
  8
0
 10
-271.250000
 20
-155.000000
 11
-131.250000
 21
-155.000000
  0
LINE
  8
0
 10
-271.250000
 20
-115.000000
 11
-271.250000
 21
-185.000000
  0
LINE
  8
0
 10
-271.250000
 20
-185.000000
 11
-131.250000
 21
-185.000000
  0
LINE
  8
0
 10
282.099854
 20
195.500000
 11
282.099854
 21
-195.000000
  0
LINE
  8
0
 10
-281.250000
 20
195.500000
 11
282.099854
 21
195.500000
  0
LINE
  8
0
 10
-281.250000
 20
195.500000
 11
-281.250000
 21
-195.000000
  0
LINE
  8
0
 10
-281.250000
 20
-195.000000
 11
282.099854
 21
-195.000000
  0
LINE
  8
0
 10
162.099976
 20
-175.000000
 11
162.099976
 21
-195.000000
  0
LINE
  8
0
 10
162.099976
 20
-175.000000
 11
282.099854
 21
-175.000000
  0
LINE
  8
0
 10
162.099976
 20
175.500000
 11
282.099854
 21
175.500000
  0
LINE
  8
0
 10
-281.250000
 20
175.500000
 11
-161.250000
 21
175.500000
  0
LINE
  8
0
 10
162.099976
 20
195.500000
 11
162.099976
 21
175.500000
  0
LINE
  8
0
 10
-161.250000
 20
195.500000
 11
-161.250000
 21
175.500000
  0
CIRCLE
  8
0
 10
176.279037
 20
-107.560471
 40
2.099999
  0
CIRCLE
  8
0
 62
     2
 10
176.279037
 20
-107.560471
 40
2.500000
  0
CIRCLE
  8
0
 10
216.279037
 20
-107.560471
 40
2.099999
  0
CIRCLE
  8
0
 62
     2
 10
216.279037
 20
-107.560471
 40
2.500000
  0
ARC
  8
0
 10
237.943451
 20
-66.560471
 40
8.660615
 50
159.732925
 51
200.266983
  0
ARC
  8
0
 10
237.943451
 20
-72.560471
 40
8.660615
 50
159.732925
 51
200.266983
  0
ARC
  8
0
 10
223.613495
 20
-66.560471
 40
8.671034
 50
339.758392
 51
20.241600
  0
ARC
  8
0
 10
223.613495
 20
-72.560471
 40
8.671034
 50
339.758392
 51
20.241600
  0
ARC
  8
0
 10
156.613510
 20
-66.560471
 40
8.671034
 50
339.758392
 51
20.241600
  0
ARC
  8
0
 10
156.613510
 20
-72.560471
 40
8.671034
 50
339.758392
 51
20.241600
  0
ARC
  8
0
 10
170.943466
 20
-66.560471
 40
8.660615
 50
159.732925
 51
200.266983
  0
ARC
  8
0
 10
170.943466
 20
-72.560471
 40
8.660615
 50
159.732925
 51
200.266983
  0
ARC
  8
0
 10
163.933121
 20
-109.310471
 40
5.047172
 50
159.712540
 51
200.287323
  0
ARC
  8
0
 10
160.333130
 20
-109.310471
 40
5.047184
 50
159.712677
 51
200.287323
  0
ARC
  8
0
 10
160.333130
 20
-105.810471
 40
5.047184
 50
159.712677
 51
200.287323
  0
ARC
  8
0
 10
163.933121
 20
-105.810471
 40
5.047172
 50
159.712540
 51
200.287323
  0
ARC
  8
0
 10
156.223877
 20
-105.810471
 40
5.057576
 50
339.756195
 51
20.243803
  0
ARC
  8
0
 10
156.223877
 20
-109.310471
 40
5.057576
 50
339.756195
 51
20.243803
  0
ARC
  8
0
 10
225.279037
 20
-107.560471
 40
2.000000
 50
90.000000
 51
270.000000
  0
ARC
  8
0
 10
227.279037
 20
-107.560471
 40
2.000000
 50
270.000000
 51
90.000000
  0
CIRCLE
  8
0
 10
186.278473
 20
-107.565422
 40
2.000000
  0
CIRCLE
  8
0
 10
166.281693
 20
-107.560440
 40
5.000000
  0
CIRCLE
  8
0
 62
     2
 10
156.289047
 20
-87.560471
 40
2.500000
  0
CIRCLE
  8
0
 10
156.289047
 20
-87.560471
 40
2.099999
  0
CIRCLE
  8
0
 62
     2
 10
156.289047
 20
-127.560471
 40
2.500000
  0
CIRCLE
  8
0
 10
156.289047
 20
-127.560471
 40
2.099999
  0
CIRCLE
  8
0
 10
-97.612518
 20
-127.560471
 40
2.099999
  0
CIRCLE
  8
0
 10
-77.612518
 20
-127.560471
 40
2.099999
  0
CIRCLE
  8
0
 62
     2
 10
-77.612518
 20
-127.560471
 40
2.500000
  0
CIRCLE
  8
0
 62
     2
 10
-97.612518
 20
-127.560471
 40
2.500000
  0
CIRCLE
  8
0
 10
-77.612518
 20
-87.560471
 40
2.099999
  0
CIRCLE
  8
0
 62
     2
 10
-77.612518
 20
-87.560471
 40
2.500000
  0
CIRCLE
  8
0
 10
-97.612518
 20
-87.560471
 40
2.099999
  0
CIRCLE
  8
0
 62
     2
 10
-97.612518
 20
-87.560471
 40
2.500000
  0
CIRCLE
  8
0
 10
-37.612518
 20
-107.560471
 40
2.099999
  0
CIRCLE
  8
0
 62
     2
 10
-37.612518
 20
-107.560471
 40
2.500000
  0
CIRCLE
  8
0
 10
42.387482
 20
-107.560471
 40
2.099999
  0
CIRCLE
  8
0
 62
     2
 10
42.387482
 20
-107.560471
 40
2.500000
  0
ARC
  8
0
 10
64.055084
 20
-66.560471
 40
8.672993
 50
159.763138
 51
200.236771
  0
ARC
  8
0
 10
64.055084
 20
-72.560471
 40
8.672992
 50
159.763168
 51
200.236771
  0
ARC
  8
0
 10
49.725128
 20
-66.560471
 40
8.658662
 50
339.728210
 51
20.271791
  0
ARC
  8
0
 10
49.725128
 20
-72.560471
 40
8.658662
 50
339.728210
 51
20.271791
  0
ARC
  8
0
 10
-57.274857
 20
-66.560471
 40
8.658662
 50
339.728210
 51
20.271791
  0
ARC
  8
0
 10
-57.274857
 20
-72.560471
 40
8.658662
 50
339.728210
 51
20.271791
  0
ARC
  8
0
 10
-42.944901
 20
-66.560471
 40
8.672993
 50
159.763138
 51
200.236771
  0
ARC
  8
0
 10
-42.944901
 20
-72.560471
 40
8.672992
 50
159.763168
 51
200.236771
  0
CIRCLE
  8
0
 10
-87.619858
 20
-107.560440
 40
5.000000
  0
ARC
  8
0
 10
-49.955246
 20
-109.310471
 40
5.059554
 50
159.764374
 51
200.235535
  0
ARC
  8
0
 10
-53.555237
 20
-109.310471
 40
5.059562
 50
159.764496
 51
200.235504
  0
ARC
  8
0
 10
-53.555237
 20
-105.810471
 40
5.059562
 50
159.764496
 51
200.235504
  0
ARC
  8
0
 10
-49.955246
 20
-105.810471
 40
5.059554
 50
159.764374
 51
200.235535
  0
ARC
  8
0
 10
-57.664490
 20
-105.810471
 40
5.054580
 50
339.743683
 51
20.256327
  0
ARC
  8
0
 10
-57.664490
 20
-109.310471
 40
5.054580
 50
339.743683
 51
20.256327
  0
ARC
  8
0
 10
51.387482
 20
-107.560471
 40
2.000000
 50
90.000000
 51
270.000000
  0
ARC
  8
0
 10
53.387482
 20
-107.560471
 40
2.000000
 50
270.000000
 51
90.000000
  0
CIRCLE
  8
0
 10
-27.609880
 20
-107.560440
 40
2.000000
  0
CIRCLE
  8
0
 10
2.387482
 20
-107.560471
 40
2.099999
  0
CIRCLE
  8
0
 62
     2
 10
2.387482
 20
-107.560471
 40
2.500000
  0
CIRCLE
  8
0
 10
-21.609894
 20
21.057682
 40
3.500000
  0
CIRCLE
  8
0
 10
-21.609894
 20
21.057682
 40
2.980385
  0
CIRCLE
  8
0
 10
-11.609894
 20
21.057682
 40
3.500000
  0
CIRCLE
  8
0
 10
-11.609894
 20
21.057682
 40
2.980385
  0
CIRCLE
  8
0
 10
50.390106
 20
-4.942308
 40
2.980385
  0
CIRCLE
  8
0
 10
50.390106
 20
-4.942308
 40
3.500000
  0
CIRCLE
  8
0
 10
50.390106
 20
-4.942308
 40
4.000000
  0
CIRCLE
  8
0
 10
50.390106
 20
5.057692
 40
2.980385
  0
CIRCLE
  8
0
 10
50.390106
 20
5.057692
 40
3.500000
  0
CIRCLE
  8
0
 10
50.390106
 20
5.057692
 40
4.000000
  0
ARC
  8
0
 10
-11.609894
 20
21.057682
 40
4.000001
 50
269.962189
 51
0.000000
  0
ARC
  8
0
 10
-21.609894
 20
21.057682
 40
4.000000
 50
180.116959
 51
269.962219
  0
CIRCLE
  8
0
 10
-43.609879
 20
-4.942308
 40
2.980385
  0
CIRCLE
  8
0
 10
-43.609879
 20
-4.942308
 40
3.500000
  0
CIRCLE
  8
0
 10
-43.609879
 20
-4.942308
 40
4.000000
  0
CIRCLE
  8
0
 10
-43.609879
 20
5.057692
 40
2.980385
  0
CIRCLE
  8
0
 10
-43.609879
 20
5.057692
 40
3.500000
  0
CIRCLE
  8
0
 10
-43.609879
 20
5.057692
 40
4.000000
  0
ARC
  8
0
 10
-60.944565
 20
16.549519
 40
5.672421
 50
147.951447
 51
212.048462
  0
ARC
  8
0
 10
-48.543037
 20
11.360004
 40
3.072490
 50
145.743027
 51
205.660004
  0
ARC
  8
0
 10
-40.145737
 20
16.554523
 40
11.472549
 50
162.420685
 51
197.579285
  0
ARC
  8
0
 10
-48.542519
 20
21.749073
 40
3.072943
 50
154.344833
 51
214.252060
  0
ARC
  8
0
 10
-51.676113
 20
11.352177
 40
3.063802
 50
334.424194
 51
34.545033
  0
ARC
  8
0
 10
-60.074036
 20
16.554523
 40
11.458003
 50
342.397675
 51
17.602325
  0
ARC
  8
0
 10
-51.676628
 20
21.756901
 40
3.064248
 50
325.459808
 51
25.571003
  0
ARC
  8
0
 10
77.724808
 20
16.549519
 40
5.659481
 50
327.869385
 51
32.130600
  0
ARC
  8
0
 10
55.323883
 20
11.352177
 40
3.063802
 50
334.424194
 51
34.545033
  0
ARC
  8
0
 10
46.925964
 20
16.554523
 40
11.457988
 50
342.397644
 51
17.602358
  0
ARC
  8
0
 10
55.323349
 20
21.756901
 40
3.064261
 50
325.459961
 51
25.570848
  0
ARC
  8
0
 10
58.456955
 20
11.360004
 40
3.072490
 50
145.743027
 51
205.660004
  0
ARC
  8
0
 10
66.854263
 20
16.554523
 40
11.472565
 50
162.420700
 51
197.579224
  0
ARC
  8
0
 10
58.457458
 20
21.749073
 40
3.072930
 50
154.344681
 51
214.252167
  0
ARC
  8
0
 10
-54.399734
 20
-7.463106
 40
1.785340
 50
334.188232
 51
34.165939
  0
ARC
  8
0
 10
-59.298172
 20
-4.448241
 40
6.685672
 50
342.483734
 51
0.066577
  0
ARC
  8
0
 10
-48.321682
 20
-4.447448
 40
6.690838
 50
179.940247
 51
197.509399
  0
ARC
  8
0
 10
-53.220734
 20
-7.472523
 40
1.794414
 50
145.667084
 51
205.338516
  0
ARC
  8
0
 10
-56.820724
 20
-7.472523
 40
1.794418
 50
145.667114
 51
205.338516
  0
ARC
  8
0
 10
-51.921696
 20
-4.447450
 40
6.690826
 50
179.940247
 51
197.509399
  0
ARC
  8
0
 10
14.001816
 20
15.078129
 40
1.785694
 50
342.780884
 51
25.949631
  0
CIRCLE
  8
0
 10
-30.609880
 20
-0.442308
 40
2.099999
  0
CIRCLE
  8
0
 62
     2
 10
-30.609880
 20
-0.442308
 40
2.500000
  0
CIRCLE
  8
0
 10
62.390106
 20
-0.442308
 40
2.099999
  0
ARC
  8
0
 10
15.179276
 20
15.090000
 40
1.795101
 50
154.616531
 51
197.523071
  0
CIRCLE
  8
0
 62
     2
 10
62.390106
 20
-0.442308
 40
2.500000
  0
CIRCLE
  8
0
 10
135.390106
 20
78.439529
 40
6.000000
  0
CIRCLE
  8
0
 10
135.390106
 20
78.439529
 40
1.000000
  0
CIRCLE
  8
0
 10
135.390106
 20
78.439529
 40
1.599999
  0
CIRCLE
  8
0
 10
135.390106
 20
78.439529
 40
2.000000
  0
CIRCLE
  8
0
 10
135.390106
 20
78.439529
 40
4.500000
  0
CIRCLE
  8
0
 10
135.390106
 20
78.439529
 40
5.000000
  0
CIRCLE
  8
0
 10
135.390106
 20
78.439529
 40
4.250000
  0
ARC
  8
0
 62
     2
 10
139.887466
 20
116.439514
 40
1.647539
 50
190.491608
 51
349.508392
  0
CIRCLE
  8
0
 10
152.390106
 20
104.439529
 40
5.200000
  0
CIRCLE
  8
0
 10
152.390106
 20
104.439529
 40
8.750000
  0
CIRCLE
  8
0
 10
152.390106
 20
104.439529
 40
8.500000
  0
CIRCLE
  8
0
 10
152.390106
 20
128.439499
 40
5.200000
  0
CIRCLE
  8
0
 10
152.390106
 20
128.439499
 40
8.750000
  0
CIRCLE
  8
0
 10
139.890106
 20
116.439514
 40
2.000000
  0
CIRCLE
  8
0
 10
139.890106
 20
116.439514
 40
3.500000
  0
CIRCLE
  8
0
 10
152.390106
 20
128.439499
 40
8.500000
  0
ARC
  8
0
 62
     2
 10
139.887466
 20
116.439514
 40
1.647539
 50
10.491612
 51
169.508392
  0
ARC
  8
0
 10
149.382462
 20
140.409500
 40
2.075012
 50
180.000000
 51
0.000000
  0
ARC
  8
0
 10
161.688782
 20
146.240829
 40
0.698686
 50
359.891144
 51
90.108864
  0
ARC
  8
0
 10
161.688782
 20
86.638214
 40
0.698686
 50
269.892395
 51
0.107612
  0
ARC
  8
0
 10
142.888794
 20
86.940842
 40
1.001328
 50
180.075531
 51
269.924927
  0
ARC
  8
0
 10
142.888794
 20
145.938187
 40
1.001328
 50
90.075089
 51
179.924042
  0
ARC
  8
0
 10
155.382462
 20
140.409500
 40
2.075012
 50
180.000000
 51
0.000000
  0
ARC
  8
0
 10
153.488785
 20
142.740829
 40
0.298678
 50
359.745331
 51
90.254662
  0
ARC
  8
0
 10
151.288788
 20
142.738190
 40
0.301318
 50
90.249527
 51
179.750473
  0
CIRCLE
  8
0
 10
-171.602509
 20
91.439514
 40
2.099999
  0
CIRCLE
  8
0
 62
     2
 10
-171.602509
 20
91.439514
 40
2.500000
  0
CIRCLE
  8
0
 10
-186.602509
 20
91.439514
 40
2.099999
  0
CIRCLE
  8
0
 62
     2
 10
-186.602509
 20
91.439514
 40
2.500000
  0
CIRCLE
  8
0
 10
-171.602509
 20
141.439514
 40
2.099999
  0
CIRCLE
  8
0
 62
     2
 10
-171.602509
 20
141.439514
 40
2.500000
  0
CIRCLE
  8
0
 10
-186.602509
 20
141.439514
 40
2.099999
  0
CIRCLE
  8
0
 62
     2
 10
-186.602509
 20
141.439514
 40
2.500000
  0
CIRCLE
  8
0
 10
-167.609879
 20
78.439529
 40
6.000000
  0
CIRCLE
  8
0
 10
-167.609879
 20
78.439529
 40
1.000000
  0
CIRCLE
  8
0
 10
-167.609879
 20
78.439529
 40
1.599999
  0
CIRCLE
  8
0
 10
-167.609879
 20
78.439529
 40
2.000000
  0
CIRCLE
  8
0
 10
-167.609879
 20
78.439529
 40
4.500000
  0
CIRCLE
  8
0
 10
-167.609879
 20
78.439529
 40
5.000000
  0
CIRCLE
  8
0
 10
-167.609879
 20
78.439529
 40
4.250000
  0
CIRCLE
  8
0
 10
-184.609863
 20
128.439499
 40
2.980385
  0
CIRCLE
  8
0
 10
-184.609863
 20
128.439499
 40
3.500000
  0
CIRCLE
  8
0
 10
-184.609863
 20
128.439499
 40
6.000000
  0
CIRCLE
  8
0
 10
-184.609863
 20
128.439499
 40
6.500000
  0
CIRCLE
  8
0
 10
-184.609863
 20
104.439499
 40
2.980385
  0
CIRCLE
  8
0
 10
-184.609863
 20
104.439499
 40
3.500000
  0
CIRCLE
  8
0
 10
-184.609863
 20
104.439499
 40
6.000000
  0
CIRCLE
  8
0
 10
-184.609863
 20
104.439499
 40
6.500000
  0
ARC
  8
0
 10
-193.906174
 20
146.243179
 40
0.696344
 50
89.698677
 51
180.301315
  0
ARC
  8
0
 10
-193.906189
 20
86.635834
 40
0.696329
 50
179.696793
 51
270.302582
  0
CIRCLE
  8
0
 10
-22.612518
 20
96.439514
 40
2.099999
  0
CIRCLE
  8
0
 62
     2
 10
-22.612518
 20
96.439514
 40
2.500000
  0
CIRCLE
  8
0
 10
-77.612518
 20
96.439514
 40
2.099999
  0
CIRCLE
  8
0
 62
     2
 10
-77.612518
 20
96.439514
 40
2.500000
  0
CIRCLE
  8
0
 10
-97.612518
 20
96.439514
 40
2.099999
  0
CIRCLE
  8
0
 62
     2
 10
-97.612518
 20
96.439514
 40
2.500000
  0
CIRCLE
  8
0
 10
-22.612518
 20
136.439514
 40
2.099999
  0
CIRCLE
  8
0
 62
     2
 10
-22.612518
 20
136.439514
 40
2.500000
  0
CIRCLE
  8
0
 10
-77.612518
 20
136.439514
 40
2.099999
  0
CIRCLE
  8
0
 62
     2
 10
-77.612518
 20
136.439514
 40
2.500000
  0
CIRCLE
  8
0
 10
-97.612518
 20
136.439514
 40
2.099999
  0
CIRCLE
  8
0
 62
     2
 10
-97.612518
 20
136.439514
 40
2.500000
  0
ARC
  8
0
 10
64.055084
 20
75.439514
 40
8.672992
 50
159.763168
 51
200.236771
  0
ARC
  8
0
 10
64.055084
 20
81.439514
 40
8.672992
 50
159.763168
 51
200.236771
  0
ARC
  8
0
 10
49.725128
 20
75.439514
 40
8.658662
 50
339.728210
 51
20.271791
  0
ARC
  8
0
 10
49.725128
 20
81.439514
 40
8.658662
 50
339.728210
 51
20.271791
  0
ARC
  8
0
 10
-57.274857
 20
75.439514
 40
8.658662
 50
339.728210
 51
20.271791
  0
ARC
  8
0
 10
-57.274857
 20
81.439514
 40
8.658662
 50
339.728210
 51
20.271791
  0
ARC
  8
0
 10
-42.944901
 20
75.439514
 40
8.672992
 50
159.763168
 51
200.236771
  0
ARC
  8
0
 10
-42.944901
 20
81.439514
 40
8.672992
 50
159.763168
 51
200.236771
  0
ARC
  8
0
 10
18.444717
 20
114.689514
 40
5.059533
 50
159.764374
 51
200.235535
  0
ARC
  8
0
 10
18.444717
 20
118.189514
 40
5.059533
 50
159.764374
 51
200.235535
  0
ARC
  8
0
 10
-87.612518
 20
116.439514
 40
5.000000
 50
0.000000
 51
180.000000
  0
ARC
  8
0
 10
-76.619873
 20
116.439514
 40
2.000014
 50
270.210907
 51
89.789085
  0
ARC
  8
0
 10
-78.619873
 20
116.439514
 40
2.000014
 50
89.789085
 51
270.210907
  0
CIRCLE
  8
0
 10
-97.619873
 20
116.439514
 40
2.000000
  0
CIRCLE
  8
0
 10
-7.609894
 20
116.439514
 40
5.000000
  0
ARC
  8
0
 10
-87.612518
 20
116.439514
 40
5.000000
 50
180.000000
 51
0.000000
  0
ARC
  8
0
 10
10.735489
 20
118.189514
 40
5.054599
 50
339.743744
 51
20.256248
  0
ARC
  8
0
 10
10.735489
 20
114.689514
 40
5.054599
 50
339.743744
 51
20.256248
  0
CIRCLE
  8
0
  6
DASHED
 62
     2
 10
-37.612518
 20
116.439514
 40
2.099999
  0
CIRCLE
  8
0
  6
DASHED
 62
     2
 10
-37.612518
 20
116.439514
 40
3.750000
  0
CIRCLE
  8
0
 10
42.387482
 20
116.439514
 40
2.099999
  0
CIRCLE
  8
0
 10
42.387482
 20
116.439514
 40
3.750000
  0
TEXT
  8
0
 10
181.404938
 20
-165.525024
 40
4.500000
  1
MODEL:ARSZ16*10
 50
0.000000
 41
1.052632
 51
0.000000
  7
STANDARD
  0
TEXT
  8
0
 62
     3
 10
91.124451
 20
-61.118999
 40
4.500000
  1
STRETCH LINE C
 50
0.000000
 41
1.052632
 51
0.000000
  7
STANDARD
  0
TEXT
  8
0
 62
     3
 10
-135.820786
 20
-61.118999
 40
4.500000
  1
STRETCH LINE A
 50
0.000000
 41
1.052632
 51
0.000000
  7
STANDARD
  0
TEXT
  8
0
 62
     3
 10
-134.501907
 20
155.020569
 40
4.500000
  1
STRETCH LINE A
 50
0.000000
 41
1.052632
 51
0.000000
  7
STANDARD
  0
TEXT
  8
0
 62
     3
 10
8.186554
 20
-55.682949
 40
4.500000
  1
STRETCH LINE D
 50
0.000000
 41
1.052632
 51
0.000000
  7
STANDARD
  0
TEXT
  8
0
 62
     3
 10
-39.457184
 20
-48.215771
 40
4.500000
  1
STRETCH LINE C
 50
0.000000
 41
1.052632
 51
0.000000
  7
STANDARD
  0
TEXT
  8
0
 10
179.154938
 20
-157.525024
 40
4.500000
  1
(ST=10,20,30,40)
 50
0.000000
 41
1.052632
 51
0.000000
  7
STANDARD
  0
TEXT
  8
0
 10
-48.971378
 20
-158.222137
 40
4.500000
  1
(ST=50,60,80)
 50
0.000000
 41
1.052632
 51
0.000000
  7
STANDARD
  0
TEXT
  8
0
 62
     3
 10
191.202988
 20
-47.118999
 40
4.500000
  1
STRETCH LINE D
 50
0.000000
 41
1.052632
 51
0.000000
  7
STANDARD
  0
TEXT
  8
0
 10
-188.642654
 20
-183.050003
 40
4.500000
  1
30
 50
0.000000
 41
1.052632
 51
0.000000
  7
STANDARD
  0
TEXT
  8
0
 10
-203.642654
 20
-183.050003
 40
4.500000
  1
20
 50
0.000000
 41
1.052632
 51
0.000000
  7
STANDARD
  0
TEXT
  8
0
 10
-218.642654
 20
-183.050003
 40
4.500000
  1
10
 50
0.000000
 41
1.052632
 51
0.000000
  7
STANDARD
  0
TEXT
  8
0
 10
-231.392654
 20
-183.050003
 40
4.500000
  1
0
 50
0.000000
 41
1.052632
 51
0.000000
  7
STANDARD
  0
TEXT
  8
0
 10
-171.392654
 20
-183.050003
 40
4.500000
  1
0
 50
0.000000
 41
1.052632
 51
0.000000
  7
STANDARD
  0
TEXT
  8
0
 10
-143.642654
 20
-163.050003
 40
4.500000
  1
30
 50
0.000000
 41
1.052632
 51
0.000000
  7
STANDARD
  0
TEXT
  8
0
 10
-158.642654
 20
-163.050003
 40
4.500000
  1
10
 50
0.000000
 41
1.052632
 51
0.000000
  7
STANDARD
  0
TEXT
  8
0
 10
-171.392654
 20
-163.050003
 40
4.500000
  1
0
 50
0.000000
 41
1.052632
 51
0.000000
  7
STANDARD
  0
TEXT
  8
0
 10
-190.892654
 20
-163.050003
 40
4.500000
  1
-10
 50
0.000000
 41
1.052632
 51
0.000000
  7
STANDARD
  0
TEXT
  8
0
 10
-205.892654
 20
-163.050003
 40
4.500000
  1
-20
 50
0.000000
 41
1.052632
 51
0.000000
  7
STANDARD
  0
TEXT
  8
0
 10
-220.892654
 20
-163.050003
 40
4.500000
  1
-30
 50
0.000000
 41
1.052632
 51
0.000000
  7
STANDARD
  0
TEXT
  8
0
 10
-235.892654
 20
-163.050003
 40
4.500000
  1
-40
 50
0.000000
 41
1.052632
 51
0.000000
  7
STANDARD
  0
TEXT
  8
0
 10
-143.642654
 20
-183.050003
 40
4.500000
  1
15
 50
0.000000
 41
1.052632
 51
0.000000
  7
STANDARD
  0
TEXT
  8
0
 10
-156.392654
 20
-183.050003
 40
4.500000
  1
5
 50
0.000000
 41
1.052632
 51
0.000000
  7
STANDARD
  0
TEXT
  8
0
 10
-256.392670
 20
-183.050003
 40
4.500000
  1
D
 50
0.000000
 41
1.052632
 51
0.000000
  7
STANDARD
  0
TEXT
  8
0
 10
-256.392670
 20
-173.050003
 40
4.500000
  1
C
 50
0.000000
 41
1.052632
 51
0.000000
  7
STANDARD
  0
TEXT
  8
0
 10
-220.892654
 20
-153.050003
 40
4.500000
  1
-30
 50
0.000000
 41
1.052632
 51
0.000000
  7
STANDARD
  0
TEXT
  8
0
 10
-205.892654
 20
-153.050003
 40
4.500000
  1
-20
 50
0.000000
 41
1.052632
 51
0.000000
  7
STANDARD
  0
TEXT
  8
0
 10
-190.892654
 20
-153.050003
 40
4.500000
  1
-10
 50
0.000000
 41
1.052632
 51
0.000000
  7
STANDARD
  0
TEXT
  8
0
 10
-171.392654
 20
-153.050003
 40
4.500000
  1
0
 50
0.000000
 41
1.052632
 51
0.000000
  7
STANDARD
  0
TEXT
  8
0
 10
-158.642654
 20
-153.050003
 40
4.500000
  1
10
 50
0.000000
 41
1.052632
 51
0.000000
  7
STANDARD
  0
TEXT
  8
0
 10
-143.642654
 20
-153.050003
 40
4.500000
  1
30
 50
0.000000
 41
1.052632
 51
0.000000
  7
STANDARD
  0
TEXT
  8
0
 10
-235.892654
 20
-153.050003
 40
4.500000
  1
-40
 50
0.000000
 41
1.052632
 51
0.000000
  7
STANDARD
  0
TEXT
  8
0
 10
-231.392654
 20
-173.050003
 40
4.500000
  1
0
 50
0.000000
 41
1.052632
 51
0.000000
  7
STANDARD
  0
TEXT
  8
0
 10
-143.642654
 20
-173.050003
 40
4.500000
  1
15
 50
0.000000
 41
1.052632
 51
0.000000
  7
STANDARD
  0
TEXT
  8
0
 10
-156.392654
 20
-173.050003
 40
4.500000
  1
5
 50
0.000000
 41
1.052632
 51
0.000000
  7
STANDARD
  0
TEXT
  8
0
 10
-171.392654
 20
-173.050003
 40
4.500000
  1
0
 50
0.000000
 41
1.052632
 51
0.000000
  7
STANDARD
  0
TEXT
  8
0
 10
-188.642654
 20
-173.050003
 40
4.500000
  1
30
 50
0.000000
 41
1.052632
 51
0.000000
  7
STANDARD
  0
TEXT
  8
0
 10
-203.642654
 20
-173.050003
 40
4.500000
  1
20
 50
0.000000
 41
1.052632
 51
0.000000
  7
STANDARD
  0
TEXT
  8
0
 10
-218.642654
 20
-173.050003
 40
4.500000
  1
10
 50
0.000000
 41
1.052632
 51
0.000000
  7
STANDARD
  0
TEXT
  8
0
 10
-148.142654
 20
-113.050003
 40
4.500000
  1
（ｍｍ）
 50
0.000000
 41
0.833333
 51
0.000000
  7
STANDARD
  0
TEXT
  8
0
 10
-228.642654
 20
-113.050003
 40
4.500000
  1
STRETCH LIST
 50
0.000000
 41
1.052632
 51
0.000000
  7
STANDARD
  0
TEXT
  8
0
 10
-143.642654
 20
-133.050003
 40
4.500000
  1
80
 50
0.000000
 41
1.052632
 51
0.000000
  7
STANDARD
  0
TEXT
  8
0
 10
-158.642654
 20
-133.050003
 40
4.500000
  1
60
 50
0.000000
 41
1.052632
 51
0.000000
  7
STANDARD
  0
TEXT
  8
0
 10
-173.642654
 20
-133.050003
 40
4.500000
  1
50
 50
0.000000
 41
1.052632
 51
0.000000
  7
STANDARD
  0
TEXT
  8
0
 10
-188.642654
 20
-133.050003
 40
4.500000
  1
40
 50
0.000000
 41
1.052632
 51
0.000000
  7
STANDARD
  0
TEXT
  8
0
 10
-203.642654
 20
-133.050003
 40
4.500000
  1
30
 50
0.000000
 41
1.052632
 51
0.000000
  7
STANDARD
  0
TEXT
  8
0
 10
-218.642654
 20
-133.050003
 40
4.500000
  1
20
 50
0.000000
 41
1.052632
 51
0.000000
  7
STANDARD
  0
TEXT
  8
0
 10
-233.642654
 20
-133.050003
 40
4.500000
  1
10
 50
0.000000
 41
1.052632
 51
0.000000
  7
STANDARD
  0
TEXT
  8
0
 10
-270.892670
 20
-133.324997
 40
4.500000
  1
STRETCH
 50
0.000000
 41
1.052632
 51
0.000000
  7
STANDARD
  0
TEXT
  8
0
 10
-270.892670
 20
-140.074997
 40
4.500000
  1
  PLACE
 50
0.000000
 41
1.052632
 51
0.000000
  7
STANDARD
  0
TEXT
  8
0
 10
-267.642670
 20
-123.050003
 40
4.500000
  1
STROKE
 50
0.000000
 41
1.052632
 51
0.000000
  7
STANDARD
  0
TEXT
  8
0
 10
-256.392670
 20
-153.050003
 40
4.500000
  1
A
 50
0.000000
 41
1.052632
 51
0.000000
  7
STANDARD
  0
TEXT
  8
0
 10
-256.392670
 20
-163.050003
 40
4.500000
  1
B
 50
0.000000
 41
1.052632
 51
0.000000
  7
STANDARD
  0
TEXT
  8
0
 62
     3
 10
0.093933
 20
162.020569
 40
4.500000
  1
STRETCH LINE B
 50
0.000000
 41
1.052632
 51
0.000000
  7
STANDARD
  0
TEXT
  8
0
 10
196.250275
 20
180.830002
 40
6.299999
  1
Ｖｅｒ．　１．０
 50
0.000000
 41
0.833333
 51
0.000000
  7
STANDARD
  0
TEXT
  8
0
 10
167.564667
 20
-192.100006
 40
9.000000
  1
KOGANEI CORP.
 50
0.000000
 41
1.052632
 51
0.000000
  7
STANDARD
  0
TEXT
  8
0
 10
-253.399704
 20
180.830002
 40
6.299999
  1
ROD SLIDER
 50
0.000000
 41
1.052631
 51
0.000000
  7
STANDARD
  0
TEXT
  8
0
 10
-270.049713
 20
155.830002
 40
6.299999
  1
MODEL:ARSZ16*ST(50)
 50
0.000000
 41
1.052631
 51
0.000000
  7
STANDARD
  0
ENDSEC
  0
EOF
