  0
SECTION
  2
HEADER
  0
ENDSEC
  0
SECTION
  2
TABLES
  0
TABLE
  2
LTYPE
 70
     4
  0
LTYPE
  2
CONTINUOUS
 70
    64
  3
Solid line
 72
    65
 73
     0
 40
0.000000
  0
LTYPE
  2
DASHED
 70
    64
  3
__ __ __ __ __ __ __ __ __ __ __ __ __ __ __
 72
    65
 73
     2
 40
3.500000
 49
2.000000
 49
-1.500000
  0
LTYPE
  2
CENTER
 70
    64
  3
____ _ ____ _ ____ _ ____ _ ____ _ ____ _ ____
 72
    65
 73
     4
 40
17.500000
 49
13.000000
 49
-1.500000
 49
1.500000
 49
-1.500000
  0
LTYPE
  2
PHANTOM
 70
    64
  3
_____ _ _ _____ _ _ _____ _ _ _____ _ _ ____  
 72
    65
 73
     6
 40
15.500000
 49
8.000000
 49
-1.500000
 49
1.500000
 49
-1.500000
 49
1.500000
 49
-1.500000
  0
LTYPE
  2
DASHED1
 70
    64
  3
__ __ __ __ __ __ __ __ __ __ __ __ __ __ __
 72
    65
 73
     2
 40
1.500000
 49
1.000000
 49
-0.500000
  0
LTYPE
  2
DASHED2
 70
    64
  3
__ __ __ __ __ __ __ __ __ __ __ __ __ __ __
 72
    65
 73
     2
 40
3.500000
 49
2.500000
 49
-1.000000
  0
LTYPE
  2
DASHED3
 70
    64
  3
__ __ __ __ __ __ __ __ __ __ __ __ __ __ __
 72
    65
 73
     2
 40
6.000000
 49
4.000000
 49
-2.000000
  0
LTYPE
  2
DASHED4
 70
    64
  3
__ __ __ __ __ __ __ __ __ __ __ __ __ __ __
 72
    65
 73
     2
 40
12.000000
 49
10.000000
 49
-2.000000
  0
LTYPE
  2
DASHED5
 70
    64
  3
__ __ __ __ __ __ __ __ __ __ __ __ __ __ __
 72
    65
 73
     2
 40
17.000000
 49
15.000000
 49
-2.000000
  0
LTYPE
  2
DASHED6
 70
    64
  3
__ __ __ __ __ __ __ __ __ __ __ __ __ __ __
 72
    65
 73
     2
 40
29.000000
 49
27.000000
 49
-2.000000
  0
LTYPE
  2
PHANTOM1
 70
    64
  3
_____ _ _ _____ _ _ _____ _ _ _____ _ _ ____  
 72
    65
 73
     6
 40
31.000000
 49
25.000000
 49
-1.500000
 49
1.000000
 49
-1.000000
 49
1.000000
 49
-1.500000
  0
LTYPE
  2
PHANTOM2
 70
    64
  3
_____ _ _ _____ _ _ _____ _ _ _____ _ _ ____  
 72
    65
 73
     6
 40
36.000000
 49
27.000000
 49
-1.500000
 49
2.500000
 49
-1.000000
 49
2.500000
 49
-1.500000
  0
LTYPE
  2
PHANTOM3
 70
    64
  3
_____ _ _ _____ _ _ _____ _ _ _____ _ _ ____  
 72
    65
 73
     6
 40
78.000000
 49
64.000000
 49
-2.000000
 49
4.000000
 49
-2.000000
 49
4.000000
 49
-2.000000
  0
LTYPE
  2
CENTER1
 70
    64
  3
____ _ ____ _ ____ _ ____ _ ____ _ ____ _ ____
 72
    65
 73
     4
 40
19.000000
 49
14.000000
 49
-1.000000
 49
3.000000
 49
-1.000000
  0
LTYPE
  2
CENTER2
 70
    64
  3
____ _ ____ _ ____ _ ____ _ ____ _ ____ _ ____
 72
    65
 73
     4
 40
28.500000
 49
25.000000
 49
-1.000000
 49
1.500000
 49
-1.000000
  0
LTYPE
  2
CENTER3
 70
    64
  3
____ _ ____ _ ____ _ ____ _ ____ _ ____ _ ____
 72
    65
 73
     4
 40
31.500000
 49
27.000000
 49
-1.000000
 49
2.500000
 49
-1.000000
  0
LTYPE
  2
CENTER4
 70
    64
  3
____ _ ____ _ ____ _ ____ _ ____ _ ____ _ ____
 72
    65
 73
     4
 40
50.000000
 49
45.000000
 49
-1.000000
 49
3.000000
 49
-1.000000
  0
LTYPE
  2
CENTER5
 70
    64
  3
____ _ ____ _ ____ _ ____ _ ____ _ ____ _ ____
 72
    65
 73
     4
 40
100.000000
 49
92.000000
 49
-2.000000
 49
4.000000
 49
-2.000000
  0
LTYPE
  2
SBK1
 70
    64
  3
______ _ _ _ ______ _ _ _ ______ _ _ _ _____  
 72
    65
 73
     8
 40
60.500000
 49
45.000000
 49
-2.000000
 49
2.500000
 49
-2.000000
 49
2.500000
 49
-2.000000
 49
2.500000
 49
-2.000000
  0
LTYPE
  2
SBK2
 70
    64
  3
______ _ _ _ ______ _ _ _ ______ _ _ _ _____  
 72
    65
 73
     8
 40
84.000000
 49
64.000000
 49
-2.000000
 49
4.000000
 49
-2.000000
 49
4.000000
 49
-2.000000
 49
4.000000
 49
-2.000000
  0
LTYPE
  2
STCH
 70
    64
  3
__ __ __ __ __ __ __ __ __ __ __ __ __ __ __
 72
    65
 73
     2
 40
3.000000
 49
1.000000
 49
-2.000000
  0
LTYPE
  2
MTCH
 70
    64
  3
_____ _ _ _____ _ _ _____ _ _ _____ _ _ ____  
 72
    65
 73
     6
 40
80.000000
 49
66.000000
 49
-2.000000
 49
4.000000
 49
-2.000000
 49
4.000000
 49
-2.000000
  0
ENDTAB
  0
TABLE
  2
LAYER
 70
     1
  0
LAYER
  2
0
 70
     0
 62
     7
  6
CONTINUOUS
  0
ENDTAB
  0
TABLE
  2
STYLE
 70
     1
  0
STYLE
  2
STANDARD
 70
     0
 40
0.000000
 41
1.000000
 50
0.000000
 71
     0
 42
0.200000
  3
txt
  4
BIGFONT
  0
ENDTAB
  0
TABLE
  2
VIEW
 70
     0
  0
ENDTAB
  0
ENDSEC
  0
SECTION
  2
BLOCKS
  0
ENDSEC
  0
SECTION
  2
ENTITIES
  0
LINE
  8
0
 10
143.165710
 20
-138.307404
 11
245.965698
 21
-138.307404
  0
LINE
  8
0
 10
224.105698
 20
-75.307404
 11
224.105698
 21
-81.807404
  0
LINE
  8
0
 10
220.235703
 20
-75.307404
 11
220.235703
 21
-81.807404
  0
LINE
  8
0
 10
220.235703
 20
-81.807404
 11
224.105698
 21
-81.807404
  0
LINE
  8
0
 10
220.235703
 20
-78.107407
 11
224.105698
 21
-78.107407
  0
LINE
  8
0
 10
220.235703
 20
-77.807404
 11
224.105698
 21
-77.807404
  0
LINE
  8
0
 10
179.105713
 20
-75.307404
 11
179.105713
 21
-81.807404
  0
LINE
  8
0
 10
175.235718
 20
-75.307404
 11
175.235718
 21
-81.807404
  0
LINE
  8
0
 10
175.235718
 20
-81.807404
 11
179.105713
 21
-81.807404
  0
LINE
  8
0
 10
175.235718
 20
-78.107407
 11
179.105713
 21
-78.107407
  0
LINE
  8
0
 10
175.235718
 20
-77.807404
 11
179.105713
 21
-77.807404
  0
LINE
  8
0
 10
164.165710
 20
-111.307404
 11
166.365723
 21
-111.307404
  0
LINE
  8
0
 10
164.165710
 20
-110.057404
 11
164.165710
 21
-115.557404
  0
LINE
  8
0
 10
166.615723
 20
-112.807404
 11
167.925705
 21
-112.807404
  0
LINE
  8
0
 10
166.365723
 20
-115.557404
 11
166.365723
 21
-110.057404
  0
LINE
  8
0
 10
166.365723
 20
-110.057404
 11
168.165710
 21
-110.057404
  0
LINE
  8
0
 10
164.165710
 20
-114.307404
 11
166.365723
 21
-114.307404
  0
LINE
  8
0
 10
166.365723
 20
-115.557404
 11
168.165710
 21
-115.557404
  0
LINE
  8
0
 10
162.415710
 20
-112.807404
 11
164.165710
 21
-112.807404
  0
LINE
  8
0
 10
162.165710
 20
-110.057404
 11
164.165710
 21
-110.057404
  0
LINE
  8
0
 10
162.165710
 20
-110.057404
 11
162.165710
 21
-115.557404
  0
LINE
  8
0
 10
162.165710
 20
-115.557404
 11
164.165710
 21
-115.557404
  0
LINE
  8
0
 10
182.165710
 20
-87.307404
 11
217.165710
 21
-87.307404
  0
LINE
  8
0
 10
238.165710
 20
-78.307404
 11
238.165710
 21
-77.457413
  0
LINE
  8
0
 10
238.165710
 20
-78.307404
 11
241.165710
 21
-78.307404
  0
LINE
  8
0
 10
238.165710
 20
-83.307404
 11
241.165710
 21
-83.307404
  0
LINE
  8
0
 10
227.375702
 20
-80.807404
 11
228.965698
 21
-80.807404
  0
LINE
  8
0
 10
227.165710
 20
-85.807404
 11
229.165710
 21
-85.807404
  0
LINE
  8
0
 10
227.165710
 20
-75.807404
 11
229.165710
 21
-75.807404
  0
LINE
  8
0
 10
240.665710
 20
-83.307404
 11
240.665710
 21
-78.307404
  0
LINE
  8
0
 10
238.165710
 20
-84.157410
 11
238.165710
 21
-83.307404
  0
LINE
  8
0
 10
210.365707
 20
-82.057404
 11
210.365707
 21
-79.557404
  0
LINE
  8
0
 10
235.165710
 20
-84.157410
 11
235.165710
 21
-77.457413
  0
LINE
  8
0
 10
234.615707
 20
-84.707413
 11
234.615707
 21
-76.907410
  0
LINE
  8
0
 10
216.865707
 20
-84.707413
 11
216.865707
 21
-76.907410
  0
LINE
  8
0
 10
216.365707
 20
-84.207413
 11
216.365707
 21
-77.407410
  0
LINE
  8
0
 10
229.165710
 20
-76.907410
 11
234.615707
 21
-76.907410
  0
LINE
  8
0
 62
     2
 10
229.165710
 20
-77.207413
 11
234.925705
 21
-77.207413
  0
LINE
  8
0
 62
     2
 10
229.165710
 20
-84.397415
 11
234.925705
 21
-84.397415
  0
LINE
  8
0
 10
229.165710
 20
-84.707413
 11
234.615707
 21
-84.707413
  0
LINE
  8
0
 10
229.165710
 20
-85.807404
 11
229.165710
 21
-75.807404
  0
LINE
  8
0
 62
     2
 10
216.565704
 20
-84.397415
 11
217.165710
 21
-84.397415
  0
LINE
  8
0
 62
     2
 10
216.565704
 20
-77.207413
 11
217.165710
 21
-77.207413
  0
LINE
  8
0
 10
210.165710
 20
-81.857407
 11
210.165710
 21
-79.757416
  0
LINE
  8
0
 10
210.165710
 20
-79.757408
 11
210.365707
 21
-79.557411
  0
LINE
  8
0
 10
210.165710
 20
-81.857414
 11
210.365707
 21
-82.057404
  0
LINE
  8
0
 10
241.165710
 20
-83.307404
 11
241.165710
 21
-78.307404
  0
LINE
  8
0
 10
235.165710
 20
-77.457413
 11
238.165710
 21
-77.457413
  0
LINE
  8
0
 10
235.165710
 20
-84.157410
 11
238.165710
 21
-84.157410
  0
LINE
  8
0
 10
215.165710
 20
-77.407410
 11
216.365707
 21
-77.407410
  0
LINE
  8
0
 10
216.865707
 20
-76.907402
 11
216.365707
 21
-77.407402
  0
LINE
  8
0
 10
215.165710
 20
-84.207413
 11
216.365707
 21
-84.207413
  0
LINE
  8
0
 10
235.165695
 20
-77.457420
 11
234.615692
 21
-76.907425
  0
LINE
  8
0
 10
234.615707
 20
-84.707413
 11
235.165695
 21
-84.157417
  0
LINE
  8
0
 10
216.865707
 20
-84.707413
 11
216.365707
 21
-84.207413
  0
LINE
  8
0
 10
216.865707
 20
-84.707413
 11
217.165710
 21
-84.707413
  0
LINE
  8
0
 10
216.865707
 20
-76.907410
 11
217.165710
 21
-76.907410
  0
LINE
  8
0
 10
215.165710
 20
-84.207413
 11
215.165710
 21
-77.407410
  0
LINE
  8
0
 10
210.365707
 20
-79.557404
 11
215.165710
 21
-79.557404
  0
LINE
  8
0
 10
210.365707
 20
-82.057404
 11
215.165710
 21
-82.057404
  0
LINE
  8
0
  6
CENTER
 62
     2
 10
208.545700
 20
-80.807404
 11
242.275696
 21
-80.807404
  0
LINE
  8
0
 10
162.165710
 20
-83.307404
 11
162.165710
 21
-84.157410
  0
LINE
  8
0
 10
162.165710
 20
-83.307404
 11
159.165710
 21
-83.307404
  0
LINE
  8
0
 10
162.165710
 20
-78.307404
 11
159.165710
 21
-78.307404
  0
LINE
  8
0
 10
170.375717
 20
-80.807404
 11
171.965714
 21
-80.807404
  0
LINE
  8
0
 10
170.165710
 20
-85.807404
 11
172.165710
 21
-85.807404
  0
LINE
  8
0
 10
170.165710
 20
-75.807404
 11
172.165710
 21
-75.807404
  0
LINE
  8
0
 10
162.165710
 20
-77.457413
 11
162.165710
 21
-78.307404
  0
LINE
  8
0
 10
159.665710
 20
-78.307404
 11
159.665710
 21
-83.307404
  0
LINE
  8
0
 10
165.165710
 20
-77.457413
 11
165.165710
 21
-84.157410
  0
LINE
  8
0
 10
165.715714
 20
-76.907410
 11
165.715714
 21
-84.707413
  0
LINE
  8
0
 10
183.465714
 20
-76.907410
 11
183.465714
 21
-84.707413
  0
LINE
  8
0
 10
183.965714
 20
-77.407410
 11
183.965714
 21
-84.207413
  0
LINE
  8
0
 10
170.165710
 20
-84.707413
 11
165.715714
 21
-84.707413
  0
LINE
  8
0
 62
     2
 10
170.165710
 20
-84.397415
 11
165.415710
 21
-84.397415
  0
LINE
  8
0
 62
     2
 10
170.165710
 20
-77.207413
 11
165.415710
 21
-77.207413
  0
LINE
  8
0
 10
170.165710
 20
-76.907410
 11
165.715714
 21
-76.907410
  0
LINE
  8
0
 10
170.165710
 20
-75.807404
 11
170.165710
 21
-85.807404
  0
LINE
  8
0
 62
     2
 10
183.775711
 20
-77.207413
 11
182.165710
 21
-77.207413
  0
LINE
  8
0
 62
     2
 10
183.775711
 20
-84.397415
 11
182.165710
 21
-84.397415
  0
LINE
  8
0
 10
159.165710
 20
-78.307404
 11
159.165710
 21
-83.307404
  0
LINE
  8
0
 10
165.165710
 20
-84.157410
 11
162.165710
 21
-84.157410
  0
LINE
  8
0
 10
165.165710
 20
-77.457413
 11
162.165710
 21
-77.457413
  0
LINE
  8
0
 10
185.165710
 20
-84.207413
 11
183.965714
 21
-84.207413
  0
LINE
  8
0
 10
183.465698
 20
-84.707420
 11
183.965698
 21
-84.207420
  0
LINE
  8
0
 10
185.165710
 20
-77.407410
 11
183.965714
 21
-77.407410
  0
LINE
  8
0
 10
165.165695
 20
-84.157410
 11
165.715714
 21
-84.707405
  0
LINE
  8
0
 10
165.715714
 20
-76.907410
 11
165.165710
 21
-77.457413
  0
LINE
  8
0
 10
183.465698
 20
-76.907417
 11
183.965714
 21
-77.407417
  0
LINE
  8
0
 10
183.465714
 20
-76.907410
 11
182.165710
 21
-76.907410
  0
LINE
  8
0
 10
183.465714
 20
-84.707413
 11
182.165710
 21
-84.707413
  0
LINE
  8
0
  6
CENTER
 62
     2
 10
187.635712
 20
-80.807404
 11
158.065720
 21
-80.807404
  0
LINE
  8
0
 10
227.165710
 20
-87.307404
 11
245.965698
 21
-87.307404
  0
LINE
  8
0
 10
217.165710
 20
-88.307404
 11
227.165710
 21
-88.307404
  0
LINE
  8
0
 10
217.165710
 20
-75.307404
 11
227.165710
 21
-75.307404
  0
LINE
  8
0
 10
227.165710
 20
-88.307404
 11
227.165710
 21
-75.307404
  0
LINE
  8
0
 10
217.165710
 20
-88.307404
 11
217.165710
 21
-75.307404
  0
LINE
  8
0
 10
185.165710
 20
-76.307404
 11
205.165710
 21
-76.307404
  0
LINE
  8
0
 10
185.165710
 20
-87.307404
 11
185.165710
 21
-76.307404
  0
LINE
  8
0
 10
205.165710
 20
-87.307404
 11
205.165710
 21
-76.307404
  0
LINE
  8
0
 10
172.165710
 20
-75.307404
 11
182.165710
 21
-75.307404
  0
LINE
  8
0
 10
182.165710
 20
-88.307404
 11
182.165710
 21
-75.307404
  0
LINE
  8
0
 10
172.165710
 20
-88.307404
 11
172.165710
 21
-75.307404
  0
LINE
  8
0
 10
172.165710
 20
-88.307404
 11
182.165710
 21
-88.307404
  0
LINE
  8
0
 10
143.165710
 20
-87.307404
 11
172.165710
 21
-87.307404
  0
LINE
  8
0
 10
246.165680
 20
-87.507401
 11
245.965698
 21
-87.307419
  0
LINE
  8
0
 10
246.165680
 20
-138.107407
 11
245.965683
 21
-138.307404
  0
LINE
  8
0
 10
168.165710
 20
-138.307404
 11
168.165710
 21
-87.307404
  0
LINE
  8
0
 10
246.165710
 20
-138.107391
 11
246.165710
 21
-87.507416
  0
LINE
  8
0
  6
CENTER
 62
     2
 10
183.165710
 20
-116.331696
 11
183.165710
 21
-109.202980
  0
LINE
  8
0
 10
168.165710
 20
-126.307404
 11
246.165710
 21
-126.307404
  0
LINE
  8
0
 10
168.165710
 20
-125.807404
 11
246.165710
 21
-125.807404
  0
LINE
  8
0
 10
168.165710
 20
-99.307404
 11
246.165710
 21
-99.307404
  0
LINE
  8
0
 10
168.165710
 20
-99.807404
 11
246.165710
 21
-99.807404
  0
LINE
  8
0
 10
168.165710
 20
-117.307404
 11
246.165710
 21
-117.307404
  0
LINE
  8
0
 10
168.165710
 20
-108.307404
 11
246.165710
 21
-108.307404
  0
LINE
  8
0
 10
168.165710
 20
-117.807404
 11
246.165710
 21
-117.807404
  0
LINE
  8
0
 10
168.165710
 20
-107.807404
 11
246.165710
 21
-107.807404
  0
LINE
  8
0
 10
232.165710
 20
-114.807404
 11
234.165710
 21
-114.807404
  0
LINE
  8
0
 10
232.165710
 20
-110.807404
 11
234.165710
 21
-110.807404
  0
LINE
  8
0
  6
CENTER
 62
     2
 10
233.165710
 20
-116.331696
 11
233.165710
 21
-109.202980
  0
LINE
  8
0
  6
CENTER
 62
     2
 10
193.165710
 20
-116.331696
 11
193.165710
 21
-109.202980
  0
LINE
  8
0
  6
CENTER
 62
     2
 10
223.165710
 20
-116.331696
 11
223.165710
 21
-109.202980
  0
LINE
  8
0
 10
151.165710
 20
-136.807404
 11
168.165710
 21
-136.807404
  0
LINE
  8
0
 10
156.065720
 20
-118.807404
 11
168.165710
 21
-118.807404
  0
LINE
  8
0
 10
156.065720
 20
-124.807404
 11
168.165710
 21
-124.807404
  0
LINE
  8
0
 10
156.065720
 20
-106.807404
 11
168.165710
 21
-106.807404
  0
LINE
  8
0
 10
156.065720
 20
-100.807404
 11
168.165710
 21
-100.807404
  0
LINE
  8
0
  6
CENTER
 62
     2
 10
139.575714
 20
-103.807404
 11
172.264893
 21
-103.807404
  0
LINE
  8
0
  6
CENTER
 62
     2
 10
139.765717
 20
-121.807404
 11
172.264893
 21
-121.807404
  0
LINE
  8
0
 10
151.165710
 20
-87.307404
 11
151.165710
 21
-138.307404
  0
LINE
  8
0
 10
143.165710
 20
-87.307404
 11
143.165710
 21
-138.307404
  0
LINE
  8
0
 10
152.665710
 20
-116.807404
 11
152.665710
 21
-126.807404
  0
LINE
  8
0
 10
151.165710
 20
-116.807404
 11
152.665710
 21
-116.807404
  0
LINE
  8
0
 10
151.165710
 20
-126.807404
 11
152.665710
 21
-126.807404
  0
LINE
  8
0
 10
152.665710
 20
-98.807404
 11
152.665710
 21
-108.807404
  0
LINE
  8
0
 10
151.165710
 20
-98.807404
 11
152.665710
 21
-98.807404
  0
LINE
  8
0
 10
151.165710
 20
-108.807404
 11
152.665710
 21
-108.807404
  0
LINE
  8
0
 10
152.665710
 20
-106.407402
 11
155.665710
 21
-106.407402
  0
LINE
  8
0
 10
152.665710
 20
-101.207405
 11
155.665710
 21
-101.207405
  0
LINE
  8
0
 10
155.665710
 20
-101.207397
 11
156.065720
 21
-100.807396
  0
LINE
  8
0
 10
155.665710
 20
-106.407402
 11
156.065720
 21
-106.807411
  0
LINE
  8
0
 10
152.665710
 20
-124.407402
 11
155.665710
 21
-124.407402
  0
LINE
  8
0
 10
155.665710
 20
-124.407402
 11
156.065720
 21
-124.807404
  0
LINE
  8
0
 10
152.665710
 20
-119.207405
 11
155.665710
 21
-119.207405
  0
LINE
  8
0
 10
155.665710
 20
-119.207397
 11
156.065720
 21
-118.807388
  0
LINE
  8
0
  6
CENTER
 62
     2
 10
160.659210
 20
-127.807404
 11
165.694336
 21
-127.807404
  0
LINE
  8
0
  6
CENTER
 62
     2
 10
160.596268
 20
-97.807404
 11
165.820206
 21
-97.807404
  0
LINE
  8
0
  6
CENTER
 62
     2
 10
163.165710
 20
-94.842728
 11
163.165710
 21
-100.444298
  0
LINE
  8
0
  6
CENTER
 62
     2
 10
163.165710
 20
-130.403305
 11
163.165710
 21
-125.305244
  0
LINE
  8
0
 10
151.165710
 20
-88.807404
 11
168.165710
 21
-88.807404
  0
LINE
  8
0
  6
PHANTOM
 62
     3
 10
166.570541
 20
-143.514786
 11
166.570541
 21
-116.557404
  0
LINE
  8
0
  6
PHANTOM
 62
     3
 10
159.576385
 20
-116.557404
 11
159.576385
 21
-109.057404
  0
LINE
  8
0
  6
PHANTOM
 62
     3
 10
156.825089
 20
-85.903519
 11
166.570541
 21
-85.903519
  0
LINE
  8
0
  6
PHANTOM
 62
     3
 10
159.576385
 20
-109.057404
 11
166.570541
 21
-109.057404
  0
LINE
  8
0
  6
PHANTOM
 62
     3
 10
159.576385
 20
-116.557404
 11
166.570541
 21
-116.557404
  0
LINE
  8
0
  6
PHANTOM
 62
     3
 10
166.570541
 20
-109.057404
 11
166.570541
 21
-85.903519
  0
LINE
  8
0
  6
PHANTOM
 62
     3
 10
156.825089
 20
-85.903519
 11
156.825089
 21
-78.209976
  0
LINE
  8
0
  6
PHANTOM
 62
     3
 10
207.785690
 20
-143.514786
 11
207.785690
 21
-70.816147
  0
LINE
  8
0
 10
151.165710
 20
-110.057404
 11
152.165710
 21
-110.057404
  0
LINE
  8
0
 10
151.165710
 20
-115.557404
 11
152.165710
 21
-115.557404
  0
LINE
  8
0
 10
152.165710
 20
-110.057404
 11
152.165710
 21
-115.557404
  0
LINE
  8
0
  6
CENTER
 62
     2
 10
138.197479
 20
-112.807404
 11
250.167526
 21
-112.807404
  0
LINE
  8
0
 10
-35.105171
 20
-77.738205
 11
-31.235170
 21
-77.738205
  0
LINE
  8
0
 10
-35.105171
 20
-78.038208
 11
-31.235170
 21
-78.038208
  0
LINE
  8
0
 10
-35.105171
 20
-81.738205
 11
-31.235170
 21
-81.738205
  0
LINE
  8
0
 10
-35.105171
 20
-75.238205
 11
-35.105171
 21
-81.738205
  0
LINE
  8
0
 10
-31.235170
 20
-75.238205
 11
-31.235170
 21
-81.738205
  0
LINE
  8
0
 10
49.894821
 20
-81.738205
 11
53.764816
 21
-81.738205
  0
LINE
  8
0
 10
49.894821
 20
-75.238205
 11
49.894821
 21
-81.738205
  0
LINE
  8
0
 10
53.764816
 20
-75.238205
 11
53.764816
 21
-81.738205
  0
LINE
  8
0
 10
49.894821
 20
-78.038208
 11
53.764816
 21
-78.038208
  0
LINE
  8
0
 10
49.894821
 20
-77.738205
 11
53.764816
 21
-77.738205
  0
LINE
  8
0
 10
-46.175156
 20
-111.238205
 11
-43.975159
 21
-111.238205
  0
LINE
  8
0
 10
-46.175156
 20
-109.988205
 11
-46.175156
 21
-115.488205
  0
LINE
  8
0
 10
-43.725159
 20
-112.738205
 11
-42.415169
 21
-112.738205
  0
LINE
  8
0
 10
-43.975159
 20
-115.488205
 11
-43.975159
 21
-109.988205
  0
LINE
  8
0
 10
-43.975159
 20
-109.988205
 11
-42.175171
 21
-109.988205
  0
LINE
  8
0
 10
-46.175156
 20
-114.238205
 11
-43.975159
 21
-114.238205
  0
LINE
  8
0
 10
-43.975159
 20
-115.488205
 11
-42.175171
 21
-115.488205
  0
LINE
  8
0
 10
-47.925156
 20
-112.738205
 11
-46.175156
 21
-112.738205
  0
LINE
  8
0
 10
-48.175156
 20
-109.988205
 11
-46.175156
 21
-109.988205
  0
LINE
  8
0
 10
-48.175156
 20
-109.988205
 11
-48.175156
 21
-115.488205
  0
LINE
  8
0
 10
-48.175156
 20
-115.488205
 11
-46.175156
 21
-115.488205
  0
LINE
  8
0
 10
-28.175171
 20
-87.238205
 11
46.824814
 21
-87.238205
  0
LINE
  8
0
 10
67.824814
 20
-78.238205
 11
67.824814
 21
-77.388214
  0
LINE
  8
0
 10
67.824814
 20
-78.238205
 11
70.824814
 21
-78.238205
  0
LINE
  8
0
 10
67.824814
 20
-83.238205
 11
70.824814
 21
-83.238205
  0
LINE
  8
0
 10
57.034821
 20
-80.738205
 11
58.624817
 21
-80.738205
  0
LINE
  8
0
 10
56.824814
 20
-85.738205
 11
58.824814
 21
-85.738205
  0
LINE
  8
0
 10
56.824814
 20
-75.738205
 11
58.824814
 21
-75.738205
  0
LINE
  8
0
 10
70.324814
 20
-83.238205
 11
70.324814
 21
-78.238205
  0
LINE
  8
0
 10
67.824814
 20
-84.088211
 11
67.824814
 21
-83.238205
  0
LINE
  8
0
 10
40.024826
 20
-81.988205
 11
40.024826
 21
-79.488205
  0
LINE
  8
0
 10
64.824814
 20
-84.088211
 11
64.824814
 21
-77.388214
  0
LINE
  8
0
 10
64.274826
 20
-84.638214
 11
64.274826
 21
-76.838211
  0
LINE
  8
0
 10
46.524826
 20
-84.638214
 11
46.524826
 21
-76.838211
  0
LINE
  8
0
 10
46.024826
 20
-84.138214
 11
46.024826
 21
-77.338211
  0
LINE
  8
0
 10
58.824814
 20
-76.838211
 11
64.274826
 21
-76.838211
  0
LINE
  8
0
 62
     2
 10
58.824814
 20
-77.138214
 11
64.584824
 21
-77.138214
  0
LINE
  8
0
 62
     2
 10
58.824814
 20
-84.328217
 11
64.584824
 21
-84.328217
  0
LINE
  8
0
 10
58.824814
 20
-84.638214
 11
64.274826
 21
-84.638214
  0
LINE
  8
0
 10
58.824814
 20
-85.738205
 11
58.824814
 21
-75.738205
  0
LINE
  8
0
 62
     2
 10
46.224823
 20
-84.328217
 11
46.824814
 21
-84.328217
  0
LINE
  8
0
 62
     2
 10
46.224823
 20
-77.138214
 11
46.824814
 21
-77.138214
  0
LINE
  8
0
 10
39.824814
 20
-81.788208
 11
39.824814
 21
-79.688217
  0
LINE
  8
0
 10
39.824821
 20
-79.688202
 11
40.024818
 21
-79.488197
  0
LINE
  8
0
 10
39.824825
 20
-81.788200
 11
40.024818
 21
-81.988190
  0
LINE
  8
0
 10
70.824814
 20
-83.238205
 11
70.824814
 21
-78.238205
  0
LINE
  8
0
 10
64.824814
 20
-77.388214
 11
67.824814
 21
-77.388214
  0
LINE
  8
0
 10
64.824814
 20
-84.088211
 11
67.824814
 21
-84.088211
  0
LINE
  8
0
 10
44.824814
 20
-77.338211
 11
46.024826
 21
-77.338211
  0
LINE
  8
0
 10
46.524818
 20
-76.838196
 11
46.024822
 21
-77.338196
  0
LINE
  8
0
 10
44.824814
 20
-84.138214
 11
46.024826
 21
-84.138214
  0
LINE
  8
0
 10
64.824806
 20
-77.388199
 11
64.274811
 21
-76.838196
  0
LINE
  8
0
 10
64.274818
 20
-84.638199
 11
64.824821
 21
-84.088211
  0
LINE
  8
0
 10
46.524815
 20
-84.638206
 11
46.024815
 21
-84.138206
  0
LINE
  8
0
 10
46.524826
 20
-84.638214
 11
46.824814
 21
-84.638214
  0
LINE
  8
0
 10
46.524826
 20
-76.838211
 11
46.824814
 21
-76.838211
  0
LINE
  8
0
 10
44.824814
 20
-84.138214
 11
44.824814
 21
-77.338211
  0
LINE
  8
0
 10
40.024826
 20
-79.488205
 11
44.824814
 21
-79.488205
  0
LINE
  8
0
 10
40.024826
 20
-81.988205
 11
44.824814
 21
-81.988205
  0
LINE
  8
0
  6
CENTER
 62
     2
 10
36.907654
 20
-80.738205
 11
73.183060
 21
-80.738205
  0
LINE
  8
0
 10
-48.175171
 20
-83.238205
 11
-48.175171
 21
-84.088211
  0
LINE
  8
0
 10
-48.175171
 20
-83.238205
 11
-51.175171
 21
-83.238205
  0
LINE
  8
0
 10
-48.175171
 20
-78.238205
 11
-51.175171
 21
-78.238205
  0
LINE
  8
0
 10
-39.965172
 20
-80.738205
 11
-38.375172
 21
-80.738205
  0
LINE
  8
0
 10
-40.175171
 20
-85.738205
 11
-38.175171
 21
-85.738205
  0
LINE
  8
0
 10
-40.175171
 20
-75.738205
 11
-38.175171
 21
-75.738205
  0
LINE
  8
0
 10
-48.175171
 20
-77.388214
 11
-48.175171
 21
-78.238205
  0
LINE
  8
0
 10
-50.675171
 20
-78.238205
 11
-50.675171
 21
-83.238205
  0
LINE
  8
0
 10
-45.175171
 20
-77.388214
 11
-45.175171
 21
-84.088211
  0
LINE
  8
0
 10
-44.625168
 20
-76.838211
 11
-44.625168
 21
-84.638214
  0
LINE
  8
0
 10
-26.875172
 20
-76.838211
 11
-26.875172
 21
-84.638214
  0
LINE
  8
0
 10
-26.375172
 20
-77.338211
 11
-26.375172
 21
-84.138214
  0
LINE
  8
0
 10
-40.175171
 20
-84.638214
 11
-44.625168
 21
-84.638214
  0
LINE
  8
0
 62
     2
 10
-40.175171
 20
-84.328217
 11
-44.925171
 21
-84.328217
  0
LINE
  8
0
 62
     2
 10
-40.175171
 20
-77.138214
 11
-44.925171
 21
-77.138214
  0
LINE
  8
0
 10
-40.175171
 20
-76.838211
 11
-44.625168
 21
-76.838211
  0
LINE
  8
0
 10
-40.175171
 20
-75.738205
 11
-40.175171
 21
-85.738205
  0
LINE
  8
0
 62
     2
 10
-26.565170
 20
-77.138214
 11
-28.175171
 21
-77.138214
  0
LINE
  8
0
 62
     2
 10
-26.565170
 20
-84.328217
 11
-28.175171
 21
-84.328217
  0
LINE
  8
0
 10
-51.175171
 20
-78.238205
 11
-51.175171
 21
-83.238205
  0
LINE
  8
0
 10
-45.175171
 20
-84.088211
 11
-48.175171
 21
-84.088211
  0
LINE
  8
0
 10
-45.175171
 20
-77.388214
 11
-48.175171
 21
-77.388214
  0
LINE
  8
0
 10
-25.175171
 20
-84.138214
 11
-26.375172
 21
-84.138214
  0
LINE
  8
0
 10
-26.875179
 20
-84.638222
 11
-26.375179
 21
-84.138222
  0
LINE
  8
0
 10
-25.175171
 20
-77.338211
 11
-26.375172
 21
-77.338211
  0
LINE
  8
0
 10
-45.175167
 20
-84.088211
 11
-44.625168
 21
-84.638206
  0
LINE
  8
0
 10
-44.625168
 20
-76.838211
 11
-45.175163
 21
-77.388214
  0
LINE
  8
0
 10
-26.875168
 20
-76.838219
 11
-26.375168
 21
-77.338219
  0
LINE
  8
0
 10
-26.875172
 20
-76.838211
 11
-28.175171
 21
-76.838211
  0
LINE
  8
0
 10
-26.875172
 20
-84.638214
 11
-28.175171
 21
-84.638214
  0
LINE
  8
0
  6
CENTER
 62
     2
 10
-22.705172
 20
-80.738205
 11
-52.275162
 21
-80.738205
  0
LINE
  8
0
 10
56.824814
 20
-87.238205
 11
75.624817
 21
-87.238205
  0
LINE
  8
0
 10
46.824814
 20
-88.238205
 11
56.824814
 21
-88.238205
  0
LINE
  8
0
 10
46.824814
 20
-75.238205
 11
56.824814
 21
-75.238205
  0
LINE
  8
0
 10
56.824814
 20
-88.238205
 11
56.824814
 21
-75.238205
  0
LINE
  8
0
 10
46.824814
 20
-88.238205
 11
46.824814
 21
-75.238205
  0
LINE
  8
0
 10
-25.175171
 20
-76.238205
 11
-5.175171
 21
-76.238205
  0
LINE
  8
0
 10
-25.175171
 20
-87.238205
 11
-25.175171
 21
-76.238205
  0
LINE
  8
0
 10
-5.175171
 20
-87.238205
 11
-5.175171
 21
-76.238205
  0
LINE
  8
0
 10
-38.175171
 20
-75.238205
 11
-28.175171
 21
-75.238205
  0
LINE
  8
0
 10
-28.175171
 20
-88.238205
 11
-28.175171
 21
-75.238205
  0
LINE
  8
0
 10
-38.175171
 20
-88.238205
 11
-38.175171
 21
-75.238205
  0
LINE
  8
0
 10
-38.175171
 20
-88.238205
 11
-28.175171
 21
-88.238205
  0
LINE
  8
0
 10
-107.175171
 20
-87.238205
 11
-38.175171
 21
-87.238205
  0
LINE
  8
0
  6
CENTER
 62
     2
 10
-77.175171
 20
-107.130661
 11
-77.175171
 21
-118.308205
  0
LINE
  8
0
 10
-99.175171
 20
-136.738205
 11
-42.175171
 21
-136.738205
  0
LINE
  8
0
 10
-99.175171
 20
-88.738205
 11
-42.175171
 21
-88.738205
  0
LINE
  8
0
  6
CENTER
 62
     2
 10
-70.999252
 20
-97.738205
 11
-63.747589
 21
-97.738205
  0
LINE
  8
0
  6
CENTER
 62
     2
 10
-70.999252
 20
-127.738205
 11
-63.747589
 21
-127.738205
  0
LINE
  8
0
  6
CENTER
 62
     2
 10
-67.175171
 20
-131.412689
 11
-67.175171
 21
-123.831429
  0
LINE
  8
0
  6
CENTER
 62
     2
 10
-87.175171
 20
-131.412689
 11
-87.175171
 21
-123.831429
  0
LINE
  8
0
  6
CENTER
 62
     2
 10
-67.175171
 20
-94.055725
 11
-67.175171
 21
-101.636986
  0
LINE
  8
0
  6
CENTER
 62
     2
 10
-87.175171
 20
-94.055725
 11
-87.175171
 21
-101.636986
  0
LINE
  8
0
  6
CENTER
 62
     2
 10
-90.886353
 20
-97.738205
 11
-83.524826
 21
-97.738205
  0
LINE
  8
0
  6
CENTER
 62
     2
 10
-90.886353
 20
-127.738205
 11
-83.524826
 21
-127.738205
  0
LINE
  8
0
 10
-94.275162
 20
-118.738205
 11
-42.175171
 21
-118.738205
  0
LINE
  8
0
 10
-94.675171
 20
-119.138206
 11
-94.275169
 21
-118.738197
  0
LINE
  8
0
 10
-97.675171
 20
-119.138206
 11
-94.675171
 21
-119.138206
  0
LINE
  8
0
 10
-94.275162
 20
-124.738205
 11
-42.175171
 21
-124.738205
  0
LINE
  8
0
 10
-94.675171
 20
-124.338203
 11
-94.275169
 21
-124.738205
  0
LINE
  8
0
 10
-97.675171
 20
-124.338203
 11
-94.675171
 21
-124.338203
  0
LINE
  8
0
 10
-94.275162
 20
-106.738205
 11
-42.175171
 21
-106.738205
  0
LINE
  8
0
 10
-94.675171
 20
-106.338203
 11
-94.275169
 21
-106.738220
  0
LINE
  8
0
 10
-94.675171
 20
-101.138206
 11
-94.275169
 21
-100.738205
  0
LINE
  8
0
 10
-97.675171
 20
-101.138206
 11
-94.675171
 21
-101.138206
  0
LINE
  8
0
 10
-97.675171
 20
-106.338203
 11
-94.675171
 21
-106.338203
  0
LINE
  8
0
 10
-94.275162
 20
-100.738205
 11
-42.175171
 21
-100.738205
  0
LINE
  8
0
 10
-99.075165
 20
-108.738205
 11
-97.675171
 21
-108.738205
  0
LINE
  8
0
 10
-99.075165
 20
-98.738205
 11
-97.675171
 21
-98.738205
  0
LINE
  8
0
 10
-97.675171
 20
-98.738205
 11
-97.675171
 21
-108.738205
  0
LINE
  8
0
  6
CENTER
 62
     2
 10
-110.745163
 20
-103.738205
 11
-38.065994
 21
-103.738205
  0
LINE
  8
0
  6
CENTER
 62
     2
 10
-110.555161
 20
-121.738205
 11
-38.065994
 21
-121.738205
  0
LINE
  8
0
 10
-99.175171
 20
-87.238205
 11
-99.175171
 21
-138.238205
  0
LINE
  8
0
 10
-107.175171
 20
-87.238205
 11
-107.175171
 21
-138.238205
  0
LINE
  8
0
 10
-99.075165
 20
-126.738205
 11
-97.675171
 21
-126.738205
  0
LINE
  8
0
 10
-99.075165
 20
-116.738205
 11
-97.675171
 21
-116.738205
  0
LINE
  8
0
 10
-97.675171
 20
-116.738205
 11
-97.675171
 21
-126.738205
  0
LINE
  8
0
 10
75.824814
 20
-87.438202
 11
75.624809
 21
-87.238213
  0
LINE
  8
0
 10
75.824814
 20
-138.038208
 11
75.624817
 21
-138.238205
  0
LINE
  8
0
 10
-42.175171
 20
-138.238205
 11
-42.175171
 21
-87.238205
  0
LINE
  8
0
 10
-107.175171
 20
-138.238205
 11
75.624817
 21
-138.238205
  0
LINE
  8
0
 10
75.824814
 20
-138.038193
 11
75.824814
 21
-87.438217
  0
LINE
  8
0
  6
CENTER
 62
     2
 10
-27.175171
 20
-116.290436
 11
-27.175171
 21
-108.448204
  0
LINE
  8
0
 10
-42.175171
 20
-126.238205
 11
75.824814
 21
-126.238205
  0
LINE
  8
0
 10
-42.175171
 20
-125.738205
 11
75.824814
 21
-125.738205
  0
LINE
  8
0
 10
-42.175171
 20
-99.238205
 11
75.824814
 21
-99.238205
  0
LINE
  8
0
 10
-42.175171
 20
-99.738205
 11
75.824814
 21
-99.738205
  0
LINE
  8
0
 10
-42.175171
 20
-117.238205
 11
75.824814
 21
-117.238205
  0
LINE
  8
0
 10
-42.175171
 20
-108.238205
 11
75.824814
 21
-108.238205
  0
LINE
  8
0
 10
-42.175171
 20
-117.738205
 11
75.824814
 21
-117.738205
  0
LINE
  8
0
 10
-42.175171
 20
-107.738205
 11
75.824814
 21
-107.738205
  0
LINE
  8
0
 10
61.824814
 20
-114.738205
 11
63.824814
 21
-114.738205
  0
LINE
  8
0
 10
61.824814
 20
-110.738205
 11
63.824814
 21
-110.738205
  0
LINE
  8
0
  6
CENTER
 62
     2
 10
62.824814
 20
-116.140289
 11
62.824814
 21
-108.998512
  0
LINE
  8
0
  6
CENTER
 62
     2
 10
-17.175171
 20
-116.290436
 11
-17.175171
 21
-109.328133
  0
LINE
  8
0
  6
CENTER
 62
     2
 10
52.824814
 20
-116.217430
 11
52.824814
 21
-108.448204
  0
LINE
  8
0
  6
CENTER
 62
     2
 10
-112.123398
 20
-112.738205
 11
79.696869
 21
-112.738205
  0
LINE
  8
0
  6
CENTER
 62
     3
 10
-57.989792
 20
-145.970825
 11
-57.989792
 21
-78.507843
  0
LINE
  8
0
  6
PHANTOM
 62
     3
 10
32.824829
 20
-145.970825
 11
32.824829
 21
-71.585663
  0
LINE
  8
0
  6
CENTER
 62
     2
 10
12.824829
 20
-116.262497
 11
12.824829
 21
-108.448204
  0
LINE
  8
0
  6
PHANTOM
 62
     3
 10
2.684509
 20
-145.970825
 11
2.684509
 21
-58.895584
  0
LINE
  8
0
 10
-99.175171
 20
-109.988205
 11
-98.175171
 21
-109.988205
  0
LINE
  8
0
 10
-99.175171
 20
-115.488205
 11
-98.175171
 21
-115.488205
  0
LINE
  8
0
 10
-98.175171
 20
-109.988205
 11
-98.175171
 21
-115.488205
  0
LINE
  8
0
 10
-48.175171
 20
-11.738206
 11
-48.175171
 21
-14.488206
  0
LINE
  8
0
 10
-46.175171
 20
-11.738206
 11
-46.175171
 21
-14.918205
  0
LINE
  8
0
 10
-47.925171
 20
-13.328205
 11
-46.175171
 21
-13.328205
  0
LINE
  8
0
 10
-47.925171
 20
-14.918205
 11
-46.175171
 21
-14.918205
  0
LINE
  8
0
 10
-48.175159
 20
-14.488201
 11
-47.925159
 21
-14.918201
  0
LINE
  8
0
 10
-46.175171
 20
-13.238206
 11
-43.975159
 21
-13.238206
  0
LINE
  8
0
 10
-43.725159
 20
-14.918205
 11
-42.415169
 21
-14.918205
  0
LINE
  8
0
 10
-43.975170
 20
-14.488207
 11
-43.725170
 21
-14.918207
  0
LINE
  8
0
 10
-43.975159
 20
-14.488206
 11
-43.975159
 21
-11.738206
  0
LINE
  8
0
 10
-43.725159
 20
-13.328205
 11
-42.415169
 21
-13.328205
  0
LINE
  8
0
 10
-42.175171
 20
-14.488203
 11
-42.415169
 21
-14.918204
  0
LINE
  8
0
 10
46.824814
 20
9.261795
 11
56.824814
 21
9.261795
  0
LINE
  8
0
 10
-38.175171
 20
9.261795
 11
-28.175171
 21
9.261795
  0
LINE
  8
0
 10
-20.175171
 20
6.262512
 11
-10.175171
 21
6.262512
  0
LINE
  8
0
 10
-6.170898
 20
10.261795
 11
-6.170898
 21
13.761795
  0
LINE
  8
0
 10
-24.169451
 20
10.261795
 11
-24.169451
 21
13.761795
  0
LINE
  8
0
 10
12.574829
 20
1.761795
 11
12.574829
 21
0.261795
  0
LINE
  8
0
 10
-10.925171
 20
1.761795
 11
-10.925171
 21
0.261795
  0
LINE
  8
0
 10
-17.425171
 20
1.761795
 11
-17.425171
 21
0.261795
  0
LINE
  8
0
 10
-40.925171
 20
1.761795
 11
-40.925171
 21
0.261795
  0
LINE
  8
0
 10
70.824814
 20
3.761795
 11
72.824814
 21
3.761795
  0
LINE
  8
0
 10
56.824814
 20
-0.738205
 11
75.824814
 21
-0.738205
  0
LINE
  8
0
 10
-28.175171
 20
-0.738205
 11
46.824814
 21
-0.738205
  0
LINE
  8
0
 10
-5.175171
 20
12.261795
 11
22.824829
 21
12.261795
  0
LINE
  8
0
 10
-28.175171
 20
0.261795
 11
-17.425171
 21
0.261795
  0
LINE
  8
0
 10
-28.175171
 20
1.761795
 11
22.824829
 21
1.761795
  0
LINE
  8
0
 62
     2
 10
67.824814
 20
3.531792
 11
70.324814
 21
7.991791
  0
LINE
  8
0
 62
     2
 10
67.824821
 20
7.991793
 11
70.324821
 21
3.531794
  0
LINE
  8
0
 10
70.324814
 20
3.531784
 11
70.324814
 21
2.411789
  0
LINE
  8
0
 10
67.824814
 20
3.531784
 11
70.324814
 21
3.531784
  0
LINE
  8
0
 10
67.824814
 20
7.991791
 11
70.324814
 21
7.991791
  0
LINE
  8
0
 10
67.824814
 20
7.991791
 11
67.824814
 21
3.531784
  0
LINE
  8
0
 10
57.034821
 20
2.871780
 11
58.624817
 21
2.871780
  0
LINE
  8
0
 10
57.034821
 20
8.641785
 11
58.624817
 21
8.641785
  0
LINE
  8
0
 10
70.324814
 20
2.411790
 11
70.824814
 21
2.911791
  0
LINE
  8
0
 10
40.024826
 20
7.011795
 11
40.024826
 21
4.511795
  0
LINE
  8
0
 10
70.324814
 20
9.111786
 11
70.324814
 21
7.991791
  0
LINE
  8
0
 10
64.824814
 20
9.111786
 11
64.824814
 21
2.411789
  0
LINE
  8
0
 10
64.274826
 20
9.661789
 11
64.274826
 21
1.861786
  0
LINE
  8
0
 10
46.524826
 20
9.661789
 11
46.524826
 21
1.861786
  0
LINE
  8
0
 10
46.024826
 20
9.161789
 11
46.024826
 21
2.361786
  0
LINE
  8
0
 10
58.824814
 20
1.861786
 11
64.274826
 21
1.861786
  0
LINE
  8
0
 62
     2
 10
58.824814
 20
2.161789
 11
64.584824
 21
2.161789
  0
LINE
  8
0
 62
     2
 10
58.824814
 20
9.351791
 11
64.584824
 21
9.351791
  0
LINE
  8
0
 10
58.824814
 20
9.661789
 11
64.274826
 21
9.661789
  0
LINE
  8
0
 10
58.824814
 20
10.761795
 11
58.824814
 21
0.761795
  0
LINE
  8
0
 10
58.624813
 20
-0.018210
 11
58.824814
 21
0.761794
  0
LINE
  8
0
 10
56.824825
 20
0.761794
 11
57.034824
 21
-0.018207
  0
LINE
  8
0
 10
57.034821
 20
-0.018219
 11
58.624817
 21
-0.018219
  0
LINE
  8
0
 10
58.624821
 20
11.531792
 11
58.824821
 21
10.761791
  0
LINE
  8
0
 10
56.824821
 20
10.761789
 11
57.034824
 21
11.531793
  0
LINE
  8
0
 10
57.034821
 20
11.531784
 11
58.624817
 21
11.531784
  0
LINE
  8
0
 62
     2
 10
46.224823
 20
9.351791
 11
46.824814
 21
9.351791
  0
LINE
  8
0
 62
     2
 10
46.224823
 20
2.161789
 11
46.824814
 21
2.161789
  0
LINE
  8
0
 10
39.824814
 20
6.811783
 11
39.824814
 21
4.711792
  0
LINE
  8
0
 10
39.824825
 20
4.711796
 11
40.024822
 21
4.511801
  0
LINE
  8
0
 10
39.824825
 20
6.811798
 11
40.024818
 21
7.011794
  0
LINE
  8
0
 10
70.324829
 20
9.111793
 11
70.824829
 21
8.611792
  0
LINE
  8
0
 10
70.824814
 20
8.611786
 11
70.824814
 21
2.911789
  0
LINE
  8
0
 10
64.824814
 20
2.411789
 11
70.324814
 21
2.411789
  0
LINE
  8
0
 10
64.824814
 20
9.111786
 11
70.324814
 21
9.111786
  0
LINE
  8
0
 10
44.824814
 20
2.361786
 11
46.024826
 21
2.361786
  0
LINE
  8
0
 10
46.524818
 20
1.861793
 11
46.024822
 21
2.361792
  0
LINE
  8
0
 10
44.824814
 20
9.161789
 11
46.024826
 21
9.161789
  0
LINE
  8
0
 10
64.824821
 20
2.411793
 11
64.274818
 21
1.861792
  0
LINE
  8
0
 10
64.274811
 20
9.661794
 11
64.824806
 21
9.111794
  0
LINE
  8
0
 10
46.524818
 20
9.661804
 11
46.024818
 21
9.161802
  0
LINE
  8
0
 10
46.524826
 20
9.661789
 11
46.824814
 21
9.661789
  0
LINE
  8
0
 10
46.524826
 20
1.861786
 11
46.824814
 21
1.861786
  0
LINE
  8
0
 10
44.824814
 20
9.161789
 11
44.824814
 21
2.361786
  0
LINE
  8
0
 10
40.024826
 20
4.511795
 11
44.824814
 21
4.511795
  0
LINE
  8
0
 10
40.024826
 20
7.011795
 11
44.824814
 21
7.011795
  0
LINE
  8
0
  6
CENTER
 62
     2
 10
38.204819
 20
5.761795
 11
71.934814
 21
5.761795
  0
LINE
  8
0
 62
     2
 10
-48.175167
 20
7.991793
 11
-50.675167
 21
3.531792
  0
LINE
  8
0
 62
     2
 10
-48.175163
 20
3.531783
 11
-50.675171
 21
7.991795
  0
LINE
  8
0
 10
-50.675171
 20
7.991791
 11
-50.675171
 21
9.111786
  0
LINE
  8
0
 10
-48.175171
 20
7.991791
 11
-50.675171
 21
7.991791
  0
LINE
  8
0
 10
-48.175171
 20
3.531784
 11
-50.675171
 21
3.531784
  0
LINE
  8
0
 10
-48.175171
 20
3.531784
 11
-48.175171
 21
7.991791
  0
LINE
  8
0
 10
-38.375172
 20
8.641785
 11
-39.965172
 21
8.641785
  0
LINE
  8
0
 10
-38.375172
 20
2.871780
 11
-39.965172
 21
2.871780
  0
LINE
  8
0
 10
-50.675167
 20
9.111787
 11
-51.175167
 21
8.611788
  0
LINE
  8
0
 10
-50.675171
 20
2.411789
 11
-50.675171
 21
3.531784
  0
LINE
  8
0
 10
-45.175171
 20
2.411789
 11
-45.175171
 21
9.111786
  0
LINE
  8
0
 10
-44.625168
 20
1.861786
 11
-44.625168
 21
9.661789
  0
LINE
  8
0
 10
-26.875172
 20
1.861786
 11
-26.875172
 21
9.661789
  0
LINE
  8
0
 10
-26.375172
 20
2.361786
 11
-26.375172
 21
9.161789
  0
LINE
  8
0
 10
-40.175171
 20
9.661789
 11
-44.625168
 21
9.661789
  0
LINE
  8
0
 62
     2
 10
-40.175171
 20
9.351791
 11
-44.925171
 21
9.351791
  0
LINE
  8
0
 62
     2
 10
-40.175171
 20
2.161789
 11
-44.925171
 21
2.161789
  0
LINE
  8
0
 10
-40.175171
 20
1.861786
 11
-44.625168
 21
1.861786
  0
LINE
  8
0
 10
-40.175171
 20
0.761795
 11
-40.175171
 21
10.761795
  0
LINE
  8
0
 10
-39.965168
 20
11.531792
 11
-40.175167
 21
10.761788
  0
LINE
  8
0
 10
-38.175171
 20
10.761784
 11
-38.375168
 21
11.531781
  0
LINE
  8
0
 10
-38.375172
 20
11.531784
 11
-39.965172
 21
11.531784
  0
LINE
  8
0
 10
-39.965168
 20
-0.018207
 11
-40.175167
 21
0.761788
  0
LINE
  8
0
 10
-38.175167
 20
0.761793
 11
-38.375168
 21
-0.018206
  0
LINE
  8
0
 10
-38.375172
 20
-0.018219
 11
-39.965172
 21
-0.018219
  0
LINE
  8
0
 62
     2
 10
-26.565170
 20
2.161789
 11
-28.175171
 21
2.161789
  0
LINE
  8
0
 62
     2
 10
-26.565170
 20
9.351791
 11
-28.175171
 21
9.351791
  0
LINE
  8
0
 10
-50.675171
 20
2.411791
 11
-51.175171
 21
2.911792
  0
LINE
  8
0
 10
-51.175171
 20
2.911789
 11
-51.175171
 21
8.611786
  0
LINE
  8
0
 10
-45.175171
 20
9.111786
 11
-50.675171
 21
9.111786
  0
LINE
  8
0
 10
-45.175171
 20
2.411789
 11
-50.675171
 21
2.411789
  0
LINE
  8
0
 10
-25.175171
 20
9.161789
 11
-26.375172
 21
9.161789
  0
LINE
  8
0
 10
-26.875166
 20
9.661782
 11
-26.375166
 21
9.161782
  0
LINE
  8
0
 10
-25.175171
 20
2.361786
 11
-26.375172
 21
2.361786
  0
LINE
  8
0
 10
-45.175159
 20
9.111788
 11
-44.625160
 21
9.661788
  0
LINE
  8
0
 10
-44.625168
 20
1.861793
 11
-45.175167
 21
2.411793
  0
LINE
  8
0
 10
-26.875172
 20
1.861796
 11
-26.375172
 21
2.361795
  0
LINE
  8
0
 10
-26.875172
 20
1.861786
 11
-28.175171
 21
1.861786
  0
LINE
  8
0
 10
-26.875172
 20
9.661789
 11
-28.175171
 21
9.661789
  0
LINE
  8
0
  6
CENTER
 62
     2
 10
-23.257378
 20
5.761795
 11
-52.081833
 21
5.761795
  0
LINE
  8
0
  6
CENTER
 62
     2
 10
-10.175171
 20
15.241791
 11
-10.175171
 21
5.241791
  0
LINE
  8
0
  6
CENTER
 62
     2
 10
-14.359480
 20
10.261795
 11
-5.495178
 21
10.261795
  0
LINE
  8
0
 10
-8.675177
 20
11.121790
 11
-10.175176
 21
11.991789
  0
LINE
  8
0
 10
-10.175179
 20
8.521785
 11
-11.675179
 21
9.391785
  0
LINE
  8
0
 10
-10.175171
 20
11.991791
 11
-11.675169
 21
11.121792
  0
LINE
  8
0
 10
-8.675179
 20
9.391789
 11
-10.175177
 21
8.521791
  0
LINE
  8
0
 10
-11.675171
 20
9.391785
 11
-11.675171
 21
11.121780
  0
LINE
  8
0
 10
-8.675171
 20
9.391785
 11
-8.675171
 21
11.121780
  0
LINE
  8
0
  6
CENTER
 62
     2
 10
-20.175171
 20
15.241791
 11
-20.175171
 21
5.241791
  0
LINE
  8
0
  6
CENTER
 62
     2
 10
-25.015171
 20
10.261795
 11
-15.881789
 21
10.261795
  0
LINE
  8
0
 10
-18.675175
 20
11.121789
 11
-20.175177
 21
11.991789
  0
LINE
  8
0
 10
-20.175179
 20
8.521784
 11
-21.675179
 21
9.391784
  0
LINE
  8
0
 10
-20.175173
 20
11.991790
 11
-21.675171
 21
11.121791
  0
LINE
  8
0
 10
-18.675177
 20
9.391782
 11
-20.175175
 21
8.521783
  0
LINE
  8
0
 10
-21.675171
 20
9.391785
 11
-21.675171
 21
11.121780
  0
LINE
  8
0
 10
-18.675171
 20
9.391785
 11
-18.675171
 21
11.121780
  0
LINE
  8
0
 10
-25.175171
 20
13.761795
 11
-5.175171
 21
13.761795
  0
LINE
  8
0
 10
-5.175171
 20
13.761795
 11
-5.175171
 21
1.761795
  0
LINE
  8
0
 10
-25.175171
 20
13.761795
 11
-25.175171
 21
1.761795
  0
LINE
  8
0
 10
46.824814
 20
11.261795
 11
56.824814
 21
11.261795
  0
LINE
  8
0
 10
-38.175171
 20
11.261795
 11
-28.175171
 21
11.261795
  0
LINE
  8
0
  6
CENTER
 62
     2
 10
46.984818
 20
-4.738205
 11
56.504822
 21
-4.738205
  0
LINE
  8
0
 10
53.324818
 20
-3.878201
 11
51.824818
 21
-3.008201
  0
LINE
  8
0
 10
51.824821
 20
-6.478209
 11
50.324810
 21
-5.608202
  0
LINE
  8
0
 10
51.824821
 20
-3.008213
 11
50.324821
 21
-3.878211
  0
LINE
  8
0
 10
53.324821
 20
-5.608199
 11
51.824810
 21
-6.478206
  0
LINE
  8
0
 10
50.324814
 20
-5.608206
 11
50.324814
 21
-3.878205
  0
LINE
  8
0
 10
53.324814
 20
-5.608206
 11
53.324814
 21
-3.878205
  0
LINE
  8
0
  6
CENTER
 62
     2
 10
51.824814
 20
0.401794
 11
51.824814
 21
-17.758205
  0
LINE
  8
0
  6
CENTER
 62
     2
 10
46.984818
 20
-12.738205
 11
56.504822
 21
-12.738205
  0
LINE
  8
0
 10
53.324818
 20
-11.878210
 11
51.824821
 21
-11.008210
  0
LINE
  8
0
 10
51.824818
 20
-14.478195
 11
50.324818
 21
-13.608197
  0
LINE
  8
0
 10
51.824814
 20
-11.008204
 11
50.324818
 21
-11.878204
  0
LINE
  8
0
 10
53.324821
 20
-13.608206
 11
51.824825
 21
-14.478206
  0
LINE
  8
0
 10
50.324814
 20
-13.608206
 11
50.324814
 21
-11.878205
  0
LINE
  8
0
 10
53.324814
 20
-13.608206
 11
53.324814
 21
-11.878205
  0
LINE
  8
0
  6
CENTER
 62
     2
 10
-38.015171
 20
-4.738205
 11
-28.495171
 21
-4.738205
  0
LINE
  8
0
 10
-31.675171
 20
-3.878208
 11
-33.175171
 21
-3.008207
  0
LINE
  8
0
 10
-33.175171
 20
-6.478206
 11
-34.675171
 21
-5.608206
  0
LINE
  8
0
 10
-33.175171
 20
-3.008205
 11
-34.675171
 21
-3.878205
  0
LINE
  8
0
 10
-31.675171
 20
-5.608205
 11
-33.175171
 21
-6.478206
  0
LINE
  8
0
 10
-34.675171
 20
-5.608206
 11
-34.675171
 21
-3.878205
  0
LINE
  8
0
 10
-31.675171
 20
-5.608206
 11
-31.675171
 21
-3.878205
  0
LINE
  8
0
  6
CENTER
 62
     2
 10
-33.175171
 20
0.481781
 11
-33.175171
 21
-17.758205
  0
LINE
  8
0
  6
CENTER
 62
     2
 10
-38.015171
 20
-12.738205
 11
-28.495171
 21
-12.738205
  0
LINE
  8
0
 10
-31.675173
 20
-11.878207
 11
-33.175171
 21
-11.008207
  0
LINE
  8
0
 10
-33.175171
 20
-14.478205
 11
-34.675171
 21
-13.608205
  0
LINE
  8
0
 10
-33.175171
 20
-11.008204
 11
-34.675175
 21
-11.878205
  0
LINE
  8
0
 10
-31.675167
 20
-13.608205
 11
-33.175171
 21
-14.478205
  0
LINE
  8
0
 10
-34.675171
 20
-13.608206
 11
-34.675171
 21
-11.878205
  0
LINE
  8
0
 10
-31.675171
 20
-13.608206
 11
-31.675171
 21
-11.878205
  0
LINE
  8
0
 10
-38.175171
 20
-16.238205
 11
-28.175171
 21
-16.238205
  0
LINE
  8
0
 10
56.824814
 20
11.261795
 11
56.824814
 21
-16.738205
  0
LINE
  8
0
 10
46.824814
 20
-16.238205
 11
56.824814
 21
-16.238205
  0
LINE
  8
0
 10
46.824814
 20
11.261795
 11
46.824814
 21
-16.738205
  0
LINE
  8
0
 10
-38.175171
 20
11.261795
 11
-38.175171
 21
-16.738205
  0
LINE
  8
0
 10
-28.175171
 20
11.261795
 11
-28.175171
 21
-16.738205
  0
LINE
  8
0
 10
-42.175171
 20
1.761795
 11
-42.175171
 21
-16.738205
  0
LINE
  8
0
 10
26.224823
 20
3.761795
 11
26.224823
 21
4.761795
  0
LINE
  8
0
 10
72.824814
 20
3.761795
 11
72.824814
 21
-0.738205
  0
LINE
  8
0
 10
22.824829
 20
3.761795
 11
44.824814
 21
3.761795
  0
LINE
  8
0
 10
-107.175171
 20
11.761795
 11
-99.175171
 21
11.761795
  0
LINE
  8
0
 10
-99.175171
 20
12.261795
 11
-25.175171
 21
12.261795
  0
LINE
  8
0
 10
-40.925171
 20
0.261795
 11
-40.035172
 21
0.261795
  0
LINE
  8
0
 10
-10.925171
 20
0.261795
 11
12.574829
 21
0.261795
  0
LINE
  8
0
 10
23.824820
 20
4.761795
 11
24.144815
 21
5.301787
  0
LINE
  8
0
 10
26.224823
 20
4.761788
 11
25.914824
 21
5.301789
  0
LINE
  8
0
 10
25.914825
 20
5.301788
 11
24.144821
 21
5.301788
  0
LINE
  8
0
 62
     2
 10
-97.675163
 20
-10.238211
 11
-94.675148
 21
-7.248204
  0
LINE
  8
0
 62
     2
 10
-97.675171
 20
-7.248209
 11
-94.675163
 21
-10.238214
  0
LINE
  8
0
 10
-97.675171
 20
-10.238205
 11
-94.675171
 21
-10.238205
  0
LINE
  8
0
 10
-97.675171
 20
-7.248205
 11
-94.675171
 21
-7.248205
  0
LINE
  8
0
 10
-97.675171
 20
-11.738205
 11
-42.175171
 21
-11.738205
  0
LINE
  8
0
 10
-97.675171
 20
-5.738205
 11
-42.175171
 21
-5.738205
  0
LINE
  8
0
 10
-94.675171
 20
-7.248205
 11
-94.675171
 21
-10.238205
  0
LINE
  8
0
 10
-99.175171
 20
-13.738205
 11
-97.675171
 21
-13.738205
  0
LINE
  8
0
 10
-99.175171
 20
-3.738205
 11
-97.675171
 21
-3.738205
  0
LINE
  8
0
 10
-97.675171
 20
-3.738205
 11
-97.675171
 21
-13.738205
  0
LINE
  8
0
 10
-107.175171
 20
-15.238205
 11
-99.175171
 21
-15.238205
  0
LINE
  8
0
 10
22.824829
 20
5.261795
 11
23.824829
 21
5.261795
  0
LINE
  8
0
 10
23.824829
 20
5.261795
 11
23.824829
 21
3.761795
  0
LINE
  8
0
 10
-99.175171
 20
1.761795
 11
-40.175171
 21
1.761795
  0
LINE
  8
0
 10
22.824829
 20
14.261795
 11
22.824829
 21
1.761795
  0
LINE
  8
0
 10
-107.175171
 20
13.761795
 11
-99.175171
 21
13.761795
  0
LINE
  8
0
 10
-99.175171
 20
14.261795
 11
22.824829
 21
14.261795
  0
LINE
  8
0
 10
-99.175171
 20
14.261795
 11
-99.175171
 21
-15.238205
  0
LINE
  8
0
 10
-107.175171
 20
13.761795
 11
-107.175171
 21
-15.238205
  0
LINE
  8
0
 10
-42.175171
 20
-0.738205
 11
-38.175171
 21
-0.738205
  0
LINE
  8
0
  6
CENTER
 62
     2
 10
-20.175171
 20
-3.428205
 11
-20.175171
 21
-14.018206
  0
LINE
  8
0
  6
CENTER
 62
     2
 10
65.824814
 20
-3.888206
 11
65.824814
 21
-14.018206
  0
LINE
  8
0
 10
72.824814
 20
-0.238205
 11
75.824814
 21
-0.238205
  0
LINE
  8
0
  6
CENTER
 62
     2
 10
-101.405167
 20
-8.738205
 11
72.177475
 21
-8.738205
  0
LINE
  8
0
 10
75.824814
 20
-0.238205
 11
75.824814
 21
-16.738205
  0
LINE
  8
0
 10
-42.175171
 20
-16.738205
 11
75.824814
 21
-16.738205
  0
LINE
  8
0
  6
CENTER
 62
     2
 10
-27.175171
 20
-13.582934
 11
-27.175171
 21
-20.771706
  0
LINE
  8
0
  6
CENTER
 62
     2
 10
52.824829
 20
-13.582934
 11
52.824829
 21
-20.771706
  0
LINE
  8
0
 10
-99.175171
 20
-14.488205
 11
-98.175171
 21
-14.488205
  0
LINE
  8
0
 10
-98.175171
 20
-13.738205
 11
-98.175171
 21
-14.488205
  0
LINE
  8
0
  6
PHANTOM
 62
     3
 10
35.606064
 20
-20.771706
 11
35.606064
 21
43.006683
  0
LINE
  8
0
  6
CENTER
 62
     3
 10
-57.989792
 20
-20.771706
 11
-57.989792
 21
43.006683
  0
LINE
  8
0
 10
118.804810
 20
67.761772
 11
120.804810
 21
65.761780
  0
LINE
  8
0
 10
118.804810
 20
70.781784
 11
118.804810
 21
67.761780
  0
LINE
  8
0
 10
116.304810
 20
78.761780
 11
116.304810
 21
66.761780
  0
LINE
  8
0
 10
116.304810
 20
78.761780
 11
116.804810
 21
78.761780
  0
LINE
  8
0
 10
118.804810
 20
76.761780
 11
118.804810
 21
71.731781
  0
LINE
  8
0
 62
     2
 10
124.024811
 20
71.961792
 11
123.744812
 21
72.251793
  0
LINE
  8
0
 62
     2
 10
123.604813
 20
71.541786
 11
123.314812
 21
71.821793
  0
LINE
  8
0
 62
     2
 10
124.594818
 20
71.961800
 11
124.874802
 21
72.251785
  0
LINE
  8
0
 62
     2
 10
125.014809
 20
71.541786
 11
125.294815
 21
71.821785
  0
LINE
  8
0
 62
     2
 10
125.294807
 20
71.821793
 11
124.874809
 21
72.251793
  0
LINE
  8
0
 62
     2
 10
124.874817
 20
70.271790
 11
125.294807
 21
70.691780
  0
LINE
  8
0
 62
     2
 10
123.314804
 20
71.821777
 11
123.744812
 21
72.251793
  0
LINE
  8
0
 62
     2
 10
123.744820
 20
70.271782
 11
123.314819
 21
70.691780
  0
LINE
  8
0
 62
     2
 10
125.294807
 20
70.691780
 11
125.014809
 21
70.971779
  0
LINE
  8
0
 62
     2
 10
124.874817
 20
70.271790
 11
124.594810
 21
70.551788
  0
LINE
  8
0
 62
     2
 10
123.314812
 20
70.691788
 11
123.604820
 21
70.971786
  0
LINE
  8
0
 62
     2
 10
123.744804
 20
70.271774
 11
124.024811
 21
70.551781
  0
LINE
  8
0
  6
CENTER
 62
     2
 10
124.304810
 20
64.761780
 11
124.304810
 21
77.308075
  0
LINE
  8
0
 10
122.074814
 20
73.761780
 11
126.534821
 21
73.761780
  0
LINE
  8
0
 10
122.074814
 20
68.761780
 11
126.534821
 21
68.761780
  0
LINE
  8
0
 10
121.424820
 20
76.261780
 11
127.194824
 21
76.261780
  0
LINE
  8
0
 10
118.534813
 20
71.261787
 11
121.424820
 21
76.261795
  0
LINE
  8
0
 10
127.194817
 20
66.261787
 11
130.084808
 21
71.261780
  0
LINE
  8
0
 10
130.084808
 20
71.261787
 11
127.194824
 21
76.261780
  0
LINE
  8
0
 10
121.424820
 20
66.261803
 11
118.534828
 21
71.261795
  0
LINE
  8
0
 10
121.424820
 20
66.261780
 11
127.194824
 21
66.261780
  0
LINE
  8
0
 10
116.304810
 20
66.761780
 11
119.804810
 21
66.761780
  0
LINE
  8
0
 10
146.304810
 20
65.761780
 11
146.304810
 21
77.761780
  0
LINE
  8
0
 10
120.804825
 20
65.761780
 11
146.304810
 21
65.761780
  0
LINE
  8
0
 10
118.804810
 20
76.761780
 11
130.804810
 21
76.761780
  0
LINE
  8
0
  6
CENTER
 62
     2
 10
117.804810
 20
71.261780
 11
130.814804
 21
71.261780
  0
LINE
  8
0
 10
128.304810
 20
79.261780
 11
128.304810
 21
76.761780
  0
LINE
  8
0
 10
126.834824
 20
102.961777
 11
130.784821
 21
102.961777
  0
LINE
  8
0
 10
126.834824
 20
103.561783
 11
130.784821
 21
103.561783
  0
LINE
  8
0
 10
126.604813
 20
114.761780
 11
126.604813
 21
121.761780
  0
LINE
  8
0
 10
126.604813
 20
91.761780
 11
126.604813
 21
84.761780
  0
LINE
  8
0
 10
126.784821
 20
99.761780
 11
130.834808
 21
99.761780
  0
LINE
  8
0
 10
130.834808
 20
99.761780
 11
132.854813
 21
103.261780
  0
LINE
  8
0
 10
132.854797
 20
103.261780
 11
130.834793
 21
106.761780
  0
LINE
  8
0
 10
126.784821
 20
106.761780
 11
130.834808
 21
106.761780
  0
LINE
  8
0
 10
126.784805
 20
99.761780
 11
124.764801
 21
103.261780
  0
LINE
  8
0
 10
124.764809
 20
103.261772
 11
126.784813
 21
106.761772
  0
LINE
  8
0
 10
130.804810
 20
84.261780
 11
131.304810
 21
84.261780
  0
LINE
  8
0
 10
130.804810
 20
122.261780
 11
131.304810
 21
122.261780
  0
LINE
  8
0
 10
126.604813
 20
91.761780
 11
131.304810
 21
91.761780
  0
LINE
  8
0
 10
126.604813
 20
114.761780
 11
131.304810
 21
114.761780
  0
LINE
  8
0
 10
124.804810
 20
103.331779
 11
124.804810
 21
113.261780
  0
LINE
  8
0
 10
131.804810
 20
101.451782
 11
131.804810
 21
98.261780
  0
LINE
  8
0
 10
124.804810
 20
93.261780
 11
124.804810
 21
103.181778
  0
LINE
  8
0
 10
123.304810
 20
109.261780
 11
123.304810
 21
127.261780
  0
LINE
  8
0
 10
146.504807
 20
116.461769
 11
146.804810
 21
116.761780
  0
LINE
  8
0
 10
146.504807
 20
108.061783
 11
146.804810
 21
107.761780
  0
LINE
  8
0
 10
146.504807
 20
116.461777
 11
146.504807
 21
108.061783
  0
LINE
  8
0
 10
146.504807
 20
90.061783
 11
146.504807
 21
98.461777
  0
LINE
  8
0
  6
CENTER
 62
     2
 10
128.804810
 20
108.261780
 11
128.804810
 21
98.261780
  0
LINE
  8
0
 10
115.804810
 20
79.761780
 11
117.804810
 21
77.761787
  0
LINE
  8
0
 10
115.804817
 20
126.761772
 11
117.804825
 21
128.761780
  0
LINE
  8
0
 10
131.804810
 20
108.261780
 11
131.804810
 21
105.061783
  0
LINE
  8
0
 10
129.804810
 20
108.261780
 11
133.304810
 21
108.261780
  0
LINE
  8
0
 10
129.804810
 20
98.261780
 11
133.304810
 21
98.261780
  0
LINE
  8
0
 10
123.304810
 20
93.261780
 11
129.804810
 21
93.261780
  0
LINE
  8
0
 10
123.304810
 20
113.261780
 11
129.804810
 21
113.261780
  0
LINE
  8
0
  6
CENTER
 62
     2
 10
114.134811
 20
118.261780
 11
133.030975
 21
118.261780
  0
LINE
  8
0
 10
123.304810
 20
127.261780
 11
128.304810
 21
127.261780
  0
LINE
  8
0
 10
123.304810
 20
79.261780
 11
128.304810
 21
79.261780
  0
LINE
  8
0
 10
128.304810
 20
128.761780
 11
128.304810
 21
127.261780
  0
LINE
  8
0
 10
117.804810
 20
128.761780
 11
146.104813
 21
128.761780
  0
LINE
  8
0
 10
131.804810
 20
77.761780
 11
146.104813
 21
77.761780
  0
LINE
  8
0
 10
115.804810
 20
126.761780
 11
115.804810
 21
79.761780
  0
LINE
  8
0
 10
123.304810
 20
109.261780
 11
124.304810
 21
109.261780
  0
LINE
  8
0
 10
124.304810
 20
96.761780
 11
124.304810
 21
109.261780
  0
LINE
  8
0
  6
CENTER
 62
     2
 10
114.134811
 20
88.261780
 11
133.030975
 21
88.261780
  0
LINE
  8
0
 10
129.804810
 20
98.261780
 11
129.804810
 21
91.761780
  0
LINE
  8
0
 10
123.304810
 20
96.761780
 11
124.304810
 21
96.761780
  0
LINE
  8
0
 10
129.804810
 20
84.761780
 11
129.804810
 21
79.761780
  0
LINE
  8
0
 10
126.604813
 20
84.761780
 11
131.304810
 21
84.761780
  0
LINE
  8
0
 10
123.304810
 20
79.761780
 11
129.804810
 21
79.761780
  0
LINE
  8
0
 10
123.304810
 20
96.761780
 11
123.304810
 21
79.261780
  0
LINE
  8
0
 10
129.804810
 20
108.261780
 11
129.804810
 21
114.761780
  0
LINE
  8
0
 10
126.604813
 20
121.761780
 11
131.304810
 21
121.761780
  0
LINE
  8
0
 10
129.804810
 20
121.761780
 11
129.804810
 21
126.761780
  0
LINE
  8
0
 10
123.304810
 20
126.761780
 11
129.804810
 21
126.761780
  0
LINE
  8
0
 10
134.204819
 20
123.331764
 11
133.734818
 21
122.861771
  0
LINE
  8
0
 10
137.404816
 20
123.331779
 11
137.884811
 21
122.861786
  0
LINE
  8
0
 10
143.404816
 20
123.331779
 11
143.884811
 21
122.861786
  0
LINE
  8
0
 10
140.204803
 20
123.331779
 11
139.734818
 21
122.861778
  0
LINE
  8
0
  6
CENTER
 62
     2
 10
133.254807
 20
121.231766
 11
138.214813
 21
121.231766
  0
LINE
  8
0
  6
CENTER
 62
     2
 10
144.364807
 20
121.231766
 11
139.404816
 21
121.231766
  0
LINE
  8
0
  6
CENTER
 62
     2
 10
138.804810
 20
85.175339
 11
138.804810
 21
125.571777
  0
LINE
  8
0
 10
143.884811
 20
121.261780
 11
143.884811
 21
122.861771
  0
LINE
  8
0
 10
139.734802
 20
121.261780
 11
139.734802
 21
122.881775
  0
LINE
  8
0
 10
133.734802
 20
121.231766
 11
133.734802
 21
122.861771
  0
LINE
  8
0
 10
137.884811
 20
121.231766
 11
137.884811
 21
122.861771
  0
LINE
  8
0
 10
130.804810
 20
122.261780
 11
130.804810
 21
127.761780
  0
LINE
  8
0
 10
130.804810
 20
84.261780
 11
130.804810
 21
76.761780
  0
LINE
  8
0
 10
133.304810
 20
124.761780
 11
133.304810
 21
128.761780
  0
LINE
  8
0
 10
144.304810
 20
124.761780
 11
144.304810
 21
128.761780
  0
LINE
  8
0
 10
131.304810
 20
91.761780
 11
131.304810
 21
84.261780
  0
LINE
  8
0
 10
131.304810
 20
114.761780
 11
131.304810
 21
122.261780
  0
LINE
  8
0
  6
CENTER
 62
     2
 10
131.184814
 20
94.261780
 11
147.584808
 21
94.261780
  0
LINE
  8
0
  6
CENTER
 62
     2
 10
112.324814
 20
103.261780
 11
149.684814
 21
103.261780
  0
LINE
  8
0
  6
CENTER
 62
     2
 10
130.904816
 20
112.261780
 11
147.614807
 21
112.261780
  0
LINE
  8
0
 10
143.404800
 20
123.861771
 11
144.304825
 21
124.761780
  0
LINE
  8
0
 10
143.404816
 20
123.331772
 11
143.404816
 21
123.861771
  0
LINE
  8
0
 10
134.204819
 20
123.861771
 11
133.304810
 21
124.761780
  0
LINE
  8
0
 10
137.404816
 20
123.331772
 11
137.404816
 21
123.561768
  0
LINE
  8
0
 10
134.204803
 20
123.331772
 11
134.204803
 21
123.861771
  0
LINE
  8
0
 10
137.704803
 20
123.861771
 11
139.904816
 21
123.861771
  0
LINE
  8
0
 10
140.204803
 20
123.331772
 11
140.204803
 21
123.561768
  0
LINE
  8
0
  6
CENTER
 62
     2
 10
141.804810
 20
118.541779
 11
141.804810
 21
126.251770
  0
LINE
  8
0
  6
CENTER
 62
     2
 10
135.804810
 20
118.541779
 11
135.804810
 21
126.121765
  0
LINE
  8
0
 10
117.804810
 20
77.761780
 11
130.804810
 21
77.761780
  0
LINE
  8
0
 10
146.804810
 20
116.761780
 11
146.804810
 21
128.061768
  0
LINE
  8
0
 10
146.804810
 20
98.761780
 11
146.804810
 21
107.761780
  0
LINE
  8
0
 10
146.504791
 20
90.061775
 11
146.804810
 21
89.761772
  0
LINE
  8
0
 10
146.504807
 20
98.461769
 11
146.804810
 21
98.761780
  0
LINE
  8
0
 10
130.304810
 20
111.261772
 11
133.304810
 21
108.261772
  0
LINE
  8
0
 10
130.304810
 20
95.261780
 11
133.304810
 21
98.261780
  0
LINE
  8
0
 10
133.304810
 20
108.261780
 11
133.304810
 21
98.261780
  0
LINE
  8
0
 10
130.304810
 20
95.261780
 11
130.304810
 21
91.761780
  0
LINE
  8
0
 10
130.304810
 20
111.261780
 11
130.304810
 21
114.761780
  0
LINE
  8
0
 10
146.804810
 20
78.461792
 11
146.804810
 21
89.761780
  0
LINE
  8
0
 10
-152.145172
 20
65.761787
 11
-150.145172
 21
67.761780
  0
LINE
  8
0
 10
-150.145172
 20
70.781784
 11
-150.145172
 21
67.761780
  0
LINE
  8
0
 10
-147.645172
 20
78.761780
 11
-147.645172
 21
66.761780
  0
LINE
  8
0
 10
-147.645172
 20
78.761780
 11
-148.145172
 21
78.761780
  0
LINE
  8
0
 10
-150.145172
 20
76.761780
 11
-150.145172
 21
71.731781
  0
LINE
  8
0
 62
     2
 10
-155.365173
 20
71.961784
 11
-155.075180
 21
72.251785
  0
LINE
  8
0
 62
     2
 10
-154.935181
 20
71.541786
 11
-154.655182
 21
71.821785
  0
LINE
  8
0
 62
     2
 10
-155.925186
 20
71.961792
 11
-156.205170
 21
72.251785
  0
LINE
  8
0
 62
     2
 10
-156.355179
 20
71.541786
 11
-156.635178
 21
71.821785
  0
LINE
  8
0
 62
     2
 10
-156.635178
 20
71.821785
 11
-156.205170
 21
72.251785
  0
LINE
  8
0
 62
     2
 10
-156.205170
 20
70.271774
 11
-156.635178
 21
70.691788
  0
LINE
  8
0
 62
     2
 10
-154.655151
 20
71.821785
 11
-155.075165
 21
72.251778
  0
LINE
  8
0
 62
     2
 10
-155.075180
 20
70.271790
 11
-154.655182
 21
70.691788
  0
LINE
  8
0
 62
     2
 10
-156.635178
 20
70.691795
 11
-156.355179
 21
70.971794
  0
LINE
  8
0
 62
     2
 10
-156.205170
 20
70.271782
 11
-155.925171
 21
70.551781
  0
LINE
  8
0
 62
     2
 10
-154.655182
 20
70.691788
 11
-154.935181
 21
70.971779
  0
LINE
  8
0
 62
     2
 10
-155.075180
 20
70.271782
 11
-155.365189
 21
70.551788
  0
LINE
  8
0
  6
CENTER
 62
     2
 10
-155.645172
 20
64.761780
 11
-155.645172
 21
77.761780
  0
LINE
  8
0
 10
-153.415176
 20
73.761780
 11
-157.875183
 21
73.761780
  0
LINE
  8
0
 10
-153.415176
 20
68.761780
 11
-157.875183
 21
68.761780
  0
LINE
  8
0
 10
-152.755173
 20
76.261780
 11
-158.525177
 21
76.261780
  0
LINE
  8
0
 10
-149.865173
 20
71.261787
 11
-152.755173
 21
76.261795
  0
LINE
  8
0
 10
-158.525177
 20
66.261795
 11
-161.415176
 21
71.261780
  0
LINE
  8
0
 10
-161.415176
 20
71.261787
 11
-158.525177
 21
76.261780
  0
LINE
  8
0
 10
-152.755188
 20
66.261795
 11
-149.865189
 21
71.261780
  0
LINE
  8
0
 10
-152.755173
 20
66.261780
 11
-158.525177
 21
66.261780
  0
LINE
  8
0
 10
-147.645172
 20
66.761780
 11
-151.145172
 21
66.761780
  0
LINE
  8
0
 10
-177.645172
 20
65.761780
 11
-177.645172
 21
77.761780
  0
LINE
  8
0
 10
-152.145172
 20
65.761780
 11
-177.645172
 21
65.761780
  0
LINE
  8
0
 10
-150.145172
 20
76.761780
 11
-162.145172
 21
76.761780
  0
LINE
  8
0
  6
CENTER
 62
     2
 10
-149.145172
 20
71.261780
 11
-162.145172
 21
71.261780
  0
LINE
  8
0
 10
-159.645172
 20
77.761780
 11
-159.645172
 21
76.761780
  0
LINE
  8
0
 10
-162.145172
 20
77.761780
 11
-162.145172
 21
76.761780
  0
LINE
  8
0
  6
CENTER
 62
     2
 10
-159.145172
 20
80.168701
 11
-159.145172
 21
86.552963
  0
LINE
  8
0
  6
CENTER
 62
     2
 10
-159.145172
 20
126.185165
 11
-159.145172
 21
119.883804
  0
LINE
  8
0
 10
-169.425156
 20
111.011772
 11
-168.695160
 21
112.261772
  0
LINE
  8
0
 10
-171.585190
 20
112.261780
 11
-170.865189
 21
113.511780
  0
LINE
  8
0
 10
-168.695175
 20
112.261780
 11
-169.425156
 21
113.511780
  0
LINE
  8
0
 10
-170.865173
 20
111.011787
 11
-171.585175
 21
112.261787
  0
LINE
  8
0
 10
-170.865173
 20
113.511780
 11
-169.425171
 21
113.511780
  0
LINE
  8
0
 10
-170.865173
 20
111.011780
 11
-169.425171
 21
111.011780
  0
LINE
  8
0
 10
-169.425171
 20
93.011780
 11
-168.695175
 21
94.261780
  0
LINE
  8
0
 10
-171.585175
 20
94.261772
 11
-170.865173
 21
95.511772
  0
LINE
  8
0
 10
-168.695175
 20
94.261780
 11
-169.425156
 21
95.511772
  0
LINE
  8
0
 10
-170.865173
 20
93.011787
 11
-171.585175
 21
94.261787
  0
LINE
  8
0
 10
-170.865173
 20
95.511780
 11
-169.425171
 21
95.511780
  0
LINE
  8
0
 10
-170.865173
 20
93.011780
 11
-169.425171
 21
93.011780
  0
LINE
  8
0
 10
-149.145187
 20
77.761787
 11
-147.145187
 21
79.761787
  0
LINE
  8
0
 10
-149.645172
 20
77.761772
 11
-147.645172
 21
79.761772
  0
LINE
  8
0
 10
-149.145187
 20
128.761765
 11
-147.145187
 21
126.761780
  0
LINE
  8
0
 10
-149.645172
 20
128.761780
 11
-147.645172
 21
126.761780
  0
LINE
  8
0
 10
-149.145172
 20
128.761780
 11
-177.445175
 21
128.761780
  0
LINE
  8
0
 10
-147.645172
 20
126.761780
 11
-147.645172
 21
79.761780
  0
LINE
  8
0
 10
-147.145172
 20
126.761780
 11
-147.145172
 21
79.761780
  0
LINE
  8
0
  6
CENTER
 62
     2
 10
-145.105179
 20
103.261780
 11
-181.035172
 21
103.261780
  0
LINE
  8
0
 10
-149.145172
 20
77.761780
 11
-177.445175
 21
77.761780
  0
LINE
  8
0
  6
CENTER
 62
     2
 10
-171.145172
 20
80.168701
 11
-171.145172
 21
86.552963
  0
LINE
  8
0
  6
CENTER
 62
     2
 10
-155.536606
 20
83.261780
 11
-174.795166
 21
83.261780
  0
LINE
  8
0
  6
CENTER
 62
     2
 10
-171.145172
 20
126.185165
 11
-171.145172
 21
119.883804
  0
LINE
  8
0
  6
CENTER
 62
     2
 10
-155.536606
 20
123.261780
 11
-174.935181
 21
123.261780
  0
LINE
  8
0
  6
CENTER
 62
     2
 10
-170.145172
 20
87.631783
 11
-170.145172
 21
100.631783
  0
LINE
  8
0
  6
CENTER
 62
     2
 10
-163.815170
 20
94.261780
 11
-176.362823
 21
94.261780
  0
LINE
  8
0
 10
-176.645172
 20
77.761780
 11
-176.645172
 21
128.761780
  0
LINE
  8
0
  6
CENTER
 62
     2
 10
-163.815170
 20
112.261780
 11
-176.362823
 21
112.261780
  0
LINE
  8
0
  6
CENTER
 62
     2
 10
-170.145172
 20
105.631783
 11
-170.145172
 21
118.631783
  0
LINE
  8
0
 10
-178.145172
 20
116.761780
 11
-178.145172
 21
128.061768
  0
LINE
  8
0
 10
-177.645172
 20
108.261780
 11
-178.145172
 21
107.761780
  0
LINE
  8
0
 10
-177.645172
 20
116.261772
 11
-178.145172
 21
116.761772
  0
LINE
  8
0
 10
-177.645172
 20
116.261780
 11
-177.645172
 21
108.261780
  0
LINE
  8
0
 10
-178.145172
 20
98.761780
 11
-178.145172
 21
107.761780
  0
LINE
  8
0
 10
-177.645172
 20
90.261780
 11
-178.145172
 21
89.761780
  0
LINE
  8
0
 10
-177.645172
 20
98.261772
 11
-178.145172
 21
98.761780
  0
LINE
  8
0
 10
-177.645172
 20
90.261780
 11
-177.645172
 21
98.261780
  0
LINE
  8
0
 10
-178.145172
 20
78.461792
 11
-178.145172
 21
89.761780
  0
LINE
  8
0
  6
DASHED
 62
     2
 10
75.914825
 20
103.261780
 11
74.144821
 21
103.261780
  0
LINE
  8
0
  6
CENTER
 62
     2
 10
-10.175171
 20
66.261780
 11
-10.175171
 21
72.744736
  0
LINE
  8
0
  6
CENTER
 62
     2
 10
-20.175171
 20
66.261780
 11
-20.175171
 21
72.744736
  0
LINE
  8
0
 10
-25.175171
 20
78.761780
 11
-25.175171
 21
66.761780
  0
LINE
  8
0
 10
-25.175171
 20
78.761780
 11
-5.175171
 21
78.761780
  0
LINE
  8
0
 10
-5.175171
 20
78.761780
 11
-5.175171
 21
66.761780
  0
LINE
  8
0
 10
-25.175171
 20
66.761780
 11
-5.175171
 21
66.761780
  0
LINE
  8
0
 10
-16.675179
 20
67.561798
 11
-17.194796
 21
67.261787
  0
LINE
  8
0
 10
-16.675171
 20
67.561783
 11
-16.675171
 21
71.261780
  0
LINE
  8
0
 10
-23.675171
 20
67.561783
 11
-23.675171
 21
71.261780
  0
LINE
  8
0
 10
-23.675169
 20
67.561790
 11
-23.155561
 21
67.261795
  0
LINE
  8
0
 10
-23.675171
 20
67.561783
 11
-16.675171
 21
67.561783
  0
LINE
  8
0
 10
-23.155556
 20
67.261780
 11
-17.194786
 21
67.261780
  0
LINE
  8
0
 10
-6.675171
 20
67.561783
 11
-6.675171
 21
71.261780
  0
LINE
  8
0
 10
-6.675175
 20
67.561783
 11
-7.194791
 21
67.261787
  0
LINE
  8
0
 10
-13.675171
 20
67.561783
 11
-6.675171
 21
67.561783
  0
LINE
  8
0
 10
-13.155556
 20
67.261780
 11
-7.194794
 21
67.261780
  0
LINE
  8
0
 10
-13.675175
 20
67.561790
 11
-13.155554
 21
67.261787
  0
LINE
  8
0
 10
-13.675171
 20
67.561783
 11
-13.675171
 21
71.261780
  0
LINE
  8
0
 10
-6.175171
 20
71.261780
 11
-6.175171
 21
66.761780
  0
LINE
  8
0
 10
-24.175171
 20
71.261780
 11
-24.175171
 21
66.761780
  0
LINE
  8
0
 10
-24.175171
 20
71.261780
 11
-6.175171
 21
71.261780
  0
LINE
  8
0
 10
46.824814
 20
67.761780
 11
56.824814
 21
67.761780
  0
LINE
  8
0
 10
-38.175171
 20
67.761780
 11
-28.175171
 21
67.761780
  0
LINE
  8
0
  6
CENTER
 62
     2
 10
-15.965558
 20
88.261780
 11
-8.552856
 21
88.261780
  0
LINE
  8
0
  6
CENTER
 62
     2
 10
-12.175171
 20
84.045990
 11
-12.175171
 21
91.867683
  0
LINE
  8
0
  6
CENTER
 62
     2
 10
-70.646072
 20
88.261780
 11
-62.950745
 21
88.261780
  0
LINE
  8
0
  6
CENTER
 62
     2
 10
-67.175171
 20
84.045990
 11
-67.175171
 21
91.867683
  0
LINE
  8
0
  6
CENTER
 62
     2
 10
-87.175171
 20
84.045990
 11
-87.175171
 21
91.867683
  0
LINE
  8
0
  6
CENTER
 62
     2
 10
-91.312286
 20
88.261780
 11
-83.360992
 21
88.261780
  0
LINE
  8
0
  6
CENTER
 62
     2
 10
-71.079590
 20
118.261780
 11
-62.950745
 21
118.261780
  0
LINE
  8
0
 10
-5.175171
 20
77.761780
 11
46.824814
 21
77.761780
  0
LINE
  8
0
 10
67.824814
 20
68.761780
 11
67.824814
 21
67.911789
  0
LINE
  8
0
 10
67.824814
 20
68.761780
 11
70.824814
 21
68.761780
  0
LINE
  8
0
 10
67.824814
 20
73.761780
 11
70.824814
 21
73.761780
  0
LINE
  8
0
 10
57.034821
 20
71.261780
 11
58.624817
 21
71.261780
  0
LINE
  8
0
 10
56.824814
 20
76.261780
 11
58.824814
 21
76.261780
  0
LINE
  8
0
 10
56.824814
 20
66.261780
 11
58.824814
 21
66.261780
  0
LINE
  8
0
 10
70.324814
 20
73.761780
 11
70.324814
 21
68.761780
  0
LINE
  8
0
 10
67.824814
 20
74.611786
 11
67.824814
 21
73.761780
  0
LINE
  8
0
 10
40.024826
 20
72.511780
 11
40.024826
 21
70.011780
  0
LINE
  8
0
 10
64.824814
 20
74.611786
 11
64.824814
 21
67.911789
  0
LINE
  8
0
 10
64.274826
 20
75.161789
 11
64.274826
 21
67.361786
  0
LINE
  8
0
 10
46.524826
 20
75.161789
 11
46.524826
 21
67.361786
  0
LINE
  8
0
 10
46.024826
 20
74.661789
 11
46.024826
 21
67.861786
  0
LINE
  8
0
 10
58.824814
 20
67.361786
 11
64.274826
 21
67.361786
  0
LINE
  8
0
 62
     2
 10
58.824814
 20
67.661789
 11
64.584824
 21
67.661789
  0
LINE
  8
0
 62
     2
 10
58.824814
 20
74.851791
 11
64.584824
 21
74.851791
  0
LINE
  8
0
 10
58.824814
 20
75.161789
 11
64.274826
 21
75.161789
  0
LINE
  8
0
 10
58.824814
 20
76.261780
 11
58.824814
 21
66.261780
  0
LINE
  8
0
 62
     2
 10
46.224823
 20
74.851791
 11
46.824814
 21
74.851791
  0
LINE
  8
0
 62
     2
 10
46.224823
 20
67.661789
 11
46.824814
 21
67.661789
  0
LINE
  8
0
 10
39.824814
 20
72.311783
 11
39.824814
 21
70.211792
  0
LINE
  8
0
 10
39.824821
 20
70.211777
 11
40.024818
 21
70.011780
  0
LINE
  8
0
 10
39.824825
 20
72.311775
 11
40.024818
 21
72.511772
  0
LINE
  8
0
 10
70.824814
 20
73.761780
 11
70.824814
 21
68.761780
  0
LINE
  8
0
 10
64.824814
 20
67.911789
 11
67.824814
 21
67.911789
  0
LINE
  8
0
 10
64.824814
 20
74.611786
 11
67.824814
 21
74.611786
  0
LINE
  8
0
 10
46.524815
 20
67.361771
 11
46.024815
 21
67.861771
  0
LINE
  8
0
 10
64.824806
 20
67.911781
 11
64.274811
 21
67.361778
  0
LINE
  8
0
 10
64.274818
 20
75.161781
 11
64.824821
 21
74.611786
  0
LINE
  8
0
 10
46.524815
 20
75.161781
 11
46.024815
 21
74.661781
  0
LINE
  8
0
 10
46.524826
 20
75.161789
 11
46.824814
 21
75.161789
  0
LINE
  8
0
 10
46.524826
 20
67.361786
 11
46.824814
 21
67.361786
  0
LINE
  8
0
 10
44.824814
 20
67.861786
 11
46.024826
 21
67.861786
  0
LINE
  8
0
 10
44.824814
 20
74.661789
 11
44.824814
 21
67.861786
  0
LINE
  8
0
 10
40.024826
 20
70.011780
 11
44.824814
 21
70.011780
  0
LINE
  8
0
 10
40.024826
 20
72.511780
 11
44.824814
 21
72.511780
  0
LINE
  8
0
 10
44.824814
 20
74.661789
 11
46.024826
 21
74.661789
  0
LINE
  8
0
  6
CENTER
 62
     2
 10
38.044632
 20
71.261780
 11
71.934814
 21
71.261780
  0
LINE
  8
0
 10
-48.175171
 20
73.761780
 11
-48.175171
 21
74.611786
  0
LINE
  8
0
 10
-48.175171
 20
73.761780
 11
-51.175171
 21
73.761780
  0
LINE
  8
0
 10
-48.175171
 20
68.761780
 11
-51.175171
 21
68.761780
  0
LINE
  8
0
 10
-39.965172
 20
71.261780
 11
-38.375172
 21
71.261780
  0
LINE
  8
0
 10
-40.175171
 20
76.261780
 11
-38.175171
 21
76.261780
  0
LINE
  8
0
 10
-40.175171
 20
66.261780
 11
-38.175171
 21
66.261780
  0
LINE
  8
0
 10
-48.175171
 20
67.911789
 11
-48.175171
 21
68.761780
  0
LINE
  8
0
 10
-50.675171
 20
68.761780
 11
-50.675171
 21
73.761780
  0
LINE
  8
0
 10
-45.175171
 20
67.911789
 11
-45.175171
 21
74.611786
  0
LINE
  8
0
 10
-44.625168
 20
67.361786
 11
-44.625168
 21
75.161789
  0
LINE
  8
0
 10
-26.875172
 20
67.361786
 11
-26.875172
 21
75.161789
  0
LINE
  8
0
 10
-26.375172
 20
67.861786
 11
-26.375172
 21
74.661789
  0
LINE
  8
0
 10
-40.175171
 20
75.161789
 11
-44.625168
 21
75.161789
  0
LINE
  8
0
 62
     2
 10
-40.175171
 20
74.851791
 11
-44.925171
 21
74.851791
  0
LINE
  8
0
 62
     2
 10
-40.175171
 20
67.661789
 11
-44.925171
 21
67.661789
  0
LINE
  8
0
 10
-40.175171
 20
67.361786
 11
-44.625168
 21
67.361786
  0
LINE
  8
0
 10
-40.175171
 20
66.261780
 11
-40.175171
 21
76.261780
  0
LINE
  8
0
 62
     2
 10
-26.565170
 20
67.661789
 11
-28.175171
 21
67.661789
  0
LINE
  8
0
 62
     2
 10
-26.565170
 20
74.851791
 11
-28.175171
 21
74.851791
  0
LINE
  8
0
 10
-51.175171
 20
68.761780
 11
-51.175171
 21
73.761780
  0
LINE
  8
0
 10
-45.175171
 20
74.611786
 11
-48.175171
 21
74.611786
  0
LINE
  8
0
 10
-45.175171
 20
67.911789
 11
-48.175171
 21
67.911789
  0
LINE
  8
0
 10
-25.175171
 20
74.661789
 11
-26.375172
 21
74.661789
  0
LINE
  8
0
 10
-26.875179
 20
75.161797
 11
-26.375179
 21
74.661797
  0
LINE
  8
0
 10
-25.175171
 20
67.861786
 11
-26.375172
 21
67.861786
  0
LINE
  8
0
 10
-45.175167
 20
74.611786
 11
-44.625168
 21
75.161781
  0
LINE
  8
0
 10
-44.625168
 20
67.361786
 11
-45.175163
 21
67.911789
  0
LINE
  8
0
 10
-26.875164
 20
67.361786
 11
-26.375162
 21
67.861794
  0
LINE
  8
0
 10
-26.875172
 20
67.361786
 11
-28.175171
 21
67.361786
  0
LINE
  8
0
 10
-26.875172
 20
75.161789
 11
-28.175171
 21
75.161789
  0
LINE
  8
0
  6
CENTER
 62
     2
 10
-24.480400
 20
71.261780
 11
-52.275162
 21
71.261780
  0
LINE
  8
0
 10
56.824814
 20
77.761780
 11
75.824814
 21
77.761780
  0
LINE
  8
0
 10
46.824814
 20
78.761780
 11
56.824814
 21
78.761780
  0
LINE
  8
0
 10
46.824814
 20
65.761780
 11
56.824814
 21
65.761780
  0
LINE
  8
0
 10
46.824814
 20
76.761780
 11
56.824814
 21
76.761780
  0
LINE
  8
0
 10
56.824814
 20
78.761780
 11
56.824814
 21
65.761780
  0
LINE
  8
0
 10
46.824814
 20
78.761780
 11
46.824814
 21
65.761780
  0
LINE
  8
0
 10
-38.175171
 20
76.761780
 11
-28.175171
 21
76.761780
  0
LINE
  8
0
 10
-38.175171
 20
65.761780
 11
-28.175171
 21
65.761780
  0
LINE
  8
0
 10
-28.175171
 20
77.761780
 11
-28.175171
 21
65.761780
  0
LINE
  8
0
 10
-38.175171
 20
77.761780
 11
-38.175171
 21
65.761780
  0
LINE
  8
0
 10
-107.175171
 20
77.761780
 11
-25.175171
 21
77.761780
  0
LINE
  8
0
  6
CENTER
 62
     2
 10
2.824829
 20
110.251778
 11
2.824829
 21
96.661781
  0
LINE
  8
0
 10
33.624817
 20
102.961777
 11
33.624817
 21
101.261780
  0
LINE
  8
0
 10
32.424820
 20
103.561783
 11
32.424820
 21
102.961777
  0
LINE
  8
0
 10
32.424820
 20
102.961777
 11
33.624817
 21
102.961777
  0
LINE
  8
0
 10
32.424820
 20
103.561783
 11
33.624817
 21
103.561783
  0
LINE
  8
0
 10
33.624817
 20
105.261780
 11
33.624817
 21
103.561783
  0
LINE
  8
0
  6
CENTER
 62
     2
 10
19.854828
 20
88.261780
 11
78.184814
 21
88.261780
  0
LINE
  8
0
  6
CENTER
 62
     2
 10
19.854828
 20
118.261780
 11
78.184814
 21
118.261780
  0
LINE
  8
0
 10
72.824814
 20
84.761780
 11
72.824814
 21
91.761780
  0
LINE
  8
0
 10
22.824829
 20
84.761780
 11
72.824814
 21
84.761780
  0
LINE
  8
0
 10
22.824829
 20
121.761780
 11
72.824814
 21
121.761780
  0
LINE
  8
0
 10
72.824814
 20
121.761780
 11
72.824814
 21
114.761780
  0
LINE
  8
0
  6
CENTER
 62
     2
 10
-67.175171
 20
107.691780
 11
-67.175171
 21
99.051781
  0
LINE
  8
0
  6
CENTER
 62
     2
 10
-87.175171
 20
107.691780
 11
-87.175171
 21
99.051781
  0
LINE
  8
0
 10
-107.175171
 20
126.761780
 11
22.824829
 21
126.761780
  0
LINE
  8
0
 10
-107.175171
 20
128.761780
 11
22.824829
 21
128.761780
  0
LINE
  8
0
 10
23.824829
 20
95.261780
 11
75.824814
 21
95.261780
  0
LINE
  8
0
 10
23.824829
 20
111.261780
 11
75.824814
 21
111.261780
  0
LINE
  8
0
 10
23.824829
 20
98.261780
 11
75.824814
 21
98.261780
  0
LINE
  8
0
 10
23.824829
 20
108.261780
 11
75.824814
 21
108.261780
  0
LINE
  8
0
 10
-107.175171
 20
79.761780
 11
22.824829
 21
79.761780
  0
LINE
  8
0
 10
26.224823
 20
99.761780
 11
23.824829
 21
99.761780
  0
LINE
  8
0
 10
26.224823
 20
106.761780
 11
23.824829
 21
106.761780
  0
LINE
  8
0
 10
26.224823
 20
99.761780
 11
26.224823
 21
106.761780
  0
LINE
  8
0
 10
25.914825
 20
103.261780
 11
24.144821
 21
103.261780
  0
LINE
  8
0
  6
CENTER
 62
     2
 10
-15.965558
 20
118.261780
 11
-8.552856
 21
118.261780
  0
LINE
  8
0
 10
22.824829
 20
113.261780
 11
23.824829
 21
113.261780
  0
LINE
  8
0
 10
-68.175171
 20
105.261780
 11
-66.175171
 21
105.261780
  0
LINE
  8
0
 10
22.824829
 20
128.761780
 11
75.824814
 21
128.761780
  0
LINE
  8
0
 10
75.824814
 20
77.761780
 11
75.824814
 21
128.761780
  0
LINE
  8
0
 62
     2
 10
26.224823
 20
104.911781
 11
33.624817
 21
104.911781
  0
LINE
  8
0
 10
26.224823
 20
105.261780
 11
33.624817
 21
105.261780
  0
LINE
  8
0
  6
CENTER
 62
     2
 10
-67.175171
 20
122.157578
 11
-67.175171
 21
114.348465
  0
LINE
  8
0
  6
CENTER
 62
     2
 10
-87.175171
 20
122.157578
 11
-87.175171
 21
114.348465
  0
LINE
  8
0
  6
CENTER
 62
     2
 10
-12.175171
 20
122.157578
 11
-12.175171
 21
114.348465
  0
LINE
  8
0
  6
CENTER
 62
     2
 10
-91.312286
 20
118.261780
 11
-83.360992
 21
118.261780
  0
LINE
  8
0
 10
-68.175171
 20
101.261780
 11
-66.175171
 21
101.261780
  0
LINE
  8
0
 10
22.824829
 20
93.261780
 11
23.824829
 21
93.261780
  0
LINE
  8
0
 62
     2
 10
26.224823
 20
101.611778
 11
33.624817
 21
101.611778
  0
LINE
  8
0
 10
23.824829
 20
113.261780
 11
23.824829
 21
93.261780
  0
LINE
  8
0
 10
-107.175171
 20
128.761780
 11
-107.175171
 21
77.761780
  0
LINE
  8
0
 10
26.224823
 20
101.261780
 11
33.624817
 21
101.261780
  0
LINE
  8
0
 10
22.824829
 20
128.761780
 11
22.824829
 21
77.761780
  0
LINE
  8
0
 10
22.824829
 20
122.261780
 11
75.824814
 21
122.261780
  0
LINE
  8
0
 10
22.824829
 20
84.261780
 11
75.824814
 21
84.261780
  0
LINE
  8
0
 10
22.824829
 20
91.761780
 11
75.824814
 21
91.761780
  0
LINE
  8
0
 10
22.824829
 20
114.761780
 11
75.824814
 21
114.761780
  0
LINE
  8
0
  6
CENTER
 62
     2
 10
-77.175171
 20
109.861778
 11
-77.175171
 21
96.651779
  0
LINE
  8
0
  6
CENTER
 62
     2
 10
-110.845169
 20
103.261780
 11
84.347183
 21
103.261780
  0
LINE
  8
0
  6
CENTER
 62
     2
 10
-27.175171
 20
97.764610
 11
-27.175171
 21
108.439072
  0
LINE
  8
0
  6
CENTER
 62
     2
 10
52.824829
 20
97.764610
 11
52.824829
 21
108.439072
  0
LINE
  8
0
 10
-99.175171
 20
128.761780
 11
-99.175171
 21
77.761780
  0
LINE
  8
0
  6
DASHED
 62
     2
 10
-42.175171
 20
77.761780
 11
-42.175171
 21
128.761780
  0
LINE
  8
0
  6
CENTER
 62
     3
 10
-57.989792
 20
43.006683
 11
-57.989792
 21
137.187958
  0
LINE
  8
0
  6
PHANTOM
 62
     3
 10
35.606064
 20
43.006683
 11
35.606064
 21
137.187958
  0
LINE
  8
0
 10
-271.250000
 20
-185.000000
 11
-146.250000
 21
-185.000000
  0
LINE
  8
0
 10
-271.250000
 20
-115.000000
 11
-271.250000
 21
-185.000000
  0
LINE
  8
0
 10
-271.250000
 20
-155.000000
 11
-146.250000
 21
-155.000000
  0
LINE
  8
0
 10
-271.250000
 20
-145.000000
 11
-146.250000
 21
-145.000000
  0
LINE
  8
0
 10
-271.250000
 20
-125.000000
 11
-239.769989
 21
-125.000000
  0
LINE
  8
0
 10
-271.250000
 20
-115.000000
 11
-146.250000
 21
-115.000000
  0
LINE
  8
0
 10
-236.250000
 20
-115.000000
 11
-236.250000
 21
-185.000000
  0
LINE
  8
0
 10
-236.249878
 20
-144.999954
 11
-239.769867
 21
-124.999954
  0
LINE
  8
0
 10
-221.250000
 20
-115.000000
 11
-221.250000
 21
-185.000000
  0
LINE
  8
0
 10
-206.250000
 20
-115.000000
 11
-206.250000
 21
-185.000000
  0
LINE
  8
0
 10
-191.250000
 20
-115.000000
 11
-191.250000
 21
-185.000000
  0
LINE
  8
0
 10
-176.250000
 20
-115.000000
 11
-176.250000
 21
-185.000000
  0
LINE
  8
0
 10
-161.250000
 20
-115.000000
 11
-161.250000
 21
-185.000000
  0
LINE
  8
0
 10
-146.250000
 20
-115.000000
 11
-146.250000
 21
-185.000000
  0
LINE
  8
0
 10
-271.250000
 20
-165.000000
 11
-146.250000
 21
-165.000000
  0
LINE
  8
0
 10
-271.250000
 20
-175.000000
 11
-146.250000
 21
-175.000000
  0
LINE
  8
0
 10
282.099854
 20
195.500000
 11
282.099854
 21
-195.000000
  0
LINE
  8
0
 10
-281.250000
 20
195.500000
 11
282.099854
 21
195.500000
  0
LINE
  8
0
 10
-281.250000
 20
195.500000
 11
-281.250000
 21
-195.000000
  0
LINE
  8
0
 10
-281.250000
 20
-195.000000
 11
282.099854
 21
-195.000000
  0
LINE
  8
0
 10
162.099976
 20
-175.000000
 11
162.099976
 21
-195.000000
  0
LINE
  8
0
 10
162.099976
 20
-175.000000
 11
282.099854
 21
-175.000000
  0
LINE
  8
0
 10
162.099976
 20
175.500000
 11
282.099854
 21
175.500000
  0
LINE
  8
0
 10
-281.250000
 20
175.500000
 11
-161.250000
 21
175.500000
  0
LINE
  8
0
 10
162.099976
 20
195.500000
 11
162.099976
 21
175.500000
  0
LINE
  8
0
 10
-161.250000
 20
195.500000
 11
-161.250000
 21
175.500000
  0
ARC
  8
0
 10
170.335220
 20
-111.432404
 40
3.965512
 50
159.711975
 51
200.288025
  0
ARC
  8
0
 10
164.192245
 20
-111.432404
 40
3.978625
 50
339.781769
 51
20.218229
  0
ARC
  8
0
 10
170.335220
 20
-114.182404
 40
3.965512
 50
159.711975
 51
200.288025
  0
ARC
  8
0
 10
164.192245
 20
-114.182404
 40
3.978625
 50
339.781769
 51
20.218229
  0
ARC
  8
0
 10
166.135223
 20
-114.182404
 40
3.965527
 50
159.712051
 51
200.287949
  0
ARC
  8
0
 10
166.135223
 20
-111.432404
 40
3.965527
 50
159.712051
 51
200.287949
  0
CIRCLE
  8
0
 10
223.165710
 20
-112.807404
 40
1.650000
  0
CIRCLE
  8
0
 62
     2
 10
223.165710
 20
-112.807404
 40
2.000000
  0
CIRCLE
  8
0
 10
183.165710
 20
-112.807404
 40
1.650000
  0
CIRCLE
  8
0
 62
     2
 10
183.165710
 20
-112.807404
 40
2.000000
  0
ARC
  8
0
 10
234.165710
 20
-112.807404
 40
2.000000
 50
270.000000
 51
90.000000
  0
ARC
  8
0
 10
232.165710
 20
-112.807404
 40
2.000000
 50
90.000000
 51
270.000000
  0
CIRCLE
  8
0
 10
193.164062
 20
-112.809280
 40
2.000000
  0
CIRCLE
  8
0
 62
     2
 10
163.165710
 20
-97.807404
 40
2.000000
  0
CIRCLE
  8
0
 10
163.165710
 20
-97.807404
 40
1.650000
  0
CIRCLE
  8
0
 62
     2
 10
163.165710
 20
-127.807404
 40
2.000000
  0
CIRCLE
  8
0
 10
163.165710
 20
-127.807404
 40
1.650000
  0
ARC
  8
0
 10
-40.005669
 20
-111.363205
 40
3.965519
 50
159.712021
 51
200.287979
  0
ARC
  8
0
 10
-46.148636
 20
-111.363205
 40
3.978622
 50
339.781738
 51
20.218248
  0
ARC
  8
0
 10
-40.005669
 20
-114.113205
 40
3.965519
 50
159.712021
 51
200.287979
  0
ARC
  8
0
 10
-46.148636
 20
-114.113205
 40
3.978622
 50
339.781738
 51
20.218248
  0
ARC
  8
0
 10
-44.205658
 20
-114.113205
 40
3.965519
 50
159.712021
 51
200.287964
  0
ARC
  8
0
 10
-44.205658
 20
-111.363205
 40
3.965519
 50
159.712021
 51
200.287964
  0
CIRCLE
  8
0
 10
-67.175171
 20
-127.738205
 40
1.650000
  0
CIRCLE
  8
0
 62
     2
 10
-67.175171
 20
-127.738205
 40
2.000000
  0
CIRCLE
  8
0
 10
-87.175171
 20
-127.738205
 40
1.650000
  0
CIRCLE
  8
0
 62
     2
 10
-87.175171
 20
-127.738205
 40
2.000000
  0
CIRCLE
  8
0
 10
-67.175171
 20
-97.738205
 40
1.650000
  0
CIRCLE
  8
0
 62
     2
 10
-67.175171
 20
-97.738205
 40
2.000000
  0
CIRCLE
  8
0
 10
-87.175171
 20
-97.738205
 40
1.650000
  0
CIRCLE
  8
0
 62
     2
 10
-87.175171
 20
-97.738205
 40
2.000000
  0
CIRCLE
  8
0
 10
-27.175171
 20
-112.738205
 40
1.650000
  0
CIRCLE
  8
0
 62
     2
 10
-27.175171
 20
-112.738205
 40
2.000000
  0
CIRCLE
  8
0
 10
52.824814
 20
-112.738205
 40
1.650000
  0
CIRCLE
  8
0
 62
     2
 10
52.824814
 20
-112.738205
 40
2.000000
  0
CIRCLE
  8
0
 10
-77.167145
 20
-112.738174
 40
5.000000
  0
ARC
  8
0
 10
63.832840
 20
-112.738205
 40
2.000016
 50
269.770172
 51
90.229820
  0
ARC
  8
0
 10
61.832840
 20
-112.738205
 40
2.000016
 50
90.229820
 51
269.770081
  0
CIRCLE
  8
0
 10
-17.167160
 20
-112.738205
 40
2.000000
  0
CIRCLE
  8
0
 10
12.824829
 20
-112.738205
 40
1.650000
  0
CIRCLE
  8
0
 62
     2
 10
12.824829
 20
-112.738205
 40
2.000000
  0
ARC
  8
0
 10
-42.924488
 20
-11.727281
 40
5.250694
 50
180.119263
 51
197.752029
  0
ARC
  8
0
 10
-46.771713
 20
-14.123155
 40
1.400854
 50
145.425629
 51
205.589157
  0
ARC
  8
0
 10
-42.571716
 20
-14.123156
 40
1.400857
 50
145.425751
 51
205.589050
  0
ARC
  8
0
 10
-38.724480
 20
-11.727280
 40
5.250702
 50
180.119263
 51
197.752029
  0
ARC
  8
0
 10
-47.434479
 20
-11.757461
 40
5.259345
 50
342.622986
 51
0.209763
  0
ARC
  8
0
 10
-43.583191
 20
-14.115207
 40
1.408422
 50
334.199585
 51
33.971661
  0
ARC
  8
0
 10
67.474976
 20
5.775269
 40
3.610343
 50
21.898367
 51
37.874626
  0
ARC
  8
0
 10
67.481766
 20
5.760071
 40
3.612233
 50
321.911896
 51
337.741089
  0
ARC
  8
0
 10
53.703400
 20
1.430099
 40
5.128245
 50
346.256866
 51
16.327457
  0
ARC
  8
0
 10
38.625732
 20
5.756790
 40
20.206099
 50
351.791321
 51
8.208666
  0
ARC
  8
0
 10
53.703171
 20
10.083481
 40
5.128469
 50
343.673218
 51
13.742460
  0
ARC
  8
0
 10
61.962296
 20
1.429962
 40
5.134086
 50
163.690018
 51
193.725586
  0
ARC
  8
0
 10
77.039963
 20
5.756790
 40
20.212082
 50
171.793732
 51
188.206192
  0
ARC
  8
0
 10
61.962524
 20
10.083618
 40
5.134311
 50
166.275055
 51
196.309265
  0
ARC
  8
0
 10
-47.820114
 20
5.767044
 40
3.625980
 50
202.289139
 51
218.057953
  0
ARC
  8
0
 10
-47.813278
 20
5.768341
 40
3.624096
 50
142.155853
 51
158.071060
  0
ARC
  8
0
 10
-35.037464
 20
10.083618
 40
5.134311
 50
166.275055
 51
196.309250
  0
ARC
  8
0
 10
-19.960037
 20
5.756790
 40
20.212082
 50
171.793732
 51
188.206192
  0
ARC
  8
0
 10
-35.037697
 20
1.429962
 40
5.134086
 50
163.690018
 51
193.725586
  0
ARC
  8
0
 10
-43.296814
 20
10.083481
 40
5.128469
 50
343.673218
 51
13.742450
  0
ARC
  8
0
 10
-58.374252
 20
5.756790
 40
20.206099
 50
351.791321
 51
8.208666
  0
ARC
  8
0
 10
-43.296585
 20
1.430099
 40
5.128245
 50
346.256866
 51
16.327457
  0
CIRCLE
  8
0
 10
-10.167160
 20
10.261795
 40
2.980385
  0
CIRCLE
  8
0
 10
-10.167160
 20
10.261795
 40
3.500000
  0
ARC
  8
0
 10
-10.170181
 20
10.261780
 40
3.999278
 50
269.928375
 51
0.000014
  0
CIRCLE
  8
0
 10
-20.167145
 20
10.261795
 40
2.980385
  0
CIRCLE
  8
0
 10
-20.167145
 20
10.261795
 40
3.500000
  0
ARC
  8
0
 10
-20.170172
 20
10.261780
 40
3.999277
 50
179.999954
 51
269.928345
  0
CIRCLE
  8
0
 10
51.832840
 20
-4.738205
 40
2.980385
  0
CIRCLE
  8
0
 10
51.832840
 20
-4.738205
 40
3.500000
  0
CIRCLE
  8
0
 10
51.832840
 20
-4.738205
 40
4.000000
  0
CIRCLE
  8
0
 10
51.832840
 20
-12.738205
 40
2.980385
  0
CIRCLE
  8
0
 10
51.832840
 20
-12.738205
 40
3.500000
  0
ARC
  8
0
 10
51.829819
 20
-12.738204
 40
3.999278
 50
298.936340
 51
241.063644
  0
CIRCLE
  8
0
 10
-33.167160
 20
-4.738205
 40
2.980385
  0
CIRCLE
  8
0
 10
-33.167160
 20
-4.738205
 40
3.500000
  0
CIRCLE
  8
0
 10
-33.167160
 20
-4.738205
 40
4.000000
  0
CIRCLE
  8
0
 10
-33.167160
 20
-12.738205
 40
2.980385
  0
CIRCLE
  8
0
 10
-33.167160
 20
-12.738205
 40
3.500000
  0
ARC
  8
0
 10
-33.170170
 20
-12.738204
 40
3.999278
 50
298.936340
 51
241.063644
  0
ARC
  8
0
 10
24.443466
 20
4.297119
 40
1.783586
 50
342.533875
 51
25.386761
  0
CIRCLE
  8
0
 62
     2
 10
-20.167145
 20
-8.738213
 40
2.500000
  0
CIRCLE
  8
0
 10
-20.167145
 20
-8.738213
 40
2.099999
  0
CIRCLE
  8
0
 10
65.832825
 20
-8.738235
 40
2.099999
  0
CIRCLE
  8
0
 62
     2
 10
65.832825
 20
-8.738235
 40
2.500000
  0
ARC
  8
0
 10
25.621231
 20
4.283600
 40
1.793980
 50
154.292557
 51
196.909988
  0
ARC
  8
0
 10
-97.267136
 20
-8.743205
 40
2.992208
 50
330.024414
 51
29.975588
  0
ARC
  8
0
 62
     2
 10
123.323395
 20
71.256790
 40
0.400534
 50
314.638062
 51
45.361938
  0
ARC
  8
0
 62
     2
 10
124.309814
 20
72.251694
 40
0.406534
 50
225.489655
 51
314.511108
  0
ARC
  8
0
 62
     2
 10
125.303345
 20
71.256790
 40
0.405551
 50
135.351364
 51
224.648636
  0
ARC
  8
0
 62
     2
 10
124.309814
 20
70.271790
 40
0.399533
 50
44.492477
 51
135.506760
  0
CIRCLE
  8
0
 10
124.313354
 20
71.261734
 40
2.150001
  0
CIRCLE
  8
0
 10
124.313354
 20
71.261734
 40
2.250000
  0
ARC
  8
0
 10
124.313354
 20
71.261780
 40
2.846677
 50
298.571960
 51
61.428036
  0
CIRCLE
  8
0
 62
     2
 10
124.313354
 20
71.261734
 40
3.594000
  0
CIRCLE
  8
0
 10
124.313354
 20
71.261734
 40
3.900000
  0
ARC
  8
0
 10
124.313354
 20
71.261780
 40
2.850070
 50
118.696968
 51
241.303040
  0
CIRCLE
  8
0
 10
124.313354
 20
71.261734
 40
3.349998
  0
CIRCLE
  8
0
 10
124.313354
 20
71.261734
 40
5.000000
  0
ARC
  8
0
 62
     2
 10
128.809814
 20
103.261734
 40
1.652453
 50
190.458450
 51
349.541534
  0
ARC
  8
0
 62
     2
 10
128.809814
 20
103.261734
 40
1.652469
 50
10.461574
 51
169.538422
  0
CIRCLE
  8
0
 10
128.813354
 20
103.261734
 40
3.500000
  0
CIRCLE
  8
0
 62
     2
 10
128.813354
 20
103.261734
 40
2.000000
  0
CIRCLE
  8
0
 10
128.813354
 20
103.261734
 40
2.000000
  0
ARC
  8
0
 10
135.809814
 20
121.231766
 40
2.075012
 50
180.000000
 51
0.000000
  0
ARC
  8
0
 10
141.809814
 20
121.231766
 40
2.075012
 50
180.000000
 51
0.000000
  0
CIRCLE
  8
0
 10
138.813339
 20
94.261810
 40
6.000000
  0
CIRCLE
  8
0
 10
138.813339
 20
94.261810
 40
6.400001
  0
CIRCLE
  8
0
 10
138.813339
 20
112.261810
 40
6.000000
  0
CIRCLE
  8
0
 10
138.813339
 20
112.261810
 40
6.400001
  0
ARC
  8
0
 10
137.709076
 20
123.557495
 40
0.304305
 50
90.804459
 51
179.195541
  0
ARC
  8
0
 10
139.909058
 20
123.566010
 40
0.295792
 50
359.178284
 51
90.821724
  0
ARC
  8
0
 10
146.109039
 20
128.066010
 40
0.695783
 50
359.651947
 51
90.348061
  0
ARC
  8
0
 10
146.109009
 20
78.457581
 40
0.695806
 50
269.653198
 51
0.346158
  0
ARC
  8
0
 10
131.809082
 20
78.766068
 40
1.004282
 50
180.244186
 51
269.756256
  0
ARC
  8
0
 10
131.809067
 20
127.757507
 40
1.004266
 50
90.242882
 51
179.756683
  0
CIRCLE
  8
0
 10
-159.145172
 20
83.261780
 40
1.650000
  0
CIRCLE
  8
0
 62
     2
 10
-159.145172
 20
83.261780
 40
2.000000
  0
CIRCLE
  8
0
 10
-171.145172
 20
83.261780
 40
1.650000
  0
CIRCLE
  8
0
 62
     2
 10
-171.145172
 20
83.261780
 40
2.000000
  0
CIRCLE
  8
0
 10
-159.145172
 20
123.261780
 40
1.650000
  0
CIRCLE
  8
0
 62
     2
 10
-159.145172
 20
123.261780
 40
2.000000
  0
CIRCLE
  8
0
 10
-171.145172
 20
123.261780
 40
1.650000
  0
CIRCLE
  8
0
 62
     2
 10
-171.145172
 20
123.261780
 40
2.000000
  0
ARC
  8
0
 62
     2
 10
-154.657669
 20
71.256790
 40
0.397794
 50
134.236923
 51
225.763077
  0
ARC
  8
0
 62
     2
 10
-155.645172
 20
72.251709
 40
0.403052
 50
225.997009
 51
314.002991
  0
ARC
  8
0
 62
     2
 10
-156.637619
 20
71.256790
 40
0.401248
 50
314.741150
 51
45.258839
  0
ARC
  8
0
 62
     2
 10
-155.645172
 20
70.271805
 40
0.395967
 50
44.998440
 51
135.001556
  0
CIRCLE
  8
0
 10
-155.647644
 20
71.261749
 40
2.150001
  0
CIRCLE
  8
0
 10
-155.647644
 20
71.261749
 40
2.250000
  0
ARC
  8
0
 10
-155.647644
 20
71.261780
 40
2.849590
 50
118.679337
 51
241.320663
  0
CIRCLE
  8
0
 62
     2
 10
-155.647644
 20
71.261749
 40
3.594000
  0
CIRCLE
  8
0
 10
-155.647644
 20
71.261749
 40
3.900000
  0
ARC
  8
0
 10
-155.647644
 20
71.261780
 40
2.851958
 50
298.766205
 51
61.233795
  0
CIRCLE
  8
0
 10
-155.647644
 20
71.261749
 40
3.349998
  0
CIRCLE
  8
0
 10
-155.647644
 20
71.261749
 40
5.000000
  0
CIRCLE
  8
0
 10
-170.147629
 20
112.261749
 40
5.000000
  0
CIRCLE
  8
0
 10
-170.147629
 20
112.261749
 40
2.750000
  0
CIRCLE
  8
0
 10
-170.147629
 20
112.261749
 40
2.403589
  0
CIRCLE
  8
0
 10
-170.147629
 20
94.261734
 40
2.403589
  0
CIRCLE
  8
0
 10
-170.147629
 20
94.261734
 40
2.750000
  0
CIRCLE
  8
0
 10
-170.147629
 20
94.261734
 40
5.000000
  0
CIRCLE
  8
0
 10
-170.147644
 20
94.261734
 40
5.500000
  0
CIRCLE
  8
0
 10
-170.147644
 20
112.261749
 40
5.500000
  0
ARC
  8
0
 10
-177.446350
 20
128.062943
 40
0.698823
 50
89.903671
 51
180.096329
  0
ARC
  8
0
 10
-177.446396
 20
78.460571
 40
0.698777
 50
179.899902
 51
270.100098
  0
CIRCLE
  8
0
 10
-12.175171
 20
88.261780
 40
1.650000
  0
CIRCLE
  8
0
 62
     2
 10
-12.175171
 20
88.261780
 40
2.000000
  0
CIRCLE
  8
0
 10
-67.175171
 20
88.261780
 40
1.650000
  0
CIRCLE
  8
0
 62
     2
 10
-67.175171
 20
88.261780
 40
2.000000
  0
CIRCLE
  8
0
 10
-87.175171
 20
88.261780
 40
1.650000
  0
CIRCLE
  8
0
 62
     2
 10
-87.175171
 20
88.261780
 40
2.000000
  0
CIRCLE
  8
0
 10
-12.175171
 20
118.261780
 40
1.650000
  0
CIRCLE
  8
0
 62
     2
 10
-12.175171
 20
118.261780
 40
2.000000
  0
CIRCLE
  8
0
 10
-67.175171
 20
118.261780
 40
1.650000
  0
CIRCLE
  8
0
 62
     2
 10
-67.175171
 20
118.261780
 40
2.000000
  0
CIRCLE
  8
0
 10
-87.175171
 20
118.261780
 40
1.650000
  0
CIRCLE
  8
0
 62
     2
 10
-87.175171
 20
118.261780
 40
2.000000
  0
ARC
  8
0
 10
28.887451
 20
105.011780
 40
5.055204
 50
159.746292
 51
200.253632
  0
ARC
  8
0
 10
28.887466
 20
101.511780
 40
5.055219
 50
159.746338
 51
200.253571
  0
ARC
  8
0
 10
21.178223
 20
105.011780
 40
5.049547
 50
339.722595
 51
20.277405
  0
ARC
  8
0
 10
21.178223
 20
101.511780
 40
5.049547
 50
339.722595
 51
20.277405
  0
ARC
  8
0
 10
-68.167145
 20
103.261780
 40
2.000016
 50
90.229927
 51
269.770081
  0
CIRCLE
  8
0
 10
-87.167145
 20
103.261780
 40
2.000000
  0
ARC
  8
0
 10
-66.167145
 20
103.261780
 40
2.000016
 50
269.770081
 51
90.229927
  0
CIRCLE
  8
0
 10
2.832840
 20
103.261749
 40
5.000000
  0
CIRCLE
  8
0
 10
-77.167145
 20
103.261749
 40
5.000000
  0
CIRCLE
  8
0
  6
DASHED
 62
     2
 10
-27.175171
 20
103.261780
 40
3.000000
  0
CIRCLE
  8
0
  6
DASHED
 62
     2
 10
-27.183197
 20
103.261810
 40
1.599999
  0
CIRCLE
  8
0
 10
52.824829
 20
103.261780
 40
3.000000
  0
CIRCLE
  8
0
 10
52.816803
 20
103.261810
 40
1.599999
  0
POLYLINE
  8
0
 66
     1
  0
VERTEX
  8
0
 10
227.375702
 20
-75.807404
  0
VERTEX
  8
0
 10
227.260468
 20
-76.636070
  0
VERTEX
  8
0
 10
227.189758
 20
-77.470337
  0
VERTEX
  8
0
 10
227.165710
 20
-78.307404
  0
VERTEX
  8
0
 10
227.189758
 20
-79.144470
  0
VERTEX
  8
0
 10
227.260468
 20
-79.978737
  0
VERTEX
  8
0
 10
227.375702
 20
-80.807404
  0
SEQEND
  0
POLYLINE
  8
0
 66
     1
  0
VERTEX
  8
0
 10
228.965698
 20
-80.807404
  0
VERTEX
  8
0
 10
229.078339
 20
-79.978737
  0
VERTEX
  8
0
 10
229.144257
 20
-79.144470
  0
VERTEX
  8
0
 10
229.165710
 20
-78.307404
  0
VERTEX
  8
0
 10
229.144257
 20
-77.470337
  0
VERTEX
  8
0
 10
229.078339
 20
-76.636070
  0
VERTEX
  8
0
 10
228.965698
 20
-75.807404
  0
SEQEND
  0
POLYLINE
  8
0
 66
     1
  0
VERTEX
  8
0
 10
228.965698
 20
-85.807404
  0
VERTEX
  8
0
 10
229.078339
 20
-84.978737
  0
VERTEX
  8
0
 10
229.144257
 20
-84.144470
  0
VERTEX
  8
0
 10
229.165710
 20
-83.307404
  0
VERTEX
  8
0
 10
229.144257
 20
-82.470337
  0
VERTEX
  8
0
 10
229.078339
 20
-81.636070
  0
VERTEX
  8
0
 10
228.965698
 20
-80.807404
  0
SEQEND
  0
POLYLINE
  8
0
 66
     1
  0
VERTEX
  8
0
 10
227.375702
 20
-85.807404
  0
VERTEX
  8
0
 10
227.260468
 20
-84.978737
  0
VERTEX
  8
0
 10
227.189758
 20
-84.144470
  0
VERTEX
  8
0
 10
227.165710
 20
-83.307404
  0
VERTEX
  8
0
 10
227.189758
 20
-82.470337
  0
VERTEX
  8
0
 10
227.260468
 20
-81.636070
  0
VERTEX
  8
0
 10
227.375702
 20
-80.807404
  0
SEQEND
  0
POLYLINE
  8
0
 66
     1
  0
VERTEX
  8
0
 10
171.965714
 20
-75.807404
  0
VERTEX
  8
0
 10
172.078354
 20
-76.636070
  0
VERTEX
  8
0
 10
172.144257
 20
-77.470337
  0
VERTEX
  8
0
 10
172.165710
 20
-78.307404
  0
VERTEX
  8
0
 10
172.144257
 20
-79.144470
  0
VERTEX
  8
0
 10
172.078354
 20
-79.978737
  0
VERTEX
  8
0
 10
171.965714
 20
-80.807404
  0
SEQEND
  0
POLYLINE
  8
0
 66
     1
  0
VERTEX
  8
0
 10
170.375717
 20
-80.807404
  0
VERTEX
  8
0
 10
170.260483
 20
-79.978737
  0
VERTEX
  8
0
 10
170.189758
 20
-79.144470
  0
VERTEX
  8
0
 10
170.165710
 20
-78.307404
  0
VERTEX
  8
0
 10
170.189758
 20
-77.470337
  0
VERTEX
  8
0
 10
170.260483
 20
-76.636070
  0
VERTEX
  8
0
 10
170.375717
 20
-75.807404
  0
SEQEND
  0
POLYLINE
  8
0
 66
     1
  0
VERTEX
  8
0
 10
171.965714
 20
-85.807404
  0
VERTEX
  8
0
 10
172.078354
 20
-84.978737
  0
VERTEX
  8
0
 10
172.144257
 20
-84.144470
  0
VERTEX
  8
0
 10
172.165710
 20
-83.307404
  0
VERTEX
  8
0
 10
172.144257
 20
-82.470337
  0
VERTEX
  8
0
 10
172.078354
 20
-81.636070
  0
VERTEX
  8
0
 10
171.965714
 20
-80.807404
  0
SEQEND
  0
POLYLINE
  8
0
 66
     1
  0
VERTEX
  8
0
 10
170.375717
 20
-85.807404
  0
VERTEX
  8
0
 10
170.260483
 20
-84.978737
  0
VERTEX
  8
0
 10
170.189758
 20
-84.144470
  0
VERTEX
  8
0
 10
170.165710
 20
-83.307404
  0
VERTEX
  8
0
 10
170.189758
 20
-82.470337
  0
VERTEX
  8
0
 10
170.260483
 20
-81.636070
  0
VERTEX
  8
0
 10
170.375717
 20
-80.807404
  0
SEQEND
  0
POLYLINE
  8
0
 66
     1
  0
VERTEX
  8
0
 10
57.034821
 20
-75.738205
  0
VERTEX
  8
0
 10
56.919582
 20
-76.566872
  0
VERTEX
  8
0
 10
56.848866
 20
-77.401138
  0
VERTEX
  8
0
 10
56.824814
 20
-78.238205
  0
VERTEX
  8
0
 10
56.848866
 20
-79.075272
  0
VERTEX
  8
0
 10
56.919582
 20
-79.909538
  0
VERTEX
  8
0
 10
57.034821
 20
-80.738205
  0
SEQEND
  0
POLYLINE
  8
0
 66
     1
  0
VERTEX
  8
0
 10
58.624817
 20
-80.738205
  0
VERTEX
  8
0
 10
58.737457
 20
-79.909538
  0
VERTEX
  8
0
 10
58.803360
 20
-79.075272
  0
VERTEX
  8
0
 10
58.824814
 20
-78.238205
  0
VERTEX
  8
0
 10
58.803360
 20
-77.401138
  0
VERTEX
  8
0
 10
58.737457
 20
-76.566872
  0
VERTEX
  8
0
 10
58.624817
 20
-75.738205
  0
SEQEND
  0
POLYLINE
  8
0
 66
     1
  0
VERTEX
  8
0
 10
58.624817
 20
-85.738205
  0
VERTEX
  8
0
 10
58.737457
 20
-84.909538
  0
VERTEX
  8
0
 10
58.803360
 20
-84.075272
  0
VERTEX
  8
0
 10
58.824814
 20
-83.238205
  0
VERTEX
  8
0
 10
58.803360
 20
-82.401138
  0
VERTEX
  8
0
 10
58.737457
 20
-81.566872
  0
VERTEX
  8
0
 10
58.624817
 20
-80.738205
  0
SEQEND
  0
POLYLINE
  8
0
 66
     1
  0
VERTEX
  8
0
 10
57.034821
 20
-85.738205
  0
VERTEX
  8
0
 10
56.919582
 20
-84.909538
  0
VERTEX
  8
0
 10
56.848866
 20
-84.075272
  0
VERTEX
  8
0
 10
56.824814
 20
-83.238205
  0
VERTEX
  8
0
 10
56.848866
 20
-82.401138
  0
VERTEX
  8
0
 10
56.919582
 20
-81.566872
  0
VERTEX
  8
0
 10
57.034821
 20
-80.738205
  0
SEQEND
  0
POLYLINE
  8
0
 66
     1
  0
VERTEX
  8
0
 10
-38.375172
 20
-75.738205
  0
VERTEX
  8
0
 10
-38.262527
 20
-76.566872
  0
VERTEX
  8
0
 10
-38.196629
 20
-77.401138
  0
VERTEX
  8
0
 10
-38.175171
 20
-78.238205
  0
VERTEX
  8
0
 10
-38.196629
 20
-79.075272
  0
VERTEX
  8
0
 10
-38.262527
 20
-79.909538
  0
VERTEX
  8
0
 10
-38.375172
 20
-80.738205
  0
SEQEND
  0
POLYLINE
  8
0
 66
     1
  0
VERTEX
  8
0
 10
-39.965172
 20
-80.738205
  0
VERTEX
  8
0
 10
-40.080406
 20
-79.909538
  0
VERTEX
  8
0
 10
-40.151123
 20
-79.075272
  0
VERTEX
  8
0
 10
-40.175171
 20
-78.238205
  0
VERTEX
  8
0
 10
-40.151123
 20
-77.401138
  0
VERTEX
  8
0
 10
-40.080406
 20
-76.566872
  0
VERTEX
  8
0
 10
-39.965172
 20
-75.738205
  0
SEQEND
  0
POLYLINE
  8
0
 66
     1
  0
VERTEX
  8
0
 10
-38.375172
 20
-85.738205
  0
VERTEX
  8
0
 10
-38.262531
 20
-84.909538
  0
VERTEX
  8
0
 10
-38.196629
 20
-84.075272
  0
VERTEX
  8
0
 10
-38.175171
 20
-83.238205
  0
VERTEX
  8
0
 10
-38.196629
 20
-82.401138
  0
VERTEX
  8
0
 10
-38.262531
 20
-81.566872
  0
VERTEX
  8
0
 10
-38.375172
 20
-80.738205
  0
SEQEND
  0
POLYLINE
  8
0
 66
     1
  0
VERTEX
  8
0
 10
-39.965172
 20
-85.738205
  0
VERTEX
  8
0
 10
-40.080406
 20
-84.909538
  0
VERTEX
  8
0
 10
-40.151123
 20
-84.075272
  0
VERTEX
  8
0
 10
-40.175171
 20
-83.238205
  0
VERTEX
  8
0
 10
-40.151123
 20
-82.401138
  0
VERTEX
  8
0
 10
-40.080406
 20
-81.566872
  0
VERTEX
  8
0
 10
-39.965172
 20
-80.738205
  0
SEQEND
  0
POLYLINE
  8
0
 66
     1
  0
VERTEX
  8
0
 10
57.034821
 20
66.261780
  0
VERTEX
  8
0
 10
56.919582
 20
67.090446
  0
VERTEX
  8
0
 10
56.848866
 20
67.924713
  0
VERTEX
  8
0
 10
56.824814
 20
68.761780
  0
VERTEX
  8
0
 10
56.848866
 20
69.598846
  0
VERTEX
  8
0
 10
56.919582
 20
70.433113
  0
VERTEX
  8
0
 10
57.034821
 20
71.261780
  0
SEQEND
  0
POLYLINE
  8
0
 66
     1
  0
VERTEX
  8
0
 10
58.624817
 20
71.261780
  0
VERTEX
  8
0
 10
58.737457
 20
70.433113
  0
VERTEX
  8
0
 10
58.803360
 20
69.598846
  0
VERTEX
  8
0
 10
58.824814
 20
68.761780
  0
VERTEX
  8
0
 10
58.803360
 20
67.924713
  0
VERTEX
  8
0
 10
58.737457
 20
67.090446
  0
VERTEX
  8
0
 10
58.624817
 20
66.261780
  0
SEQEND
  0
POLYLINE
  8
0
 66
     1
  0
VERTEX
  8
0
 10
58.624817
 20
76.261780
  0
VERTEX
  8
0
 10
58.737457
 20
75.433113
  0
VERTEX
  8
0
 10
58.803360
 20
74.598846
  0
VERTEX
  8
0
 10
58.824814
 20
73.761780
  0
VERTEX
  8
0
 10
58.803360
 20
72.924713
  0
VERTEX
  8
0
 10
58.737457
 20
72.090446
  0
VERTEX
  8
0
 10
58.624817
 20
71.261780
  0
SEQEND
  0
POLYLINE
  8
0
 66
     1
  0
VERTEX
  8
0
 10
57.034821
 20
76.261780
  0
VERTEX
  8
0
 10
56.919582
 20
75.433113
  0
VERTEX
  8
0
 10
56.848866
 20
74.598846
  0
VERTEX
  8
0
 10
56.824814
 20
73.761780
  0
VERTEX
  8
0
 10
56.848866
 20
72.924713
  0
VERTEX
  8
0
 10
56.919582
 20
72.090446
  0
VERTEX
  8
0
 10
57.034821
 20
71.261780
  0
SEQEND
  0
POLYLINE
  8
0
 66
     1
  0
VERTEX
  8
0
 10
-38.375172
 20
66.261780
  0
VERTEX
  8
0
 10
-38.262527
 20
67.090446
  0
VERTEX
  8
0
 10
-38.196629
 20
67.924713
  0
VERTEX
  8
0
 10
-38.175171
 20
68.761780
  0
VERTEX
  8
0
 10
-38.196629
 20
69.598846
  0
VERTEX
  8
0
 10
-38.262527
 20
70.433113
  0
VERTEX
  8
0
 10
-38.375172
 20
71.261780
  0
SEQEND
  0
POLYLINE
  8
0
 66
     1
  0
VERTEX
  8
0
 10
-39.965172
 20
71.261780
  0
VERTEX
  8
0
 10
-40.080406
 20
70.433113
  0
VERTEX
  8
0
 10
-40.151123
 20
69.598846
  0
VERTEX
  8
0
 10
-40.175171
 20
68.761780
  0
VERTEX
  8
0
 10
-40.151123
 20
67.924713
  0
VERTEX
  8
0
 10
-40.080406
 20
67.090446
  0
VERTEX
  8
0
 10
-39.965172
 20
66.261780
  0
SEQEND
  0
POLYLINE
  8
0
 66
     1
  0
VERTEX
  8
0
 10
-38.375172
 20
76.261780
  0
VERTEX
  8
0
 10
-38.262531
 20
75.433113
  0
VERTEX
  8
0
 10
-38.196629
 20
74.598846
  0
VERTEX
  8
0
 10
-38.175171
 20
73.761780
  0
VERTEX
  8
0
 10
-38.196629
 20
72.924713
  0
VERTEX
  8
0
 10
-38.262531
 20
72.090446
  0
VERTEX
  8
0
 10
-38.375172
 20
71.261780
  0
SEQEND
  0
POLYLINE
  8
0
 66
     1
  0
VERTEX
  8
0
 10
-39.965172
 20
76.261780
  0
VERTEX
  8
0
 10
-40.080406
 20
75.433113
  0
VERTEX
  8
0
 10
-40.151123
 20
74.598846
  0
VERTEX
  8
0
 10
-40.175171
 20
73.761780
  0
VERTEX
  8
0
 10
-40.151123
 20
72.924713
  0
VERTEX
  8
0
 10
-40.080406
 20
72.090446
  0
VERTEX
  8
0
 10
-39.965172
 20
71.261780
  0
SEQEND
  0
TEXT
  8
0
 10
-6.093585
 20
-160.135132
 40
4.500000
  1
(ST=50,60)
 50
0.000000
 41
1.052632
 51
0.000000
  7
STANDARD
  0
TEXT
  8
0
 10
164.678131
 20
-168.061874
 40
4.500000
  1
MODEL:ARSZ10*10
 50
0.000000
 41
1.052632
 51
0.000000
  7
STANDARD
  0
TEXT
  8
0
 62
     3
 10
-118.380508
 20
140.758774
 40
4.500000
  1
STRETCH LINE A
 50
0.000000
 41
1.052632
 51
0.000000
  7
STANDARD
  0
TEXT
  8
0
 62
     3
 10
-26.947206
 20
-58.809139
 40
4.500000
  1
STRETCH LINE C
 50
0.000000
 41
1.052632
 51
0.000000
  7
STANDARD
  0
TEXT
  8
0
 10
-256.392670
 20
-163.050003
 40
4.500000
  1
B
 50
0.000000
 41
1.052632
 51
0.000000
  7
STANDARD
  0
TEXT
  8
0
 10
-256.392670
 20
-153.050003
 40
4.500000
  1
A
 50
0.000000
 41
1.052632
 51
0.000000
  7
STANDARD
  0
TEXT
  8
0
 10
-267.642670
 20
-123.050003
 40
4.500000
  1
STROKE
 50
0.000000
 41
1.052632
 51
0.000000
  7
STANDARD
  0
TEXT
  8
0
 10
-270.892670
 20
-133.324997
 40
4.500000
  1
STRETCH
 50
0.000000
 41
1.052632
 51
0.000000
  7
STANDARD
  0
TEXT
  8
0
 10
-270.892670
 20
-140.074997
 40
4.500000
  1
  PLACE
 50
0.000000
 41
1.052632
 51
0.000000
  7
STANDARD
  0
TEXT
  8
0
 10
-233.642654
 20
-133.050003
 40
4.500000
  1
10
 50
0.000000
 41
1.052632
 51
0.000000
  7
STANDARD
  0
TEXT
  8
0
 10
-218.642654
 20
-133.050003
 40
4.500000
  1
20
 50
0.000000
 41
1.052632
 51
0.000000
  7
STANDARD
  0
TEXT
  8
0
 10
-203.642654
 20
-133.050003
 40
4.500000
  1
30
 50
0.000000
 41
1.052632
 51
0.000000
  7
STANDARD
  0
TEXT
  8
0
 10
-188.642654
 20
-133.050003
 40
4.500000
  1
40
 50
0.000000
 41
1.052632
 51
0.000000
  7
STANDARD
  0
TEXT
  8
0
 10
-173.642654
 20
-133.050003
 40
4.500000
  1
50
 50
0.000000
 41
1.052632
 51
0.000000
  7
STANDARD
  0
TEXT
  8
0
 10
-158.642654
 20
-133.050003
 40
4.500000
  1
60
 50
0.000000
 41
1.052632
 51
0.000000
  7
STANDARD
  0
TEXT
  8
0
 10
-236.142654
 20
-113.050003
 40
4.500000
  1
STRETCH LIST
 50
0.000000
 41
1.052632
 51
0.000000
  7
STANDARD
  0
TEXT
  8
0
 10
-163.142654
 20
-113.050003
 40
4.500000
  1
（ｍｍ）
 50
0.000000
 41
0.833333
 51
0.000000
  7
STANDARD
  0
TEXT
  8
0
 10
-218.642654
 20
-173.050003
 40
4.500000
  1
10
 50
0.000000
 41
1.052632
 51
0.000000
  7
STANDARD
  0
TEXT
  8
0
 10
-203.642654
 20
-173.050003
 40
4.500000
  1
20
 50
0.000000
 41
1.052632
 51
0.000000
  7
STANDARD
  0
TEXT
  8
0
 10
-188.642654
 20
-173.050003
 40
4.500000
  1
30
 50
0.000000
 41
1.052632
 51
0.000000
  7
STANDARD
  0
TEXT
  8
0
 10
-171.392654
 20
-173.050003
 40
4.500000
  1
0
 50
0.000000
 41
1.052632
 51
0.000000
  7
STANDARD
  0
TEXT
  8
0
 10
-156.392654
 20
-173.050003
 40
4.500000
  1
5
 50
0.000000
 41
1.052632
 51
0.000000
  7
STANDARD
  0
TEXT
  8
0
 10
-231.392654
 20
-173.050003
 40
4.500000
  1
0
 50
0.000000
 41
1.052632
 51
0.000000
  7
STANDARD
  0
TEXT
  8
0
 10
-235.892654
 20
-153.050003
 40
4.500000
  1
-40
 50
0.000000
 41
1.052632
 51
0.000000
  7
STANDARD
  0
TEXT
  8
0
 10
-158.642654
 20
-153.050003
 40
4.500000
  1
10
 50
0.000000
 41
1.052632
 51
0.000000
  7
STANDARD
  0
TEXT
  8
0
 10
-171.392654
 20
-153.050003
 40
4.500000
  1
0
 50
0.000000
 41
1.052632
 51
0.000000
  7
STANDARD
  0
TEXT
  8
0
 10
-190.892654
 20
-153.050003
 40
4.500000
  1
-10
 50
0.000000
 41
1.052632
 51
0.000000
  7
STANDARD
  0
TEXT
  8
0
 10
-205.892654
 20
-153.050003
 40
4.500000
  1
-20
 50
0.000000
 41
1.052632
 51
0.000000
  7
STANDARD
  0
TEXT
  8
0
 10
-220.892654
 20
-153.050003
 40
4.500000
  1
-30
 50
0.000000
 41
1.052632
 51
0.000000
  7
STANDARD
  0
TEXT
  8
0
 10
-256.392670
 20
-173.050003
 40
4.500000
  1
C
 50
0.000000
 41
1.052632
 51
0.000000
  7
STANDARD
  0
TEXT
  8
0
 10
-256.392670
 20
-183.050003
 40
4.500000
  1
D
 50
0.000000
 41
1.052632
 51
0.000000
  7
STANDARD
  0
TEXT
  8
0
 10
-156.392654
 20
-183.050003
 40
4.500000
  1
5
 50
0.000000
 41
1.052632
 51
0.000000
  7
STANDARD
  0
TEXT
  8
0
 10
-235.892654
 20
-163.050003
 40
4.500000
  1
-40
 50
0.000000
 41
1.052632
 51
0.000000
  7
STANDARD
  0
TEXT
  8
0
 10
-220.892654
 20
-163.050003
 40
4.500000
  1
-30
 50
0.000000
 41
1.052632
 51
0.000000
  7
STANDARD
  0
TEXT
  8
0
 10
-205.892654
 20
-163.050003
 40
4.500000
  1
-20
 50
0.000000
 41
1.052632
 51
0.000000
  7
STANDARD
  0
TEXT
  8
0
 10
-190.892654
 20
-163.050003
 40
4.500000
  1
-10
 50
0.000000
 41
1.052632
 51
0.000000
  7
STANDARD
  0
TEXT
  8
0
 10
-171.392654
 20
-163.050003
 40
4.500000
  1
0
 50
0.000000
 41
1.052632
 51
0.000000
  7
STANDARD
  0
TEXT
  8
0
 10
-158.642654
 20
-163.050003
 40
4.500000
  1
10
 50
0.000000
 41
1.052632
 51
0.000000
  7
STANDARD
  0
TEXT
  8
0
 10
-171.392654
 20
-183.050003
 40
4.500000
  1
0
 50
0.000000
 41
1.052632
 51
0.000000
  7
STANDARD
  0
TEXT
  8
0
 10
-231.392654
 20
-183.050003
 40
4.500000
  1
0
 50
0.000000
 41
1.052632
 51
0.000000
  7
STANDARD
  0
TEXT
  8
0
 10
-218.642654
 20
-183.050003
 40
4.500000
  1
10
 50
0.000000
 41
1.052632
 51
0.000000
  7
STANDARD
  0
TEXT
  8
0
 10
-203.642654
 20
-183.050003
 40
4.500000
  1
20
 50
0.000000
 41
1.052632
 51
0.000000
  7
STANDARD
  0
TEXT
  8
0
 10
-188.642654
 20
-183.050003
 40
4.500000
  1
30
 50
0.000000
 41
1.052632
 51
0.000000
  7
STANDARD
  0
TEXT
  8
0
 62
     3
 10
178.920883
 20
-68.937943
 40
4.500000
  1
STRETCH LINE D
 50
0.000000
 41
1.052632
 51
0.000000
  7
STANDARD
  0
TEXT
  8
0
 62
     3
 10
94.174698
 20
-77.849487
 40
4.500000
  1
STRETCH LINE C
 50
0.000000
 41
1.052632
 51
0.000000
  7
STANDARD
  0
TEXT
  8
0
 62
     3
 10
-120.302048
 20
-78.014862
 40
4.500000
  1
STRETCH LINE A
 50
0.000000
 41
1.052632
 51
0.000000
  7
STANDARD
  0
TEXT
  8
0
 62
     3
 10
18.199814
 20
-69.786652
 40
4.500000
  1
STRETCH LINE D
 50
0.000000
 41
1.052632
 51
0.000000
  7
STANDARD
  0
TEXT
  8
0
 10
162.428131
 20
-160.061874
 40
4.500000
  1
(ST=10,20,30,40)
 50
0.000000
 41
1.052632
 51
0.000000
  7
STANDARD
  0
TEXT
  8
0
 62
     3
 10
5.215347
 20
140.758774
 40
4.500000
  1
STRETCH LINE B
 50
0.000000
 41
1.052632
 51
0.000000
  7
STANDARD
  0
TEXT
  8
0
 10
196.250275
 20
180.830002
 40
6.299999
  1
Ｖｅｒ．　１．０
 50
0.000000
 41
0.833333
 51
0.000000
  7
STANDARD
  0
TEXT
  8
0
 10
167.564667
 20
-192.100006
 40
9.000000
  1
KOGANEI CORP.
 50
0.000000
 41
1.052632
 51
0.000000
  7
STANDARD
  0
TEXT
  8
0
 10
-253.399704
 20
180.830002
 40
6.299999
  1
ROD SLIDER
 50
0.000000
 41
1.052631
 51
0.000000
  7
STANDARD
  0
TEXT
  8
0
 10
-270.049713
 20
155.830002
 40
6.299999
  1
MODEL:ARSZ10*ST(50)
 50
0.000000
 41
1.052631
 51
0.000000
  7
STANDARD
  0
ENDSEC
  0
EOF
