  0
SECTION
  2
HEADER
  0
ENDSEC
  0
SECTION
  2
TABLES
  0
TABLE
  2
LTYPE
 70
     4
  0
LTYPE
  2
CONTINUOUS
 70
    64
  3
Solid line
 72
    65
 73
     0
 40
0.000000
  0
LTYPE
  2
DASHED
 70
    64
  3
__ __ __ __ __ __ __ __ __ __ __ __ __ __ __
 72
    65
 73
     2
 40
3.500000
 49
2.000000
 49
-1.500000
  0
LTYPE
  2
CENTER
 70
    64
  3
____ _ ____ _ ____ _ ____ _ ____ _ ____ _ ____
 72
    65
 73
     4
 40
17.500000
 49
13.000000
 49
-1.500000
 49
1.500000
 49
-1.500000
  0
LTYPE
  2
PHANTOM
 70
    64
  3
_____ _ _ _____ _ _ _____ _ _ _____ _ _ ____  
 72
    65
 73
     6
 40
15.500000
 49
8.000000
 49
-1.500000
 49
1.500000
 49
-1.500000
 49
1.500000
 49
-1.500000
  0
LTYPE
  2
DASHED1
 70
    64
  3
__ __ __ __ __ __ __ __ __ __ __ __ __ __ __
 72
    65
 73
     2
 40
1.500000
 49
1.000000
 49
-0.500000
  0
LTYPE
  2
DASHED2
 70
    64
  3
__ __ __ __ __ __ __ __ __ __ __ __ __ __ __
 72
    65
 73
     2
 40
3.500000
 49
2.500000
 49
-1.000000
  0
LTYPE
  2
DASHED3
 70
    64
  3
__ __ __ __ __ __ __ __ __ __ __ __ __ __ __
 72
    65
 73
     2
 40
6.000000
 49
4.000000
 49
-2.000000
  0
LTYPE
  2
DASHED4
 70
    64
  3
__ __ __ __ __ __ __ __ __ __ __ __ __ __ __
 72
    65
 73
     2
 40
12.000000
 49
10.000000
 49
-2.000000
  0
LTYPE
  2
DASHED5
 70
    64
  3
__ __ __ __ __ __ __ __ __ __ __ __ __ __ __
 72
    65
 73
     2
 40
17.000000
 49
15.000000
 49
-2.000000
  0
LTYPE
  2
DASHED6
 70
    64
  3
__ __ __ __ __ __ __ __ __ __ __ __ __ __ __
 72
    65
 73
     2
 40
29.000000
 49
27.000000
 49
-2.000000
  0
LTYPE
  2
PHANTOM1
 70
    64
  3
_____ _ _ _____ _ _ _____ _ _ _____ _ _ ____  
 72
    65
 73
     6
 40
31.000000
 49
25.000000
 49
-1.500000
 49
1.000000
 49
-1.000000
 49
1.000000
 49
-1.500000
  0
LTYPE
  2
PHANTOM2
 70
    64
  3
_____ _ _ _____ _ _ _____ _ _ _____ _ _ ____  
 72
    65
 73
     6
 40
36.000000
 49
27.000000
 49
-1.500000
 49
2.500000
 49
-1.000000
 49
2.500000
 49
-1.500000
  0
LTYPE
  2
PHANTOM3
 70
    64
  3
_____ _ _ _____ _ _ _____ _ _ _____ _ _ ____  
 72
    65
 73
     6
 40
78.000000
 49
64.000000
 49
-2.000000
 49
4.000000
 49
-2.000000
 49
4.000000
 49
-2.000000
  0
LTYPE
  2
CENTER1
 70
    64
  3
____ _ ____ _ ____ _ ____ _ ____ _ ____ _ ____
 72
    65
 73
     4
 40
19.000000
 49
14.000000
 49
-1.000000
 49
3.000000
 49
-1.000000
  0
LTYPE
  2
CENTER2
 70
    64
  3
____ _ ____ _ ____ _ ____ _ ____ _ ____ _ ____
 72
    65
 73
     4
 40
28.500000
 49
25.000000
 49
-1.000000
 49
1.500000
 49
-1.000000
  0
LTYPE
  2
CENTER3
 70
    64
  3
____ _ ____ _ ____ _ ____ _ ____ _ ____ _ ____
 72
    65
 73
     4
 40
31.500000
 49
27.000000
 49
-1.000000
 49
2.500000
 49
-1.000000
  0
LTYPE
  2
CENTER4
 70
    64
  3
____ _ ____ _ ____ _ ____ _ ____ _ ____ _ ____
 72
    65
 73
     4
 40
50.000000
 49
45.000000
 49
-1.000000
 49
3.000000
 49
-1.000000
  0
LTYPE
  2
CENTER5
 70
    64
  3
____ _ ____ _ ____ _ ____ _ ____ _ ____ _ ____
 72
    65
 73
     4
 40
100.000000
 49
92.000000
 49
-2.000000
 49
4.000000
 49
-2.000000
  0
LTYPE
  2
SBK1
 70
    64
  3
______ _ _ _ ______ _ _ _ ______ _ _ _ _____  
 72
    65
 73
     8
 40
60.500000
 49
45.000000
 49
-2.000000
 49
2.500000
 49
-2.000000
 49
2.500000
 49
-2.000000
 49
2.500000
 49
-2.000000
  0
LTYPE
  2
SBK2
 70
    64
  3
______ _ _ _ ______ _ _ _ ______ _ _ _ _____  
 72
    65
 73
     8
 40
84.000000
 49
64.000000
 49
-2.000000
 49
4.000000
 49
-2.000000
 49
4.000000
 49
-2.000000
 49
4.000000
 49
-2.000000
  0
LTYPE
  2
STCH
 70
    64
  3
__ __ __ __ __ __ __ __ __ __ __ __ __ __ __
 72
    65
 73
     2
 40
3.000000
 49
1.000000
 49
-2.000000
  0
LTYPE
  2
MTCH
 70
    64
  3
_____ _ _ _____ _ _ _____ _ _ _____ _ _ ____  
 72
    65
 73
     6
 40
80.000000
 49
66.000000
 49
-2.000000
 49
4.000000
 49
-2.000000
 49
4.000000
 49
-2.000000
  0
ENDTAB
  0
TABLE
  2
LAYER
 70
     1
  0
LAYER
  2
0
 70
     0
 62
     7
  6
CONTINUOUS
  0
ENDTAB
  0
TABLE
  2
STYLE
 70
     1
  0
STYLE
  2
STANDARD
 70
     0
 40
0.000000
 41
1.000000
 50
0.000000
 71
     0
 42
0.200000
  3
txt
  4
BIGFONT
  0
ENDTAB
  0
TABLE
  2
VIEW
 70
     0
  0
ENDTAB
  0
ENDSEC
  0
SECTION
  2
BLOCKS
  0
ENDSEC
  0
SECTION
  2
ENTITIES
  0
LINE
  8
0
  6
CENTER
 62
     2
 10
211.103165
 20
-107.879829
 11
211.103165
 21
-117.446014
  0
LINE
  8
0
  6
CENTER
 62
     2
 10
171.103165
 20
-107.879829
 11
171.103165
 21
-117.446014
  0
LINE
  8
0
  6
CENTER
 62
     2
 10
206.235260
 20
-139.734802
 11
215.965576
 21
-139.734802
  0
LINE
  8
0
 62
     2
 10
211.103165
 20
-134.879822
 11
211.103165
 21
-144.445999
  0
LINE
  8
0
  6
CENTER
 62
     2
 10
211.103165
 20
-134.879822
 11
211.103165
 21
-144.445999
  0
LINE
  8
0
  6
CENTER
 62
     2
 10
166.235260
 20
-139.734802
 11
175.965591
 21
-139.734802
  0
LINE
  8
0
  6
CENTER
 62
     2
 10
171.103165
 20
-134.879822
 11
171.103165
 21
-144.445999
  0
LINE
  8
0
  6
CENTER
 62
     2
 10
206.235260
 20
-85.734818
 11
215.965576
 21
-85.734818
  0
LINE
  8
0
  6
CENTER
 62
     2
 10
211.103165
 20
-80.879837
 11
211.103165
 21
-90.446014
  0
LINE
  8
0
 62
     2
 10
166.235260
 20
-85.734818
 11
175.965591
 21
-85.734818
  0
LINE
  8
0
 10
219.543152
 20
-72.734818
 11
227.603165
 21
-72.734818
  0
LINE
  8
0
 10
214.323151
 20
-75.234818
 11
219.543152
 21
-75.234818
  0
LINE
  8
0
 10
219.543152
 20
-72.734818
 11
219.543152
 21
-75.234818
  0
LINE
  8
0
 10
214.603165
 20
-75.234818
 11
214.603165
 21
-76.734818
  0
LINE
  8
0
 10
227.603165
 20
-72.734818
 11
227.603165
 21
-76.734818
  0
LINE
  8
0
 10
214.323151
 20
-74.444824
 11
214.323151
 21
-75.234818
  0
LINE
  8
0
  6
CENTER
 62
     2
 10
221.103165
 20
-69.184830
 11
221.103165
 21
-78.352875
  0
LINE
  8
0
 10
151.753174
 20
-112.734818
 11
155.743164
 21
-112.734818
  0
LINE
  8
0
 10
220.103165
 20
-114.734818
 11
222.103165
 21
-114.734818
  0
LINE
  8
0
 10
220.103165
 20
-110.734818
 11
222.103165
 21
-110.734818
  0
LINE
  8
0
  6
CENTER
 62
     2
 10
221.103165
 20
-108.024818
 11
221.103165
 21
-118.654816
  0
LINE
  8
0
  6
CENTER
 62
     2
 10
181.103165
 20
-107.879829
 11
181.103165
 21
-117.446014
  0
LINE
  8
0
 10
156.103165
 20
-133.234802
 11
246.103165
 21
-133.234802
  0
LINE
  8
0
 10
156.103165
 20
-132.934814
 11
246.103165
 21
-132.934814
  0
LINE
  8
0
 10
156.103165
 20
-120.234818
 11
246.103165
 21
-120.234818
  0
LINE
  8
0
 10
156.103165
 20
-120.534821
 11
246.103165
 21
-120.534821
  0
LINE
  8
0
 10
156.103165
 20
-105.234818
 11
246.103165
 21
-105.234818
  0
LINE
  8
0
 10
156.103165
 20
-104.934814
 11
246.103165
 21
-104.934814
  0
LINE
  8
0
 10
156.103165
 20
-92.534821
 11
246.103165
 21
-92.534821
  0
LINE
  8
0
 10
156.103165
 20
-92.234818
 11
246.103165
 21
-92.234818
  0
LINE
  8
0
  6
CENTER
 62
     2
 10
171.103165
 20
-80.879837
 11
171.103165
 21
-90.446014
  0
LINE
  8
0
  6
CENTER
 62
     2
 10
166.235260
 20
-85.734818
 11
175.965591
 21
-85.734818
  0
LINE
  8
0
 10
156.103165
 20
-76.734818
 11
156.103165
 21
-148.734802
  0
LINE
  8
0
 10
246.103165
 20
-76.734818
 11
246.103165
 21
-148.734802
  0
LINE
  8
0
 10
135.103165
 20
-76.734818
 11
246.103165
 21
-76.734818
  0
LINE
  8
0
 10
135.103165
 20
-148.734802
 11
246.103165
 21
-148.734802
  0
LINE
  8
0
  6
CENTER
 62
     2
 10
127.568802
 20
-112.734818
 11
252.674805
 21
-112.734818
  0
LINE
  8
0
  6
PHANTOM
 62
     3
 10
153.103165
 20
-55.735153
 11
153.103165
 21
-108.734818
  0
LINE
  8
0
 10
135.103165
 20
-147.234802
 11
156.103165
 21
-147.234802
  0
LINE
  8
0
 10
135.103165
 20
-78.234818
 11
156.103165
 21
-78.234818
  0
LINE
  8
0
 10
141.003174
 20
-121.734818
 11
156.103165
 21
-121.734818
  0
LINE
  8
0
 10
141.003174
 20
-131.734802
 11
156.103165
 21
-131.734802
  0
LINE
  8
0
 10
141.003174
 20
-103.734818
 11
156.103165
 21
-103.734818
  0
LINE
  8
0
 10
141.003174
 20
-93.734818
 11
156.103165
 21
-93.734818
  0
LINE
  8
0
  6
CENTER
 62
     2
 10
129.490051
 20
-98.734818
 11
161.247833
 21
-98.734818
  0
LINE
  8
0
  6
CENTER
 62
     2
 10
129.490051
 20
-126.734818
 11
161.247833
 21
-126.734818
  0
LINE
  8
0
 10
135.103165
 20
-76.734818
 11
135.103165
 21
-148.734802
  0
LINE
  8
0
 10
137.103165
 20
-119.734818
 11
137.103165
 21
-133.734802
  0
LINE
  8
0
 10
135.103165
 20
-119.734818
 11
137.103165
 21
-119.734818
  0
LINE
  8
0
 10
135.103165
 20
-133.734802
 11
137.103165
 21
-133.734802
  0
LINE
  8
0
 10
137.103165
 20
-91.734818
 11
137.103165
 21
-105.734818
  0
LINE
  8
0
 10
135.103165
 20
-91.734818
 11
137.103165
 21
-91.734818
  0
LINE
  8
0
 10
135.103165
 20
-105.734818
 11
137.103165
 21
-105.734818
  0
LINE
  8
0
 10
137.103165
 20
-94.634827
 11
140.103165
 21
-94.634827
  0
LINE
  8
0
 10
140.103165
 20
-94.634827
 11
141.003174
 21
-93.734825
  0
LINE
  8
0
 10
137.103165
 20
-102.834816
 11
140.103165
 21
-102.834816
  0
LINE
  8
0
 10
140.103180
 20
-102.834824
 11
141.003174
 21
-103.734818
  0
LINE
  8
0
 10
137.103165
 20
-130.834808
 11
140.103165
 21
-130.834808
  0
LINE
  8
0
 10
140.103165
 20
-130.834808
 11
141.003174
 21
-131.734818
  0
LINE
  8
0
 10
137.103165
 20
-122.634819
 11
140.103165
 21
-122.634819
  0
LINE
  8
0
 10
140.103180
 20
-122.634811
 11
141.003174
 21
-121.734818
  0
LINE
  8
0
  6
CENTER
 62
     2
 10
144.533234
 20
-87.734818
 11
151.272385
 21
-87.734818
  0
LINE
  8
0
  6
CENTER
 62
     2
 10
148.103165
 20
-83.967239
 11
148.103165
 21
-91.205582
  0
LINE
  8
0
  6
CENTER
 62
     2
 10
144.658035
 20
-137.734802
 11
151.397186
 21
-137.734802
  0
LINE
  8
0
  6
CENTER
 62
     2
 10
148.103165
 20
-134.011627
 11
148.103165
 21
-141.249969
  0
LINE
  8
0
 10
146.103165
 20
-108.734818
 11
146.103165
 21
-116.734818
  0
LINE
  8
0
 10
146.453171
 20
-112.734818
 11
149.603165
 21
-112.734818
  0
LINE
  8
0
 10
149.603165
 20
-110.234818
 11
152.103165
 21
-110.234818
  0
LINE
  8
0
 10
149.603165
 20
-115.234818
 11
152.103165
 21
-115.234818
  0
LINE
  8
0
 10
146.103165
 20
-108.734818
 11
149.603165
 21
-108.734818
  0
LINE
  8
0
 10
146.103165
 20
-116.734818
 11
149.603165
 21
-116.734818
  0
LINE
  8
0
 10
149.603165
 20
-108.734818
 11
149.603165
 21
-116.734818
  0
LINE
  8
0
 10
152.103165
 20
-116.734818
 11
156.103165
 21
-116.734818
  0
LINE
  8
0
 10
152.103165
 20
-116.734818
 11
152.103165
 21
-108.734818
  0
LINE
  8
0
 10
152.103165
 20
-108.734818
 11
156.103165
 21
-108.734818
  0
LINE
  8
0
  6
PHANTOM
 62
     3
 10
144.103165
 20
-106.734818
 11
144.103165
 21
-118.734818
  0
LINE
  8
0
  6
PHANTOM
 62
     3
 10
144.103165
 20
-106.734818
 11
153.103165
 21
-106.734818
  0
LINE
  8
0
  6
PHANTOM
 62
     3
 10
144.103165
 20
-118.734818
 11
153.103165
 21
-118.734818
  0
LINE
  8
0
  6
PHANTOM
 62
     3
 10
153.103165
 20
-118.734818
 11
153.103165
 21
-153.693573
  0
LINE
  8
0
  6
PHANTOM
 62
     3
 10
191.103165
 20
-65.102997
 11
191.103165
 21
-153.693573
  0
LINE
  8
0
 10
135.103149
 20
-108.740341
 11
136.103149
 21
-108.740341
  0
LINE
  8
0
 10
135.103149
 20
-116.740341
 11
136.103149
 21
-116.740341
  0
LINE
  8
0
 10
136.103149
 20
-108.740341
 11
136.103149
 21
-116.740341
  0
LINE
  8
0
  6
CENTER
 62
     2
 10
54.881775
 20
-107.959442
 11
54.881775
 21
-117.855789
  0
LINE
  8
0
  6
CENTER
 62
     2
 10
-25.118225
 20
-107.959442
 11
-25.118225
 21
-117.855789
  0
LINE
  8
0
  6
CENTER
 62
     2
 10
54.881775
 20
-80.959442
 11
54.881775
 21
-90.855804
  0
LINE
  8
0
  6
CENTER
 62
     2
 10
50.179596
 20
-85.735046
 11
59.388702
 21
-85.735046
  0
LINE
  8
0
  6
CENTER
 62
     2
 10
54.881775
 20
-134.959427
 11
54.881775
 21
-144.855789
  0
LINE
  8
0
  6
CENTER
 62
     2
 10
50.179596
 20
-139.735046
 11
59.388702
 21
-139.735046
  0
LINE
  8
0
  6
CENTER
 62
     2
 10
-25.118225
 20
-134.959427
 11
-25.118225
 21
-144.855789
  0
LINE
  8
0
  6
CENTER
 62
     2
 10
-29.820396
 20
-139.735046
 11
-20.611290
 21
-139.735046
  0
LINE
  8
0
  6
CENTER
 62
     2
 10
-63.118225
 20
-132.959427
 11
-63.118225
 21
-142.855789
  0
LINE
  8
0
  6
CENTER
 62
     2
 10
-67.820389
 20
-137.735046
 11
-57.505157
 21
-137.735046
  0
LINE
  8
0
  6
CENTER
 62
     2
 10
-88.118225
 20
-132.959427
 11
-88.118225
 21
-142.855789
  0
LINE
  8
0
  6
CENTER
 62
     2
 10
-92.820389
 20
-137.735046
 11
-83.611282
 21
-137.735046
  0
LINE
  8
0
  6
CENTER
 62
     2
 10
-63.118225
 20
-82.959442
 11
-63.118225
 21
-92.855804
  0
LINE
  8
0
  6
CENTER
 62
     2
 10
-67.820389
 20
-87.735046
 11
-57.885010
 21
-87.735046
  0
LINE
  8
0
  6
CENTER
 62
     2
 10
-88.118225
 20
-82.959442
 11
-88.118225
 21
-92.855804
  0
LINE
  8
0
  6
CENTER
 62
     2
 10
-92.820389
 20
-87.735046
 11
-83.611282
 21
-87.735046
  0
LINE
  8
0
 10
63.331772
 20
-72.735046
 11
71.381775
 21
-72.735046
  0
LINE
  8
0
 10
58.101761
 20
-75.235046
 11
63.331772
 21
-75.235046
  0
LINE
  8
0
 10
63.331772
 20
-72.735046
 11
63.331772
 21
-75.235046
  0
LINE
  8
0
 10
58.381775
 20
-75.235046
 11
58.381775
 21
-76.735046
  0
LINE
  8
0
 10
71.381775
 20
-72.735046
 11
71.381775
 21
-76.735046
  0
LINE
  8
0
 10
58.101761
 20
-74.445053
 11
58.101761
 21
-75.235046
  0
LINE
  8
0
  6
CENTER
 62
     2
 10
64.881775
 20
-69.195053
 11
64.881775
 21
-79.985046
  0
LINE
  8
0
 10
-101.118225
 20
-147.235046
 11
-40.118225
 21
-147.235046
  0
LINE
  8
0
 10
-101.118225
 20
-78.235046
 11
-40.118225
 21
-78.235046
  0
LINE
  8
0
  6
CENTER
 62
     2
 10
-75.118225
 20
-105.055046
 11
-75.118225
 21
-119.595047
  0
LINE
  8
0
 10
-44.118225
 20
-108.735046
 11
-40.118225
 21
-108.735046
  0
LINE
  8
0
 10
-44.118225
 20
-116.735046
 11
-44.118225
 21
-108.735046
  0
LINE
  8
0
 10
-43.768219
 20
-112.735046
 11
-40.478226
 21
-112.735046
  0
LINE
  8
0
 10
-44.118225
 20
-116.735046
 11
-40.118225
 21
-116.735046
  0
LINE
  8
0
 10
-46.618225
 20
-108.735046
 11
-46.618225
 21
-116.735046
  0
LINE
  8
0
 10
-50.118225
 20
-116.735046
 11
-46.618225
 21
-116.735046
  0
LINE
  8
0
 10
-50.118225
 20
-108.735046
 11
-46.618225
 21
-108.735046
  0
LINE
  8
0
 10
-46.618225
 20
-115.235046
 11
-44.118225
 21
-115.235046
  0
LINE
  8
0
 10
-46.618225
 20
-110.235046
 11
-44.118225
 21
-110.235046
  0
LINE
  8
0
 10
-49.768219
 20
-112.735046
 11
-46.618225
 21
-112.735046
  0
LINE
  8
0
 10
-50.118225
 20
-108.735046
 11
-50.118225
 21
-116.735046
  0
LINE
  8
0
 10
63.881775
 20
-114.735046
 11
65.881775
 21
-114.735046
  0
LINE
  8
0
 10
63.881775
 20
-110.735046
 11
65.881775
 21
-110.735046
  0
LINE
  8
0
  6
CENTER
 62
     2
 10
64.881775
 20
-108.025047
 11
64.881775
 21
-117.807312
  0
LINE
  8
0
  6
CENTER
 62
     2
 10
-15.118225
 20
-107.959442
 11
-15.118225
 21
-117.807312
  0
LINE
  8
0
 10
-40.118225
 20
-133.235046
 11
89.881775
 21
-133.235046
  0
LINE
  8
0
 10
-40.118225
 20
-132.935043
 11
89.881775
 21
-132.935043
  0
LINE
  8
0
 10
-40.118225
 20
-120.235046
 11
89.881775
 21
-120.235046
  0
LINE
  8
0
 10
-40.118225
 20
-120.535049
 11
89.881775
 21
-120.535049
  0
LINE
  8
0
 10
-40.118225
 20
-105.235046
 11
89.881775
 21
-105.235046
  0
LINE
  8
0
 10
-40.118225
 20
-104.935043
 11
89.881775
 21
-104.935043
  0
LINE
  8
0
 10
-40.118225
 20
-92.535049
 11
89.881775
 21
-92.535049
  0
LINE
  8
0
 10
-40.118225
 20
-92.235046
 11
89.881775
 21
-92.235046
  0
LINE
  8
0
  6
CENTER
 62
     2
 10
-25.118225
 20
-80.959442
 11
-25.118225
 21
-90.855804
  0
LINE
  8
0
  6
CENTER
 62
     2
 10
-29.820396
 20
-85.735046
 11
-20.611290
 21
-85.735046
  0
LINE
  8
0
 10
-95.218216
 20
-121.735046
 11
-40.118225
 21
-121.735046
  0
LINE
  8
0
 10
-96.118217
 20
-122.635040
 11
-95.218224
 21
-121.735046
  0
LINE
  8
0
 10
-99.118225
 20
-122.635048
 11
-96.118225
 21
-122.635048
  0
LINE
  8
0
 10
-95.218216
 20
-131.735046
 11
-40.118225
 21
-131.735046
  0
LINE
  8
0
 10
-96.118217
 20
-130.835037
 11
-95.218216
 21
-131.735046
  0
LINE
  8
0
 10
-99.118225
 20
-130.835037
 11
-96.118225
 21
-130.835037
  0
LINE
  8
0
 10
-95.218216
 20
-103.735046
 11
-40.118225
 21
-103.735046
  0
LINE
  8
0
 10
-96.118217
 20
-102.835052
 11
-95.218224
 21
-103.735046
  0
LINE
  8
0
 10
-99.118225
 20
-102.835045
 11
-96.118225
 21
-102.835045
  0
LINE
  8
0
 10
-96.118217
 20
-94.635048
 11
-95.218216
 21
-93.735046
  0
LINE
  8
0
 10
-99.118225
 20
-94.635056
 11
-96.118225
 21
-94.635056
  0
LINE
  8
0
 10
-101.118225
 20
-105.735046
 11
-99.118225
 21
-105.735046
  0
LINE
  8
0
 10
-101.118225
 20
-91.735046
 11
-99.118225
 21
-91.735046
  0
LINE
  8
0
 10
-99.118225
 20
-91.735046
 11
-99.118225
 21
-105.735046
  0
LINE
  8
0
 10
-95.218216
 20
-93.735046
 11
-40.118225
 21
-93.735046
  0
LINE
  8
0
 10
-101.118225
 20
-133.735046
 11
-99.118225
 21
-133.735046
  0
LINE
  8
0
 10
-101.118225
 20
-119.735046
 11
-99.118225
 21
-119.735046
  0
LINE
  8
0
 10
-99.118225
 20
-119.735046
 11
-99.118225
 21
-133.735046
  0
LINE
  8
0
  6
CENTER
 62
     2
 10
-119.878220
 20
-98.735046
 11
-34.335464
 21
-98.735046
  0
LINE
  8
0
  6
CENTER
 62
     2
 10
-120.718216
 20
-126.735046
 11
-34.335464
 21
-126.735046
  0
LINE
  8
0
 10
-101.118225
 20
-76.735046
 11
-101.118225
 21
-148.735046
  0
LINE
  8
0
 10
-113.118225
 20
-76.735046
 11
-113.118225
 21
-148.735046
  0
LINE
  8
0
 10
-40.118225
 20
-76.735046
 11
-40.118225
 21
-148.735046
  0
LINE
  8
0
 10
89.881775
 20
-76.735046
 11
89.881775
 21
-148.735046
  0
LINE
  8
0
 10
-113.118225
 20
-76.735046
 11
89.881775
 21
-76.735046
  0
LINE
  8
0
 10
-113.118225
 20
-148.735046
 11
89.881775
 21
-148.735046
  0
LINE
  8
0
  6
CENTER
 62
     2
 10
-115.623672
 20
-112.735046
 11
95.322021
 21
-112.735046
  0
LINE
  8
0
  6
PHANTOM
 62
     3
 10
-54.301056
 20
-153.693558
 11
-54.301056
 21
-69.617386
  0
LINE
  8
0
  6
PHANTOM
 62
     3
 10
34.881775
 20
-69.617386
 11
34.881775
 21
-153.693558
  0
LINE
  8
0
  6
CENTER
 62
     2
 10
14.881775
 20
-80.880066
 11
14.881775
 21
-90.446243
  0
LINE
  8
0
  6
CENTER
 62
     2
 10
10.013870
 20
-85.735062
 11
19.744186
 21
-85.735062
  0
LINE
  8
0
  6
CENTER
 62
     2
 10
14.881775
 20
-107.880058
 11
14.881775
 21
-117.446243
  0
LINE
  8
0
 62
     2
 10
14.881775
 20
-134.880051
 11
14.881775
 21
-144.446228
  0
LINE
  8
0
  6
CENTER
 62
     2
 10
14.881775
 20
-134.880051
 11
14.881775
 21
-144.446228
  0
LINE
  8
0
  6
CENTER
 62
     2
 10
10.013870
 20
-139.735046
 11
19.744186
 21
-139.735046
  0
LINE
  8
0
 10
-100.118225
 20
-108.740570
 11
-100.118225
 21
-116.740570
  0
LINE
  8
0
 10
-100.118225
 20
-108.740570
 11
-101.118225
 21
-108.740570
  0
LINE
  8
0
 10
-100.118225
 20
-116.740570
 11
-101.118225
 21
-116.740570
  0
LINE
  8
0
  6
PHANTOM
 62
     3
 10
-5.118225
 20
-153.693558
 11
-5.118225
 21
-55.735153
  0
LINE
  8
0
 10
34.881775
 20
21.694946
 11
34.881775
 21
2.694946
  0
LINE
  8
0
 10
-113.118225
 20
21.194946
 11
-113.118225
 21
-23.795044
  0
LINE
  8
0
 10
-101.118225
 20
21.694946
 11
-101.118225
 21
-23.795044
  0
LINE
  8
0
 10
-113.118225
 20
21.194946
 11
-101.118225
 21
21.194946
  0
LINE
  8
0
 10
-101.118225
 20
19.694946
 11
34.881775
 21
19.694946
  0
LINE
  8
0
 10
-113.118225
 20
19.194946
 11
-101.118225
 21
19.194946
  0
LINE
  8
0
 10
-101.118225
 20
21.694946
 11
34.881775
 21
21.694946
  0
LINE
  8
0
 10
71.381775
 20
-17.275043
 11
71.381775
 21
-22.795044
  0
LINE
  8
0
 10
71.381775
 20
-7.455048
 11
71.381775
 21
-9.335045
  0
LINE
  8
0
 10
70.021774
 20
-3.805054
 11
71.381775
 21
-3.805054
  0
LINE
  8
0
 10
62.021774
 20
-22.795044
 11
71.381775
 21
-22.795044
  0
LINE
  8
0
 10
58.381775
 20
-21.445045
 11
58.381775
 21
-22.795044
  0
LINE
  8
0
  6
CENTER
 62
     2
 10
64.881775
 20
-9.715572
 11
64.881775
 21
-17.146233
  0
LINE
  8
0
 10
58.381775
 20
-22.795044
 11
59.731766
 21
-22.795044
  0
LINE
  8
0
 10
58.381775
 20
-3.805054
 11
67.731766
 21
-3.805054
  0
LINE
  8
0
 10
71.381775
 20
-3.805054
 11
71.381775
 21
-5.165054
  0
LINE
  8
0
 10
58.381775
 20
-3.805054
 11
58.381775
 21
-19.155045
  0
LINE
  8
0
 10
-40.118225
 20
2.694946
 11
-40.118225
 21
-25.295044
  0
LINE
  8
0
  6
CENTER
 62
     2
 10
-52.538223
 20
-18.795044
 11
-37.298225
 21
-18.795044
  0
LINE
  8
0
 10
35.881775
 20
3.694946
 11
87.881775
 21
3.694946
  0
LINE
  8
0
 10
39.881775
 20
3.694946
 11
39.881775
 21
5.694946
  0
LINE
  8
0
 62
     2
 10
39.881775
 20
3.794952
 11
49.381775
 21
3.794952
  0
LINE
  8
0
 10
39.881775
 20
4.194946
 11
49.381775
 21
4.194946
  0
LINE
  8
0
 10
35.881767
 20
5.694949
 11
36.231770
 21
6.314955
  0
LINE
  8
0
 10
39.881775
 20
5.694955
 11
39.521774
 21
6.314956
  0
LINE
  8
0
 10
39.521774
 20
6.314941
 11
36.231766
 21
6.314941
  0
LINE
  8
0
 10
39.521774
 20
4.004944
 11
36.231766
 21
4.004944
  0
LINE
  8
0
 10
35.881775
 20
5.694946
 11
34.881775
 21
5.694946
  0
LINE
  8
0
 10
35.881775
 20
5.694946
 11
35.881775
 21
3.694946
  0
LINE
  8
0
 10
49.381775
 20
4.194946
 11
49.381775
 21
3.694946
  0
LINE
  8
0
 10
87.881775
 20
-1.305054
 11
87.881775
 21
3.694946
  0
LINE
  8
0
 62
     2
 10
-46.618225
 20
-20.895044
 11
-44.118225
 21
-20.895044
  0
LINE
  8
0
 10
-46.618225
 20
-21.295044
 11
-44.118225
 21
-21.295044
  0
LINE
  8
0
 10
-50.118214
 20
-22.795038
 11
-49.768215
 21
-23.415037
  0
LINE
  8
0
 10
-49.768219
 20
-23.415045
 11
-46.618225
 21
-23.415045
  0
LINE
  8
0
 10
-49.768219
 20
-21.105045
 11
-46.618225
 21
-21.105045
  0
LINE
  8
0
 10
-46.618225
 20
-18.295044
 11
-46.618225
 21
-23.415045
  0
LINE
  8
0
 10
-50.118225
 20
-18.295044
 11
-50.118225
 21
-22.795044
  0
LINE
  8
0
 10
-40.118225
 20
-22.795042
 11
-40.478226
 21
-23.415043
  0
LINE
  8
0
 10
-43.768219
 20
-21.105045
 11
-40.478226
 21
-21.105045
  0
LINE
  8
0
 10
-44.118225
 20
-22.795044
 11
-44.118225
 21
-18.295044
  0
LINE
  8
0
 10
-44.118225
 20
-22.795044
 11
-43.768223
 21
-23.415043
  0
LINE
  8
0
 10
-43.768219
 20
-23.415045
 11
-40.478226
 21
-23.415045
  0
LINE
  8
0
 10
-99.118225
 20
-16.165045
 11
-96.118225
 21
-16.165045
  0
LINE
  8
0
 10
-99.118225
 20
-10.445045
 11
-96.118225
 21
-10.445045
  0
LINE
  8
0
 10
-99.118225
 20
-8.305054
 11
-40.118225
 21
-8.305054
  0
LINE
  8
0
 10
-99.118225
 20
-18.295044
 11
-40.118225
 21
-18.295044
  0
LINE
  8
0
 10
-101.118225
 20
-20.295044
 11
-99.118225
 21
-20.295044
  0
LINE
  8
0
 10
-101.118225
 20
-6.305054
 11
-99.118225
 21
-6.305054
  0
LINE
  8
0
 10
-99.118225
 20
-6.305054
 11
-99.118225
 21
-20.295044
  0
LINE
  8
0
 62
     2
 10
-99.118210
 20
-16.165039
 11
-96.118217
 21
-10.445045
  0
LINE
  8
0
 62
     2
 10
-99.118210
 20
-10.445052
 11
-96.118217
 21
-16.165043
  0
LINE
  8
0
 10
-96.118225
 20
-10.445045
 11
-96.118225
 21
-16.165045
  0
LINE
  8
0
 10
30.581772
 20
0.194946
 11
30.581772
 21
2.694946
  0
LINE
  8
0
 10
3.181763
 20
0.194946
 11
30.581772
 21
0.194946
  0
LINE
  8
0
 10
3.181763
 20
0.194946
 11
3.181763
 21
2.694946
  0
LINE
  8
0
 10
-36.818226
 20
0.194946
 11
-9.418225
 21
0.194946
  0
LINE
  8
0
 10
-9.418225
 20
0.194946
 11
-9.418225
 21
2.694946
  0
LINE
  8
0
 10
-36.818226
 20
0.194946
 11
-36.818226
 21
2.694946
  0
LINE
  8
0
  6
CENTER
 62
     2
 10
77.881775
 20
-9.069427
 11
77.881775
 21
-17.945930
  0
LINE
  8
0
  6
CENTER
 62
     2
 10
-15.118225
 20
-8.907898
 11
-15.118225
 21
-17.945930
  0
LINE
  8
0
 10
-113.118225
 20
-23.795044
 11
-101.118225
 21
-23.795044
  0
LINE
  8
0
 10
89.881775
 20
-1.305054
 11
89.881775
 21
-25.295044
  0
LINE
  8
0
  6
CENTER
 62
     2
 10
-119.909134
 20
-13.305044
 11
104.651764
 21
-13.305044
  0
LINE
  8
0
 10
-101.118225
 20
2.694946
 11
34.881775
 21
2.694946
  0
LINE
  8
0
 10
-40.118225
 20
-1.305054
 11
89.881775
 21
-1.305054
  0
LINE
  8
0
 10
-40.118225
 20
-25.295044
 11
89.881775
 21
-25.295044
  0
LINE
  8
0
 10
67.641762
 20
-5.070036
 11
70.116768
 21
-7.545040
  0
LINE
  8
0
 10
70.116768
 20
-5.070039
 11
67.641762
 21
-7.545041
  0
LINE
  8
0
 10
62.116756
 20
-19.060040
 11
59.641754
 21
-21.535044
  0
LINE
  8
0
 10
59.641769
 20
-19.060051
 11
62.116760
 21
-21.535046
  0
LINE
  8
0
  6
CENTER
 62
     2
 10
-25.118225
 20
-30.085445
 11
-25.118225
 21
-21.217365
  0
LINE
  8
0
  6
CENTER
 62
     2
 10
54.881775
 20
-30.085445
 11
54.881775
 21
-21.217365
  0
LINE
  8
0
 10
-101.118225
 20
-22.802214
 11
-100.118225
 21
-22.802214
  0
LINE
  8
0
 10
-100.118225
 20
-20.302214
 11
-100.118225
 21
-22.802214
  0
LINE
  8
0
  6
PHANTOM
 62
     3
 10
-54.301056
 20
-30.085445
 11
-54.301056
 21
40.538712
  0
LINE
  8
0
  6
PHANTOM
 62
     3
 10
50.131760
 20
-30.085445
 11
50.131760
 21
40.538712
  0
LINE
  8
0
 10
160.911758
 20
65.514938
 11
160.911758
 21
61.514938
  0
LINE
  8
0
 10
168.841766
 20
65.514938
 11
168.841766
 21
61.514938
  0
LINE
  8
0
 10
174.381760
 20
61.514938
 11
174.381760
 21
65.514938
  0
LINE
  8
0
 10
155.381760
 20
62.564941
 11
155.381760
 21
61.514938
  0
LINE
  8
0
 10
155.101761
 20
63.224945
 11
155.101761
 21
64.014938
  0
LINE
  8
0
 10
160.331772
 20
64.014938
 11
155.101761
 21
64.014938
  0
LINE
  8
0
 10
160.331772
 20
64.014938
 11
160.331772
 21
61.514938
  0
LINE
  8
0
 10
155.381760
 20
65.514938
 11
155.381760
 21
64.014938
  0
LINE
  8
0
 10
155.381760
 20
61.514938
 11
174.381760
 21
61.514938
  0
LINE
  8
0
  6
CENTER
 62
     2
 10
153.011765
 20
87.514938
 11
179.251755
 21
87.514938
  0
LINE
  8
0
 10
147.411774
 20
101.114937
 11
152.341766
 21
101.114937
  0
LINE
  8
0
 10
147.411774
 20
101.914940
 11
152.341766
 21
101.914940
  0
LINE
  8
0
 10
153.881760
 20
102.584938
 11
153.881760
 21
107.514938
  0
LINE
  8
0
 10
145.381760
 20
101.304939
 11
145.381760
 21
87.514938
  0
LINE
  8
0
 10
150.881760
 20
95.514938
 11
150.881760
 21
90.514938
  0
LINE
  8
0
 10
145.381760
 20
90.514938
 11
150.881760
 21
90.514938
  0
LINE
  8
0
 10
129.881775
 20
67.514954
 11
131.881775
 21
65.514946
  0
LINE
  8
0
 10
129.881775
 20
90.014938
 11
130.381775
 21
90.514938
  0
LINE
  8
0
 10
129.881760
 20
90.014938
 11
129.881760
 21
67.514938
  0
LINE
  8
0
 10
130.381760
 20
112.514938
 11
130.381760
 21
90.514938
  0
LINE
  8
0
 10
129.881775
 20
113.014931
 11
130.381775
 21
112.514931
  0
LINE
  8
0
 10
129.881760
 20
135.514938
 11
129.881760
 21
113.014938
  0
LINE
  8
0
 10
129.881775
 20
135.514923
 11
131.881775
 21
137.514923
  0
LINE
  8
0
 10
153.381760
 20
72.014938
 11
153.381760
 21
82.014938
  0
LINE
  8
0
 10
143.381760
 20
67.014938
 11
148.881760
 21
67.014938
  0
LINE
  8
0
 10
148.881760
 20
65.514938
 11
148.881760
 21
67.014938
  0
LINE
  8
0
 10
141.191772
 20
65.514938
 11
176.181763
 21
65.514938
  0
LINE
  8
0
 10
140.581757
 20
65.514938
 11
140.881760
 21
65.814941
  0
LINE
  8
0
 10
141.191772
 20
65.514946
 11
140.881775
 21
65.824944
  0
LINE
  8
0
 10
131.881760
 20
65.514938
 11
140.581772
 21
65.514938
  0
LINE
  8
0
 10
145.881760
 20
112.514938
 11
145.881760
 21
102.584938
  0
LINE
  8
0
 10
152.191772
 20
97.514938
 11
154.491776
 21
101.514938
  0
LINE
  8
0
 10
145.261765
 20
101.514938
 11
147.571762
 21
105.514931
  0
LINE
  8
0
 10
154.491776
 20
101.514946
 11
152.191772
 21
105.514946
  0
LINE
  8
0
 10
147.571762
 20
97.514938
 11
145.261765
 21
101.514938
  0
LINE
  8
0
 10
147.571762
 20
105.514938
 11
152.191772
 21
105.514938
  0
LINE
  8
0
 10
147.571762
 20
97.514938
 11
152.191772
 21
97.514938
  0
LINE
  8
0
  6
CENTER
 62
     2
 10
120.711761
 20
101.514938
 11
182.521759
 21
101.514938
  0
LINE
  8
0
 10
145.381760
 20
112.514938
 11
150.881760
 21
112.514938
  0
LINE
  8
0
 10
153.881760
 20
95.514938
 11
153.881760
 21
100.434937
  0
LINE
  8
0
 10
150.881760
 20
107.514938
 11
154.881760
 21
107.514938
  0
LINE
  8
0
 10
176.581757
 20
109.314941
 11
176.581757
 21
121.714935
  0
LINE
  8
0
 10
176.881760
 20
94.014931
 11
176.581741
 21
93.714928
  0
LINE
  8
0
 10
176.881760
 20
81.014938
 11
176.581757
 21
81.314941
  0
LINE
  8
0
 10
163.781754
 20
132.114929
 11
165.981766
 21
132.114929
  0
LINE
  8
0
 10
169.481766
 20
132.114944
 11
171.881760
 21
134.514938
  0
LINE
  8
0
 10
169.481766
 20
131.584930
 11
169.481766
 21
132.114929
  0
LINE
  8
0
 10
169.951767
 20
131.114929
 11
169.481766
 21
131.584930
  0
LINE
  8
0
 10
169.951767
 20
129.484924
 11
169.951767
 21
131.114929
  0
LINE
  8
0
 10
165.801758
 20
129.484924
 11
165.801758
 21
131.114929
  0
LINE
  8
0
 10
165.801773
 20
131.114929
 11
166.281769
 21
131.584930
  0
LINE
  8
0
 10
166.281754
 20
131.584930
 11
166.281754
 21
131.814926
  0
LINE
  8
0
 10
163.481766
 20
131.584930
 11
163.481766
 21
131.814926
  0
LINE
  8
0
 10
163.951767
 20
131.114929
 11
163.481766
 21
131.584930
  0
LINE
  8
0
 10
163.951767
 20
129.484924
 11
163.951767
 21
131.114929
  0
LINE
  8
0
 10
160.281769
 20
132.114929
 11
157.881760
 21
134.514938
  0
LINE
  8
0
 10
160.281769
 20
131.584930
 11
160.281769
 21
132.114929
  0
LINE
  8
0
 10
159.801773
 20
131.114944
 11
160.281769
 21
131.584930
  0
LINE
  8
0
 10
159.801773
 20
129.484924
 11
159.801773
 21
131.114929
  0
LINE
  8
0
 62
     2
 10
158.731766
 20
129.484924
 11
171.001755
 21
129.484924
  0
LINE
  8
0
  6
CENTER
 62
     2
 10
167.881760
 20
126.314926
 11
167.881760
 21
133.364929
  0
LINE
  8
0
  6
CENTER
 62
     2
 10
161.881760
 20
126.274933
 11
161.881760
 21
133.544937
  0
LINE
  8
0
 10
157.881760
 20
134.514938
 11
157.881760
 21
137.514938
  0
LINE
  8
0
 10
171.881760
 20
134.514938
 11
171.881760
 21
137.514938
  0
LINE
  8
0
 10
176.881760
 20
122.014938
 11
176.581757
 21
121.714935
  0
LINE
  8
0
 10
176.881760
 20
122.014938
 11
176.881760
 21
136.814926
  0
LINE
  8
0
 10
176.881760
 20
109.014938
 11
176.581757
 21
109.314949
  0
LINE
  8
0
 10
176.881760
 20
94.014938
 11
176.881760
 21
109.014938
  0
LINE
  8
0
 10
176.581757
 20
81.314941
 11
176.581757
 21
93.714935
  0
LINE
  8
0
  6
CENTER
 62
     2
 10
164.881760
 20
59.074951
 11
164.881760
 21
134.374924
  0
LINE
  8
0
  6
CENTER
 62
     2
 10
153.011765
 20
115.514938
 11
179.251755
 21
115.514938
  0
LINE
  8
0
 10
176.881760
 20
66.214951
 11
176.881760
 21
81.014938
  0
LINE
  8
0
 10
154.881760
 20
95.514938
 11
154.881760
 21
107.514938
  0
LINE
  8
0
 10
153.381760
 20
131.014938
 11
153.381760
 21
121.014938
  0
LINE
  8
0
 10
151.881760
 20
82.014938
 11
151.881760
 21
92.514938
  0
LINE
  8
0
  6
CENTER
 62
     2
 10
126.211761
 20
77.514938
 11
158.751770
 21
77.514938
  0
LINE
  8
0
  6
CENTER
 62
     2
 10
126.211761
 20
125.514938
 11
159.751770
 21
125.514938
  0
LINE
  8
0
 10
151.881760
 20
92.514938
 11
154.881760
 21
95.514946
  0
LINE
  8
0
 10
152.881760
 20
72.014938
 11
153.381760
 21
72.014938
  0
LINE
  8
0
 10
154.881760
 20
107.514931
 11
151.881760
 21
110.514938
  0
LINE
  8
0
 10
151.881760
 20
110.514938
 11
151.881760
 21
121.014938
  0
LINE
  8
0
 10
152.881760
 20
131.014938
 11
152.881760
 21
137.514938
  0
LINE
  8
0
 10
152.881760
 20
66.514938
 11
152.881760
 21
72.014938
  0
LINE
  8
0
 10
152.881760
 20
131.014938
 11
153.381760
 21
131.014938
  0
LINE
  8
0
 10
150.881760
 20
107.514938
 11
150.881760
 21
112.514938
  0
LINE
  8
0
 10
147.881760
 20
82.014938
 11
153.381760
 21
82.014938
  0
LINE
  8
0
 10
150.881760
 20
95.514938
 11
154.881760
 21
95.514938
  0
LINE
  8
0
  6
CENTER
 62
     2
 10
149.881760
 20
109.877335
 11
149.881760
 21
95.004936
  0
LINE
  8
0
 10
145.881760
 20
100.434937
 11
145.881760
 21
90.514938
  0
LINE
  8
0
 10
131.881760
 20
137.514938
 11
176.181763
 21
137.514938
  0
LINE
  8
0
 10
143.381760
 20
67.014938
 11
143.381760
 21
87.514938
  0
LINE
  8
0
 10
145.381760
 20
115.014938
 11
145.381760
 21
101.714935
  0
LINE
  8
0
 10
143.381760
 20
115.014938
 11
145.381760
 21
115.014938
  0
LINE
  8
0
 10
148.881760
 20
137.514938
 11
148.881760
 21
136.014938
  0
LINE
  8
0
 10
143.381760
 20
136.014938
 11
148.881760
 21
136.014938
  0
LINE
  8
0
 10
143.381760
 20
115.514938
 11
151.181763
 21
115.514938
  0
LINE
  8
0
 10
151.181763
 20
121.014938
 11
151.181763
 21
115.514938
  0
LINE
  8
0
 10
147.881760
 20
121.014938
 11
153.381760
 21
121.014938
  0
LINE
  8
0
 10
147.881760
 20
130.014938
 11
147.881760
 21
121.014938
  0
LINE
  8
0
 10
147.881760
 20
130.014938
 11
153.381760
 21
130.014938
  0
LINE
  8
0
 10
151.181763
 20
135.514938
 11
151.181763
 21
130.014938
  0
LINE
  8
0
 10
143.381760
 20
135.514938
 11
151.181763
 21
135.514938
  0
LINE
  8
0
 10
143.381760
 20
136.014938
 11
143.381760
 21
115.014938
  0
LINE
  8
0
 10
147.881760
 20
73.014938
 11
153.381760
 21
73.014938
  0
LINE
  8
0
 10
143.381760
 20
87.514938
 11
151.181763
 21
87.514938
  0
LINE
  8
0
 10
143.381760
 20
67.514938
 11
151.181763
 21
67.514938
  0
LINE
  8
0
 10
151.181763
 20
82.014938
 11
151.181763
 21
87.514938
  0
LINE
  8
0
 10
151.181763
 20
67.514938
 11
151.181763
 21
73.014938
  0
LINE
  8
0
 10
147.881760
 20
73.014938
 11
147.881760
 21
82.014938
  0
LINE
  8
0
  6
CENTER
 62
     2
 10
-187.042938
 20
71.514938
 11
-196.984772
 21
71.514938
  0
LINE
  8
0
  6
CENTER
 62
     2
 10
-187.214340
 20
131.514938
 11
-196.984772
 21
131.514938
  0
LINE
  8
0
  6
CENTER
 62
     2
 10
-191.118225
 20
68.334946
 11
-191.118225
 21
59.114944
  0
LINE
  8
0
 10
-200.618225
 20
62.564941
 11
-200.618225
 21
61.514938
  0
LINE
  8
0
 10
-200.888229
 20
63.224945
 11
-200.888229
 21
64.014938
  0
LINE
  8
0
 10
-195.668228
 20
64.014938
 11
-195.668228
 21
61.514938
  0
LINE
  8
0
 10
-200.888229
 20
64.014938
 11
-195.668228
 21
64.014938
  0
LINE
  8
0
 10
-200.618225
 20
65.514938
 11
-200.618225
 21
64.014938
  0
LINE
  8
0
 10
-181.618225
 20
65.514938
 11
-181.618225
 21
61.514938
  0
LINE
  8
0
 10
-200.618225
 20
61.514938
 11
-181.618225
 21
61.514938
  0
LINE
  8
0
  6
CENTER
 62
     2
 10
-174.118225
 20
126.934937
 11
-174.118225
 21
136.514938
  0
LINE
  8
0
  6
CENTER
 62
     2
 10
-174.118225
 20
76.084946
 11
-174.118225
 21
66.504944
  0
LINE
  8
0
 10
-156.618240
 20
112.514938
 11
-156.118240
 21
113.014931
  0
LINE
  8
0
 10
-156.118225
 20
113.014938
 11
-156.118225
 21
135.514938
  0
LINE
  8
0
 10
-201.618225
 20
101.514938
 11
-201.618225
 21
137.514938
  0
LINE
  8
0
 10
-202.818222
 20
121.714935
 11
-202.818222
 21
109.314941
  0
LINE
  8
0
  6
CENTER
 62
     2
 10
-192.118225
 20
126.934937
 11
-192.118225
 21
136.514938
  0
LINE
  8
0
  6
CENTER
 62
     2
 10
-168.936996
 20
131.514938
 11
-178.986618
 21
131.514938
  0
LINE
  8
0
 10
-156.118240
 20
135.514923
 11
-158.118240
 21
137.514923
  0
LINE
  8
0
 10
-156.618225
 20
135.514938
 11
-158.618225
 21
137.514938
  0
LINE
  8
0
 10
-158.118225
 20
137.514938
 11
-202.418228
 21
137.514938
  0
LINE
  8
0
 10
-203.118210
 20
109.014938
 11
-202.818222
 21
109.314934
  0
LINE
  8
0
 10
-203.118225
 20
122.014938
 11
-202.818222
 21
121.714935
  0
LINE
  8
0
  6
CENTER
 62
     2
 10
-181.588226
 20
115.514938
 11
-200.458221
 21
115.514938
  0
LINE
  8
0
 10
-203.118225
 20
136.814926
 11
-203.118225
 21
122.014938
  0
LINE
  8
0
 10
-156.618240
 20
90.514931
 11
-156.118240
 21
90.014931
  0
LINE
  8
0
 10
-156.118225
 20
90.014938
 11
-156.118225
 21
67.514938
  0
LINE
  8
0
 10
-201.618225
 20
101.514938
 11
-201.618225
 21
65.514938
  0
LINE
  8
0
 10
-202.818222
 20
81.314941
 11
-202.818222
 21
93.714935
  0
LINE
  8
0
  6
CENTER
 62
     2
 10
-191.118225
 20
78.094940
 11
-191.118225
 21
124.794937
  0
LINE
  8
0
  6
CENTER
 62
     2
 10
-192.118225
 20
76.084946
 11
-192.118225
 21
66.504944
  0
LINE
  8
0
  6
CENTER
 62
     2
 10
-168.936996
 20
71.514938
 11
-179.329437
 21
71.514938
  0
LINE
  8
0
 10
-156.118240
 20
67.514946
 11
-158.118240
 21
65.514946
  0
LINE
  8
0
 10
-156.618225
 20
67.514946
 11
-158.618225
 21
65.514946
  0
LINE
  8
0
 10
-156.618225
 20
135.514938
 11
-156.618225
 21
67.514938
  0
LINE
  8
0
 10
-158.118225
 20
65.514938
 11
-202.418228
 21
65.514938
  0
LINE
  8
0
 10
-203.118225
 20
94.014938
 11
-203.118225
 21
109.014938
  0
LINE
  8
0
 10
-203.118225
 20
94.014938
 11
-202.818222
 21
93.714928
  0
LINE
  8
0
 10
-203.118225
 20
81.014938
 11
-202.818222
 21
81.314941
  0
LINE
  8
0
  6
CENTER
 62
     2
 10
-181.588226
 20
87.514938
 11
-200.578232
 21
87.514938
  0
LINE
  8
0
 10
-203.118225
 20
66.214951
 11
-203.118225
 21
81.014938
  0
LINE
  8
0
  6
CENTER
 62
     2
 10
-151.768234
 20
101.514938
 11
-206.408218
 21
101.514938
  0
LINE
  8
0
 10
-192.558243
 20
113.014969
 11
-189.678238
 21
113.014969
  0
LINE
  8
0
 10
-192.558243
 20
118.014969
 11
-189.678238
 21
118.014969
  0
LINE
  8
0
 10
-192.558243
 20
113.014969
 11
-193.998245
 21
115.514977
  0
LINE
  8
0
 10
-188.238251
 20
115.514969
 11
-189.678238
 21
118.014969
  0
LINE
  8
0
 10
-193.998245
 20
115.514954
 11
-192.558243
 21
118.014961
  0
LINE
  8
0
 10
-189.678253
 20
113.014954
 11
-188.238251
 21
115.514954
  0
LINE
  8
0
 10
-192.558243
 20
85.014984
 11
-189.678238
 21
85.014984
  0
LINE
  8
0
 10
-192.558243
 20
90.014969
 11
-189.678238
 21
90.014969
  0
LINE
  8
0
 10
-192.558243
 20
85.014977
 11
-193.998245
 21
87.514984
  0
LINE
  8
0
 10
-188.238251
 20
87.514977
 11
-189.678238
 21
90.014961
  0
LINE
  8
0
 10
-193.998245
 20
87.514961
 11
-192.558243
 21
90.014961
  0
LINE
  8
0
 10
-189.678223
 20
85.014969
 11
-188.238235
 21
87.514961
  0
LINE
  8
0
 10
66.431763
 20
61.514938
 11
58.381775
 21
61.514938
  0
LINE
  8
0
 10
71.651764
 20
64.014938
 11
66.431763
 21
64.014938
  0
LINE
  8
0
 10
66.431763
 20
61.514938
 11
66.431763
 21
64.014938
  0
LINE
  8
0
 10
71.381775
 20
64.014938
 11
71.381775
 21
65.514938
  0
LINE
  8
0
 10
58.381775
 20
61.514938
 11
58.381775
 21
65.514938
  0
LINE
  8
0
 10
71.651764
 20
63.224945
 11
71.651764
 21
64.014938
  0
LINE
  8
0
 10
49.381775
 20
101.114937
 11
49.381775
 21
99.014938
  0
LINE
  8
0
 10
47.381775
 20
101.914940
 11
47.381775
 21
101.114937
  0
LINE
  8
0
 10
47.381775
 20
101.114937
 11
49.381775
 21
101.114937
  0
LINE
  8
0
 10
47.381775
 20
101.914940
 11
49.381775
 21
101.914940
  0
LINE
  8
0
  6
CENTER
 62
     2
 10
-75.118225
 20
109.284935
 11
-75.118225
 21
93.474937
  0
LINE
  8
0
  6
CENTER
 62
     2
 10
4.881775
 20
109.724937
 11
4.881775
 21
93.364937
  0
LINE
  8
0
 10
87.881775
 20
73.014938
 11
87.881775
 21
82.014938
  0
LINE
  8
0
  6
CENTER
 62
     2
 10
30.501770
 20
77.514938
 11
93.541763
 21
77.514938
  0
LINE
  8
0
 10
34.881775
 20
72.514938
 11
89.881775
 21
72.514938
  0
LINE
  8
0
 10
34.881775
 20
82.014938
 11
89.881775
 21
82.014938
  0
LINE
  8
0
 10
34.881775
 20
73.014938
 11
87.881775
 21
73.014938
  0
LINE
  8
0
  6
CENTER
 62
     2
 10
30.501770
 20
125.514938
 11
93.541763
 21
125.514938
  0
LINE
  8
0
 10
34.881775
 20
130.514938
 11
89.881775
 21
130.514938
  0
LINE
  8
0
 10
87.881775
 20
130.014938
 11
87.881775
 21
121.014938
  0
LINE
  8
0
 10
34.881775
 20
121.014938
 11
89.881775
 21
121.014938
  0
LINE
  8
0
 10
34.881775
 20
130.014938
 11
87.881775
 21
130.014938
  0
LINE
  8
0
 10
-101.118225
 20
112.514938
 11
34.881775
 21
112.514938
  0
LINE
  8
0
 10
-101.118225
 20
113.014938
 11
34.881775
 21
113.014938
  0
LINE
  8
0
  6
CENTER
 62
     2
 10
-88.118225
 20
96.775604
 11
-88.118225
 21
106.134064
  0
LINE
  8
0
  6
CENTER
 62
     2
 10
-88.118225
 20
122.094925
 11
-88.118225
 21
130.655579
  0
LINE
  8
0
 10
-113.118225
 20
135.514938
 11
34.881775
 21
135.514938
  0
LINE
  8
0
 10
49.381775
 20
104.014938
 11
49.381775
 21
101.914940
  0
LINE
  8
0
 62
     2
 10
39.881775
 20
103.614937
 11
49.381775
 21
103.614937
  0
LINE
  8
0
 10
39.881775
 20
104.014938
 11
49.381775
 21
104.014938
  0
LINE
  8
0
 10
39.881775
 20
99.014938
 11
49.381775
 21
99.014938
  0
LINE
  8
0
 62
     2
 10
39.881775
 20
99.414940
 11
49.381775
 21
99.414940
  0
LINE
  8
0
 10
39.881775
 20
97.514938
 11
35.881775
 21
97.514938
  0
LINE
  8
0
 10
39.881775
 20
105.514938
 11
35.881775
 21
105.514938
  0
LINE
  8
0
 10
39.881775
 20
97.514938
 11
39.881775
 21
105.514938
  0
LINE
  8
0
 10
-113.118225
 20
67.514938
 11
34.881775
 21
67.514938
  0
LINE
  8
0
 10
-64.118225
 20
103.514938
 11
-62.118225
 21
103.514938
  0
LINE
  8
0
 10
-64.118225
 20
99.514938
 11
-62.118225
 21
99.514938
  0
LINE
  8
0
 10
-113.118225
 20
137.514938
 11
34.881775
 21
137.514938
  0
LINE
  8
0
  6
CENTER
 62
     2
 10
-92.334595
 20
126.514938
 11
-83.805374
 21
126.514938
  0
LINE
  8
0
  6
CENTER
 62
     2
 10
-63.118225
 20
96.775604
 11
-63.118225
 21
106.134064
  0
LINE
  8
0
  6
CENTER
 62
     2
 10
-7.928238
 20
126.514938
 11
2.011765
 21
126.514938
  0
LINE
  8
0
  6
CENTER
 62
     2
 10
-63.118225
 20
130.812775
 11
-63.118225
 21
122.094925
  0
LINE
  8
0
  6
CENTER
 62
     2
 10
-67.178223
 20
126.514938
 11
-58.928467
 21
126.514938
  0
LINE
  8
0
  6
CENTER
 62
     2
 10
-3.118225
 20
122.294937
 11
-3.118225
 21
130.812775
  0
LINE
  8
0
  6
CENTER
 62
     2
 10
-92.918213
 20
76.514938
 11
-82.978210
 21
76.514938
  0
LINE
  8
0
  6
CENTER
 62
     2
 10
-88.118225
 20
80.724945
 11
-88.118225
 21
72.171585
  0
LINE
  8
0
 10
39.521774
 20
101.514938
 11
36.231766
 21
101.514938
  0
LINE
  8
0
  6
CENTER
 62
     2
 10
-7.928238
 20
76.514938
 11
2.011765
 21
76.514938
  0
LINE
  8
0
 10
34.881775
 20
89.514938
 11
35.881775
 21
89.514938
  0
LINE
  8
0
 10
35.881775
 20
107.514938
 11
89.881775
 21
107.514938
  0
LINE
  8
0
 10
35.881775
 20
110.514938
 11
89.881775
 21
110.514938
  0
LINE
  8
0
  6
CENTER
 62
     2
 10
-123.768219
 20
101.514938
 11
93.541763
 21
101.514938
  0
LINE
  8
0
 10
34.881775
 20
137.514938
 11
34.881775
 21
65.514938
  0
LINE
  8
0
 10
35.881775
 20
113.514938
 11
35.881775
 21
89.514938
  0
LINE
  8
0
 10
-101.118225
 20
90.514938
 11
34.881775
 21
90.514938
  0
LINE
  8
0
 10
-101.118225
 20
90.014938
 11
34.881775
 21
90.014938
  0
LINE
  8
0
 10
34.881775
 20
113.514938
 11
35.881775
 21
113.514938
  0
LINE
  8
0
 10
34.881775
 20
65.514938
 11
89.881775
 21
65.514938
  0
LINE
  8
0
 10
34.881775
 20
137.514938
 11
89.881775
 21
137.514938
  0
LINE
  8
0
  6
CENTER
 62
     2
 10
-63.118225
 20
72.171585
 11
-63.118225
 21
80.924942
  0
LINE
  8
0
  6
CENTER
 62
     2
 10
-67.178223
 20
76.514938
 11
-59.212234
 21
76.514938
  0
LINE
  8
0
  6
CENTER
 62
     2
 10
-3.118225
 20
80.724945
 11
-3.118225
 21
72.171585
  0
LINE
  8
0
 10
35.881775
 20
92.514938
 11
89.881775
 21
92.514938
  0
LINE
  8
0
 10
35.881775
 20
95.514938
 11
89.881775
 21
95.514938
  0
LINE
  8
0
 10
-101.118225
 20
137.514938
 11
-101.118225
 21
65.514938
  0
LINE
  8
0
 10
-113.118225
 20
137.514938
 11
-113.118225
 21
65.514938
  0
LINE
  8
0
 10
-113.118225
 20
65.514938
 11
34.881775
 21
65.514938
  0
LINE
  8
0
 10
89.881775
 20
137.514938
 11
89.881775
 21
65.514938
  0
LINE
  8
0
  6
CENTER
 62
     2
 10
-25.118225
 20
108.764938
 11
-25.118225
 21
94.724937
  0
LINE
  8
0
  6
CENTER
 62
     2
 10
54.881775
 20
108.764938
 11
54.881775
 21
94.724937
  0
LINE
  8
0
  6
PHANTOM
 62
     3
 10
50.131760
 20
40.538712
 11
50.131760
 21
142.690918
  0
LINE
  8
0
  6
PHANTOM
 62
     3
 10
-54.301056
 20
40.538712
 11
-54.301056
 21
142.690918
  0
LINE
  8
0
  6
CENTER
 62
     2
 10
64.881775
 20
57.964951
 11
64.881775
 21
68.754944
  0
LINE
  8
0
 10
-271.250000
 20
-175.000000
 11
-131.250000
 21
-175.000000
  0
LINE
  8
0
 10
-271.250000
 20
-165.000000
 11
-131.250000
 21
-165.000000
  0
LINE
  8
0
 10
-131.250000
 20
-115.000000
 11
-131.250000
 21
-185.000000
  0
LINE
  8
0
 10
-146.250000
 20
-115.000000
 11
-146.250000
 21
-185.000000
  0
LINE
  8
0
 10
-161.250000
 20
-115.000000
 11
-161.250000
 21
-185.000000
  0
LINE
  8
0
 10
-176.250000
 20
-115.000000
 11
-176.250000
 21
-185.000000
  0
LINE
  8
0
 10
-191.250000
 20
-115.000000
 11
-191.250000
 21
-185.000000
  0
LINE
  8
0
 10
-206.250000
 20
-115.000000
 11
-206.250000
 21
-185.000000
  0
LINE
  8
0
 10
-221.250000
 20
-115.000000
 11
-221.250000
 21
-185.000000
  0
LINE
  8
0
 10
-236.249878
 20
-144.999954
 11
-239.769867
 21
-124.999954
  0
LINE
  8
0
 10
-236.250000
 20
-115.000000
 11
-236.250000
 21
-185.000000
  0
LINE
  8
0
 10
-271.250000
 20
-115.000000
 11
-131.250000
 21
-115.000000
  0
LINE
  8
0
 10
-271.250000
 20
-125.000000
 11
-239.769989
 21
-125.000000
  0
LINE
  8
0
 10
-271.250000
 20
-145.000000
 11
-131.250000
 21
-145.000000
  0
LINE
  8
0
 10
-271.250000
 20
-155.000000
 11
-131.250000
 21
-155.000000
  0
LINE
  8
0
 10
-271.250000
 20
-115.000000
 11
-271.250000
 21
-185.000000
  0
LINE
  8
0
 10
-271.250000
 20
-185.000000
 11
-131.250000
 21
-185.000000
  0
LINE
  8
0
 10
282.099854
 20
195.500000
 11
282.099854
 21
-195.000000
  0
LINE
  8
0
 10
-281.250000
 20
195.500000
 11
282.099854
 21
195.500000
  0
LINE
  8
0
 10
-281.250000
 20
195.500000
 11
-281.250000
 21
-195.000000
  0
LINE
  8
0
 10
-281.250000
 20
-195.000000
 11
282.099854
 21
-195.000000
  0
LINE
  8
0
 10
162.099976
 20
-175.000000
 11
162.099976
 21
-195.000000
  0
LINE
  8
0
 10
162.099976
 20
-175.000000
 11
282.099854
 21
-175.000000
  0
LINE
  8
0
 10
162.099976
 20
175.500000
 11
282.099854
 21
175.500000
  0
LINE
  8
0
 10
-281.250000
 20
175.500000
 11
-161.250000
 21
175.500000
  0
LINE
  8
0
 10
162.099976
 20
195.500000
 11
162.099976
 21
175.500000
  0
LINE
  8
0
 10
-161.250000
 20
195.500000
 11
-161.250000
 21
175.500000
  0
CIRCLE
  8
0
 10
211.103165
 20
-112.734818
 40
2.099999
  0
CIRCLE
  8
0
 62
     2
 10
211.103165
 20
-112.734818
 40
2.500000
  0
CIRCLE
  8
0
 10
171.103165
 20
-112.734818
 40
2.099999
  0
CIRCLE
  8
0
 62
     2
 10
171.103165
 20
-112.734818
 40
2.500000
  0
CIRCLE
  8
0
 10
211.103165
 20
-139.734802
 40
2.099999
  0
CIRCLE
  8
0
 62
     2
 10
211.103165
 20
-139.734802
 40
2.500000
  0
CIRCLE
  8
0
 10
171.103165
 20
-139.734802
 40
2.099999
  0
CIRCLE
  8
0
 62
     2
 10
171.103165
 20
-139.734802
 40
2.500000
  0
CIRCLE
  8
0
 10
211.103165
 20
-85.734818
 40
2.099999
  0
CIRCLE
  8
0
 62
     2
 10
211.103165
 20
-85.734818
 40
2.500000
  0
CIRCLE
  8
0
 10
171.103165
 20
-85.734818
 40
2.099999
  0
CIRCLE
  8
0
 62
     2
 10
171.103165
 20
-85.734818
 40
2.500000
  0
ARC
  8
0
 10
215.256119
 20
-74.443848
 40
0.932972
 50
107.656174
 51
180.059967
  0
ARC
  8
0
 10
217.066040
 20
-80.237152
 40
7.004940
 50
69.290756
 51
107.726982
  0
ARC
  8
0
 10
222.094299
 20
-112.734818
 40
2.000020
 50
270.253967
 51
89.746025
  0
ARC
  8
0
 10
220.094299
 20
-112.734818
 40
2.000020
 50
89.746025
 51
270.253967
  0
CIRCLE
  8
0
 10
181.094299
 20
-112.737221
 40
2.000000
  0
CIRCLE
  8
0
 62
     2
 10
148.103165
 20
-87.734818
 40
2.500000
  0
CIRCLE
  8
0
 10
148.103165
 20
-87.734818
 40
2.099999
  0
CIRCLE
  8
0
 62
     2
 10
148.103165
 20
-137.734802
 40
2.500000
  0
CIRCLE
  8
0
 10
148.103165
 20
-137.734802
 40
2.099999
  0
ARC
  8
0
 10
151.879868
 20
-110.734818
 40
5.783500
 50
159.768661
 51
200.231216
  0
ARC
  8
0
 10
151.879868
 20
-114.734818
 40
5.783500
 50
159.768661
 51
200.231216
  0
ARC
  8
0
 10
157.879868
 20
-114.734818
 40
5.783529
 50
159.768768
 51
200.231232
  0
ARC
  8
0
 10
157.879868
 20
-110.734818
 40
5.783529
 50
159.768768
 51
200.231232
  0
ARC
  8
0
 10
150.326447
 20
-110.734818
 40
5.774152
 50
339.734467
 51
20.265522
  0
ARC
  8
0
 10
150.326447
 20
-114.734818
 40
5.774152
 50
339.734467
 51
20.265522
  0
CIRCLE
  8
0
 10
54.881775
 20
-112.735046
 40
2.099999
  0
CIRCLE
  8
0
 62
     2
 10
54.881775
 20
-112.735046
 40
2.500000
  0
CIRCLE
  8
0
 10
-25.118225
 20
-112.735046
 40
2.099999
  0
CIRCLE
  8
0
 62
     2
 10
-25.118225
 20
-112.735046
 40
2.500000
  0
CIRCLE
  8
0
 10
54.881775
 20
-85.735046
 40
2.099999
  0
CIRCLE
  8
0
 62
     2
 10
54.881775
 20
-85.735046
 40
2.500000
  0
CIRCLE
  8
0
 10
54.881775
 20
-139.735046
 40
2.099999
  0
CIRCLE
  8
0
 62
     2
 10
54.881775
 20
-139.735046
 40
2.500000
  0
CIRCLE
  8
0
 10
-25.118225
 20
-139.735046
 40
2.099999
  0
CIRCLE
  8
0
 62
     2
 10
-25.118225
 20
-139.735046
 40
2.500000
  0
CIRCLE
  8
0
 10
-63.118225
 20
-137.735046
 40
2.099999
  0
CIRCLE
  8
0
 62
     2
 10
-63.118225
 20
-137.735046
 40
2.500000
  0
CIRCLE
  8
0
 10
-88.118225
 20
-137.735046
 40
2.099999
  0
CIRCLE
  8
0
 62
     2
 10
-88.118225
 20
-137.735046
 40
2.500000
  0
CIRCLE
  8
0
 10
-63.118225
 20
-87.735046
 40
2.099999
  0
CIRCLE
  8
0
 62
     2
 10
-63.118225
 20
-87.735046
 40
2.500000
  0
CIRCLE
  8
0
 10
-88.118225
 20
-87.735046
 40
2.099999
  0
CIRCLE
  8
0
 62
     2
 10
-88.118225
 20
-87.735046
 40
2.500000
  0
CIRCLE
  8
0
 10
-25.118225
 20
-85.735046
 40
2.099999
  0
CIRCLE
  8
0
 62
     2
 10
-25.118225
 20
-85.735046
 40
2.500000
  0
ARC
  8
0
 10
59.041977
 20
-74.449371
 40
0.940221
 50
107.978882
 51
179.737320
  0
ARC
  8
0
 10
60.864365
 20
-80.240768
 40
7.004671
 50
69.374931
 51
107.897156
  0
CIRCLE
  8
0
 10
-75.118240
 20
-112.740570
 40
5.000000
  0
ARC
  8
0
 10
-45.894943
 20
-114.735046
 40
5.774155
 50
339.734497
 51
20.265509
  0
ARC
  8
0
 10
-45.894943
 20
-110.735046
 40
5.774155
 50
339.734497
 51
20.265509
  0
ARC
  8
0
 10
-38.341515
 20
-110.735046
 40
5.783525
 50
159.768753
 51
200.231247
  0
ARC
  8
0
 10
-38.341515
 20
-114.735046
 40
5.783525
 50
159.768753
 51
200.231247
  0
ARC
  8
0
 10
-44.341522
 20
-114.735046
 40
5.783507
 50
159.768692
 51
200.231232
  0
ARC
  8
0
 10
-44.341522
 20
-110.735046
 40
5.783507
 50
159.768692
 51
200.231232
  0
ARC
  8
0
 10
65.881775
 20
-112.735046
 40
2.000000
 50
270.000000
 51
90.000000
  0
ARC
  8
0
 10
63.881775
 20
-112.735046
 40
2.000000
 50
90.000000
 51
270.000000
  0
CIRCLE
  8
0
 10
-15.118240
 20
-112.740570
 40
2.000000
  0
CIRCLE
  8
0
 10
14.881775
 20
-85.735062
 40
2.099999
  0
CIRCLE
  8
0
 62
     2
 10
14.881775
 20
-85.735062
 40
2.500000
  0
CIRCLE
  8
0
 10
14.881775
 20
-112.735046
 40
2.099999
  0
CIRCLE
  8
0
 62
     2
 10
14.881775
 20
-112.735046
 40
2.500000
  0
CIRCLE
  8
0
 62
     2
 10
14.881775
 20
-139.735046
 40
2.500000
  0
CIRCLE
  8
0
 10
14.881775
 20
-139.735046
 40
2.099999
  0
ARC
  8
0
 10
75.881760
 20
-13.305044
 40
6.000897
 50
138.580444
 51
221.419540
  0
CIRCLE
  8
0
 10
68.881760
 20
-6.302231
 40
2.749999
  0
CIRCLE
  8
0
 10
60.881775
 20
-20.302237
 40
2.749999
  0
ARC
  8
0
 10
60.884155
 20
-20.296547
 40
3.497616
 50
314.410614
 51
0.024590
  0
ARC
  8
0
 10
60.879074
 20
-20.301136
 40
3.502698
 50
0.099652
 51
135.476639
  0
ARC
  8
0
 10
68.883179
 20
-6.303650
 40
3.500336
 50
134.453720
 51
315.546234
  0
CIRCLE
  8
0
 10
64.881760
 20
-13.302221
 40
1.749999
  0
ARC
  8
0
 10
32.232361
 20
1.720596
 40
7.638961
 50
14.978535
 51
17.399872
  0
ARC
  8
0
 10
43.530380
 20
1.717926
 40
7.648537
 50
162.601608
 51
165.019943
  0
ARC
  8
0
 10
37.926926
 20
5.155106
 40
2.048514
 50
154.253906
 51
214.156754
  0
ARC
  8
0
 10
37.837219
 20
5.163345
 40
2.044405
 50
325.485321
 51
25.545481
  0
ARC
  8
0
 10
-48.072723
 20
-22.255226
 40
2.048805
 50
145.847870
 51
205.741379
  0
ARC
  8
0
 10
-42.476120
 20
-18.797157
 40
7.648602
 50
176.235931
 51
197.562134
  0
ARC
  8
0
 10
-42.163788
 20
-22.254498
 40
2.040198
 50
334.119263
 51
34.291443
  0
ARC
  8
0
 10
-47.760513
 20
-18.798344
 40
7.638894
 50
342.424164
 51
3.777753
  0
ARC
  8
0
 10
-36.476120
 20
-18.797157
 40
7.648602
 50
176.235931
 51
197.562134
  0
ARC
  8
0
 10
-42.072739
 20
-22.255226
 40
2.048792
 50
145.847626
 51
205.741562
  0
CIRCLE
  8
0
 62
     2
 10
-15.118240
 20
-13.302221
 40
2.500000
  0
CIRCLE
  8
0
 10
-15.118240
 20
-13.302221
 40
2.099999
  0
CIRCLE
  8
0
 10
77.881760
 20
-13.302221
 40
2.099999
  0
CIRCLE
  8
0
 62
     2
 10
77.881760
 20
-13.302221
 40
2.500000
  0
ARC
  8
0
 10
176.181763
 20
136.814926
 40
0.699997
 50
0.000000
 51
90.000000
  0
ARC
  8
0
 10
176.181763
 20
66.214951
 40
0.699997
 50
270.000000
 51
0.000000
  0
ARC
  8
0
 10
156.039337
 20
63.227325
 40
0.937579
 50
180.145935
 51
252.138733
  0
ARC
  8
0
 10
157.850082
 20
69.014755
 40
7.004187
 50
252.224411
 51
290.751465
  0
CIRCLE
  8
0
 10
164.881760
 20
87.514877
 40
10.750000
  0
CIRCLE
  8
0
 10
164.881760
 20
87.514877
 40
10.500000
  0
CIRCLE
  8
0
 10
164.881760
 20
115.514938
 40
10.750000
  0
CIRCLE
  8
0
 10
164.881760
 20
115.514938
 40
10.500000
  0
ARC
  8
0
 62
     2
 10
149.876770
 20
101.514938
 40
2.064122
 50
191.173920
 51
348.826080
  0
ARC
  8
0
 10
161.876755
 20
129.484924
 40
2.075012
 50
180.000000
 51
0.000000
  0
ARC
  8
0
 10
165.981766
 20
131.814941
 40
0.300003
 50
0.000000
 51
90.000000
  0
ARC
  8
0
 10
163.781784
 20
131.814911
 40
0.300018
 50
90.002914
 51
179.997086
  0
ARC
  8
0
 10
167.876755
 20
129.484924
 40
2.075012
 50
180.000000
 51
0.000000
  0
ARC
  8
0
 62
     2
 10
149.876770
 20
101.514938
 40
2.064122
 50
11.173913
 51
168.826080
  0
ARC
  8
0
 10
153.881775
 20
66.514954
 40
1.000000
 50
180.000443
 51
270.000000
  0
CIRCLE
  8
0
 10
149.881744
 20
101.514938
 40
2.500000
  0
CIRCLE
  8
0
 10
149.881744
 20
101.514938
 40
4.000000
  0
ARC
  8
0
 10
-202.418228
 20
66.214951
 40
0.699997
 50
180.000000
 51
270.000000
  0
ARC
  8
0
 10
-202.418228
 20
136.814926
 40
0.699997
 50
90.000000
 51
180.000000
  0
CIRCLE
  8
0
 10
-192.118225
 20
71.514938
 40
2.099999
  0
CIRCLE
  8
0
 10
-174.118225
 20
71.514938
 40
2.099999
  0
CIRCLE
  8
0
 10
-174.118225
 20
131.514938
 40
2.099999
  0
CIRCLE
  8
0
 10
-192.118225
 20
131.514938
 40
2.099999
  0
CIRCLE
  8
0
 62
     2
 10
-174.118225
 20
71.514938
 40
2.500000
  0
CIRCLE
  8
0
 62
     2
 10
-192.118225
 20
71.514938
 40
2.500000
  0
CIRCLE
  8
0
 62
     2
 10
-174.118225
 20
131.514938
 40
2.500000
  0
CIRCLE
  8
0
 62
     2
 10
-192.118225
 20
131.514938
 40
2.500000
  0
ARC
  8
0
 10
-196.327911
 20
63.225952
 40
0.933874
 50
287.427460
 51
314.942566
  0
ARC
  8
0
 10
-199.957245
 20
63.222519
 40
0.930988
 50
179.850693
 51
252.433105
  0
ARC
  8
0
 10
-198.143219
 20
69.014969
 40
7.000831
 50
252.587418
 51
287.412598
  0
CIRCLE
  8
0
 10
-191.118225
 20
115.514999
 40
7.000000
  0
CIRCLE
  8
0
 10
-191.118225
 20
87.514938
 40
7.000000
  0
CIRCLE
  8
0
 10
-191.118225
 20
115.514999
 40
7.500000
  0
CIRCLE
  8
0
 10
-191.118225
 20
87.514938
 40
7.500000
  0
CIRCLE
  8
0
 10
-191.118240
 20
115.514969
 40
5.000000
  0
CIRCLE
  8
0
 10
-191.118240
 20
115.514969
 40
4.307179
  0
CIRCLE
  8
0
 10
-191.118240
 20
87.514969
 40
5.000000
  0
CIRCLE
  8
0
 10
-191.118240
 20
87.514969
 40
4.307179
  0
CIRCLE
  8
0
 10
-3.118225
 20
126.514938
 40
2.099999
  0
CIRCLE
  8
0
 10
-3.118225
 20
76.514938
 40
2.099999
  0
CIRCLE
  8
0
 10
-63.118225
 20
76.514938
 40
2.099999
  0
CIRCLE
  8
0
 10
-88.118225
 20
76.514938
 40
2.099999
  0
CIRCLE
  8
0
 10
-63.118225
 20
126.514938
 40
2.099999
  0
CIRCLE
  8
0
 10
-88.118225
 20
126.514938
 40
2.099999
  0
CIRCLE
  8
0
 62
     2
 10
-3.118225
 20
76.514938
 40
2.500000
  0
CIRCLE
  8
0
 62
     2
 10
-3.118225
 20
126.514938
 40
2.500000
  0
CIRCLE
  8
0
 62
     2
 10
-63.118225
 20
76.514938
 40
2.500000
  0
CIRCLE
  8
0
 62
     2
 10
-63.118225
 20
126.514938
 40
2.500000
  0
CIRCLE
  8
0
 62
     2
 10
-88.118225
 20
76.514938
 40
2.500000
  0
CIRCLE
  8
0
 62
     2
 10
-88.118225
 20
126.514938
 40
2.500000
  0
ARC
  8
0
 10
70.720688
 20
63.222595
 40
0.931089
 50
287.571381
 51
0.144837
  0
ARC
  8
0
 10
68.908829
 20
69.014893
 40
7.002693
 50
249.284409
 51
287.733429
  0
ARC
  8
0
 10
34.105042
 20
99.514938
 40
5.774155
 50
339.734497
 51
20.265509
  0
ARC
  8
0
 10
34.105042
 20
103.514938
 40
5.774155
 50
339.734497
 51
20.265509
  0
ARC
  8
0
 10
-62.118225
 20
101.514938
 40
2.000000
 50
270.000000
 51
90.000000
  0
ARC
  8
0
 10
-64.118225
 20
101.514938
 40
2.000000
 50
90.000000
 51
270.000000
  0
CIRCLE
  8
0
 10
-88.118240
 20
101.514938
 40
2.000000
  0
ARC
  8
0
 10
41.658463
 20
99.514938
 40
5.783504
 50
159.768677
 51
200.231232
  0
ARC
  8
0
 10
41.658463
 20
103.514938
 40
5.783504
 50
159.768677
 51
200.231232
  0
CIRCLE
  8
0
 10
4.881760
 20
101.514938
 40
5.000000
  0
CIRCLE
  8
0
 10
-75.118240
 20
101.514938
 40
5.000000
  0
CIRCLE
  8
0
  6
DASHED
 62
     2
 10
-25.118240
 20
101.514938
 40
4.000000
  0
CIRCLE
  8
0
  6
DASHED
 62
     2
 10
-25.118225
 20
101.514938
 40
2.099999
  0
CIRCLE
  8
0
 10
54.881760
 20
101.514938
 40
4.000000
  0
CIRCLE
  8
0
 10
54.881775
 20
101.514938
 40
2.099999
  0
TEXT
  8
0
 10
170.448273
 20
-168.895996
 40
4.500000
  1
MODEL:ARSK20*ST(10)
 50
0.000000
 41
1.052632
 51
0.000000
  7
STANDARD
  0
TEXT
  8
0
 10
-235.892654
 20
-163.050003
 40
4.500000
  1
-40
 50
0.000000
 41
1.052632
 51
0.000000
  7
STANDARD
  0
TEXT
  8
0
 10
-235.892654
 20
-153.050003
 40
4.500000
  1
-40
 50
0.000000
 41
1.052632
 51
0.000000
  7
STANDARD
  0
TEXT
  8
0
 62
     3
 10
-88.191177
 20
-65.163986
 40
4.500000
  1
STRETCH LINE A
 50
0.000000
 41
1.052632
 51
0.000000
  7
STANDARD
  0
TEXT
  8
0
 62
     3
 10
174.750687
 20
-62.886608
 40
4.500000
  1
STRETCH LINE D
 50
0.000000
 41
1.052632
 51
0.000000
  7
STANDARD
  0
TEXT
  8
0
 62
     3
 10
124.511108
 20
-54.493191
 40
4.500000
  1
STRETCH LINE C
 50
0.000000
 41
1.052632
 51
0.000000
  7
STANDARD
  0
TEXT
  8
0
 62
     3
 10
15.643860
 20
-65.163986
 40
4.500000
  1
STRETCH LINE D
 50
0.000000
 41
1.052632
 51
0.000000
  7
STANDARD
  0
TEXT
  8
0
 62
     3
 10
-41.138100
 20
-54.493191
 40
4.500000
  1
STRETCH LINE C
 50
0.000000
 41
1.052632
 51
0.000000
  7
STANDARD
  0
TEXT
  8
0
 62
     3
 10
15.213120
 20
143.609726
 40
4.500000
  1
STRETCH LINE B
 50
0.000000
 41
1.052632
 51
0.000000
  7
STANDARD
  0
TEXT
  8
0
 62
     3
 10
-116.191177
 20
143.314804
 40
4.500000
  1
STRETCH LINE A
 50
0.000000
 41
1.052632
 51
0.000000
  7
STANDARD
  0
TEXT
  8
0
 10
-188.642654
 20
-183.050003
 40
4.500000
  1
30
 50
0.000000
 41
1.052632
 51
0.000000
  7
STANDARD
  0
TEXT
  8
0
 10
-203.642654
 20
-183.050003
 40
4.500000
  1
20
 50
0.000000
 41
1.052632
 51
0.000000
  7
STANDARD
  0
TEXT
  8
0
 10
-218.642654
 20
-183.050003
 40
4.500000
  1
10
 50
0.000000
 41
1.052632
 51
0.000000
  7
STANDARD
  0
TEXT
  8
0
 10
-231.392654
 20
-183.050003
 40
4.500000
  1
0
 50
0.000000
 41
1.052632
 51
0.000000
  7
STANDARD
  0
TEXT
  8
0
 10
-171.392654
 20
-183.050003
 40
4.500000
  1
0
 50
0.000000
 41
1.052632
 51
0.000000
  7
STANDARD
  0
TEXT
  8
0
 10
-143.642654
 20
-163.050003
 40
4.500000
  1
30
 50
0.000000
 41
1.052632
 51
0.000000
  7
STANDARD
  0
TEXT
  8
0
 10
-158.642654
 20
-163.050003
 40
4.500000
  1
10
 50
0.000000
 41
1.052632
 51
0.000000
  7
STANDARD
  0
TEXT
  8
0
 10
-171.392654
 20
-163.050003
 40
4.500000
  1
0
 50
0.000000
 41
1.052632
 51
0.000000
  7
STANDARD
  0
TEXT
  8
0
 10
-190.892654
 20
-163.050003
 40
4.500000
  1
-10
 50
0.000000
 41
1.052632
 51
0.000000
  7
STANDARD
  0
TEXT
  8
0
 10
-205.892654
 20
-163.050003
 40
4.500000
  1
-20
 50
0.000000
 41
1.052632
 51
0.000000
  7
STANDARD
  0
TEXT
  8
0
 10
-220.892654
 20
-163.050003
 40
4.500000
  1
-30
 50
0.000000
 41
1.052632
 51
0.000000
  7
STANDARD
  0
TEXT
  8
0
 10
-143.642654
 20
-183.050003
 40
4.500000
  1
15
 50
0.000000
 41
1.052632
 51
0.000000
  7
STANDARD
  0
TEXT
  8
0
 10
-156.392654
 20
-183.050003
 40
4.500000
  1
5
 50
0.000000
 41
1.052632
 51
0.000000
  7
STANDARD
  0
TEXT
  8
0
 10
-256.392670
 20
-183.050003
 40
4.500000
  1
D
 50
0.000000
 41
1.052632
 51
0.000000
  7
STANDARD
  0
TEXT
  8
0
 10
-256.392670
 20
-173.050003
 40
4.500000
  1
C
 50
0.000000
 41
1.052632
 51
0.000000
  7
STANDARD
  0
TEXT
  8
0
 10
-205.892654
 20
-153.050003
 40
4.500000
  1
-20
 50
0.000000
 41
1.052632
 51
0.000000
  7
STANDARD
  0
TEXT
  8
0
 10
-190.892654
 20
-153.050003
 40
4.500000
  1
-10
 50
0.000000
 41
1.052632
 51
0.000000
  7
STANDARD
  0
TEXT
  8
0
 10
-171.392654
 20
-153.050003
 40
4.500000
  1
0
 50
0.000000
 41
1.052632
 51
0.000000
  7
STANDARD
  0
TEXT
  8
0
 10
-158.642654
 20
-153.050003
 40
4.500000
  1
10
 50
0.000000
 41
1.052632
 51
0.000000
  7
STANDARD
  0
TEXT
  8
0
 10
-143.642654
 20
-153.050003
 40
4.500000
  1
30
 50
0.000000
 41
1.052632
 51
0.000000
  7
STANDARD
  0
TEXT
  8
0
 10
-220.892654
 20
-153.050003
 40
4.500000
  1
-30
 50
0.000000
 41
1.052632
 51
0.000000
  7
STANDARD
  0
TEXT
  8
0
 10
-231.392654
 20
-173.050003
 40
4.500000
  1
0
 50
0.000000
 41
1.052632
 51
0.000000
  7
STANDARD
  0
TEXT
  8
0
 10
-143.642654
 20
-173.050003
 40
4.500000
  1
15
 50
0.000000
 41
1.052632
 51
0.000000
  7
STANDARD
  0
TEXT
  8
0
 10
-156.392654
 20
-173.050003
 40
4.500000
  1
5
 50
0.000000
 41
1.052632
 51
0.000000
  7
STANDARD
  0
TEXT
  8
0
 10
-171.392654
 20
-173.050003
 40
4.500000
  1
0
 50
0.000000
 41
1.052632
 51
0.000000
  7
STANDARD
  0
TEXT
  8
0
 10
-188.642654
 20
-173.050003
 40
4.500000
  1
30
 50
0.000000
 41
1.052632
 51
0.000000
  7
STANDARD
  0
TEXT
  8
0
 10
-203.642654
 20
-173.050003
 40
4.500000
  1
20
 50
0.000000
 41
1.052632
 51
0.000000
  7
STANDARD
  0
TEXT
  8
0
 10
-218.642654
 20
-173.050003
 40
4.500000
  1
10
 50
0.000000
 41
1.052632
 51
0.000000
  7
STANDARD
  0
TEXT
  8
0
 10
-148.142654
 20
-113.050003
 40
4.500000
  1
（ｍｍ）
 50
0.000000
 41
0.833333
 51
0.000000
  7
STANDARD
  0
TEXT
  8
0
 10
-228.642654
 20
-113.050003
 40
4.500000
  1
STRETCH LIST
 50
0.000000
 41
1.052632
 51
0.000000
  7
STANDARD
  0
TEXT
  8
0
 10
-143.642654
 20
-133.050003
 40
4.500000
  1
80
 50
0.000000
 41
1.052632
 51
0.000000
  7
STANDARD
  0
TEXT
  8
0
 10
-158.642654
 20
-133.050003
 40
4.500000
  1
60
 50
0.000000
 41
1.052632
 51
0.000000
  7
STANDARD
  0
TEXT
  8
0
 10
-173.642654
 20
-133.050003
 40
4.500000
  1
50
 50
0.000000
 41
1.052632
 51
0.000000
  7
STANDARD
  0
TEXT
  8
0
 10
-188.642654
 20
-133.050003
 40
4.500000
  1
40
 50
0.000000
 41
1.052632
 51
0.000000
  7
STANDARD
  0
TEXT
  8
0
 10
-203.642654
 20
-133.050003
 40
4.500000
  1
30
 50
0.000000
 41
1.052632
 51
0.000000
  7
STANDARD
  0
TEXT
  8
0
 10
-218.642654
 20
-133.050003
 40
4.500000
  1
20
 50
0.000000
 41
1.052632
 51
0.000000
  7
STANDARD
  0
TEXT
  8
0
 10
-233.642654
 20
-133.050003
 40
4.500000
  1
10
 50
0.000000
 41
1.052632
 51
0.000000
  7
STANDARD
  0
TEXT
  8
0
 10
-270.892670
 20
-133.324997
 40
4.500000
  1
STRETCH
 50
0.000000
 41
1.052632
 51
0.000000
  7
STANDARD
  0
TEXT
  8
0
 10
-270.892670
 20
-140.074997
 40
4.500000
  1
  PLACE
 50
0.000000
 41
1.052632
 51
0.000000
  7
STANDARD
  0
TEXT
  8
0
 10
-267.642670
 20
-123.050003
 40
4.500000
  1
STROKE
 50
0.000000
 41
1.052632
 51
0.000000
  7
STANDARD
  0
TEXT
  8
0
 10
-256.392670
 20
-153.050003
 40
4.500000
  1
A
 50
0.000000
 41
1.052632
 51
0.000000
  7
STANDARD
  0
TEXT
  8
0
 10
-256.392670
 20
-163.050003
 40
4.500000
  1
B
 50
0.000000
 41
1.052632
 51
0.000000
  7
STANDARD
  0
TEXT
  8
0
 10
196.250275
 20
180.830002
 40
6.299999
  1
Ｖｅｒ．　１．０
 50
0.000000
 41
0.833333
 51
0.000000
  7
STANDARD
  0
TEXT
  8
0
 10
167.564667
 20
-192.100006
 40
9.000000
  1
KOGANEI CORP.
 50
0.000000
 41
1.052632
 51
0.000000
  7
STANDARD
  0
TEXT
  8
0
 10
-253.399704
 20
180.830002
 40
6.299999
  1
ROD SLIDER
 50
0.000000
 41
1.052631
 51
0.000000
  7
STANDARD
  0
TEXT
  8
0
 10
-270.049713
 20
155.830002
 40
6.299999
  1
MODEL:ARSK20*ST(50)
 50
0.000000
 41
1.052631
 51
0.000000
  7
STANDARD
  0
ENDSEC
  0
EOF
