  0
SECTION
  2
HEADER
  0
ENDSEC
  0
SECTION
  2
TABLES
  0
TABLE
  2
LTYPE
 70
     4
  0
LTYPE
  2
CONTINUOUS
 70
    64
  3
Solid line
 72
    65
 73
     0
 40
0.000000
  0
LTYPE
  2
DASHED
 70
    64
  3
__ __ __ __ __ __ __ __ __ __ __ __ __ __ __
 72
    65
 73
     2
 40
3.500000
 49
2.000000
 49
-1.500000
  0
LTYPE
  2
CENTER
 70
    64
  3
____ _ ____ _ ____ _ ____ _ ____ _ ____ _ ____
 72
    65
 73
     4
 40
17.500000
 49
13.000000
 49
-1.500000
 49
1.500000
 49
-1.500000
  0
LTYPE
  2
PHANTOM
 70
    64
  3
_____ _ _ _____ _ _ _____ _ _ _____ _ _ ____  
 72
    65
 73
     6
 40
15.500000
 49
8.000000
 49
-1.500000
 49
1.500000
 49
-1.500000
 49
1.500000
 49
-1.500000
  0
LTYPE
  2
DASHED1
 70
    64
  3
__ __ __ __ __ __ __ __ __ __ __ __ __ __ __
 72
    65
 73
     2
 40
1.500000
 49
1.000000
 49
-0.500000
  0
LTYPE
  2
DASHED2
 70
    64
  3
__ __ __ __ __ __ __ __ __ __ __ __ __ __ __
 72
    65
 73
     2
 40
3.500000
 49
2.500000
 49
-1.000000
  0
LTYPE
  2
DASHED3
 70
    64
  3
__ __ __ __ __ __ __ __ __ __ __ __ __ __ __
 72
    65
 73
     2
 40
6.000000
 49
4.000000
 49
-2.000000
  0
LTYPE
  2
DASHED4
 70
    64
  3
__ __ __ __ __ __ __ __ __ __ __ __ __ __ __
 72
    65
 73
     2
 40
12.000000
 49
10.000000
 49
-2.000000
  0
LTYPE
  2
DASHED5
 70
    64
  3
__ __ __ __ __ __ __ __ __ __ __ __ __ __ __
 72
    65
 73
     2
 40
17.000000
 49
15.000000
 49
-2.000000
  0
LTYPE
  2
DASHED6
 70
    64
  3
__ __ __ __ __ __ __ __ __ __ __ __ __ __ __
 72
    65
 73
     2
 40
29.000000
 49
27.000000
 49
-2.000000
  0
LTYPE
  2
PHANTOM1
 70
    64
  3
_____ _ _ _____ _ _ _____ _ _ _____ _ _ ____  
 72
    65
 73
     6
 40
31.000000
 49
25.000000
 49
-1.500000
 49
1.000000
 49
-1.000000
 49
1.000000
 49
-1.500000
  0
LTYPE
  2
PHANTOM2
 70
    64
  3
_____ _ _ _____ _ _ _____ _ _ _____ _ _ ____  
 72
    65
 73
     6
 40
36.000000
 49
27.000000
 49
-1.500000
 49
2.500000
 49
-1.000000
 49
2.500000
 49
-1.500000
  0
LTYPE
  2
PHANTOM3
 70
    64
  3
_____ _ _ _____ _ _ _____ _ _ _____ _ _ ____  
 72
    65
 73
     6
 40
78.000000
 49
64.000000
 49
-2.000000
 49
4.000000
 49
-2.000000
 49
4.000000
 49
-2.000000
  0
LTYPE
  2
CENTER1
 70
    64
  3
____ _ ____ _ ____ _ ____ _ ____ _ ____ _ ____
 72
    65
 73
     4
 40
19.000000
 49
14.000000
 49
-1.000000
 49
3.000000
 49
-1.000000
  0
LTYPE
  2
CENTER2
 70
    64
  3
____ _ ____ _ ____ _ ____ _ ____ _ ____ _ ____
 72
    65
 73
     4
 40
28.500000
 49
25.000000
 49
-1.000000
 49
1.500000
 49
-1.000000
  0
LTYPE
  2
CENTER3
 70
    64
  3
____ _ ____ _ ____ _ ____ _ ____ _ ____ _ ____
 72
    65
 73
     4
 40
31.500000
 49
27.000000
 49
-1.000000
 49
2.500000
 49
-1.000000
  0
LTYPE
  2
CENTER4
 70
    64
  3
____ _ ____ _ ____ _ ____ _ ____ _ ____ _ ____
 72
    65
 73
     4
 40
50.000000
 49
45.000000
 49
-1.000000
 49
3.000000
 49
-1.000000
  0
LTYPE
  2
CENTER5
 70
    64
  3
____ _ ____ _ ____ _ ____ _ ____ _ ____ _ ____
 72
    65
 73
     4
 40
100.000000
 49
92.000000
 49
-2.000000
 49
4.000000
 49
-2.000000
  0
LTYPE
  2
SBK1
 70
    64
  3
______ _ _ _ ______ _ _ _ ______ _ _ _ _____  
 72
    65
 73
     8
 40
60.500000
 49
45.000000
 49
-2.000000
 49
2.500000
 49
-2.000000
 49
2.500000
 49
-2.000000
 49
2.500000
 49
-2.000000
  0
LTYPE
  2
SBK2
 70
    64
  3
______ _ _ _ ______ _ _ _ ______ _ _ _ _____  
 72
    65
 73
     8
 40
84.000000
 49
64.000000
 49
-2.000000
 49
4.000000
 49
-2.000000
 49
4.000000
 49
-2.000000
 49
4.000000
 49
-2.000000
  0
LTYPE
  2
STCH
 70
    64
  3
__ __ __ __ __ __ __ __ __ __ __ __ __ __ __
 72
    65
 73
     2
 40
3.000000
 49
1.000000
 49
-2.000000
  0
LTYPE
  2
MTCH
 70
    64
  3
_____ _ _ _____ _ _ _____ _ _ _____ _ _ ____  
 72
    65
 73
     6
 40
80.000000
 49
66.000000
 49
-2.000000
 49
4.000000
 49
-2.000000
 49
4.000000
 49
-2.000000
  0
ENDTAB
  0
TABLE
  2
LAYER
 70
     1
  0
LAYER
  2
0
 70
     0
 62
     7
  6
CONTINUOUS
  0
ENDTAB
  0
TABLE
  2
STYLE
 70
     1
  0
STYLE
  2
STANDARD
 70
     0
 40
0.000000
 41
1.000000
 50
0.000000
 71
     0
 42
0.200000
  3
txt
  4
BIGFONT
  0
ENDTAB
  0
TABLE
  2
VIEW
 70
     0
  0
ENDTAB
  0
ENDSEC
  0
SECTION
  2
BLOCKS
  0
ENDSEC
  0
SECTION
  2
ENTITIES
  0
LINE
  8
0
  6
CENTER
 62
     2
 10
218.023666
 20
-69.726807
 11
218.023666
 21
-60.706818
  0
LINE
  8
0
 10
211.523666
 20
-65.646805
 11
211.523666
 21
-67.146805
  0
LINE
  8
0
 10
211.253662
 20
-64.856812
 11
211.253662
 21
-65.646805
  0
LINE
  8
0
 10
216.473663
 20
-63.146805
 11
216.473663
 21
-65.646805
  0
LINE
  8
0
 10
216.473663
 20
-65.646805
 11
211.253662
 21
-65.646805
  0
LINE
  8
0
 10
211.523666
 20
-63.146805
 11
211.523666
 21
-64.196808
  0
LINE
  8
0
 10
224.523666
 20
-63.146805
 11
224.523666
 21
-67.146805
  0
LINE
  8
0
 10
224.523666
 20
-63.146805
 11
211.523666
 21
-63.146805
  0
LINE
  8
0
 10
222.023666
 20
-99.646805
 11
220.023666
 21
-99.646805
  0
LINE
  8
0
 10
222.023666
 20
-95.646805
 11
220.023666
 21
-95.646805
  0
LINE
  8
0
  6
CENTER
 62
     2
 10
211.023666
 20
-102.605431
 11
211.023666
 21
-93.076538
  0
LINE
  8
0
  6
CENTER
 62
     2
 10
221.023666
 20
-102.605431
 11
221.023666
 21
-93.076538
  0
LINE
  8
0
 10
241.023666
 20
-114.146805
 11
156.023666
 21
-114.146805
  0
LINE
  8
0
 10
241.023666
 20
-113.646805
 11
156.023666
 21
-113.646805
  0
LINE
  8
0
 10
241.023666
 20
-81.646805
 11
156.023666
 21
-81.646805
  0
LINE
  8
0
 10
241.023666
 20
-81.146805
 11
156.023666
 21
-81.146805
  0
LINE
  8
0
 10
241.023666
 20
-89.646805
 11
156.023666
 21
-89.646805
  0
LINE
  8
0
 10
241.023666
 20
-90.146805
 11
156.023666
 21
-90.146805
  0
LINE
  8
0
 10
241.023666
 20
-105.646805
 11
156.023666
 21
-105.646805
  0
LINE
  8
0
 10
241.023666
 20
-105.146805
 11
156.023666
 21
-105.146805
  0
LINE
  8
0
  6
CENTER
 62
     2
 10
246.483658
 20
-97.646805
 11
126.370636
 21
-97.646805
  0
LINE
  8
0
 10
241.023666
 20
-128.146805
 11
241.023666
 21
-67.146805
  0
LINE
  8
0
 10
241.023666
 20
-67.146805
 11
131.023666
 21
-67.146805
  0
LINE
  8
0
 10
241.023666
 20
-128.146805
 11
131.023666
 21
-128.146805
  0
LINE
  8
0
 10
156.023666
 20
-128.146805
 11
156.023666
 21
-67.146805
  0
LINE
  8
0
  6
PHANTOM
 62
     3
 10
191.023666
 20
-131.382263
 11
191.023666
 21
-55.611282
  0
LINE
  8
0
  6
CENTER
 62
     2
 10
151.023666
 20
-114.612122
 11
151.023666
 21
-120.692749
  0
LINE
  8
0
 10
156.023666
 20
-89.646805
 11
140.023666
 21
-89.646805
  0
LINE
  8
0
 10
156.023666
 20
-81.646805
 11
140.023666
 21
-81.646805
  0
LINE
  8
0
  6
CENTER
 62
     2
 10
160.542542
 20
-85.646805
 11
123.813675
 21
-85.646805
  0
LINE
  8
0
  6
CENTER
 62
     2
 10
160.542542
 20
-109.646805
 11
123.813675
 21
-109.646805
  0
LINE
  8
0
 10
156.023666
 20
-113.646805
 11
140.023666
 21
-113.646805
  0
LINE
  8
0
 10
156.023666
 20
-105.646805
 11
140.023666
 21
-105.646805
  0
LINE
  8
0
 10
131.023666
 20
-67.146805
 11
131.023666
 21
-128.146805
  0
LINE
  8
0
 10
139.023666
 20
-67.146805
 11
139.023666
 21
-128.146805
  0
LINE
  8
0
 10
140.023666
 20
-103.646805
 11
139.023666
 21
-103.646805
  0
LINE
  8
0
 10
140.023666
 20
-115.646805
 11
139.023666
 21
-115.646805
  0
LINE
  8
0
 10
140.023666
 20
-103.646805
 11
140.023666
 21
-115.646805
  0
LINE
  8
0
 10
140.023666
 20
-79.646805
 11
139.023666
 21
-79.646805
  0
LINE
  8
0
 10
140.023666
 20
-91.646805
 11
139.023666
 21
-91.646805
  0
LINE
  8
0
 10
140.023666
 20
-79.646805
 11
140.023666
 21
-91.646805
  0
LINE
  8
0
 10
143.023666
 20
-88.166809
 11
143.023666
 21
-83.116806
  0
LINE
  8
0
 10
140.023666
 20
-83.116806
 11
143.023666
 21
-83.116806
  0
LINE
  8
0
 10
140.023666
 20
-88.166809
 11
143.023666
 21
-88.166809
  0
LINE
  8
0
 62
     2
 10
140.023697
 20
-83.116814
 11
143.023697
 21
-88.166817
  0
LINE
  8
0
 62
     2
 10
140.023682
 20
-88.166809
 11
143.023682
 21
-83.116814
  0
LINE
  8
0
 10
143.023666
 20
-107.116806
 11
143.023666
 21
-112.166801
  0
LINE
  8
0
 10
140.023666
 20
-112.166801
 11
143.023666
 21
-112.166801
  0
LINE
  8
0
 10
140.023666
 20
-107.116806
 11
143.023666
 21
-107.116806
  0
LINE
  8
0
 62
     2
 10
140.023682
 20
-112.166817
 11
143.023682
 21
-107.116814
  0
LINE
  8
0
 62
     2
 10
140.023666
 20
-107.116806
 11
143.023666
 21
-112.166809
  0
LINE
  8
0
  6
CENTER
 62
     2
 10
151.023666
 20
-74.561890
 11
151.023666
 21
-80.475632
  0
LINE
  8
0
  6
CENTER
 62
     2
 10
154.086197
 20
-77.646805
 11
148.097122
 21
-77.646805
  0
LINE
  8
0
  6
CENTER
 62
     2
 10
154.218979
 20
-117.646805
 11
147.911743
 21
-117.646805
  0
LINE
  8
0
 10
153.623672
 20
-94.146805
 11
156.023666
 21
-94.146805
  0
LINE
  8
0
 10
153.933670
 20
-97.646805
 11
155.713669
 21
-97.646805
  0
LINE
  8
0
 10
153.623672
 20
-101.146805
 11
156.023666
 21
-101.146805
  0
LINE
  8
0
 10
150.333679
 20
-97.646805
 11
152.823669
 21
-97.646805
  0
LINE
  8
0
 10
152.823669
 20
-95.646805
 11
153.623672
 21
-95.646805
  0
LINE
  8
0
 10
152.823669
 20
-99.646805
 11
153.623672
 21
-99.646805
  0
LINE
  8
0
 10
150.023666
 20
-94.146805
 11
152.823669
 21
-94.146805
  0
LINE
  8
0
 10
150.023666
 20
-101.146805
 11
152.823669
 21
-101.146805
  0
LINE
  8
0
 10
152.823669
 20
-94.146805
 11
152.823669
 21
-101.146805
  0
LINE
  8
0
 10
150.023666
 20
-94.146805
 11
150.023666
 21
-101.146805
  0
LINE
  8
0
 10
153.623672
 20
-101.146805
 11
153.623672
 21
-94.146805
  0
LINE
  8
0
 10
156.023666
 20
-68.646805
 11
139.023666
 21
-68.646805
  0
LINE
  8
0
 10
156.023666
 20
-126.646805
 11
139.023666
 21
-126.646805
  0
LINE
  8
0
  6
CENTER
 62
     2
 10
181.023666
 20
-102.343987
 11
181.023666
 21
-93.076538
  0
LINE
  8
0
  6
CENTER
 62
     2
 10
171.023666
 20
-102.343987
 11
171.023666
 21
-93.076538
  0
LINE
  8
0
  6
PHANTOM
 62
     3
 10
154.795242
 20
-131.382263
 11
154.795242
 21
-103.646805
  0
LINE
  8
0
  6
PHANTOM
 62
     3
 10
147.392929
 20
-103.646805
 11
147.392929
 21
-91.646805
  0
LINE
  8
0
  6
CENTER
 62
     3
 10
154.795242
 20
-103.646805
 11
147.392929
 21
-103.646805
  0
LINE
  8
0
  6
CENTER
 62
     3
 10
154.795242
 20
-91.646805
 11
147.392929
 21
-91.646805
  0
LINE
  8
0
  6
PHANTOM
 62
     3
 10
154.795242
 20
-91.646805
 11
154.795242
 21
-46.875031
  0
LINE
  8
0
 10
140.023666
 20
-94.896774
 11
140.023666
 21
-100.396774
  0
LINE
  8
0
 10
140.023666
 20
-94.896774
 11
139.023666
 21
-94.896774
  0
LINE
  8
0
 10
140.023666
 20
-100.396774
 11
139.023666
 21
-100.396774
  0
LINE
  8
0
  6
CENTER
 62
     2
 10
-70.058395
 20
-117.638947
 11
-78.459381
 21
-117.638947
  0
LINE
  8
0
  6
CENTER
 62
     2
 10
-74.196335
 20
-113.575096
 11
-74.196335
 21
-121.284225
  0
LINE
  8
0
  6
CENTER
 62
     2
 10
-90.058395
 20
-117.638947
 11
-98.459381
 21
-117.638947
  0
LINE
  8
0
  6
CENTER
 62
     2
 10
-94.196335
 20
-113.575096
 11
-94.196335
 21
-121.284225
  0
LINE
  8
0
  6
CENTER
 62
     2
 10
-70.058395
 20
-77.638947
 11
-78.459381
 21
-77.638947
  0
LINE
  8
0
  6
CENTER
 62
     2
 10
-74.196335
 20
-73.575104
 11
-74.196335
 21
-81.284241
  0
LINE
  8
0
  6
CENTER
 62
     2
 10
52.803665
 20
-69.708954
 11
52.803665
 21
-60.698959
  0
LINE
  8
0
 10
46.303665
 20
-65.638947
 11
46.303665
 21
-67.138947
  0
LINE
  8
0
 10
46.023651
 20
-64.848953
 11
46.023651
 21
-65.638947
  0
LINE
  8
0
 10
51.253662
 20
-63.138947
 11
51.253662
 21
-65.638947
  0
LINE
  8
0
 10
51.253662
 20
-65.638947
 11
46.023651
 21
-65.638947
  0
LINE
  8
0
 10
46.303665
 20
-63.138947
 11
46.303665
 21
-64.188950
  0
LINE
  8
0
 10
59.303665
 20
-63.138947
 11
59.303665
 21
-67.138947
  0
LINE
  8
0
 10
59.303665
 20
-63.138947
 11
46.303665
 21
-63.138947
  0
LINE
  8
0
 10
-49.196335
 20
-126.638947
 11
-106.196335
 21
-126.638947
  0
LINE
  8
0
 10
-49.196335
 20
-68.638947
 11
-106.196335
 21
-68.638947
  0
LINE
  8
0
  6
CENTER
 62
     2
 10
-84.196335
 20
-90.908951
 11
-84.196335
 21
-104.108948
  0
LINE
  8
0
  6
CENTER
 62
     2
 10
-90.058395
 20
-77.638947
 11
-98.459381
 21
-77.638947
  0
LINE
  8
0
  6
CENTER
 62
     2
 10
-94.196335
 20
-73.575104
 11
-94.196335
 21
-81.284241
  0
LINE
  8
0
 62
     2
 10
-105.196320
 20
-107.108955
 11
-102.196327
 21
-112.158951
  0
LINE
  8
0
 62
     2
 10
-105.196327
 20
-112.158958
 11
-102.196327
 21
-107.108955
  0
LINE
  8
0
 10
-105.196335
 20
-107.108948
 11
-102.196335
 21
-107.108948
  0
LINE
  8
0
 10
-105.196335
 20
-112.158943
 11
-102.196335
 21
-112.158943
  0
LINE
  8
0
 10
-102.196335
 20
-107.108948
 11
-102.196335
 21
-112.158943
  0
LINE
  8
0
 62
     2
 10
-105.196335
 20
-88.158951
 11
-102.196327
 21
-83.108940
  0
LINE
  8
0
 62
     2
 10
-105.196327
 20
-83.108955
 11
-102.196327
 21
-88.158966
  0
LINE
  8
0
 10
-105.196335
 20
-88.158951
 11
-102.196335
 21
-88.158951
  0
LINE
  8
0
 10
-105.196335
 20
-83.108948
 11
-102.196335
 21
-83.108948
  0
LINE
  8
0
 10
-102.196335
 20
-88.158951
 11
-102.196335
 21
-83.108948
  0
LINE
  8
0
 10
-51.596329
 20
-94.138947
 11
-49.196335
 21
-94.138947
  0
LINE
  8
0
 10
-51.596329
 20
-101.138947
 11
-51.596329
 21
-94.138947
  0
LINE
  8
0
 10
-51.286331
 20
-97.638947
 11
-49.506332
 21
-97.638947
  0
LINE
  8
0
 10
-51.596329
 20
-101.138947
 11
-49.196335
 21
-101.138947
  0
LINE
  8
0
 10
-55.196335
 20
-94.138947
 11
-55.196335
 21
-101.138947
  0
LINE
  8
0
 10
-52.396332
 20
-94.138947
 11
-52.396332
 21
-101.138947
  0
LINE
  8
0
 10
-55.196335
 20
-101.138947
 11
-52.396332
 21
-101.138947
  0
LINE
  8
0
 10
-55.196335
 20
-94.138947
 11
-52.396332
 21
-94.138947
  0
LINE
  8
0
 10
-52.396332
 20
-99.638947
 11
-51.596329
 21
-99.638947
  0
LINE
  8
0
 10
-52.396332
 20
-95.638947
 11
-51.596329
 21
-95.638947
  0
LINE
  8
0
 10
-54.886322
 20
-97.638947
 11
-52.396332
 21
-97.638947
  0
LINE
  8
0
 10
-49.196335
 20
-89.638947
 11
-105.196335
 21
-89.638947
  0
LINE
  8
0
 10
-49.196335
 20
-81.638947
 11
-105.196335
 21
-81.638947
  0
LINE
  8
0
  6
CENTER
 62
     2
 10
-44.677467
 20
-85.638947
 11
-121.406326
 21
-85.638947
  0
LINE
  8
0
 10
-105.196335
 20
-79.638947
 11
-105.196335
 21
-91.638947
  0
LINE
  8
0
 10
-105.196335
 20
-91.638947
 11
-106.196335
 21
-91.638947
  0
LINE
  8
0
 10
-105.196335
 20
-79.638947
 11
-106.196335
 21
-79.638947
  0
LINE
  8
0
  6
CENTER
 62
     2
 10
-44.677467
 20
-109.638947
 11
-121.406326
 21
-109.638947
  0
LINE
  8
0
 10
-49.196335
 20
-113.638947
 11
-105.196335
 21
-113.638947
  0
LINE
  8
0
 10
-49.196335
 20
-105.638947
 11
-105.196335
 21
-105.638947
  0
LINE
  8
0
 10
-114.196335
 20
-67.138947
 11
-114.196335
 21
-128.138947
  0
LINE
  8
0
 10
-106.196335
 20
-67.138947
 11
-106.196335
 21
-128.138947
  0
LINE
  8
0
 10
-105.196335
 20
-103.638947
 11
-105.196335
 21
-115.638947
  0
LINE
  8
0
 10
-105.196335
 20
-115.638947
 11
-106.196335
 21
-115.638947
  0
LINE
  8
0
 10
-105.196335
 20
-103.638947
 11
-106.196335
 21
-103.638947
  0
LINE
  8
0
 10
56.803665
 20
-99.638947
 11
54.803665
 21
-99.638947
  0
LINE
  8
0
 10
56.803665
 20
-95.638947
 11
54.803665
 21
-95.638947
  0
LINE
  8
0
  6
CENTER
 62
     2
 10
-34.196335
 20
-102.336128
 11
-34.196335
 21
-92.625755
  0
LINE
  8
0
  6
CENTER
 62
     2
 10
45.803665
 20
-102.336128
 11
45.803665
 21
-92.625755
  0
LINE
  8
0
  6
CENTER
 62
     2
 10
55.803665
 20
-102.336128
 11
55.803665
 21
-92.625755
  0
LINE
  8
0
  6
CENTER
 62
     2
 10
-24.196335
 20
-102.336128
 11
-24.196335
 21
-92.625755
  0
LINE
  8
0
 10
75.803665
 20
-114.138947
 11
-49.196335
 21
-114.138947
  0
LINE
  8
0
 10
75.803665
 20
-113.638947
 11
-49.196335
 21
-113.638947
  0
LINE
  8
0
 10
75.803665
 20
-81.638947
 11
-49.196335
 21
-81.638947
  0
LINE
  8
0
 10
75.803665
 20
-81.138947
 11
-49.196335
 21
-81.138947
  0
LINE
  8
0
 10
75.803665
 20
-89.638947
 11
-49.196335
 21
-89.638947
  0
LINE
  8
0
 10
75.803665
 20
-90.138947
 11
-49.196335
 21
-90.138947
  0
LINE
  8
0
 10
75.803665
 20
-105.638947
 11
-49.196335
 21
-105.638947
  0
LINE
  8
0
 10
75.803665
 20
-105.138947
 11
-49.196335
 21
-105.138947
  0
LINE
  8
0
  6
CENTER
 62
     2
 10
77.798340
 20
-97.638947
 11
-120.476334
 21
-97.638947
  0
LINE
  8
0
 10
75.803665
 20
-128.138947
 11
75.803665
 21
-67.138947
  0
LINE
  8
0
 10
75.803665
 20
-67.138947
 11
-114.196335
 21
-67.138947
  0
LINE
  8
0
 10
75.803665
 20
-128.138947
 11
-114.196335
 21
-128.138947
  0
LINE
  8
0
 10
-49.196335
 20
-128.138947
 11
-49.196335
 21
-67.138947
  0
LINE
  8
0
  6
PHANTOM
 62
     3
 10
25.803665
 20
-56.574936
 11
25.803665
 21
-131.382278
  0
LINE
  8
0
  6
CENTER
 62
     2
 10
5.803665
 20
-102.336128
 11
5.803665
 21
-92.625755
  0
LINE
  8
0
  6
PHANTOM
 62
     3
 10
-63.195007
 20
-131.382278
 11
-63.195007
 21
-56.574936
  0
LINE
  8
0
 10
-105.196335
 20
-94.888916
 11
-105.196335
 21
-100.388916
  0
LINE
  8
0
 10
-105.196335
 20
-94.888916
 11
-106.196335
 21
-94.888916
  0
LINE
  8
0
 10
-105.196335
 20
-100.388916
 11
-106.196335
 21
-100.388916
  0
LINE
  8
0
  6
PHANTOM
 62
     3
 10
-14.196335
 20
-131.382278
 11
-14.196335
 21
-46.875046
  0
LINE
  8
0
 10
15.553665
 20
4.971054
 11
-7.946335
 21
4.971054
  0
LINE
  8
0
 10
-7.946335
 20
6.471054
 11
-7.946335
 21
4.971054
  0
LINE
  8
0
 10
15.553665
 20
6.471054
 11
15.553665
 21
4.971054
  0
LINE
  8
0
  6
CENTER
 62
     2
 10
82.491196
 20
-6.518936
 11
-119.919662
 21
-6.518936
  0
LINE
  8
0
 10
59.303665
 20
-10.488936
 11
59.303665
 21
-16.018936
  0
LINE
  8
0
 10
59.303665
 20
-0.668937
 11
59.303665
 21
-2.558937
  0
LINE
  8
0
 10
57.943665
 20
2.971054
 11
59.303665
 21
2.971054
  0
LINE
  8
0
 10
49.943665
 20
-16.018936
 11
59.303665
 21
-16.018936
  0
LINE
  8
0
 10
46.303665
 20
-14.658937
 11
46.303665
 21
-16.018936
  0
LINE
  8
0
  6
CENTER
 62
     2
 10
52.803665
 20
-3.076593
 11
52.803665
 21
-10.268911
  0
LINE
  8
0
 10
46.303665
 20
2.971054
 11
55.653656
 21
2.971054
  0
LINE
  8
0
 10
46.303665
 20
-16.018936
 11
47.653656
 21
-16.018936
  0
LINE
  8
0
 10
59.303665
 20
2.971054
 11
59.303665
 21
1.621063
  0
LINE
  8
0
 10
46.303665
 20
2.971054
 11
46.303665
 21
-12.378937
  0
LINE
  8
0
 10
75.803665
 20
3.971054
 11
-49.196335
 21
3.971054
  0
LINE
  8
0
 10
-102.196335
 20
-10.528936
 11
-102.196335
 21
-9.628937
  0
LINE
  8
0
 10
15.803665
 20
19.471054
 11
-106.196335
 21
19.471054
  0
LINE
  8
0
 10
-106.196335
 20
18.971054
 11
-114.196335
 21
18.971054
  0
LINE
  8
0
 10
-51.996323
 20
-10.528936
 11
-51.996323
 21
-14.018937
  0
LINE
  8
0
 10
-55.196335
 20
-10.528936
 11
-55.196335
 21
-14.018937
  0
LINE
  8
0
 10
-49.196335
 20
-14.018936
 11
-49.506332
 21
-14.558936
  0
LINE
  8
0
 10
-51.686325
 20
-12.548937
 11
-49.506332
 21
-12.548937
  0
LINE
  8
0
 10
-51.996334
 20
-14.018935
 11
-51.686333
 21
-14.558936
  0
LINE
  8
0
 10
-51.686325
 20
-14.558937
 11
-49.506332
 21
-14.558937
  0
LINE
  8
0
 62
     2
 10
-52.796326
 20
-12.148936
 11
-51.996323
 21
-12.148936
  0
LINE
  8
0
 10
-52.796326
 20
-12.528936
 11
-51.996323
 21
-12.528936
  0
LINE
  8
0
 10
-55.196331
 20
-14.018931
 11
-54.886330
 21
-14.558931
  0
LINE
  8
0
 10
-54.886322
 20
-14.558937
 11
-52.796326
 21
-14.558937
  0
LINE
  8
0
 10
-54.886322
 20
-12.548937
 11
-52.796326
 21
-12.548937
  0
LINE
  8
0
 10
-52.796326
 20
-10.528936
 11
-52.796326
 21
-14.558937
  0
LINE
  8
0
 10
-102.196335
 20
-9.628937
 11
-105.196335
 21
-9.628937
  0
LINE
  8
0
 10
-102.196335
 20
-2.528936
 11
-102.196335
 21
-3.428937
  0
LINE
  8
0
 10
-102.196335
 20
-3.428937
 11
-105.196335
 21
-3.428937
  0
LINE
  8
0
 10
-49.196335
 20
-10.528936
 11
-102.196335
 21
-10.528936
  0
LINE
  8
0
 10
-49.196335
 20
-2.528936
 11
-102.196335
 21
-2.528936
  0
LINE
  8
0
 10
-105.196335
 20
-0.528936
 11
-105.196335
 21
-12.528936
  0
LINE
  8
0
 10
-105.196335
 20
-12.528936
 11
-106.196335
 21
-12.528936
  0
LINE
  8
0
 10
-105.196335
 20
-0.528936
 11
-106.196335
 21
-0.528936
  0
LINE
  8
0
 10
19.203659
 20
8.471054
 11
19.203659
 21
9.471054
  0
LINE
  8
0
 10
65.803665
 20
8.471054
 11
15.803665
 21
8.471054
  0
LINE
  8
0
 10
-47.946335
 20
6.471054
 11
-47.946335
 21
4.971054
  0
LINE
  8
0
 10
-24.446335
 20
4.971054
 11
-47.946335
 21
4.971054
  0
LINE
  8
0
 10
-24.446335
 20
6.471054
 11
-24.446335
 21
4.971054
  0
LINE
  8
0
 10
16.803658
 20
9.471063
 11
17.113657
 21
10.021062
  0
LINE
  8
0
 10
19.203653
 20
9.471059
 11
18.893654
 21
10.021059
  0
LINE
  8
0
 10
18.893661
 20
10.021057
 11
17.113663
 21
10.021057
  0
LINE
  8
0
 10
16.803665
 20
9.971054
 11
15.803665
 21
9.971054
  0
LINE
  8
0
 10
16.803665
 20
9.971054
 11
16.803665
 21
8.471054
  0
LINE
  8
0
 10
-49.196335
 20
-16.518936
 11
-49.196335
 21
6.471054
  0
LINE
  8
0
 10
75.803665
 20
-16.518936
 11
75.803665
 21
4.471054
  0
LINE
  8
0
 10
75.803665
 20
4.471054
 11
65.803665
 21
4.471054
  0
LINE
  8
0
 10
75.803665
 20
-16.518936
 11
-49.196335
 21
-16.518936
  0
LINE
  8
0
 10
15.803665
 20
21.471054
 11
15.803665
 21
6.471054
  0
LINE
  8
0
 10
65.803665
 20
3.971054
 11
65.803665
 21
8.471054
  0
LINE
  8
0
 10
-106.196335
 20
21.471054
 11
-106.196335
 21
-14.518937
  0
LINE
  8
0
 10
-106.196335
 20
-14.518937
 11
-114.196335
 21
-14.518937
  0
LINE
  8
0
 10
15.803665
 20
6.471054
 11
-106.196335
 21
6.471054
  0
LINE
  8
0
 10
-106.196335
 20
20.971054
 11
-114.196335
 21
20.971054
  0
LINE
  8
0
 10
-114.196335
 20
20.971054
 11
-114.196335
 21
-14.518937
  0
LINE
  8
0
 10
15.803665
 20
21.471054
 11
-106.196335
 21
21.471054
  0
LINE
  8
0
  6
CENTER
 62
     2
 10
65.803665
 20
-10.268911
 11
65.803665
 21
-3.076593
  0
LINE
  8
0
  6
CENTER
 62
     2
 10
-27.196335
 20
-10.268911
 11
-27.196335
 21
-3.076593
  0
LINE
  8
0
 10
55.563663
 20
1.711064
 11
58.038654
 21
-0.763928
  0
LINE
  8
0
 10
58.038666
 20
1.711063
 11
55.563656
 21
-0.763941
  0
LINE
  8
0
 10
50.038651
 20
-12.288938
 11
47.563660
 21
-14.753929
  0
LINE
  8
0
 10
47.563652
 20
-12.288928
 11
50.038654
 21
-14.753931
  0
LINE
  8
0
  6
CENTER
 62
     2
 10
-34.196335
 20
-10.644925
 11
-34.196335
 21
-20.681658
  0
LINE
  8
0
  6
CENTER
 62
     2
 10
45.803665
 20
-10.644925
 11
45.803665
 21
-20.681658
  0
LINE
  8
0
 10
-106.196335
 20
-13.270773
 11
-105.203690
 21
-13.270773
  0
LINE
  8
0
 10
-105.196335
 20
-12.528936
 11
-105.196335
 21
-13.270773
  0
LINE
  8
0
  6
PHANTOM
 62
     3
 10
-63.195007
 20
-16.518936
 11
-63.195007
 21
46.387070
  0
LINE
  8
0
  6
PHANTOM
 62
     3
 10
34.329971
 20
-28.267830
 11
34.329971
 21
52.235428
  0
LINE
  8
0
 10
144.303650
 20
101.361038
 11
144.303650
 21
81.361038
  0
LINE
  8
0
 10
156.833649
 20
60.861038
 11
156.833649
 21
56.861038
  0
LINE
  8
0
 10
164.773651
 20
60.861038
 11
164.773651
 21
56.861038
  0
LINE
  8
0
 10
151.303650
 20
60.861038
 11
151.303650
 21
59.361038
  0
LINE
  8
0
 10
151.303650
 20
57.911041
 11
151.303650
 21
56.861038
  0
LINE
  8
0
 10
151.033661
 20
58.571045
 11
151.033661
 21
59.361038
  0
LINE
  8
0
 10
156.263657
 20
56.861038
 11
156.263657
 21
59.361038
  0
LINE
  8
0
 10
156.263657
 20
59.361038
 11
151.033661
 21
59.361038
  0
LINE
  8
0
 10
170.303650
 20
60.861038
 11
170.303650
 21
56.861038
  0
LINE
  8
0
 10
151.303650
 20
56.861038
 11
170.303650
 21
56.861038
  0
LINE
  8
0
 10
146.323654
 20
91.061035
 11
150.283661
 21
91.061035
  0
LINE
  8
0
 10
146.323654
 20
91.661041
 11
150.283661
 21
91.661041
  0
LINE
  8
0
 10
151.303650
 20
89.551041
 11
151.303650
 21
86.361038
  0
LINE
  8
0
 10
146.103653
 20
107.861038
 11
146.103653
 21
114.861038
  0
LINE
  8
0
 10
146.103653
 20
74.861038
 11
146.103653
 21
67.861038
  0
LINE
  8
0
 10
132.803650
 20
101.861038
 11
133.303650
 21
101.361038
  0
LINE
  8
0
 10
132.803650
 20
101.861038
 11
132.803650
 21
119.861038
  0
LINE
  8
0
 10
133.303650
 20
81.361038
 11
133.303650
 21
101.361038
  0
LINE
  8
0
 10
132.803650
 20
80.861038
 11
133.303650
 21
81.361038
  0
LINE
  8
0
  6
CENTER
 62
     2
 10
140.303650
 20
71.361038
 11
153.203659
 21
71.361038
  0
LINE
  8
0
 10
146.103653
 20
114.861038
 11
150.803650
 21
114.861038
  0
LINE
  8
0
 10
146.103653
 20
107.861038
 11
150.803650
 21
107.861038
  0
LINE
  8
0
 10
150.323654
 20
87.861038
 11
152.343643
 21
91.361031
  0
LINE
  8
0
 10
144.263657
 20
91.361038
 11
146.283661
 21
94.861038
  0
LINE
  8
0
 10
152.343643
 20
91.361038
 11
150.323654
 21
94.861038
  0
LINE
  8
0
 10
146.283661
 20
87.861046
 11
144.263657
 21
91.361046
  0
LINE
  8
0
 10
146.283661
 20
94.861038
 11
150.323654
 21
94.861038
  0
LINE
  8
0
 10
146.283661
 20
87.861038
 11
150.323654
 21
87.861038
  0
LINE
  8
0
 10
170.803650
 20
98.861038
 11
170.803650
 21
83.861038
  0
LINE
  8
0
 10
170.303650
 20
83.361038
 11
170.803650
 21
83.861038
  0
LINE
  8
0
 10
149.803650
 20
107.861038
 11
149.803650
 21
99.361038
  0
LINE
  8
0
 10
152.803650
 20
96.361038
 11
152.803650
 21
86.361038
  0
LINE
  8
0
 10
149.803650
 20
99.361023
 11
152.803665
 21
96.361023
  0
LINE
  8
0
 10
170.303650
 20
75.361038
 11
170.803650
 21
74.861031
  0
LINE
  8
0
 10
146.103653
 20
74.861038
 11
150.803650
 21
74.861038
  0
LINE
  8
0
 10
149.803650
 20
83.361038
 11
149.803650
 21
74.861038
  0
LINE
  8
0
 10
149.803650
 20
83.361038
 11
152.803665
 21
86.361046
  0
LINE
  8
0
  6
CENTER
 62
     2
 10
148.303650
 20
99.524063
 11
148.303650
 21
85.771042
  0
LINE
  8
0
 10
151.303650
 20
96.361038
 11
151.303650
 21
93.161041
  0
LINE
  8
0
 10
149.303650
 20
96.361038
 11
152.803650
 21
96.361038
  0
LINE
  8
0
 10
149.303650
 20
86.361038
 11
151.303650
 21
86.361038
  0
LINE
  8
0
 10
143.803650
 20
81.361038
 11
149.303650
 21
81.361038
  0
LINE
  8
0
 10
143.803650
 20
101.361038
 11
149.303650
 21
101.361038
  0
LINE
  8
0
 10
149.303650
 20
86.361038
 11
149.303650
 21
81.361038
  0
LINE
  8
0
 10
149.303650
 20
96.361038
 11
149.303650
 21
101.361038
  0
LINE
  8
0
 10
142.803650
 20
102.361038
 11
143.803650
 21
102.361038
  0
LINE
  8
0
 10
143.803650
 20
102.361038
 11
143.803650
 21
79.861038
  0
LINE
  8
0
 10
142.803650
 20
62.361038
 11
147.803650
 21
62.361038
  0
LINE
  8
0
 10
142.803650
 20
120.361038
 11
147.803650
 21
120.361038
  0
LINE
  8
0
 10
132.803650
 20
62.861042
 11
134.803650
 21
60.861042
  0
LINE
  8
0
 10
132.803650
 20
119.861038
 11
134.803650
 21
121.861031
  0
LINE
  8
0
 10
147.803650
 20
121.861038
 11
147.803650
 21
120.361038
  0
LINE
  8
0
 10
147.803650
 20
60.861038
 11
147.803650
 21
62.361038
  0
LINE
  8
0
 10
132.803650
 20
62.861038
 11
132.803650
 21
80.861038
  0
LINE
  8
0
 10
146.103653
 20
67.861038
 11
150.803650
 21
67.861038
  0
LINE
  8
0
 10
142.803650
 20
79.861038
 11
142.803650
 21
62.361038
  0
LINE
  8
0
 10
142.803650
 20
62.861038
 11
149.303650
 21
62.861038
  0
LINE
  8
0
 10
149.303650
 20
62.861038
 11
149.303650
 21
67.861038
  0
LINE
  8
0
 10
149.303650
 20
74.861038
 11
149.303650
 21
79.861038
  0
LINE
  8
0
 10
142.803650
 20
79.861038
 11
149.303650
 21
79.861038
  0
LINE
  8
0
 10
149.303650
 20
107.861038
 11
149.303650
 21
102.861038
  0
LINE
  8
0
 10
149.303650
 20
119.861038
 11
149.303650
 21
114.861038
  0
LINE
  8
0
 10
142.803650
 20
119.861038
 11
149.303650
 21
119.861038
  0
LINE
  8
0
 10
142.803650
 20
102.861038
 11
149.303650
 21
102.861038
  0
LINE
  8
0
 10
142.803650
 20
102.361038
 11
142.803650
 21
120.361038
  0
LINE
  8
0
  6
CENTER
 62
     2
 10
140.303650
 20
111.361038
 11
153.403656
 21
111.361038
  0
LINE
  8
0
  6
CENTER
 62
     2
 10
160.803650
 20
123.511032
 11
160.803650
 21
54.741043
  0
LINE
  8
0
 10
159.403656
 20
117.431030
 11
159.403656
 21
117.661026
  0
LINE
  8
0
 10
159.873657
 20
115.361038
 11
159.873657
 21
116.961029
  0
LINE
  8
0
 10
159.873657
 20
116.961021
 11
159.403656
 21
117.431023
  0
LINE
  8
0
 10
155.723648
 20
116.961021
 11
156.203659
 21
117.431030
  0
LINE
  8
0
 10
155.723648
 20
115.331024
 11
155.723648
 21
116.981033
  0
LINE
  8
0
 10
156.203644
 20
117.961037
 11
154.803665
 21
119.361031
  0
LINE
  8
0
 10
156.203644
 20
117.431030
 11
156.203644
 21
117.961029
  0
LINE
  8
0
 10
165.403656
 20
117.431030
 11
165.403656
 21
117.961029
  0
LINE
  8
0
 10
165.873657
 20
116.961029
 11
165.403656
 21
117.431023
  0
LINE
  8
0
 10
150.303650
 20
115.361038
 11
150.303650
 21
120.861038
  0
LINE
  8
0
 10
150.303650
 20
115.361038
 11
150.803650
 21
115.361038
  0
LINE
  8
0
 10
150.803650
 20
107.861038
 11
150.803650
 21
115.361038
  0
LINE
  8
0
 10
150.303650
 20
67.361038
 11
150.303650
 21
61.861038
  0
LINE
  8
0
 10
150.303650
 20
67.361038
 11
150.803650
 21
67.361038
  0
LINE
  8
0
 10
170.303650
 20
107.361031
 11
170.803650
 21
107.861031
  0
LINE
  8
0
 10
170.303650
 20
99.361038
 11
170.803650
 21
98.861038
  0
LINE
  8
0
 10
170.803650
 20
74.861038
 11
170.803650
 21
61.561050
  0
LINE
  8
0
 10
170.303650
 20
83.361038
 11
170.303650
 21
75.361038
  0
LINE
  8
0
 10
170.303650
 20
107.361038
 11
170.303650
 21
99.361038
  0
LINE
  8
0
 10
150.803650
 20
74.861038
 11
150.803650
 21
67.361038
  0
LINE
  8
0
  6
CENTER
 62
     2
 10
150.643661
 20
79.361038
 11
172.143646
 21
79.361038
  0
LINE
  8
0
 10
166.803650
 20
121.861038
 11
166.803650
 21
119.361038
  0
LINE
  8
0
 10
154.803650
 20
121.861038
 11
154.803650
 21
119.331024
  0
LINE
  8
0
 10
165.403656
 20
117.961037
 11
166.803665
 21
119.361023
  0
LINE
  8
0
 10
165.873657
 20
115.331024
 11
165.873657
 21
116.981033
  0
LINE
  8
0
  6
CENTER
 62
     2
 10
163.803650
 20
112.611038
 11
163.803650
 21
120.191025
  0
LINE
  8
0
 10
161.723648
 20
115.361038
 11
161.723648
 21
116.961029
  0
LINE
  8
0
 10
161.723633
 20
116.961029
 11
162.203644
 21
117.431038
  0
LINE
  8
0
 10
162.203644
 20
117.431030
 11
162.203644
 21
117.661026
  0
LINE
  8
0
 10
161.903656
 20
117.961029
 11
159.703644
 21
117.961029
  0
LINE
  8
0
  6
CENTER
 62
     2
 10
157.803650
 20
112.611038
 11
157.803650
 21
120.321030
  0
LINE
  8
0
  6
CENTER
 62
     2
 10
167.053650
 20
115.331024
 11
154.743652
 21
115.331024
  0
LINE
  8
0
 10
156.203659
 20
117.931030
 11
154.803650
 21
119.331039
  0
LINE
  8
0
  6
CENTER
 62
     2
 10
150.913651
 20
103.361038
 11
174.413651
 21
103.361038
  0
LINE
  8
0
  6
CENTER
 62
     2
 10
128.453659
 20
91.361038
 11
175.433655
 21
91.361038
  0
LINE
  8
0
 10
134.803650
 20
60.861038
 11
170.103653
 21
60.861038
  0
LINE
  8
0
 10
134.803650
 20
121.861038
 11
170.103653
 21
121.861038
  0
LINE
  8
0
 10
170.803650
 20
121.161026
 11
170.803650
 21
107.861038
  0
LINE
  8
0
  6
CENTER
 62
     2
 10
-184.007980
 20
66.361038
 11
-193.056320
 21
66.361038
  0
LINE
  8
0
  6
CENTER
 62
     2
 10
-184.007980
 20
116.361038
 11
-192.586319
 21
116.361038
  0
LINE
  8
0
 10
-195.686325
 20
60.861038
 11
-195.686325
 21
59.361038
  0
LINE
  8
0
 10
-195.686325
 20
57.911041
 11
-195.686325
 21
56.861038
  0
LINE
  8
0
 10
-195.956329
 20
58.571045
 11
-195.956329
 21
59.361038
  0
LINE
  8
0
 10
-190.726318
 20
56.861038
 11
-190.726318
 21
59.361038
  0
LINE
  8
0
 10
-190.726318
 20
59.361038
 11
-195.956329
 21
59.361038
  0
LINE
  8
0
 10
-176.686325
 20
60.861038
 11
-176.686325
 21
56.861038
  0
LINE
  8
0
 10
-176.686325
 20
56.861038
 11
-195.686325
 21
56.861038
  0
LINE
  8
0
  6
CENTER
 62
     2
 10
-186.186325
 20
63.191040
 11
-186.186325
 21
54.731049
  0
LINE
  8
0
 10
-194.186325
 20
60.861038
 11
-195.486328
 21
60.861038
  0
LINE
  8
0
  6
CENTER
 62
     2
 10
-173.186325
 20
120.113373
 11
-173.186325
 21
112.201035
  0
LINE
  8
0
  6
CENTER
 62
     2
 10
-173.186325
 20
70.981049
 11
-173.186325
 21
62.201050
  0
LINE
  8
0
 10
-185.326355
 20
104.861038
 11
-184.456329
 21
103.361031
  0
LINE
  8
0
 10
-187.926331
 20
103.361038
 11
-187.056335
 21
101.861038
  0
LINE
  8
0
 10
-184.456329
 20
103.361023
 11
-185.326324
 21
101.861031
  0
LINE
  8
0
 10
-187.056320
 20
104.861038
 11
-187.926331
 21
103.361038
  0
LINE
  8
0
 10
-187.056320
 20
101.861038
 11
-185.326324
 21
101.861038
  0
LINE
  8
0
 10
-187.056320
 20
104.861038
 11
-185.326324
 21
104.861038
  0
LINE
  8
0
 10
-158.186325
 20
101.861038
 11
-158.186325
 21
119.861038
  0
LINE
  8
0
 10
-158.686325
 20
81.361038
 11
-158.186325
 21
80.861038
  0
LINE
  8
0
 10
-158.686325
 20
101.361038
 11
-158.186325
 21
101.861038
  0
LINE
  8
0
 10
-185.326340
 20
77.861046
 11
-184.456329
 21
79.361046
  0
LINE
  8
0
 10
-187.926346
 20
79.361038
 11
-187.056335
 21
80.861038
  0
LINE
  8
0
 10
-184.456329
 20
79.361046
 11
-185.326324
 21
80.861038
  0
LINE
  8
0
 10
-187.056320
 20
77.861046
 11
-187.926331
 21
79.361046
  0
LINE
  8
0
 10
-187.056320
 20
80.861038
 11
-185.326324
 21
80.861038
  0
LINE
  8
0
 10
-187.056320
 20
77.861038
 11
-185.326324
 21
77.861038
  0
LINE
  8
0
  6
CENTER
 62
     2
 10
-186.186325
 20
87.731041
 11
-186.186325
 21
71.131042
  0
LINE
  8
0
  6
CENTER
 62
     2
 10
-186.186325
 20
111.651031
 11
-186.186325
 21
94.911041
  0
LINE
  8
0
  6
CENTER
 62
     2
 10
-188.186325
 20
70.981049
 11
-188.186325
 21
62.201050
  0
LINE
  8
0
  6
CENTER
 62
     2
 10
-188.186325
 20
120.113373
 11
-188.186325
 21
112.201035
  0
LINE
  8
0
  6
CENTER
 62
     2
 10
-168.604721
 20
116.361038
 11
-177.928925
 21
116.361038
  0
LINE
  8
0
  6
CENTER
 62
     2
 10
-168.604721
 20
66.361038
 11
-177.928925
 21
66.361038
  0
LINE
  8
0
 10
-160.686310
 20
60.861046
 11
-158.686340
 21
62.861046
  0
LINE
  8
0
 10
-160.686325
 20
121.861023
 11
-158.686340
 21
119.861023
  0
LINE
  8
0
 10
-194.186325
 20
121.861038
 11
-194.186325
 21
60.861038
  0
LINE
  8
0
 10
-158.686325
 20
62.861038
 11
-158.686325
 21
119.861038
  0
LINE
  8
0
 10
-158.186325
 20
62.861038
 11
-158.186325
 21
80.861038
  0
LINE
  8
0
 10
-158.186325
 20
62.861038
 11
-160.186325
 21
60.861042
  0
LINE
  8
0
 10
-158.186325
 20
119.861038
 11
-160.186325
 21
121.861038
  0
LINE
  8
0
 10
-160.186325
 20
60.861038
 11
-194.186325
 21
60.861038
  0
LINE
  8
0
 10
-160.186325
 20
121.861038
 11
-195.486328
 21
121.861038
  0
LINE
  8
0
 10
-195.686325
 20
107.361038
 11
-196.186325
 21
107.861038
  0
LINE
  8
0
 10
-195.686310
 20
75.361038
 11
-196.186325
 21
74.861031
  0
LINE
  8
0
 10
-196.186325
 20
98.861038
 11
-196.186325
 21
83.861038
  0
LINE
  8
0
 10
-195.686325
 20
99.361031
 11
-196.186325
 21
98.861031
  0
LINE
  8
0
 10
-196.186325
 20
74.861038
 11
-196.186325
 21
61.561050
  0
LINE
  8
0
 10
-195.686325
 20
83.361038
 11
-195.686325
 21
75.361038
  0
LINE
  8
0
 10
-195.686325
 20
83.361038
 11
-196.186325
 21
83.861038
  0
LINE
  8
0
 10
-195.686325
 20
107.361038
 11
-195.686325
 21
99.361038
  0
LINE
  8
0
  6
CENTER
 62
     2
 10
-177.874649
 20
79.361038
 11
-195.099594
 21
79.361038
  0
LINE
  8
0
  6
CENTER
 62
     2
 10
-177.874649
 20
103.361038
 11
-195.099594
 21
103.361038
  0
LINE
  8
0
  6
CENTER
 62
     2
 10
-154.845779
 20
91.361038
 11
-200.826324
 21
91.361038
  0
LINE
  8
0
 10
-196.186325
 20
121.161026
 11
-196.186325
 21
107.861038
  0
LINE
  8
0
  6
CENTER
 62
     2
 10
-89.561279
 20
71.361038
 11
-99.259827
 21
71.361038
  0
LINE
  8
0
  6
CENTER
 62
     2
 10
-89.561279
 20
111.361038
 11
-99.259827
 21
111.361038
  0
LINE
  8
0
 10
59.303665
 20
59.361038
 11
59.303665
 21
60.861038
  0
LINE
  8
0
 10
59.573654
 20
58.571045
 11
59.573654
 21
59.361038
  0
LINE
  8
0
 10
54.353653
 20
56.861038
 11
54.353653
 21
59.361038
  0
LINE
  8
0
 10
54.353653
 20
59.361038
 11
59.573654
 21
59.361038
  0
LINE
  8
0
 10
59.303665
 20
56.861038
 11
59.303665
 21
57.911041
  0
LINE
  8
0
 10
46.303665
 20
56.861038
 11
46.303665
 21
60.861038
  0
LINE
  8
0
 10
46.303665
 20
56.861038
 11
59.303665
 21
56.861038
  0
LINE
  8
0
 10
26.603653
 20
91.061035
 11
26.603653
 21
89.361038
  0
LINE
  8
0
 10
26.603653
 20
91.061035
 11
25.403656
 21
91.061035
  0
LINE
  8
0
 10
26.603653
 20
91.661041
 11
25.403656
 21
91.661041
  0
LINE
  8
0
 10
25.403656
 20
91.661041
 11
25.403656
 21
91.061035
  0
LINE
  8
0
  6
CENTER
 62
     2
 10
78.973663
 20
71.361038
 11
12.243652
 21
71.361038
  0
LINE
  8
0
 10
65.803665
 20
67.861038
 11
65.803665
 21
74.861038
  0
LINE
  8
0
 10
65.803665
 20
67.861038
 11
15.803665
 21
67.861038
  0
LINE
  8
0
  6
CENTER
 62
     2
 10
78.973663
 20
111.361038
 11
12.243652
 21
111.361038
  0
LINE
  8
0
 10
65.803665
 20
114.861038
 11
65.803665
 21
107.861038
  0
LINE
  8
0
 10
65.803665
 20
114.861038
 11
15.803665
 21
114.861038
  0
LINE
  8
0
  6
CENTER
 62
     2
 10
-4.196335
 20
98.081039
 11
-4.196335
 21
84.881042
  0
LINE
  8
0
  6
CENTER
 62
     2
 10
-84.196335
 20
98.081039
 11
-84.196335
 21
84.881042
  0
LINE
  8
0
 10
26.603653
 20
93.361038
 11
26.603653
 21
91.661041
  0
LINE
  8
0
 10
-106.196335
 20
101.361038
 11
15.803665
 21
101.361038
  0
LINE
  8
0
 10
-106.196335
 20
101.861038
 11
15.803665
 21
101.861038
  0
LINE
  8
0
  6
CENTER
 62
     2
 10
-74.196335
 20
96.271042
 11
-74.196335
 21
86.611038
  0
LINE
  8
0
  6
CENTER
 62
     2
 10
-94.196335
 20
96.271042
 11
-94.196335
 21
86.611038
  0
LINE
  8
0
  6
CENTER
 62
     2
 10
-74.196335
 20
65.521042
 11
-74.196335
 21
76.191185
  0
LINE
  8
0
  6
CENTER
 62
     2
 10
-74.196335
 20
116.201553
 11
-74.196335
 21
106.469315
  0
LINE
  8
0
  6
CENTER
 62
     2
 10
-69.829468
 20
71.361038
 11
-78.583725
 21
71.361038
  0
LINE
  8
0
  6
CENTER
 62
     2
 10
-94.196335
 20
65.521042
 11
-94.196335
 21
76.191185
  0
LINE
  8
0
  6
CENTER
 62
     2
 10
-19.196335
 20
65.521042
 11
-19.196335
 21
76.191185
  0
LINE
  8
0
  6
CENTER
 62
     2
 10
-14.826340
 20
71.361038
 11
-23.656334
 21
71.361038
  0
LINE
  8
0
 10
15.803665
 20
62.861038
 11
-114.196335
 21
62.861038
  0
LINE
  8
0
 10
-106.196335
 20
80.861038
 11
15.803665
 21
80.861038
  0
LINE
  8
0
 10
-106.196335
 20
81.361038
 11
15.803665
 21
81.361038
  0
LINE
  8
0
 10
19.203659
 20
94.861038
 11
16.803665
 21
94.861038
  0
LINE
  8
0
 10
19.293655
 20
91.361038
 11
17.113663
 21
91.361038
  0
LINE
  8
0
 10
19.203659
 20
87.861038
 11
16.803665
 21
87.861038
  0
LINE
  8
0
  6
CENTER
 62
     2
 10
-69.829468
 20
111.361038
 11
-78.583725
 21
111.361038
  0
LINE
  8
0
 10
15.803665
 20
121.861038
 11
-114.196335
 21
121.861038
  0
LINE
  8
0
 10
15.803665
 20
119.861038
 11
-114.196335
 21
119.861038
  0
LINE
  8
0
 10
-73.196335
 20
93.361038
 11
-75.196335
 21
93.361038
  0
LINE
  8
0
  6
CENTER
 62
     2
 10
-94.196335
 20
116.201553
 11
-94.196335
 21
106.469315
  0
LINE
  8
0
  6
CENTER
 62
     2
 10
-19.196335
 20
116.201553
 11
-19.196335
 21
106.469315
  0
LINE
  8
0
 10
15.803665
 20
101.361038
 11
16.803665
 21
101.361038
  0
LINE
  8
0
 10
15.803665
 20
91.361038
 11
15.803665
 21
121.861038
  0
LINE
  8
0
  6
CENTER
 62
     2
 10
-14.826340
 20
111.361038
 11
-23.656334
 21
111.361038
  0
LINE
  8
0
 10
-73.196335
 20
89.361038
 11
-75.196335
 21
89.361038
  0
LINE
  8
0
 10
15.803665
 20
81.361038
 11
16.803665
 21
81.361038
  0
LINE
  8
0
 10
16.803665
 20
101.361038
 11
16.803665
 21
81.361038
  0
LINE
  8
0
 10
15.803665
 20
60.861038
 11
-114.196335
 21
60.861038
  0
LINE
  8
0
 10
15.803665
 20
91.361038
 11
15.803665
 21
60.861038
  0
LINE
  8
0
 10
-114.196335
 20
121.861038
 11
-114.196335
 21
60.861038
  0
LINE
  8
0
 10
-106.196335
 20
121.861038
 11
-106.196335
 21
60.861038
  0
LINE
  8
0
  6
CENTER
 62
     2
 10
45.803665
 20
97.741035
 11
45.803665
 21
83.357635
  0
LINE
  8
0
  6
CENTER
 62
     2
 10
81.513657
 20
91.361038
 11
-119.966324
 21
91.361038
  0
LINE
  8
0
 10
19.203659
 20
89.361038
 11
26.603653
 21
89.361038
  0
LINE
  8
0
 62
     2
 10
19.203659
 20
89.711037
 11
26.603653
 21
89.711037
  0
LINE
  8
0
 10
19.203659
 20
93.361038
 11
26.603653
 21
93.361038
  0
LINE
  8
0
 10
15.803665
 20
67.361038
 11
75.803665
 21
67.361038
  0
LINE
  8
0
 10
15.803665
 20
74.861038
 11
75.803665
 21
74.861038
  0
LINE
  8
0
 10
16.803665
 20
83.361038
 11
75.803665
 21
83.361038
  0
LINE
  8
0
 10
16.803665
 20
99.361038
 11
75.803665
 21
99.361038
  0
LINE
  8
0
 10
16.803665
 20
86.361038
 11
75.803665
 21
86.361038
  0
LINE
  8
0
 10
19.203659
 20
87.861038
 11
19.203659
 21
94.861038
  0
LINE
  8
0
 10
75.803665
 20
121.861038
 11
15.803665
 21
121.861038
  0
LINE
  8
0
 10
75.803665
 20
60.861038
 11
75.803665
 21
121.861038
  0
LINE
  8
0
 10
16.803665
 20
96.361038
 11
75.803665
 21
96.361038
  0
LINE
  8
0
 62
     2
 10
19.203659
 20
93.011040
 11
26.603653
 21
93.011040
  0
LINE
  8
0
 10
15.803665
 20
115.361038
 11
75.803665
 21
115.361038
  0
LINE
  8
0
 10
15.803665
 20
107.861038
 11
75.803665
 21
107.861038
  0
LINE
  8
0
 10
75.803665
 20
60.861038
 11
15.803665
 21
60.861038
  0
LINE
  8
0
  6
CENTER
 62
     2
 10
-34.196335
 20
97.741035
 11
-34.196335
 21
83.357635
  0
LINE
  8
0
  6
PHANTOM
 62
     3
 10
34.329971
 20
52.235413
 11
34.329971
 21
136.303726
  0
LINE
  8
0
  6
PHANTOM
 62
     3
 10
-63.195007
 20
46.387054
 11
-63.195007
 21
127.570862
  0
LINE
  8
0
  6
CENTER
 62
     2
 10
52.803665
 20
63.431046
 11
52.803665
 21
54.421051
  0
LINE
  8
0
 10
-271.250000
 20
-175.000000
 11
-131.250000
 21
-175.000000
  0
LINE
  8
0
 10
-271.250000
 20
-165.000000
 11
-131.250000
 21
-165.000000
  0
LINE
  8
0
 10
-131.250000
 20
-115.000000
 11
-131.250000
 21
-185.000000
  0
LINE
  8
0
 10
-146.250000
 20
-115.000000
 11
-146.250000
 21
-185.000000
  0
LINE
  8
0
 10
-161.250000
 20
-115.000000
 11
-161.250000
 21
-185.000000
  0
LINE
  8
0
 10
-176.250000
 20
-115.000000
 11
-176.250000
 21
-185.000000
  0
LINE
  8
0
 10
-191.250000
 20
-115.000000
 11
-191.250000
 21
-185.000000
  0
LINE
  8
0
 10
-206.250000
 20
-115.000000
 11
-206.250000
 21
-185.000000
  0
LINE
  8
0
 10
-221.250000
 20
-115.000000
 11
-221.250000
 21
-185.000000
  0
LINE
  8
0
 10
-236.249878
 20
-144.999954
 11
-239.769867
 21
-124.999954
  0
LINE
  8
0
 10
-236.250000
 20
-115.000000
 11
-236.250000
 21
-185.000000
  0
LINE
  8
0
 10
-271.250000
 20
-115.000000
 11
-131.250000
 21
-115.000000
  0
LINE
  8
0
 10
-271.250000
 20
-125.000000
 11
-239.769989
 21
-125.000000
  0
LINE
  8
0
 10
-271.250000
 20
-145.000000
 11
-131.250000
 21
-145.000000
  0
LINE
  8
0
 10
-271.250000
 20
-155.000000
 11
-131.250000
 21
-155.000000
  0
LINE
  8
0
 10
-271.250000
 20
-115.000000
 11
-271.250000
 21
-185.000000
  0
LINE
  8
0
 10
-271.250000
 20
-185.000000
 11
-131.250000
 21
-185.000000
  0
LINE
  8
0
 10
282.099854
 20
195.500000
 11
282.099854
 21
-195.000000
  0
LINE
  8
0
 10
-281.250000
 20
195.500000
 11
282.099854
 21
195.500000
  0
LINE
  8
0
 10
-281.250000
 20
195.500000
 11
-281.250000
 21
-195.000000
  0
LINE
  8
0
 10
-281.250000
 20
-195.000000
 11
282.099854
 21
-195.000000
  0
LINE
  8
0
 10
162.099976
 20
-175.000000
 11
162.099976
 21
-195.000000
  0
LINE
  8
0
 10
162.099976
 20
-175.000000
 11
282.099854
 21
-175.000000
  0
LINE
  8
0
 10
162.099976
 20
175.500000
 11
282.099854
 21
175.500000
  0
LINE
  8
0
 10
-281.250000
 20
175.500000
 11
-161.250000
 21
175.500000
  0
LINE
  8
0
 10
162.099976
 20
195.500000
 11
162.099976
 21
175.500000
  0
LINE
  8
0
 10
-161.250000
 20
195.500000
 11
-161.250000
 21
175.500000
  0
CIRCLE
  8
0
 10
211.023666
 20
-97.646805
 40
2.099999
  0
CIRCLE
  8
0
 62
     2
 10
211.023666
 20
-97.646805
 40
2.500000
  0
ARC
  8
0
 10
212.186752
 20
-64.855927
 40
0.933092
 50
107.661682
 51
180.054810
  0
ARC
  8
0
 10
215.811600
 20
-64.861725
 40
0.938303
 50
45.123535
 51
72.506180
  0
ARC
  8
0
 10
213.998657
 20
-70.651764
 40
7.005538
 50
72.599487
 51
107.400505
  0
ARC
  8
0
 10
220.023666
 20
-97.646805
 40
2.000000
 50
90.000000
 51
270.000000
  0
ARC
  8
0
 10
222.023666
 20
-97.646805
 40
2.000000
 50
270.000000
 51
90.000000
  0
CIRCLE
  8
0
 62
     2
 10
151.023666
 20
-77.646805
 40
2.500000
  0
CIRCLE
  8
0
 10
151.023666
 20
-77.646805
 40
2.099999
  0
CIRCLE
  8
0
 62
     2
 10
151.023666
 20
-117.646805
 40
2.500000
  0
CIRCLE
  8
0
 10
151.023666
 20
-117.646805
 40
2.099999
  0
ARC
  8
0
 10
158.680939
 20
-95.896805
 40
5.059554
 50
159.764374
 51
200.235550
  0
ARC
  8
0
 10
155.080948
 20
-95.896805
 40
5.059566
 50
159.764511
 51
200.235489
  0
ARC
  8
0
 10
155.080948
 20
-99.396805
 40
5.059566
 50
159.764511
 51
200.235489
  0
ARC
  8
0
 10
158.680939
 20
-99.396805
 40
5.059554
 50
159.764374
 51
200.235550
  0
ARC
  8
0
 10
150.971695
 20
-95.896805
 40
5.054584
 50
339.743683
 51
20.256311
  0
ARC
  8
0
 10
150.971695
 20
-99.396805
 40
5.054584
 50
339.743683
 51
20.256311
  0
CIRCLE
  8
0
 10
181.026306
 20
-97.646774
 40
2.000000
  0
CIRCLE
  8
0
 62
     2
 10
171.023666
 20
-97.646805
 40
2.500000
  0
CIRCLE
  8
0
 10
171.023666
 20
-97.646805
 40
2.099999
  0
CIRCLE
  8
0
 10
-74.196335
 20
-117.638947
 40
2.099999
  0
CIRCLE
  8
0
 62
     2
 10
-74.196335
 20
-117.638947
 40
2.500000
  0
CIRCLE
  8
0
 10
-94.196335
 20
-117.638947
 40
2.099999
  0
CIRCLE
  8
0
 62
     2
 10
-94.196335
 20
-117.638947
 40
2.500000
  0
CIRCLE
  8
0
 10
-74.196335
 20
-77.638947
 40
2.099999
  0
CIRCLE
  8
0
 62
     2
 10
-74.196335
 20
-77.638947
 40
2.500000
  0
CIRCLE
  8
0
 10
-94.196335
 20
-77.638947
 40
2.099999
  0
CIRCLE
  8
0
 62
     2
 10
-94.196335
 20
-77.638947
 40
2.500000
  0
CIRCLE
  8
0
 10
-34.196335
 20
-97.638947
 40
2.099999
  0
CIRCLE
  8
0
 10
45.803665
 20
-97.638947
 40
2.099999
  0
CIRCLE
  8
0
 62
     2
 10
-34.196335
 20
-97.638947
 40
2.500000
  0
CIRCLE
  8
0
 62
     2
 10
45.803665
 20
-97.638947
 40
2.500000
  0
ARC
  8
0
 10
46.961411
 20
-64.854645
 40
0.937776
 50
107.228638
 51
179.651794
  0
ARC
  8
0
 10
50.594666
 20
-64.848801
 40
0.932561
 50
45.037453
 51
72.592636
  0
ARC
  8
0
 10
48.778656
 20
-70.638931
 40
7.000785
 50
72.587265
 51
107.412666
  0
CIRCLE
  8
0
 10
-84.203674
 20
-97.638916
 40
5.000000
  0
ARC
  8
0
 10
-46.539062
 20
-99.388947
 40
5.059554
 50
159.764374
 51
200.235535
  0
ARC
  8
0
 10
-50.139053
 20
-99.388947
 40
5.059562
 50
159.764496
 51
200.235504
  0
ARC
  8
0
 10
-50.139053
 20
-95.888947
 40
5.059562
 50
159.764496
 51
200.235504
  0
ARC
  8
0
 10
-46.539062
 20
-95.888947
 40
5.059554
 50
159.764374
 51
200.235535
  0
ARC
  8
0
 10
-54.248306
 20
-95.888947
 40
5.054580
 50
339.743683
 51
20.256327
  0
ARC
  8
0
 10
-54.248306
 20
-99.388947
 40
5.054580
 50
339.743683
 51
20.256327
  0
ARC
  8
0
 10
54.803665
 20
-97.638947
 40
2.000000
 50
90.000000
 51
270.000000
  0
ARC
  8
0
 10
56.803665
 20
-97.638947
 40
2.000000
 50
270.000000
 51
90.000000
  0
CIRCLE
  8
0
 10
-24.193697
 20
-97.638916
 40
2.000000
  0
CIRCLE
  8
0
 10
5.803665
 20
-97.638947
 40
2.099999
  0
CIRCLE
  8
0
 62
     2
 10
5.803665
 20
-97.638947
 40
2.500000
  0
ARC
  8
0
 10
52.805145
 20
-6.528121
 40
5.498510
 50
342.309998
 51
359.991486
  0
ARC
  8
0
 10
52.806122
 20
-6.519628
 40
5.497548
 50
359.902985
 51
17.691845
  0
ARC
  8
0
 10
63.806290
 20
-6.523936
 40
5.999580
 50
138.632996
 51
221.366913
  0
CIRCLE
  8
0
 10
56.806290
 20
0.479218
 40
2.749999
  0
CIRCLE
  8
0
 10
48.806290
 20
-13.520773
 40
2.749999
  0
ARC
  8
0
 10
48.806381
 20
-13.520568
 40
3.497283
 50
314.408081
 51
359.862885
  0
ARC
  8
0
 10
56.809052
 20
0.476456
 40
3.500288
 50
134.546249
 51
315.453674
  0
ARC
  8
0
 10
48.806717
 20
-13.520943
 40
3.496953
 50
359.869019
 51
135.707306
  0
CIRCLE
  8
0
 10
52.806290
 20
-6.520773
 40
1.750000
  0
ARC
  8
0
 10
-50.983124
 20
-13.547175
 40
1.782522
 50
334.344421
 51
34.056835
  0
ARC
  8
0
 10
-55.883514
 20
-10.536473
 40
6.687186
 50
342.485748
 51
0.064568
  0
ARC
  8
0
 10
-45.303986
 20
-10.535680
 40
6.692352
 50
179.942261
 51
197.507370
  0
ARC
  8
0
 10
-50.204987
 20
-13.556642
 40
1.791604
 50
145.773911
 51
205.181168
  0
ARC
  8
0
 10
-53.404984
 20
-13.556642
 40
1.791604
 50
145.773926
 51
205.181091
  0
ARC
  8
0
 10
-48.503998
 20
-10.535682
 40
6.692340
 50
179.942215
 51
197.507431
  0
ARC
  8
0
 10
17.417999
 20
8.999664
 40
1.785693
 50
342.780884
 51
25.949617
  0
CIRCLE
  8
0
 10
-27.193697
 20
-6.520773
 40
2.099999
  0
CIRCLE
  8
0
 62
     2
 10
-27.193697
 20
-6.520773
 40
2.500000
  0
CIRCLE
  8
0
 10
65.806290
 20
-6.520773
 40
2.099999
  0
ARC
  8
0
 10
18.595459
 20
9.011536
 40
1.795100
 50
154.616516
 51
197.523056
  0
CIRCLE
  8
0
 62
     2
 10
65.806290
 20
-6.520773
 40
2.500000
  0
ARC
  8
0
 10
151.969696
 20
58.572311
 40
0.936036
 50
180.077530
 51
252.206573
  0
ARC
  8
0
 10
155.608505
 20
58.576309
 40
0.933696
 50
286.497955
 51
314.561523
  0
ARC
  8
0
 10
153.778656
 20
64.361084
 40
7.000849
 50
252.587463
 51
287.412537
  0
ARC
  8
0
 62
     2
 10
148.303650
 20
91.361038
 40
1.647539
 50
190.491608
 51
349.508392
  0
CIRCLE
  8
0
 10
160.806290
 20
79.361053
 40
8.750000
  0
CIRCLE
  8
0
 10
160.806290
 20
79.361053
 40
8.500000
  0
CIRCLE
  8
0
 10
160.806290
 20
103.361023
 40
8.750000
  0
CIRCLE
  8
0
 10
148.306290
 20
91.361038
 40
2.000000
  0
CIRCLE
  8
0
 10
148.306290
 20
91.361038
 40
3.500000
  0
CIRCLE
  8
0
 10
160.806290
 20
103.361023
 40
8.500000
  0
ARC
  8
0
 62
     2
 10
148.303650
 20
91.361038
 40
1.647539
 50
10.491612
 51
169.508392
  0
ARC
  8
0
 10
157.798645
 20
115.331024
 40
2.075012
 50
180.000000
 51
0.000000
  0
ARC
  8
0
 10
170.104965
 20
121.162354
 40
0.698686
 50
359.891754
 51
90.108864
  0
ARC
  8
0
 10
170.104965
 20
61.559738
 40
0.698686
 50
269.892395
 51
0.107612
  0
ARC
  8
0
 10
151.304977
 20
61.862366
 40
1.001328
 50
180.075531
 51
269.924927
  0
ARC
  8
0
 10
151.304977
 20
120.859711
 40
1.001321
 50
90.075089
 51
179.924469
  0
ARC
  8
0
 10
163.798645
 20
115.331024
 40
2.075012
 50
180.000000
 51
0.000000
  0
ARC
  8
0
 10
161.904968
 20
117.662354
 40
0.298678
 50
359.746796
 51
90.254662
  0
ARC
  8
0
 10
159.704971
 20
117.659714
 40
0.301318
 50
90.249527
 51
179.749023
  0
CIRCLE
  8
0
 10
-173.186325
 20
66.361038
 40
2.099999
  0
CIRCLE
  8
0
 10
-188.186325
 20
66.361038
 40
2.099999
  0
CIRCLE
  8
0
 10
-188.186325
 20
116.361038
 40
2.099999
  0
CIRCLE
  8
0
 10
-173.186325
 20
116.361038
 40
2.099999
  0
CIRCLE
  8
0
 62
     2
 10
-188.186325
 20
66.361038
 40
2.500000
  0
CIRCLE
  8
0
 62
     2
 10
-173.186325
 20
66.361038
 40
2.500000
  0
CIRCLE
  8
0
 62
     2
 10
-173.186325
 20
116.361038
 40
2.500000
  0
CIRCLE
  8
0
 62
     2
 10
-188.186325
 20
116.361038
 40
2.500000
  0
ARC
  8
0
 10
-191.384094
 20
58.580734
 40
0.938692
 50
286.573761
 51
314.485138
  0
ARC
  8
0
 10
-195.026810
 20
58.567535
 40
0.929511
 50
179.783905
 51
252.500061
  0
ARC
  8
0
 10
-193.211319
 20
64.361038
 40
7.000802
 50
252.587341
 51
287.412659
  0
CIRCLE
  8
0
 10
-186.193695
 20
103.361023
 40
2.980385
  0
CIRCLE
  8
0
 10
-186.193695
 20
103.361023
 40
3.500000
  0
CIRCLE
  8
0
 10
-186.193695
 20
103.361023
 40
6.000000
  0
CIRCLE
  8
0
 10
-186.193695
 20
103.361023
 40
6.500000
  0
CIRCLE
  8
0
 10
-186.193695
 20
79.361023
 40
2.980385
  0
CIRCLE
  8
0
 10
-186.193695
 20
79.361023
 40
3.500000
  0
CIRCLE
  8
0
 10
-186.193695
 20
79.361023
 40
6.000000
  0
CIRCLE
  8
0
 10
-186.193695
 20
79.361023
 40
6.500000
  0
ARC
  8
0
 10
-195.489990
 20
121.164703
 40
0.696344
 50
89.698677
 51
180.301956
  0
ARC
  8
0
 10
-195.490005
 20
61.557358
 40
0.696329
 50
179.697098
 51
270.302582
  0
CIRCLE
  8
0
 10
45.803665
 20
91.361038
 40
2.099999
  0
CIRCLE
  8
0
 10
-19.196335
 20
71.361038
 40
2.099999
  0
CIRCLE
  8
0
 62
     2
 10
-19.196335
 20
71.361038
 40
2.500000
  0
CIRCLE
  8
0
 10
-19.196335
 20
111.361038
 40
2.099999
  0
CIRCLE
  8
0
 62
     2
 10
-19.196335
 20
111.361038
 40
2.500000
  0
CIRCLE
  8
0
 10
-74.196335
 20
111.361038
 40
2.099999
  0
CIRCLE
  8
0
 62
     2
 10
-74.196335
 20
111.361038
 40
2.500000
  0
CIRCLE
  8
0
 10
-74.196335
 20
71.361038
 40
2.099999
  0
CIRCLE
  8
0
 62
     2
 10
-74.196335
 20
71.361038
 40
2.500000
  0
CIRCLE
  8
0
 10
-94.196335
 20
71.361038
 40
2.099999
  0
CIRCLE
  8
0
 62
     2
 10
-94.196335
 20
71.361038
 40
2.500000
  0
CIRCLE
  8
0
 10
-94.196335
 20
111.361038
 40
2.099999
  0
CIRCLE
  8
0
 62
     2
 10
-94.196335
 20
111.361038
 40
2.500000
  0
ARC
  8
0
 10
58.644302
 20
58.567429
 40
0.929367
 50
287.493011
 51
0.222714
  0
ARC
  8
0
 10
55.014069
 20
58.573257
 40
0.935237
 50
225.077667
 51
252.552444
  0
ARC
  8
0
 10
56.828659
 20
64.361053
 40
7.000815
 50
252.587402
 51
287.412628
  0
ARC
  8
0
 10
21.860901
 20
89.611038
 40
5.059534
 50
159.764374
 51
200.235535
  0
ARC
  8
0
 10
21.860901
 20
93.111038
 40
5.059534
 50
159.764374
 51
200.235535
  0
ARC
  8
0
 10
-84.196335
 20
91.361038
 40
5.000000
 50
0.000000
 51
180.000000
  0
ARC
  8
0
 10
-73.203690
 20
91.361038
 40
2.000014
 50
270.210907
 51
89.789085
  0
ARC
  8
0
 10
-75.203690
 20
91.361038
 40
2.000014
 50
89.789085
 51
270.210907
  0
CIRCLE
  8
0
 10
-94.203690
 20
91.361038
 40
2.000000
  0
CIRCLE
  8
0
 10
-4.193710
 20
91.361038
 40
5.000000
  0
ARC
  8
0
 10
-84.196335
 20
91.361038
 40
5.000000
 50
180.000000
 51
0.000000
  0
CIRCLE
  8
0
 10
45.806290
 20
91.361038
 40
3.750000
  0
ARC
  8
0
 10
14.151672
 20
93.111038
 40
5.054600
 50
339.743744
 51
20.256245
  0
ARC
  8
0
 10
14.151672
 20
89.611038
 40
5.054600
 50
339.743744
 51
20.256245
  0
CIRCLE
  8
0
  6
DASHED
 10
-34.196335
 20
91.361038
 40
2.099999
  0
CIRCLE
  8
0
  6
DASHED
 10
-34.193695
 20
91.361038
 40
3.750000
  0
TEXT
  8
0
 10
140.925964
 20
-155.404160
 40
4.500000
  1
MODEL:ARSK16*ST(10)
 50
0.000000
 41
1.052632
 51
0.000000
  7
STANDARD
  0
TEXT
  8
0
 62
     3
 10
-124.235046
 20
128.931808
 40
4.500000
  1
STRETCH LINE A
 50
0.000000
 41
1.052632
 51
0.000000
  7
STANDARD
  0
TEXT
  8
0
 62
     3
 10
-110.013840
 20
-53.431499
 40
4.500000
  1
STRETCH LINE A
 50
0.000000
 41
1.052632
 51
0.000000
  7
STANDARD
  0
TEXT
  8
0
 62
     3
 10
184.348770
 20
-53.877361
 40
4.500000
  1
STRETCH LINE D
 50
0.000000
 41
1.052632
 51
0.000000
  7
STANDARD
  0
TEXT
  8
0
 62
     3
 10
121.633606
 20
-45.431499
 40
4.500000
  1
STRETCH LINE C
 50
0.000000
 41
1.052632
 51
0.000000
  7
STANDARD
  0
TEXT
  8
0
 62
     3
 10
12.076691
 20
-53.431499
 40
4.500000
  1
STRETCH LINE D
 50
0.000000
 41
1.052632
 51
0.000000
  7
STANDARD
  0
TEXT
  8
0
 62
     3
 10
-46.015175
 20
-45.431499
 40
4.500000
  1
STRETCH LINE C
 50
0.000000
 41
1.052632
 51
0.000000
  7
STANDARD
  0
TEXT
  8
0
 62
     3
 10
2.973572
 20
139.529495
 40
4.500000
  1
STRETCH LINE B
 50
0.000000
 41
1.052632
 51
0.000000
  7
STANDARD
  0
TEXT
  8
0
 10
-188.642654
 20
-183.050003
 40
4.500000
  1
30
 50
0.000000
 41
1.052632
 51
0.000000
  7
STANDARD
  0
TEXT
  8
0
 10
-203.642654
 20
-183.050003
 40
4.500000
  1
20
 50
0.000000
 41
1.052632
 51
0.000000
  7
STANDARD
  0
TEXT
  8
0
 10
-218.642654
 20
-183.050003
 40
4.500000
  1
10
 50
0.000000
 41
1.052632
 51
0.000000
  7
STANDARD
  0
TEXT
  8
0
 10
-231.392654
 20
-183.050003
 40
4.500000
  1
0
 50
0.000000
 41
1.052632
 51
0.000000
  7
STANDARD
  0
TEXT
  8
0
 10
-171.392654
 20
-183.050003
 40
4.500000
  1
0
 50
0.000000
 41
1.052632
 51
0.000000
  7
STANDARD
  0
TEXT
  8
0
 10
-143.642654
 20
-163.050003
 40
4.500000
  1
30
 50
0.000000
 41
1.052632
 51
0.000000
  7
STANDARD
  0
TEXT
  8
0
 10
-158.642654
 20
-163.050003
 40
4.500000
  1
10
 50
0.000000
 41
1.052632
 51
0.000000
  7
STANDARD
  0
TEXT
  8
0
 10
-171.392654
 20
-163.050003
 40
4.500000
  1
0
 50
0.000000
 41
1.052632
 51
0.000000
  7
STANDARD
  0
TEXT
  8
0
 10
-190.892654
 20
-163.050003
 40
4.500000
  1
-10
 50
0.000000
 41
1.052632
 51
0.000000
  7
STANDARD
  0
TEXT
  8
0
 10
-205.892654
 20
-163.050003
 40
4.500000
  1
-20
 50
0.000000
 41
1.052632
 51
0.000000
  7
STANDARD
  0
TEXT
  8
0
 10
-220.892654
 20
-163.050003
 40
4.500000
  1
-30
 50
0.000000
 41
1.052632
 51
0.000000
  7
STANDARD
  0
TEXT
  8
0
 10
-235.892654
 20
-163.050003
 40
4.500000
  1
-40
 50
0.000000
 41
1.052632
 51
0.000000
  7
STANDARD
  0
TEXT
  8
0
 10
-143.642654
 20
-183.050003
 40
4.500000
  1
15
 50
0.000000
 41
1.052632
 51
0.000000
  7
STANDARD
  0
TEXT
  8
0
 10
-156.392654
 20
-183.050003
 40
4.500000
  1
5
 50
0.000000
 41
1.052632
 51
0.000000
  7
STANDARD
  0
TEXT
  8
0
 10
-256.392670
 20
-183.050003
 40
4.500000
  1
D
 50
0.000000
 41
1.052632
 51
0.000000
  7
STANDARD
  0
TEXT
  8
0
 10
-256.392670
 20
-173.050003
 40
4.500000
  1
C
 50
0.000000
 41
1.052632
 51
0.000000
  7
STANDARD
  0
TEXT
  8
0
 10
-220.892654
 20
-153.050003
 40
4.500000
  1
-30
 50
0.000000
 41
1.052632
 51
0.000000
  7
STANDARD
  0
TEXT
  8
0
 10
-205.892654
 20
-153.050003
 40
4.500000
  1
-20
 50
0.000000
 41
1.052632
 51
0.000000
  7
STANDARD
  0
TEXT
  8
0
 10
-190.892654
 20
-153.050003
 40
4.500000
  1
-10
 50
0.000000
 41
1.052632
 51
0.000000
  7
STANDARD
  0
TEXT
  8
0
 10
-171.392654
 20
-153.050003
 40
4.500000
  1
0
 50
0.000000
 41
1.052632
 51
0.000000
  7
STANDARD
  0
TEXT
  8
0
 10
-158.642654
 20
-153.050003
 40
4.500000
  1
10
 50
0.000000
 41
1.052632
 51
0.000000
  7
STANDARD
  0
TEXT
  8
0
 10
-143.642654
 20
-153.050003
 40
4.500000
  1
30
 50
0.000000
 41
1.052632
 51
0.000000
  7
STANDARD
  0
TEXT
  8
0
 10
-235.892654
 20
-153.050003
 40
4.500000
  1
-40
 50
0.000000
 41
1.052632
 51
0.000000
  7
STANDARD
  0
TEXT
  8
0
 10
-231.392654
 20
-173.050003
 40
4.500000
  1
0
 50
0.000000
 41
1.052632
 51
0.000000
  7
STANDARD
  0
TEXT
  8
0
 10
-143.642654
 20
-173.050003
 40
4.500000
  1
15
 50
0.000000
 41
1.052632
 51
0.000000
  7
STANDARD
  0
TEXT
  8
0
 10
-156.392654
 20
-173.050003
 40
4.500000
  1
5
 50
0.000000
 41
1.052632
 51
0.000000
  7
STANDARD
  0
TEXT
  8
0
 10
-171.392654
 20
-173.050003
 40
4.500000
  1
0
 50
0.000000
 41
1.052632
 51
0.000000
  7
STANDARD
  0
TEXT
  8
0
 10
-188.642654
 20
-173.050003
 40
4.500000
  1
30
 50
0.000000
 41
1.052632
 51
0.000000
  7
STANDARD
  0
TEXT
  8
0
 10
-203.642654
 20
-173.050003
 40
4.500000
  1
20
 50
0.000000
 41
1.052632
 51
0.000000
  7
STANDARD
  0
TEXT
  8
0
 10
-218.642654
 20
-173.050003
 40
4.500000
  1
10
 50
0.000000
 41
1.052632
 51
0.000000
  7
STANDARD
  0
TEXT
  8
0
 10
-148.142654
 20
-113.050003
 40
4.500000
  1
（ｍｍ）
 50
0.000000
 41
0.833333
 51
0.000000
  7
STANDARD
  0
TEXT
  8
0
 10
-228.642654
 20
-113.050003
 40
4.500000
  1
STRETCH LIST
 50
0.000000
 41
1.052632
 51
0.000000
  7
STANDARD
  0
TEXT
  8
0
 10
-143.642654
 20
-133.050003
 40
4.500000
  1
80
 50
0.000000
 41
1.052632
 51
0.000000
  7
STANDARD
  0
TEXT
  8
0
 10
-158.642654
 20
-133.050003
 40
4.500000
  1
60
 50
0.000000
 41
1.052632
 51
0.000000
  7
STANDARD
  0
TEXT
  8
0
 10
-173.642654
 20
-133.050003
 40
4.500000
  1
50
 50
0.000000
 41
1.052632
 51
0.000000
  7
STANDARD
  0
TEXT
  8
0
 10
-188.642654
 20
-133.050003
 40
4.500000
  1
40
 50
0.000000
 41
1.052632
 51
0.000000
  7
STANDARD
  0
TEXT
  8
0
 10
-203.642654
 20
-133.050003
 40
4.500000
  1
30
 50
0.000000
 41
1.052632
 51
0.000000
  7
STANDARD
  0
TEXT
  8
0
 10
-218.642654
 20
-133.050003
 40
4.500000
  1
20
 50
0.000000
 41
1.052632
 51
0.000000
  7
STANDARD
  0
TEXT
  8
0
 10
-233.642654
 20
-133.050003
 40
4.500000
  1
10
 50
0.000000
 41
1.052632
 51
0.000000
  7
STANDARD
  0
TEXT
  8
0
 10
-270.892670
 20
-133.324997
 40
4.500000
  1
STRETCH
 50
0.000000
 41
1.052632
 51
0.000000
  7
STANDARD
  0
TEXT
  8
0
 10
-270.892670
 20
-140.074997
 40
4.500000
  1
  PLACE
 50
0.000000
 41
1.052632
 51
0.000000
  7
STANDARD
  0
TEXT
  8
0
 10
-267.642670
 20
-123.050003
 40
4.500000
  1
STROKE
 50
0.000000
 41
1.052632
 51
0.000000
  7
STANDARD
  0
TEXT
  8
0
 10
-256.392670
 20
-153.050003
 40
4.500000
  1
A
 50
0.000000
 41
1.052632
 51
0.000000
  7
STANDARD
  0
TEXT
  8
0
 10
-256.392670
 20
-163.050003
 40
4.500000
  1
B
 50
0.000000
 41
1.052632
 51
0.000000
  7
STANDARD
  0
TEXT
  8
0
 10
196.250275
 20
180.830002
 40
6.299999
  1
Ｖｅｒ．　１．０
 50
0.000000
 41
0.833333
 51
0.000000
  7
STANDARD
  0
TEXT
  8
0
 10
167.564667
 20
-192.100006
 40
9.000000
  1
KOGANEI CORP.
 50
0.000000
 41
1.052632
 51
0.000000
  7
STANDARD
  0
TEXT
  8
0
 10
-253.399704
 20
180.830002
 40
6.299999
  1
ROD SLIDER
 50
0.000000
 41
1.052631
 51
0.000000
  7
STANDARD
  0
TEXT
  8
0
 10
-270.049713
 20
155.830002
 40
6.299999
  1
MODEL:ARSK16*ST(50)
 50
0.000000
 41
1.052631
 51
0.000000
  7
STANDARD
  0
ENDSEC
  0
EOF
