  0
SECTION
  2
HEADER
  0
ENDSEC
  0
SECTION
  2
TABLES
  0
TABLE
  2
LTYPE
 70
     4
  0
LTYPE
  2
CONTINUOUS
 70
    64
  3
Solid line
 72
    65
 73
     0
 40
0.000000
  0
LTYPE
  2
DASHED
 70
    64
  3
__ __ __ __ __ __ __ __ __ __ __ __ __ __ __
 72
    65
 73
     2
 40
3.500000
 49
2.000000
 49
-1.500000
  0
LTYPE
  2
CENTER
 70
    64
  3
____ _ ____ _ ____ _ ____ _ ____ _ ____ _ ____
 72
    65
 73
     4
 40
17.500000
 49
13.000000
 49
-1.500000
 49
1.500000
 49
-1.500000
  0
LTYPE
  2
PHANTOM
 70
    64
  3
_____ _ _ _____ _ _ _____ _ _ _____ _ _ ____  
 72
    65
 73
     6
 40
15.500000
 49
8.000000
 49
-1.500000
 49
1.500000
 49
-1.500000
 49
1.500000
 49
-1.500000
  0
LTYPE
  2
DASHED1
 70
    64
  3
__ __ __ __ __ __ __ __ __ __ __ __ __ __ __
 72
    65
 73
     2
 40
1.500000
 49
1.000000
 49
-0.500000
  0
LTYPE
  2
DASHED2
 70
    64
  3
__ __ __ __ __ __ __ __ __ __ __ __ __ __ __
 72
    65
 73
     2
 40
3.500000
 49
2.500000
 49
-1.000000
  0
LTYPE
  2
DASHED3
 70
    64
  3
__ __ __ __ __ __ __ __ __ __ __ __ __ __ __
 72
    65
 73
     2
 40
6.000000
 49
4.000000
 49
-2.000000
  0
LTYPE
  2
DASHED4
 70
    64
  3
__ __ __ __ __ __ __ __ __ __ __ __ __ __ __
 72
    65
 73
     2
 40
12.000000
 49
10.000000
 49
-2.000000
  0
LTYPE
  2
DASHED5
 70
    64
  3
__ __ __ __ __ __ __ __ __ __ __ __ __ __ __
 72
    65
 73
     2
 40
17.000000
 49
15.000000
 49
-2.000000
  0
LTYPE
  2
DASHED6
 70
    64
  3
__ __ __ __ __ __ __ __ __ __ __ __ __ __ __
 72
    65
 73
     2
 40
29.000000
 49
27.000000
 49
-2.000000
  0
LTYPE
  2
PHANTOM1
 70
    64
  3
_____ _ _ _____ _ _ _____ _ _ _____ _ _ ____  
 72
    65
 73
     6
 40
31.000000
 49
25.000000
 49
-1.500000
 49
1.000000
 49
-1.000000
 49
1.000000
 49
-1.500000
  0
LTYPE
  2
PHANTOM2
 70
    64
  3
_____ _ _ _____ _ _ _____ _ _ _____ _ _ ____  
 72
    65
 73
     6
 40
36.000000
 49
27.000000
 49
-1.500000
 49
2.500000
 49
-1.000000
 49
2.500000
 49
-1.500000
  0
LTYPE
  2
PHANTOM3
 70
    64
  3
_____ _ _ _____ _ _ _____ _ _ _____ _ _ ____  
 72
    65
 73
     6
 40
78.000000
 49
64.000000
 49
-2.000000
 49
4.000000
 49
-2.000000
 49
4.000000
 49
-2.000000
  0
LTYPE
  2
CENTER1
 70
    64
  3
____ _ ____ _ ____ _ ____ _ ____ _ ____ _ ____
 72
    65
 73
     4
 40
19.000000
 49
14.000000
 49
-1.000000
 49
3.000000
 49
-1.000000
  0
LTYPE
  2
CENTER2
 70
    64
  3
____ _ ____ _ ____ _ ____ _ ____ _ ____ _ ____
 72
    65
 73
     4
 40
28.500000
 49
25.000000
 49
-1.000000
 49
1.500000
 49
-1.000000
  0
LTYPE
  2
CENTER3
 70
    64
  3
____ _ ____ _ ____ _ ____ _ ____ _ ____ _ ____
 72
    65
 73
     4
 40
31.500000
 49
27.000000
 49
-1.000000
 49
2.500000
 49
-1.000000
  0
LTYPE
  2
CENTER4
 70
    64
  3
____ _ ____ _ ____ _ ____ _ ____ _ ____ _ ____
 72
    65
 73
     4
 40
50.000000
 49
45.000000
 49
-1.000000
 49
3.000000
 49
-1.000000
  0
LTYPE
  2
CENTER5
 70
    64
  3
____ _ ____ _ ____ _ ____ _ ____ _ ____ _ ____
 72
    65
 73
     4
 40
100.000000
 49
92.000000
 49
-2.000000
 49
4.000000
 49
-2.000000
  0
LTYPE
  2
SBK1
 70
    64
  3
______ _ _ _ ______ _ _ _ ______ _ _ _ _____  
 72
    65
 73
     8
 40
60.500000
 49
45.000000
 49
-2.000000
 49
2.500000
 49
-2.000000
 49
2.500000
 49
-2.000000
 49
2.500000
 49
-2.000000
  0
LTYPE
  2
SBK2
 70
    64
  3
______ _ _ _ ______ _ _ _ ______ _ _ _ _____  
 72
    65
 73
     8
 40
84.000000
 49
64.000000
 49
-2.000000
 49
4.000000
 49
-2.000000
 49
4.000000
 49
-2.000000
 49
4.000000
 49
-2.000000
  0
LTYPE
  2
STCH
 70
    64
  3
__ __ __ __ __ __ __ __ __ __ __ __ __ __ __
 72
    65
 73
     2
 40
3.000000
 49
1.000000
 49
-2.000000
  0
LTYPE
  2
MTCH
 70
    64
  3
_____ _ _ _____ _ _ _____ _ _ _____ _ _ ____  
 72
    65
 73
     6
 40
80.000000
 49
66.000000
 49
-2.000000
 49
4.000000
 49
-2.000000
 49
4.000000
 49
-2.000000
  0
ENDTAB
  0
TABLE
  2
LAYER
 70
     1
  0
LAYER
  2
0
 70
     0
 62
     7
  6
CONTINUOUS
  0
ENDTAB
  0
TABLE
  2
STYLE
 70
     1
  0
STYLE
  2
STANDARD
 70
     0
 40
0.000000
 41
1.000000
 50
0.000000
 71
     0
 42
0.200000
  3
txt
  4
BIGFONT
  0
ENDTAB
  0
TABLE
  2
VIEW
 70
     0
  0
ENDTAB
  0
ENDSEC
  0
SECTION
  2
BLOCKS
  0
ENDSEC
  0
SECTION
  2
ENTITIES
  0
LINE
  8
0
 10
33.924927
 20
88.633469
 11
46.424911
 21
88.633469
  0
LINE
  8
0
 10
33.924927
 20
81.633469
 11
52.924927
 21
81.633469
  0
LINE
  8
0
  6
CENTER
 62
     2
 10
-50.799377
 20
85.133469
 11
60.203018
 21
85.133469
  0
LINE
  8
0
 10
-47.075073
 20
103.133469
 11
-47.075073
 21
67.133469
  0
LINE
  8
0
 10
52.924927
 20
103.133469
 11
52.924927
 21
67.133469
  0
LINE
  8
0
 10
-47.075073
 20
103.133469
 11
52.924927
 21
103.133469
  0
LINE
  8
0
 10
-47.075073
 20
67.133469
 11
52.924927
 21
67.133469
  0
LINE
  8
0
 10
33.924927
 20
103.133469
 11
33.924927
 21
67.133469
  0
LINE
  8
0
 10
-41.075073
 20
103.133469
 11
-41.075073
 21
67.133469
  0
LINE
  8
0
 10
33.924927
 20
89.133469
 11
52.924927
 21
89.133469
  0
LINE
  8
0
 10
46.424927
 20
88.633469
 11
46.424927
 21
81.633469
  0
LINE
  8
0
  6
CENTER
 62
     2
 10
49.924927
 20
90.168365
 11
49.924927
 21
79.967621
  0
LINE
  8
0
  6
CENTER
 62
     2
 10
-32.075073
 20
91.843201
 11
-32.075073
 21
78.554398
  0
LINE
  8
0
 10
-47.075073
 20
68.633469
 11
33.924927
 21
68.633469
  0
LINE
  8
0
 10
-47.075073
 20
101.633469
 11
33.924927
 21
101.633469
  0
LINE
  8
0
  6
CENTER
 62
     2
 10
30.127289
 20
71.133469
 11
43.770340
 21
71.133469
  0
LINE
  8
0
 10
-41.075073
 20
94.133469
 11
33.924927
 21
94.133469
  0
LINE
  8
0
 10
-41.075073
 20
76.133469
 11
33.924927
 21
76.133469
  0
LINE
  8
0
 10
-41.075073
 20
75.833466
 11
33.924927
 21
75.833466
  0
LINE
  8
0
 10
-41.075073
 20
94.433472
 11
33.924927
 21
94.433472
  0
LINE
  8
0
 10
33.924927
 20
94.633469
 11
52.924927
 21
94.633469
  0
LINE
  8
0
 10
34.170563
 20
67.958038
 11
35.479324
 21
67.958038
  0
LINE
  8
0
 10
33.924950
 20
68.383369
 11
34.170570
 21
67.957947
  0
LINE
  8
0
 10
34.170563
 20
69.545761
 11
35.479340
 21
69.545761
  0
LINE
  8
0
 10
35.724911
 20
68.383484
 11
35.479286
 21
67.958061
  0
LINE
  8
0
 10
34.170563
 20
74.308899
 11
35.479324
 21
74.308899
  0
LINE
  8
0
 10
33.924927
 20
73.883522
 11
34.170517
 21
74.308899
  0
LINE
  8
0
 10
34.170563
 20
72.721176
 11
35.479340
 21
72.721176
  0
LINE
  8
0
 10
35.724934
 20
73.883347
 11
35.479313
 21
74.308777
  0
LINE
  8
0
 10
35.724930
 20
73.883423
 11
35.724930
 21
68.383484
  0
LINE
  8
0
 10
35.724930
 20
72.633469
 11
41.924942
 21
72.633469
  0
LINE
  8
0
 62
     2
 10
35.724930
 20
72.383469
 11
41.924942
 21
72.383469
  0
LINE
  8
0
 62
     2
 10
35.724930
 20
69.883469
 11
41.924942
 21
69.883469
  0
LINE
  8
0
 10
35.724930
 20
69.633469
 11
41.924942
 21
69.633469
  0
LINE
  8
0
 10
41.924942
 20
69.633469
 11
41.924942
 21
70.833466
  0
LINE
  8
0
 10
33.924927
 20
75.133469
 11
52.924927
 21
75.133469
  0
LINE
  8
0
  6
CENTER
 62
     2
 10
-27.075073
 20
101.362137
 11
-27.075073
 21
94.906219
  0
LINE
  8
0
  6
CENTER
 62
     2
 10
-30.162094
 20
98.133469
 11
-23.961853
 21
98.133469
  0
LINE
  8
0
  6
CENTER
 62
     2
 10
-7.075073
 20
101.362137
 11
-7.075073
 21
94.906219
  0
LINE
  8
0
  6
CENTER
 62
     2
 10
-10.162094
 20
98.133469
 11
-3.961853
 21
98.133469
  0
LINE
  8
0
  6
CENTER
 62
     2
 10
7.924927
 20
101.362137
 11
7.924927
 21
94.906219
  0
LINE
  8
0
  6
CENTER
 62
     2
 10
4.837906
 20
98.133469
 11
11.038147
 21
98.133469
  0
LINE
  8
0
  6
CENTER
 62
     2
 10
-27.075073
 20
68.904800
 11
-27.075073
 21
75.360718
  0
LINE
  8
0
  6
CENTER
 62
     2
 10
-30.162094
 20
72.133469
 11
-23.961853
 21
72.133469
  0
LINE
  8
0
  6
CENTER
 62
     2
 10
-7.075073
 20
68.904800
 11
-7.075073
 21
75.360718
  0
LINE
  8
0
  6
CENTER
 62
     2
 10
-10.162094
 20
72.133469
 11
-3.961853
 21
72.133469
  0
LINE
  8
0
  6
CENTER
 62
     2
 10
7.924927
 20
68.904800
 11
7.924927
 21
75.360718
  0
LINE
  8
0
  6
CENTER
 62
     2
 10
4.837906
 20
72.133469
 11
11.038147
 21
72.133469
  0
LINE
  8
0
  6
CENTER
 62
     2
 10
-22.075073
 20
88.133469
 11
-22.075073
 21
82.133469
  0
LINE
  8
0
  6
CENTER
 62
     2
 10
-7.075073
 20
88.133469
 11
-7.075073
 21
82.133469
  0
LINE
  8
0
 10
-8.075073
 20
86.633469
 11
-6.075073
 21
86.633469
  0
LINE
  8
0
 10
-8.075073
 20
83.633469
 11
-6.075073
 21
83.633469
  0
LINE
  8
0
 10
40.724945
 20
70.833466
 11
40.724945
 21
71.433472
  0
LINE
  8
0
 10
40.724945
 20
71.433472
 11
41.924942
 21
71.433472
  0
LINE
  8
0
 10
40.724945
 20
70.833466
 11
41.924942
 21
70.833466
  0
LINE
  8
0
 10
41.924942
 20
71.433472
 11
41.924942
 21
72.633469
  0
LINE
  8
0
 10
-47.075073
 20
-66.207321
 11
52.924927
 21
-66.207321
  0
LINE
  8
0
 10
-47.075073
 20
-102.207321
 11
52.924927
 21
-102.207321
  0
LINE
  8
0
 10
-25.075073
 20
-66.207321
 11
-25.075073
 21
-102.207321
  0
LINE
  8
0
  6
CENTER
 62
     2
 10
-52.905731
 20
-84.207321
 11
57.738968
 21
-84.207321
  0
LINE
  8
0
 10
-47.075073
 20
-66.207321
 11
-47.075073
 21
-102.207321
  0
LINE
  8
0
  6
CENTER
 62
     2
 10
49.924927
 20
-80.442551
 11
49.924927
 21
-88.093872
  0
LINE
  8
0
  6
CENTER
 62
     2
 10
-22.075073
 20
-80.258286
 11
-22.075073
 21
-87.069061
  0
LINE
  8
0
 10
-25.075073
 20
-79.207321
 11
52.924927
 21
-79.207321
  0
LINE
  8
0
 10
-25.075073
 20
-71.207321
 11
52.924927
 21
-71.207321
  0
LINE
  8
0
 10
-39.975082
 20
-88.207321
 11
-39.975082
 21
-95.207321
  0
LINE
  8
0
 10
-36.725082
 20
-89.707321
 11
-25.075073
 21
-89.707321
  0
LINE
  8
0
 10
-30.075073
 20
-66.957321
 11
-30.075073
 21
-72.457321
  0
LINE
  8
0
 10
-28.075073
 20
-68.207321
 11
-26.875076
 21
-68.207321
  0
LINE
  8
0
 10
-28.075073
 20
-66.957321
 11
-28.075073
 21
-72.457321
  0
LINE
  8
0
 10
-26.629456
 20
-69.707321
 11
-25.320694
 21
-69.707321
  0
LINE
  8
0
 10
-26.875076
 20
-72.457321
 11
-26.875076
 21
-66.957321
  0
LINE
  8
0
 10
-26.875076
 20
-66.957321
 11
-25.075073
 21
-66.957321
  0
LINE
  8
0
 10
-29.829453
 20
-69.707321
 11
-28.075073
 21
-69.707321
  0
LINE
  8
0
 10
-28.075073
 20
-71.207321
 11
-26.875076
 21
-71.207321
  0
LINE
  8
0
 10
-26.875076
 20
-72.457321
 11
-25.075073
 21
-72.457321
  0
LINE
  8
0
 10
-30.075073
 20
-72.457321
 11
-28.075073
 21
-72.457321
  0
LINE
  8
0
 10
-39.975082
 20
-89.957321
 11
-36.975082
 21
-89.957321
  0
LINE
  8
0
 10
-36.725048
 20
-89.707237
 11
-36.975052
 21
-89.957237
  0
LINE
  8
0
 10
-36.725082
 20
-93.707321
 11
-25.075073
 21
-93.707321
  0
LINE
  8
0
 10
-39.975082
 20
-93.457321
 11
-36.975082
 21
-93.457321
  0
LINE
  8
0
 10
-36.725025
 20
-93.707237
 11
-36.975040
 21
-93.457222
  0
LINE
  8
0
 10
-36.725082
 20
-78.707321
 11
-25.075073
 21
-78.707321
  0
LINE
  8
0
 10
-39.975082
 20
-78.457321
 11
-36.975082
 21
-78.457321
  0
LINE
  8
0
 10
-36.725021
 20
-78.707268
 11
-36.975029
 21
-78.457260
  0
LINE
  8
0
 10
-36.725082
 20
-74.707321
 11
-25.075073
 21
-74.707321
  0
LINE
  8
0
 10
-39.975082
 20
-74.957321
 11
-36.975082
 21
-74.957321
  0
LINE
  8
0
 10
-36.725014
 20
-74.707268
 11
-36.975025
 21
-74.957268
  0
LINE
  8
0
 62
     2
 10
-28.075073
 20
-68.457321
 11
-26.875076
 21
-68.457321
  0
LINE
  8
0
 62
     2
 10
-28.075073
 20
-70.957321
 11
-26.875076
 21
-70.957321
  0
LINE
  8
0
 10
-30.075073
 20
-66.957321
 11
-28.075073
 21
-66.957321
  0
LINE
  8
0
  6
CENTER
 62
     2
 10
-51.063141
 20
-76.707321
 11
-22.892471
 21
-76.707321
  0
LINE
  8
0
 10
-41.075073
 20
-102.207321
 11
-41.075073
 21
-66.207321
  0
LINE
  8
0
  6
CENTER
 62
     2
 10
-12.075073
 20
-80.258286
 11
-12.075073
 21
-87.989761
  0
LINE
  8
0
  6
CENTER
 62
     2
 10
39.924927
 20
-80.442551
 11
39.924927
 21
-88.093872
  0
LINE
  8
0
 10
38.924927
 20
-82.707321
 11
40.924927
 21
-82.707321
  0
LINE
  8
0
 10
52.924927
 20
-66.207321
 11
52.924927
 21
-102.207321
  0
LINE
  8
0
  6
CENTER
 62
     2
 10
-32.210312
 20
-69.707321
 11
-19.519135
 21
-69.707321
  0
LINE
  8
0
  6
CENTER
 62
     2
 10
-45.008774
 20
-69.707321
 11
-38.563629
 21
-69.707321
  0
LINE
  8
0
 10
-41.075073
 20
-88.207321
 11
-39.975082
 21
-88.207321
  0
LINE
  8
0
 10
-41.075073
 20
-95.207321
 11
-39.975082
 21
-95.207321
  0
LINE
  8
0
 10
-39.975067
 20
-80.207321
 11
-39.975067
 21
-73.207321
  0
LINE
  8
0
 10
-41.075073
 20
-73.207321
 11
-39.975082
 21
-73.207321
  0
LINE
  8
0
 10
-41.075073
 20
-80.207321
 11
-39.975082
 21
-80.207321
  0
LINE
  8
0
  6
CENTER
 62
     2
 10
-51.063141
 20
-91.707321
 11
-22.892471
 21
-91.707321
  0
LINE
  8
0
 10
38.924927
 20
-85.707321
 11
40.924927
 21
-85.707321
  0
LINE
  8
0
 10
-25.075073
 20
-70.907318
 11
52.924927
 21
-70.907318
  0
LINE
  8
0
 10
-25.075073
 20
-79.507324
 11
52.924927
 21
-79.507324
  0
LINE
  8
0
 10
-25.075073
 20
-89.207321
 11
52.924927
 21
-89.207321
  0
LINE
  8
0
 10
-25.075073
 20
-97.207321
 11
52.924927
 21
-97.207321
  0
LINE
  8
0
 10
-25.075073
 20
-97.507324
 11
52.924927
 21
-97.507324
  0
LINE
  8
0
 10
-25.075073
 20
-88.907318
 11
52.924927
 21
-88.907318
  0
LINE
  8
0
 10
-40.075073
 20
-66.957321
 11
-40.075073
 21
-72.457321
  0
LINE
  8
0
 10
-41.075073
 20
-72.457321
 11
-40.075073
 21
-72.457321
  0
LINE
  8
0
 10
-41.075073
 20
-66.957321
 11
-40.075073
 21
-66.957321
  0
LINE
  8
0
 10
52.924911
 20
-9.490432
 11
-25.075073
 21
-9.490432
  0
LINE
  8
0
 10
-25.075073
 20
1.009567
 11
52.924927
 21
1.009567
  0
LINE
  8
0
 10
-41.075073
 20
-8.990432
 11
-47.075073
 21
-8.990432
  0
LINE
  8
0
 10
-41.075058
 20
12.009568
 11
-47.075058
 21
12.009568
  0
LINE
  8
0
 10
2.924927
 20
2.009567
 11
-17.825073
 21
2.009567
  0
LINE
  8
0
 10
-17.825073
 20
2.009567
 11
-17.825073
 21
8.009553
  0
LINE
  8
0
 10
5.674927
 20
7.509553
 11
5.674927
 21
8.009553
  0
LINE
  8
0
 10
6.174927
 20
7.509553
 11
6.174927
 21
8.009553
  0
LINE
  8
0
 10
25.924911
 20
8.009553
 11
-19.075073
 21
8.009553
  0
LINE
  8
0
 10
-39.975082
 20
-1.490433
 11
-25.075073
 21
-1.490433
  0
LINE
  8
0
  6
CENTER
 62
     2
 10
-52.261139
 20
-3.490433
 11
56.861725
 21
-3.490433
  0
LINE
  8
0
 10
-40.075073
 20
-5.490433
 11
-30.075073
 21
-5.490433
  0
LINE
  8
0
 10
-39.975082
 20
-2.522186
 11
-36.975082
 21
-2.522186
  0
LINE
  8
0
 10
-39.975082
 20
-4.458679
 11
-36.975082
 21
-4.458679
  0
LINE
  8
0
 10
-36.975082
 20
-2.522186
 11
-36.975082
 21
-4.458679
  0
LINE
  8
0
 62
     2
 10
-36.975140
 20
-2.522352
 11
-39.974918
 21
-4.458700
  0
LINE
  8
0
 62
     2
 10
-39.975025
 20
-2.522253
 11
-36.975021
 21
-4.458745
  0
LINE
  8
0
 10
-25.075073
 20
1.509567
 11
-25.075073
 21
-9.490432
  0
LINE
  8
0
  6
CENTER
 62
     2
 10
19.934967
 20
4.509567
 11
42.945267
 21
4.509567
  0
LINE
  8
0
 10
34.170547
 20
2.921860
 11
35.479324
 21
2.921860
  0
LINE
  8
0
 10
34.170547
 20
7.684983
 11
35.479309
 21
7.684983
  0
LINE
  8
0
 10
33.924938
 20
7.259638
 11
34.170528
 21
7.685013
  0
LINE
  8
0
 10
34.170547
 20
6.097275
 11
35.479324
 21
6.097275
  0
LINE
  8
0
 10
35.724918
 20
7.259456
 11
35.479298
 21
7.684884
  0
LINE
  8
0
 10
23.924927
 20
3.009567
 11
25.924911
 21
3.009567
  0
LINE
  8
0
 10
23.924927
 20
6.009567
 11
25.924911
 21
6.009567
  0
LINE
  8
0
 62
     2
 10
23.924927
 20
3.259567
 11
25.924911
 21
3.259567
  0
LINE
  8
0
 10
35.724915
 20
7.259507
 11
35.724915
 21
1.759583
  0
LINE
  8
0
 10
23.924927
 20
2.009567
 11
23.924927
 21
7.009553
  0
LINE
  8
0
 10
20.924927
 20
7.009553
 11
23.924927
 21
7.009553
  0
LINE
  8
0
 10
21.924927
 20
2.009567
 11
29.674927
 21
2.009567
  0
LINE
  8
0
 62
     2
 10
23.924927
 20
5.759567
 11
25.924911
 21
5.759567
  0
LINE
  8
0
 10
35.724915
 20
6.009567
 11
41.924927
 21
6.009567
  0
LINE
  8
0
 62
     2
 10
35.724915
 20
5.759567
 11
41.924927
 21
5.759567
  0
LINE
  8
0
 62
     2
 10
35.724915
 20
3.259567
 11
41.924927
 21
3.259567
  0
LINE
  8
0
 10
35.724915
 20
3.009567
 11
41.924927
 21
3.009567
  0
LINE
  8
0
 10
29.674927
 20
2.009567
 11
29.674927
 21
2.509567
  0
LINE
  8
0
  6
CENTER
 62
     2
 10
-31.783203
 20
-5.990433
 11
-21.599854
 21
-5.990433
  0
LINE
  8
0
 10
-30.075073
 20
-3.240402
 11
-30.075073
 21
-8.740432
  0
LINE
  8
0
 10
-29.829453
 20
-7.578140
 11
-28.075073
 21
-7.578140
  0
LINE
  8
0
 10
-29.829453
 20
-9.165862
 11
-28.075073
 21
-9.165862
  0
LINE
  8
0
 10
-30.075077
 20
-8.740494
 11
-29.829453
 21
-9.165928
  0
LINE
  8
0
 10
-28.075073
 20
-9.165862
 11
-28.075073
 21
-2.815002
  0
LINE
  8
0
 10
-28.075073
 20
-7.490433
 11
-26.875076
 21
-7.490433
  0
LINE
  8
0
 62
     2
 10
-28.075073
 20
-7.219925
 11
-26.875076
 21
-7.219925
  0
LINE
  8
0
 10
-26.875076
 20
-3.240448
 11
-26.875076
 21
-8.740432
  0
LINE
  8
0
 10
-26.629456
 20
-9.165862
 11
-25.320694
 21
-9.165862
  0
LINE
  8
0
 10
-26.875053
 20
-8.740498
 11
-26.629433
 21
-9.165925
  0
LINE
  8
0
 10
-26.629456
 20
-7.578140
 11
-25.320679
 21
-7.578140
  0
LINE
  8
0
 10
-25.075056
 20
-8.740454
 11
-25.320677
 21
-9.165881
  0
LINE
  8
0
 10
20.924927
 20
7.509553
 11
2.924927
 21
7.509553
  0
LINE
  8
0
 10
20.924927
 20
7.509553
 11
20.924927
 21
1.009567
  0
LINE
  8
0
 10
-41.075073
 20
-8.990432
 11
-41.075073
 21
12.509553
  0
LINE
  8
0
 10
-18.575073
 20
5.209564
 11
-18.575073
 21
1.509567
  0
LINE
  8
0
  6
CENTER
 62
     2
 10
-6.575073
 20
0.150528
 11
-6.575073
 21
-7.075455
  0
LINE
  8
0
 10
52.924927
 20
1.509567
 11
52.924927
 21
-9.490432
  0
LINE
  8
0
 10
33.924911
 20
12.509553
 11
-41.075058
 21
12.509553
  0
LINE
  8
0
 10
-47.075073
 20
12.009553
 11
-47.075073
 21
-8.990432
  0
LINE
  8
0
  6
CENTER
 62
     2
 10
22.983078
 20
4.259567
 11
17.861618
 21
4.259567
  0
LINE
  8
0
 10
41.924927
 20
3.009567
 11
41.924927
 21
6.009567
  0
LINE
  8
0
 10
34.170547
 20
1.334137
 11
35.479309
 21
1.334137
  0
LINE
  8
0
 10
33.924885
 20
1.759508
 11
34.170483
 21
1.334120
  0
LINE
  8
0
 10
35.724960
 20
1.759692
 11
35.479340
 21
1.334265
  0
LINE
  8
0
 10
2.924927
 20
7.509553
 11
2.924927
 21
1.009567
  0
LINE
  8
0
  6
CENTER
 62
     2
 10
45.424927
 20
0.150528
 11
45.424927
 21
-7.075455
  0
LINE
  8
0
 10
33.924911
 20
12.509553
 11
33.924911
 21
1.759583
  0
LINE
  8
0
 10
21.924927
 20
7.009553
 11
21.924927
 21
1.509567
  0
LINE
  8
0
 10
25.924911
 20
8.009553
 11
25.924911
 21
2.509567
  0
LINE
  8
0
 10
25.924911
 20
2.509567
 11
33.924911
 21
2.509567
  0
LINE
  8
0
 10
-19.075073
 20
2.509568
 11
-41.075058
 21
2.509568
  0
LINE
  8
0
 10
-17.825073
 20
5.209564
 11
-18.575073
 21
5.209564
  0
LINE
  8
0
 10
-25.075073
 20
1.509567
 11
2.924927
 21
1.509567
  0
LINE
  8
0
 10
35.580597
 20
1.509567
 11
52.924927
 21
1.509567
  0
LINE
  8
0
 10
20.924927
 20
1.509567
 11
34.069260
 21
1.509567
  0
LINE
  8
0
 10
-19.075073
 20
8.009553
 11
-19.075073
 21
2.509567
  0
LINE
  8
0
 10
-29.829453
 20
-4.402725
 11
-28.075073
 21
-4.402725
  0
LINE
  8
0
 10
-29.829453
 20
-2.815002
 11
-28.075073
 21
-2.815002
  0
LINE
  8
0
 10
-30.075064
 20
-3.240349
 11
-29.829443
 21
-2.814921
  0
LINE
  8
0
 10
-28.075073
 20
-4.490433
 11
-26.875076
 21
-4.490433
  0
LINE
  8
0
 62
     2
 10
-28.075073
 20
-4.760941
 11
-26.875076
 21
-4.760941
  0
LINE
  8
0
 10
-26.629456
 20
-2.815002
 11
-25.320694
 21
-2.815002
  0
LINE
  8
0
 10
-26.875029
 20
-3.240361
 11
-26.629412
 21
-2.814938
  0
LINE
  8
0
 10
-26.629456
 20
-4.402725
 11
-25.320679
 21
-4.402725
  0
LINE
  8
0
 10
-25.075085
 20
-3.240397
 11
-25.320705
 21
-2.814970
  0
LINE
  8
0
 10
33.924911
 20
11.009553
 11
-41.075058
 21
11.009553
  0
LINE
  8
0
 10
-41.075058
 20
10.509568
 11
-47.075058
 21
10.509568
  0
LINE
  8
0
 10
-41.075073
 20
0.009567
 11
-39.975082
 21
0.009567
  0
LINE
  8
0
  6
CENTER
 62
     2
 10
-44.063370
 20
-5.490433
 11
-38.805206
 21
-5.490433
  0
LINE
  8
0
 10
-39.975082
 20
-6.990433
 11
-39.975082
 21
0.009567
  0
LINE
  8
0
 10
-40.075073
 20
-8.240433
 11
-40.075073
 21
-2.740433
  0
LINE
  8
0
 10
-41.075073
 20
-8.240433
 11
-40.075073
 21
-8.240433
  0
LINE
  8
0
 10
-41.075073
 20
-2.740433
 11
-40.075073
 21
-2.740433
  0
LINE
  8
0
 10
-40.075073
 20
-6.990433
 11
-39.975082
 21
-6.990433
  0
LINE
  8
0
 10
46.424927
 20
5.209564
 11
41.924927
 21
5.209564
  0
LINE
  8
0
 10
46.424927
 20
5.209564
 11
46.424927
 21
1.509567
  0
LINE
  8
0
  6
CENTER
 62
     2
 10
-22.075073
 20
-6.990433
 11
-22.075073
 21
-11.990432
  0
LINE
  8
0
  6
CENTER
 62
     2
 10
49.924927
 20
-6.990433
 11
49.924927
 21
-11.990432
  0
LINE
  8
0
 10
127.786362
 20
102.258484
 11
127.786362
 21
102.833450
  0
LINE
  8
0
 10
122.286362
 20
102.258514
 11
122.286362
 21
102.833450
  0
LINE
  8
0
 10
125.486359
 20
102.258759
 11
125.486359
 21
102.833450
  0
LINE
  8
0
 10
130.986359
 20
102.258514
 11
130.986359
 21
102.833450
  0
LINE
  8
0
 10
125.961349
 20
100.158493
 11
125.961349
 21
101.783524
  0
LINE
  8
0
 10
121.811371
 20
100.158493
 11
121.811371
 21
101.783508
  0
LINE
  8
0
 10
127.311356
 20
100.183792
 11
127.311356
 21
101.783585
  0
LINE
  8
0
 10
131.461365
 20
100.183792
 11
131.461365
 21
101.783508
  0
LINE
  8
0
  6
CENTER
 62
     2
 10
132.313965
 20
100.158447
 11
120.969574
 21
100.158447
  0
LINE
  8
0
 10
127.786247
 20
102.258400
 11
127.311241
 21
101.783401
  0
LINE
  8
0
 10
130.986496
 20
102.258537
 11
131.461502
 21
101.783539
  0
LINE
  8
0
 10
125.486504
 20
102.258575
 11
125.961502
 21
101.783585
  0
LINE
  8
0
 10
122.286400
 20
102.258591
 11
121.811378
 21
101.783569
  0
LINE
  8
0
 10
121.636368
 20
94.633453
 11
121.636368
 21
89.133499
  0
LINE
  8
0
  6
CENTER
 62
     2
 10
107.698013
 20
85.133453
 11
136.199951
 21
85.133453
  0
LINE
  8
0
 10
131.286362
 20
103.133453
 11
132.136368
 21
103.133453
  0
LINE
  8
0
 10
112.136383
 20
103.133453
 11
119.636368
 21
103.133453
  0
LINE
  8
0
 10
112.136368
 20
67.133469
 11
122.136368
 21
67.133469
  0
LINE
  8
0
 10
125.786362
 20
103.133438
 11
127.486359
 21
103.133438
  0
LINE
  8
0
 10
117.936371
 20
81.633453
 11
122.636368
 21
81.633453
  0
LINE
  8
0
 10
117.936371
 20
88.633453
 11
122.636368
 21
88.633453
  0
LINE
  8
0
 10
117.936371
 20
88.633453
 11
117.936371
 21
81.633453
  0
LINE
  8
0
 10
114.636383
 20
93.633453
 11
121.136368
 21
93.633453
  0
LINE
  8
0
 10
121.136368
 20
93.633453
 11
121.136368
 21
88.633453
  0
LINE
  8
0
 10
121.136368
 20
103.133438
 11
121.986374
 21
103.133438
  0
LINE
  8
0
 10
122.636368
 20
89.133499
 11
122.636368
 21
81.633453
  0
LINE
  8
0
 10
114.636383
 20
94.133453
 11
114.636383
 21
76.133453
  0
LINE
  8
0
 10
117.048660
 20
68.383469
 11
120.224075
 21
68.383469
  0
LINE
  8
0
 10
117.048546
 20
68.383400
 11
115.460838
 21
71.133400
  0
LINE
  8
0
 10
120.224014
 20
68.383507
 11
121.811737
 21
71.133514
  0
LINE
  8
0
 10
117.048660
 20
73.883453
 11
120.224075
 21
73.883453
  0
LINE
  8
0
 10
117.048615
 20
73.883537
 11
115.460907
 21
71.133545
  0
LINE
  8
0
 10
120.223946
 20
73.883430
 11
121.811668
 21
71.133415
  0
LINE
  8
0
 10
114.636368
 20
76.633453
 11
121.136368
 21
76.633453
  0
LINE
  8
0
 10
121.136368
 20
76.633453
 11
121.136368
 21
81.633453
  0
LINE
  8
0
  6
CENTER
 62
     2
 10
129.386368
 20
97.466324
 11
129.386368
 21
104.467972
  0
LINE
  8
0
 10
110.636383
 20
101.633453
 11
110.636383
 21
94.433441
  0
LINE
  8
0
 10
120.636368
 20
102.633453
 11
120.636368
 21
94.633453
  0
LINE
  8
0
  6
CENTER
 62
     2
 10
123.886368
 20
97.466324
 11
123.886368
 21
104.467972
  0
LINE
  8
0
 10
122.136368
 20
67.133453
 11
132.136368
 21
67.133453
  0
LINE
  8
0
 10
119.636368
 20
103.133453
 11
119.636368
 21
94.133453
  0
LINE
  8
0
 10
121.636368
 20
81.633453
 11
121.636368
 21
75.133453
  0
LINE
  8
0
 10
121.636368
 20
89.133499
 11
122.636368
 21
89.133499
  0
LINE
  8
0
 10
112.136322
 20
67.133347
 11
110.636314
 21
68.633347
  0
LINE
  8
0
 10
110.636246
 20
101.633354
 11
112.136261
 21
103.133362
  0
LINE
  8
0
 10
132.636368
 20
102.633453
 11
132.636368
 21
98.433456
  0
LINE
  8
0
 10
132.636368
 20
89.833527
 11
132.636368
 21
80.433456
  0
LINE
  8
0
 10
132.336365
 20
72.133453
 11
132.336365
 21
80.133453
  0
LINE
  8
0
 10
132.336243
 20
72.133530
 11
132.636246
 21
71.833511
  0
LINE
  8
0
 10
132.336243
 20
80.133507
 11
132.636246
 21
80.433517
  0
LINE
  8
0
 10
132.636368
 20
71.833527
 11
132.636368
 21
67.633453
  0
LINE
  8
0
 10
132.336365
 20
98.133453
 11
132.336365
 21
90.133453
  0
LINE
  8
0
 10
132.336243
 20
98.133476
 11
132.636261
 21
98.433487
  0
LINE
  8
0
 10
132.336243
 20
90.133514
 11
132.636246
 21
89.833511
  0
LINE
  8
0
 10
120.636368
 20
94.633453
 11
121.636368
 21
94.633453
  0
LINE
  8
0
  6
CENTER
 62
     2
 10
126.636368
 20
105.739075
 11
126.636368
 21
64.113083
  0
LINE
  8
0
 10
114.636368
 20
76.133453
 11
120.636368
 21
76.133453
  0
LINE
  8
0
 10
114.636383
 20
94.133453
 11
119.636368
 21
94.133453
  0
LINE
  8
0
 10
110.936386
 20
94.133453
 11
110.936386
 21
76.133469
  0
LINE
  8
0
 10
110.936310
 20
94.133408
 11
110.636299
 21
94.433418
  0
LINE
  8
0
 10
110.636368
 20
75.833466
 11
110.636368
 21
68.633453
  0
LINE
  8
0
 10
110.936272
 20
76.133453
 11
110.636276
 21
75.833458
  0
LINE
  8
0
  6
CENTER
 62
     2
 10
113.648224
 20
71.133453
 11
123.326981
 21
71.133453
  0
LINE
  8
0
  6
CENTER
 62
     2
 10
118.636368
 20
75.825775
 11
118.636368
 21
66.250000
  0
LINE
  8
0
 10
122.136368
 20
75.133453
 11
122.136368
 21
67.133469
  0
LINE
  8
0
 10
120.636368
 20
75.133453
 11
122.136368
 21
75.133453
  0
LINE
  8
0
 10
120.636368
 20
67.133469
 11
120.636368
 21
69.097702
  0
LINE
  8
0
 10
120.636368
 20
73.169128
 11
120.636368
 21
76.133453
  0
LINE
  8
0
 10
117.166672
 20
71.433456
 11
120.106064
 21
71.433456
  0
LINE
  8
0
 10
117.166672
 20
70.833450
 11
120.106064
 21
70.833450
  0
LINE
  8
0
  6
CENTER
 62
     2
 10
122.136368
 20
92.633453
 11
131.136368
 21
92.633453
  0
LINE
  8
0
  6
CENTER
 62
     2
 10
122.136368
 20
77.633453
 11
131.136368
 21
77.633453
  0
LINE
  8
0
  6
CENTER
 62
     2
 10
108.136368
 20
98.133453
 11
113.136368
 21
98.133453
  0
LINE
  8
0
  6
CENTER
 62
     2
 10
108.136368
 20
72.133453
 11
113.136368
 21
72.133453
  0
LINE
  8
0
  6
CENTER
 62
     2
 10
-108.765884
 20
85.133453
 11
-135.489822
 21
85.133453
  0
LINE
  8
0
 10
-112.586533
 20
103.133453
 11
-132.586517
 21
103.133453
  0
LINE
  8
0
 10
-111.086533
 20
101.633453
 11
-111.086533
 21
94.433472
  0
LINE
  8
0
 10
-112.586472
 20
67.133453
 11
-132.586517
 21
67.133453
  0
LINE
  8
0
 10
-112.586479
 20
67.133438
 11
-111.086472
 21
68.633438
  0
LINE
  8
0
 10
-111.086433
 20
101.633438
 11
-112.586433
 21
103.133446
  0
LINE
  8
0
 10
-133.086517
 20
102.633453
 11
-133.086517
 21
98.433456
  0
LINE
  8
0
 10
-133.086517
 20
89.833527
 11
-133.086517
 21
80.433456
  0
LINE
  8
0
 10
-132.786514
 20
72.133453
 11
-132.786514
 21
80.133453
  0
LINE
  8
0
 10
-132.786484
 20
72.133530
 11
-133.086502
 21
71.833511
  0
LINE
  8
0
 10
-132.786499
 20
80.133499
 11
-133.086502
 21
80.433502
  0
LINE
  8
0
 10
-133.086517
 20
71.833527
 11
-133.086517
 21
67.633453
  0
LINE
  8
0
 10
-132.786514
 20
98.133453
 11
-132.786514
 21
90.133453
  0
LINE
  8
0
 10
-132.786484
 20
98.133484
 11
-133.086502
 21
98.433495
  0
LINE
  8
0
 10
-132.786499
 20
90.133507
 11
-133.086502
 21
89.833511
  0
LINE
  8
0
 10
-132.586517
 20
67.133469
 11
-132.586517
 21
103.133453
  0
LINE
  8
0
 10
-113.086464
 20
67.133446
 11
-111.586464
 21
68.633446
  0
LINE
  8
0
 10
-111.586418
 20
101.633438
 11
-113.086418
 21
103.133438
  0
LINE
  8
0
  6
CENTER
 62
     2
 10
-127.086517
 20
86.814423
 11
-127.086517
 21
98.251755
  0
LINE
  8
0
 10
-126.509171
 20
91.633453
 11
-127.663864
 21
91.633453
  0
LINE
  8
0
 10
-126.509171
 20
93.633453
 11
-127.663864
 21
93.633453
  0
LINE
  8
0
 10
-125.931824
 20
92.633514
 11
-126.509178
 21
91.633507
  0
LINE
  8
0
 10
-127.663872
 20
93.633514
 11
-128.241226
 21
92.633507
  0
LINE
  8
0
 10
-126.509201
 20
93.633469
 11
-125.931847
 21
92.633461
  0
LINE
  8
0
 10
-128.241257
 20
92.633461
 11
-127.663902
 21
91.633453
  0
LINE
  8
0
  6
CENTER
 62
     2
 10
-127.086517
 20
72.735260
 11
-127.086517
 21
82.455536
  0
LINE
  8
0
 10
-126.509171
 20
76.633453
 11
-127.663864
 21
76.633453
  0
LINE
  8
0
 10
-126.509171
 20
78.633453
 11
-127.663864
 21
78.633453
  0
LINE
  8
0
 10
-125.931831
 20
77.633499
 11
-126.509178
 21
76.633492
  0
LINE
  8
0
 10
-127.663879
 20
78.633499
 11
-128.241241
 21
77.633492
  0
LINE
  8
0
 10
-126.509209
 20
78.633469
 11
-125.931862
 21
77.633453
  0
LINE
  8
0
 10
-128.241257
 20
77.633461
 11
-127.663910
 21
76.633453
  0
LINE
  8
0
 10
-111.586533
 20
101.633514
 11
-111.586533
 21
68.633408
  0
LINE
  8
0
 10
-115.364822
 20
98.383453
 11
-116.808212
 21
98.383453
  0
LINE
  8
0
 10
-115.364822
 20
95.883453
 11
-116.808212
 21
95.883453
  0
LINE
  8
0
 10
-115.364853
 20
98.383430
 11
-114.643173
 21
97.133430
  0
LINE
  8
0
 10
-117.529922
 20
97.133430
 11
-116.808235
 21
95.883438
  0
LINE
  8
0
 10
-114.643173
 20
97.133484
 11
-115.364868
 21
95.883469
  0
LINE
  8
0
 10
-116.808228
 20
98.383476
 11
-117.529922
 21
97.133461
  0
LINE
  8
0
 10
-115.364822
 20
74.383453
 11
-116.808212
 21
74.383453
  0
LINE
  8
0
 10
-115.364822
 20
71.883453
 11
-116.808212
 21
71.883453
  0
LINE
  8
0
 10
-115.364861
 20
74.383446
 11
-114.643173
 21
73.133446
  0
LINE
  8
0
 10
-117.529930
 20
73.133446
 11
-116.808243
 21
71.883446
  0
LINE
  8
0
 10
-114.643181
 20
73.133484
 11
-115.364868
 21
71.883492
  0
LINE
  8
0
 10
-116.808243
 20
74.383484
 11
-117.529930
 21
73.133492
  0
LINE
  8
0
 10
-111.386536
 20
94.133469
 11
-111.386536
 21
76.133453
  0
LINE
  8
0
 10
-111.386528
 20
94.133461
 11
-111.086525
 21
94.433464
  0
LINE
  8
0
 10
-111.086517
 20
75.833450
 11
-111.086517
 21
68.633453
  0
LINE
  8
0
 10
-111.386520
 20
76.133476
 11
-111.086517
 21
75.833466
  0
LINE
  8
0
  6
CENTER
 62
     2
 10
-132.086517
 20
92.633453
 11
-122.086517
 21
92.633453
  0
LINE
  8
0
  6
CENTER
 62
     2
 10
-132.086517
 20
77.633453
 11
-122.086517
 21
77.633453
  0
LINE
  8
0
  6
CENTER
 62
     2
 10
-125.586517
 20
70.133453
 11
-120.586517
 21
70.133453
  0
LINE
  8
0
  6
CENTER
 62
     2
 10
-125.586517
 20
100.133453
 11
-120.586517
 21
100.133453
  0
LINE
  8
0
  6
CENTER
 62
     2
 10
-123.086517
 20
102.633453
 11
-123.086517
 21
97.633453
  0
LINE
  8
0
  6
CENTER
 62
     2
 10
-123.086517
 20
72.633453
 11
-123.086517
 21
67.633469
  0
LINE
  8
0
  6
CENTER
 62
     2
 10
-116.086517
 20
101.133453
 11
-116.086517
 21
93.133453
  0
LINE
  8
0
  6
CENTER
 62
     2
 10
-116.086517
 20
77.133453
 11
-116.086517
 21
69.133453
  0
LINE
  8
0
  6
CENTER
 62
     2
 10
-120.086517
 20
97.133453
 11
-112.086517
 21
97.133453
  0
LINE
  8
0
  6
CENTER
 62
     2
 10
-120.086517
 20
73.133453
 11
-112.086517
 21
73.133453
  0
LINE
  8
0
  6
PHANTOM
 62
     3
 10
44.764099
 20
39.821518
 11
44.764099
 21
-0.034882
  0
LINE
  8
0
  6
PHANTOM
 62
     3
 10
-35.075073
 20
-37.848877
 11
-35.075073
 21
-107.311981
  0
LINE
  8
0
  6
PHANTOM
 62
     3
 10
13.924927
 20
-37.848877
 11
13.924927
 21
-107.311981
  0
LINE
  8
0
  6
PHANTOM
 62
     3
 10
-35.075073
 20
39.821518
 11
0.424927
 21
39.821518
  0
LINE
  8
0
  6
PHANTOM
 62
     3
 10
0.424927
 20
139.861862
 11
0.424927
 21
39.821518
  0
LINE
  8
0
  6
PHANTOM
 62
     3
 10
44.764099
 20
-0.034882
 11
13.924927
 21
-0.034882
  0
LINE
  8
0
  6
PHANTOM
 62
     3
 10
44.764099
 20
132.473480
 11
44.764099
 21
39.821518
  0
LINE
  8
0
  6
PHANTOM
 62
     3
 10
-35.075073
 20
39.821518
 11
-35.075073
 21
-37.848877
  0
LINE
  8
0
  6
PHANTOM
 62
     3
 10
13.924927
 20
-0.034882
 11
13.924927
 21
-37.848877
  0
LINE
  8
0
 10
-161.250000
 20
-135.000000
 11
-161.250000
 21
-185.000000
  0
LINE
  8
0
 10
-176.250000
 20
-135.000000
 11
-176.250000
 21
-185.000000
  0
LINE
  8
0
 10
-191.250000
 20
-135.000000
 11
-191.250000
 21
-185.000000
  0
LINE
  8
0
 10
-206.250000
 20
-135.000000
 11
-206.250000
 21
-185.000000
  0
LINE
  8
0
 10
-221.250000
 20
-135.000000
 11
-221.250000
 21
-185.000000
  0
LINE
  8
0
 10
-236.250000
 20
-164.999969
 11
-239.776535
 21
-144.999969
  0
LINE
  8
0
 10
-236.250000
 20
-135.000000
 11
-236.250000
 21
-185.000000
  0
LINE
  8
0
 10
-271.250000
 20
-135.000000
 11
-161.250000
 21
-135.000000
  0
LINE
  8
0
 10
-271.250000
 20
-145.000000
 11
-239.776535
 21
-145.000000
  0
LINE
  8
0
 10
-271.250000
 20
-165.000000
 11
-161.250000
 21
-165.000000
  0
LINE
  8
0
 10
-271.250000
 20
-175.000000
 11
-161.250000
 21
-175.000000
  0
LINE
  8
0
 10
-271.250000
 20
-135.000000
 11
-271.250000
 21
-185.000000
  0
LINE
  8
0
 10
-271.250000
 20
-185.000000
 11
-161.250000
 21
-185.000000
  0
LINE
  8
0
 10
-161.250000
 20
195.500000
 11
-161.250000
 21
175.500000
  0
LINE
  8
0
 10
162.099976
 20
195.500000
 11
162.099976
 21
175.500000
  0
LINE
  8
0
 10
-281.250000
 20
175.500000
 11
-161.250000
 21
175.500000
  0
LINE
  8
0
 10
162.099976
 20
175.500000
 11
282.099854
 21
175.500000
  0
LINE
  8
0
 10
162.099976
 20
-175.000000
 11
282.099854
 21
-175.000000
  0
LINE
  8
0
 10
162.099976
 20
-175.000000
 11
162.099976
 21
-195.000000
  0
LINE
  8
0
 10
-281.250000
 20
-195.000000
 11
282.099854
 21
-195.000000
  0
LINE
  8
0
 10
282.099854
 20
195.500000
 11
282.099854
 21
-195.000000
  0
LINE
  8
0
 10
-281.250000
 20
195.500000
 11
-281.250000
 21
-195.000000
  0
LINE
  8
0
 10
-281.250000
 20
195.500000
 11
282.099854
 21
195.500000
  0
CIRCLE
  8
0
 10
49.924927
 20
85.133469
 40
1.650000
  0
ARC
  8
0
 10
39.179321
 20
71.133469
 40
5.254381
 50
162.412109
 51
197.587891
  0
ARC
  8
0
 10
35.330643
 20
68.751892
 40
1.405699
 50
145.615799
 51
205.615570
  0
ARC
  8
0
 10
30.470581
 20
71.133469
 40
5.254381
 50
342.412109
 51
17.587887
  0
ARC
  8
0
 10
34.319260
 20
68.751892
 40
1.405699
 50
334.384430
 51
34.384209
  0
ARC
  8
0
 10
34.319260
 20
73.515045
 40
1.405699
 50
325.615784
 51
25.615572
  0
ARC
  8
0
 10
35.330643
 20
73.515045
 40
1.405702
 50
154.384140
 51
214.384201
  0
CIRCLE
  8
0
 62
     2
 10
-27.075073
 20
98.133469
 40
1.500000
  0
CIRCLE
  8
0
 10
-32.075073
 20
85.133469
 40
5.000000
  0
CIRCLE
  8
0
 10
-27.075073
 20
98.133469
 40
1.250000
  0
CIRCLE
  8
0
 62
     2
 10
-7.075073
 20
98.133469
 40
1.500000
  0
CIRCLE
  8
0
 10
-7.075073
 20
98.133469
 40
1.250000
  0
CIRCLE
  8
0
 62
     2
 10
7.924927
 20
98.133469
 40
1.500000
  0
CIRCLE
  8
0
 10
7.924927
 20
98.133469
 40
1.250000
  0
CIRCLE
  8
0
 62
     2
 10
-27.075073
 20
72.133469
 40
1.500000
  0
CIRCLE
  8
0
 10
-27.075073
 20
72.133469
 40
1.250000
  0
CIRCLE
  8
0
 62
     2
 10
-7.075073
 20
72.133469
 40
1.500000
  0
CIRCLE
  8
0
 10
-7.075073
 20
72.133469
 40
1.250000
  0
CIRCLE
  8
0
 62
     2
 10
7.924927
 20
72.133469
 40
1.500000
  0
CIRCLE
  8
0
 10
7.924927
 20
72.133469
 40
1.250000
  0
CIRCLE
  8
0
 10
-22.075073
 20
85.133469
 40
1.500000
  0
ARC
  8
0
 10
-8.075073
 20
85.133469
 40
1.500000
 50
90.000000
 51
270.000000
  0
ARC
  8
0
 10
-6.075073
 20
85.133469
 40
1.500000
 50
270.000031
 51
89.999985
  0
CIRCLE
  8
0
 62
     2
 10
-22.075073
 20
-84.207321
 40
2.000000
  0
ARC
  8
0
 10
-22.903580
 20
-68.332321
 40
3.971487
 50
159.743835
 51
200.256180
  0
ARC
  8
0
 10
-29.046555
 20
-68.332321
 40
3.971487
 50
339.743835
 51
20.256172
  0
ARC
  8
0
 10
-26.103577
 20
-68.332321
 40
3.971488
 50
159.743851
 51
200.256149
  0
ARC
  8
0
 10
-22.903580
 20
-71.082321
 40
3.971485
 50
159.743820
 51
200.256165
  0
ARC
  8
0
 10
-29.046555
 20
-71.082321
 40
3.971485
 50
339.743835
 51
20.256163
  0
ARC
  8
0
 10
-26.103577
 20
-71.082321
 40
3.971488
 50
159.743851
 51
200.256149
  0
CIRCLE
  8
0
 62
     2
 10
49.924927
 20
-84.207321
 40
2.000000
  0
CIRCLE
  8
0
 10
49.924927
 20
-84.207321
 40
1.650000
  0
CIRCLE
  8
0
 10
-22.075073
 20
-84.207321
 40
1.650000
  0
CIRCLE
  8
0
 10
-12.075073
 20
-84.207321
 40
1.500000
  0
ARC
  8
0
 10
38.924927
 20
-84.207321
 40
1.500000
 50
90.000000
 51
270.000000
  0
ARC
  8
0
 10
40.924927
 20
-84.207321
 40
1.500000
 50
270.000000
 51
90.000000
  0
ARC
  8
0
 10
-38.725082
 20
-3.490433
 40
2.000000
 50
331.044983
 51
28.955015
  0
ARC
  8
0
 10
39.179306
 20
4.509567
 40
5.254380
 50
162.412125
 51
197.587860
  0
ARC
  8
0
 10
35.330627
 20
2.127991
 40
1.405701
 50
145.615677
 51
214.384109
  0
ARC
  8
0
 10
30.470566
 20
4.509567
 40
5.254381
 50
342.412079
 51
17.587887
  0
ARC
  8
0
 10
34.319244
 20
2.127991
 40
1.405701
 50
334.384308
 51
34.384319
  0
ARC
  8
0
 10
34.319244
 20
6.891129
 40
1.405701
 50
325.615692
 51
25.615713
  0
ARC
  8
0
 10
35.330627
 20
6.891129
 40
1.405701
 50
154.384293
 51
214.384323
  0
ARC
  8
0
 10
-24.820694
 20
-5.990433
 40
5.254380
 50
162.412125
 51
197.587921
  0
ARC
  8
0
 10
-28.669373
 20
-8.372009
 40
1.405702
 50
145.615723
 51
205.615677
  0
ARC
  8
0
 10
-21.620697
 20
-5.990433
 40
5.254380
 50
162.412125
 51
197.587921
  0
ARC
  8
0
 10
-25.469376
 20
-8.372009
 40
1.405702
 50
145.615723
 51
205.615677
  0
ARC
  8
0
 10
-30.329437
 20
-5.990433
 40
5.254380
 50
342.412079
 51
17.587887
  0
ARC
  8
0
 10
-26.480759
 20
-8.372009
 40
1.405702
 50
334.384308
 51
34.384277
  0
CIRCLE
  8
0
 62
     2
 10
-6.575073
 20
-3.490433
 40
2.500000
  0
CIRCLE
  8
0
 10
-6.575073
 20
-3.490433
 40
2.100000
  0
CIRCLE
  8
0
 62
     2
 10
45.424927
 20
-3.490433
 40
2.500000
  0
CIRCLE
  8
0
 10
45.424927
 20
-3.490433
 40
2.100000
  0
ARC
  8
0
 10
-28.669373
 20
-3.608856
 40
1.405702
 50
154.384308
 51
214.384277
  0
ARC
  8
0
 10
-25.469376
 20
-3.608856
 40
1.405702
 50
154.384308
 51
214.384277
  0
ARC
  8
0
 10
-26.480759
 20
-3.608856
 40
1.405702
 50
325.615723
 51
25.615671
  0
ARC
  8
0
 10
129.386353
 20
100.158493
 40
2.074997
 50
180.000000
 51
359.999786
  0
ARC
  8
0
 10
123.886353
 20
100.158493
 40
2.074997
 50
180.000000
 51
359.999786
  0
ARC
  8
0
 10
132.136368
 20
102.633453
 40
0.500000
 50
0.000000
 51
90.000000
  0
ARC
  8
0
 10
127.486359
 20
102.833450
 40
0.300003
 50
0.000000
 51
90.000000
  0
ARC
  8
0
 10
125.786362
 20
102.833450
 40
0.300003
 50
90.000000
 51
180.000000
  0
ARC
  8
0
 10
131.286362
 20
102.833450
 40
0.300003
 50
90.000000
 51
180.000000
  0
CIRCLE
  8
0
 10
118.636368
 20
71.133453
 40
1.500000
  0
ARC
  8
0
 62
     2
 10
118.636368
 20
71.133453
 40
1.249997
 50
13.886712
 51
166.113281
  0
CIRCLE
  8
0
 10
118.636368
 20
71.133453
 40
2.750000
  0
ARC
  8
0
 10
121.986374
 20
102.833450
 40
0.300003
 50
0.000000
 51
90.000000
  0
ARC
  8
0
 10
121.136368
 20
102.633453
 40
0.500000
 50
90.000000
 51
180.000000
  0
ARC
  8
0
 10
132.136368
 20
67.633469
 40
0.500000
 50
270.000000
 51
0.000000
  0
CIRCLE
  8
0
 10
126.636368
 20
92.633453
 40
3.999995
  0
CIRCLE
  8
0
 10
126.636368
 20
77.633453
 40
3.999995
  0
ARC
  8
0
 62
     2
 10
118.636368
 20
71.133453
 40
1.249997
 50
193.886719
 51
346.113281
  0
ARC
  8
0
 10
-132.586517
 20
102.633453
 40
0.500000
 50
90.000000
 51
180.000000
  0
ARC
  8
0
 10
-132.586517
 20
67.633469
 40
0.500000
 50
180.000000
 51
270.000000
  0
CIRCLE
  8
0
 10
-127.086517
 20
92.633453
 40
2.250000
  0
CIRCLE
  8
0
 10
-127.086517
 20
92.633453
 40
2.000000
  0
CIRCLE
  8
0
 10
-127.086517
 20
77.633453
 40
2.250000
  0
CIRCLE
  8
0
 10
-127.086517
 20
77.633453
 40
2.000000
  0
CIRCLE
  8
0
 62
     2
 10
-123.086517
 20
100.133453
 40
1.500000
  0
CIRCLE
  8
0
 10
-123.086517
 20
100.133453
 40
1.250000
  0
CIRCLE
  8
0
 62
     2
 10
-123.086517
 20
70.133453
 40
1.500000
  0
CIRCLE
  8
0
 10
-123.086517
 20
70.133453
 40
1.250000
  0
CIRCLE
  8
0
 10
-116.086517
 20
73.133453
 40
3.250000
  0
CIRCLE
  8
0
 10
-116.086517
 20
97.133453
 40
3.250000
  0
CIRCLE
  8
0
 10
-116.086517
 20
97.133453
 40
2.750000
  0
CIRCLE
  8
0
 10
-116.086517
 20
97.133453
 40
2.403589
  0
CIRCLE
  8
0
 10
-116.086517
 20
73.133453
 40
2.750000
  0
CIRCLE
  8
0
 10
-116.086517
 20
73.133453
 40
2.403589
  0
CIRCLE
  8
0
 10
-127.086517
 20
77.633453
 40
3.500000
  0
CIRCLE
  8
0
 10
-127.086517
 20
77.633453
 40
4.000000
  0
CIRCLE
  8
0
 10
-127.086517
 20
92.633453
 40
3.500000
  0
CIRCLE
  8
0
 10
-127.086517
 20
92.633453
 40
4.000000
  0
TEXT
  8
0
 62
     3
 10
-31.467728
 20
141.811859
 40
4.500000
  1
STRETCH LINE A
 50
0.000000
 41
1.052632
 51
0.000000
  7
STANDARD
  0
TEXT
  8
0
 62
     3
 10
12.871445
 20
134.423477
 40
4.500000
  1
STRETCH LINE B
 50
0.000000
 41
1.052632
 51
0.000000
  7
STANDARD
  0
TEXT
  8
0
 10
196.250259
 20
180.830002
 40
6.300000
  1
Ver. 1.1
 50
0.000000
 41
1.052632
 51
0.000000
  7
STANDARD
  0
TEXT
  8
0
 10
-173.642654
 20
-183.050003
 40
4.500000
  1
40
 50
0.000000
 41
1.052632
 51
0.000000
  7
STANDARD
  0
TEXT
  8
0
 10
-188.642654
 20
-183.050003
 40
4.500000
  1
30
 50
0.000000
 41
1.052632
 51
0.000000
  7
STANDARD
  0
TEXT
  8
0
 10
-203.642654
 20
-183.050003
 40
4.500000
  1
20
 50
0.000000
 41
1.052632
 51
0.000000
  7
STANDARD
  0
TEXT
  8
0
 10
-218.642654
 20
-183.050003
 40
4.500000
  1
10
 50
0.000000
 41
1.052632
 51
0.000000
  7
STANDARD
  0
TEXT
  8
0
 10
-231.392654
 20
-183.050003
 40
4.500000
  1
0
 50
0.000000
 41
1.052632
 51
0.000000
  7
STANDARD
  0
TEXT
  8
0
 10
-218.642654
 20
-173.050003
 40
4.500000
  1
10
 50
0.000000
 41
1.052632
 51
0.000000
  7
STANDARD
  0
TEXT
  8
0
 10
-203.642654
 20
-173.050003
 40
4.500000
  1
20
 50
0.000000
 41
1.052632
 51
0.000000
  7
STANDARD
  0
TEXT
  8
0
 10
-188.642654
 20
-173.050003
 40
4.500000
  1
30
 50
0.000000
 41
1.052632
 51
0.000000
  7
STANDARD
  0
TEXT
  8
0
 10
-173.642654
 20
-173.050003
 40
4.500000
  1
40
 50
0.000000
 41
1.052632
 51
0.000000
  7
STANDARD
  0
TEXT
  8
0
 10
-231.392654
 20
-173.050003
 40
4.500000
  1
0
 50
0.000000
 41
1.052632
 51
0.000000
  7
STANDARD
  0
TEXT
  8
0
 10
-178.142654
 20
-133.050003
 40
4.500000
  1
（ｍｍ）
 50
0.000000
 41
0.833333
 51
0.000000
  7
STANDARD
  0
TEXT
  8
0
 10
-243.642654
 20
-133.050003
 40
4.500000
  1
STRETCH LIST
 50
0.000000
 41
1.052632
 51
0.000000
  7
STANDARD
  0
TEXT
  8
0
 10
-173.642654
 20
-153.050003
 40
4.500000
  1
50
 50
0.000000
 41
1.052632
 51
0.000000
  7
STANDARD
  0
TEXT
  8
0
 10
-188.642654
 20
-153.050003
 40
4.500000
  1
40
 50
0.000000
 41
1.052632
 51
0.000000
  7
STANDARD
  0
TEXT
  8
0
 10
-203.642654
 20
-153.050003
 40
4.500000
  1
30
 50
0.000000
 41
1.052632
 51
0.000000
  7
STANDARD
  0
TEXT
  8
0
 10
-218.642654
 20
-153.050003
 40
4.500000
  1
20
 50
0.000000
 41
1.052632
 51
0.000000
  7
STANDARD
  0
TEXT
  8
0
 10
-233.642654
 20
-153.050003
 40
4.500000
  1
10
 50
0.000000
 41
1.052632
 51
0.000000
  7
STANDARD
  0
TEXT
  8
0
 10
-270.892670
 20
-153.324997
 40
4.500000
  1
STRETCH
 50
0.000000
 41
1.052632
 51
0.000000
  7
STANDARD
  0
TEXT
  8
0
 10
-270.892670
 20
-160.074997
 40
4.500000
  1
  PLACE
 50
0.000000
 41
1.052632
 51
0.000000
  7
STANDARD
  0
TEXT
  8
0
 10
-267.642670
 20
-143.050003
 40
4.500000
  1
STROKE
 50
0.000000
 41
1.052632
 51
0.000000
  7
STANDARD
  0
TEXT
  8
0
 10
-256.392670
 20
-173.050003
 40
4.500000
  1
A
 50
0.000000
 41
1.052632
 51
0.000000
  7
STANDARD
  0
TEXT
  8
0
 10
-256.392670
 20
-183.050003
 40
4.500000
  1
B
 50
0.000000
 41
1.052632
 51
0.000000
  7
STANDARD
  0
TEXT
  8
0
 10
-270.049713
 20
155.830002
 40
6.300000
  1
MODEL:ARS6*ST(10)
 50
0.000000
 41
1.052632
 51
0.000000
  7
STANDARD
  0
TEXT
  8
0
 10
-253.399719
 20
180.830002
 40
6.300000
  1
ROD SLIDER
 50
0.000000
 41
1.052632
 51
0.000000
  7
STANDARD
  0
TEXT
  8
0
 10
167.564667
 20
-192.100006
 40
9.000000
  1
KOGANEI CORP.
 50
0.000000
 41
1.052632
 51
0.000000
  7
STANDARD
  0
ENDSEC
  0
EOF
