  0
SECTION
  2
HEADER
  0
ENDSEC
  0
SECTION
  2
TABLES
  0
TABLE
  2
LTYPE
 70
     4
  0
LTYPE
  2
CONTINUOUS
 70
    64
  3
Solid line
 72
    65
 73
     0
 40
0.000000
  0
LTYPE
  2
DASHED
 70
    64
  3
__ __ __ __ __ __ __ __ __ __ __ __ __ __ __
 72
    65
 73
     2
 40
3.500000
 49
2.000000
 49
-1.500000
  0
LTYPE
  2
CENTER
 70
    64
  3
____ _ ____ _ ____ _ ____ _ ____ _ ____ _ ____
 72
    65
 73
     4
 40
17.500000
 49
13.000000
 49
-1.500000
 49
1.500000
 49
-1.500000
  0
LTYPE
  2
PHANTOM
 70
    64
  3
_____ _ _ _____ _ _ _____ _ _ _____ _ _ ____  
 72
    65
 73
     6
 40
15.500000
 49
8.000000
 49
-1.500000
 49
1.500000
 49
-1.500000
 49
1.500000
 49
-1.500000
  0
LTYPE
  2
DASHED1
 70
    64
  3
__ __ __ __ __ __ __ __ __ __ __ __ __ __ __
 72
    65
 73
     2
 40
1.500000
 49
1.000000
 49
-0.500000
  0
LTYPE
  2
DASHED2
 70
    64
  3
__ __ __ __ __ __ __ __ __ __ __ __ __ __ __
 72
    65
 73
     2
 40
3.500000
 49
2.500000
 49
-1.000000
  0
LTYPE
  2
DASHED3
 70
    64
  3
__ __ __ __ __ __ __ __ __ __ __ __ __ __ __
 72
    65
 73
     2
 40
6.000000
 49
4.000000
 49
-2.000000
  0
LTYPE
  2
DASHED4
 70
    64
  3
__ __ __ __ __ __ __ __ __ __ __ __ __ __ __
 72
    65
 73
     2
 40
12.000000
 49
10.000000
 49
-2.000000
  0
LTYPE
  2
DASHED5
 70
    64
  3
__ __ __ __ __ __ __ __ __ __ __ __ __ __ __
 72
    65
 73
     2
 40
17.000000
 49
15.000000
 49
-2.000000
  0
LTYPE
  2
DASHED6
 70
    64
  3
__ __ __ __ __ __ __ __ __ __ __ __ __ __ __
 72
    65
 73
     2
 40
29.000000
 49
27.000000
 49
-2.000000
  0
LTYPE
  2
PHANTOM1
 70
    64
  3
_____ _ _ _____ _ _ _____ _ _ _____ _ _ ____  
 72
    65
 73
     6
 40
31.000000
 49
25.000000
 49
-1.500000
 49
1.000000
 49
-1.000000
 49
1.000000
 49
-1.500000
  0
LTYPE
  2
PHANTOM2
 70
    64
  3
_____ _ _ _____ _ _ _____ _ _ _____ _ _ ____  
 72
    65
 73
     6
 40
36.000000
 49
27.000000
 49
-1.500000
 49
2.500000
 49
-1.000000
 49
2.500000
 49
-1.500000
  0
LTYPE
  2
PHANTOM3
 70
    64
  3
_____ _ _ _____ _ _ _____ _ _ _____ _ _ ____  
 72
    65
 73
     6
 40
78.000000
 49
64.000000
 49
-2.000000
 49
4.000000
 49
-2.000000
 49
4.000000
 49
-2.000000
  0
LTYPE
  2
CENTER1
 70
    64
  3
____ _ ____ _ ____ _ ____ _ ____ _ ____ _ ____
 72
    65
 73
     4
 40
19.000000
 49
14.000000
 49
-1.000000
 49
3.000000
 49
-1.000000
  0
LTYPE
  2
CENTER2
 70
    64
  3
____ _ ____ _ ____ _ ____ _ ____ _ ____ _ ____
 72
    65
 73
     4
 40
28.500000
 49
25.000000
 49
-1.000000
 49
1.500000
 49
-1.000000
  0
LTYPE
  2
CENTER3
 70
    64
  3
____ _ ____ _ ____ _ ____ _ ____ _ ____ _ ____
 72
    65
 73
     4
 40
31.500000
 49
27.000000
 49
-1.000000
 49
2.500000
 49
-1.000000
  0
LTYPE
  2
CENTER4
 70
    64
  3
____ _ ____ _ ____ _ ____ _ ____ _ ____ _ ____
 72
    65
 73
     4
 40
50.000000
 49
45.000000
 49
-1.000000
 49
3.000000
 49
-1.000000
  0
LTYPE
  2
CENTER5
 70
    64
  3
____ _ ____ _ ____ _ ____ _ ____ _ ____ _ ____
 72
    65
 73
     4
 40
100.000000
 49
92.000000
 49
-2.000000
 49
4.000000
 49
-2.000000
  0
LTYPE
  2
SBK1
 70
    64
  3
______ _ _ _ ______ _ _ _ ______ _ _ _ _____  
 72
    65
 73
     8
 40
60.500000
 49
45.000000
 49
-2.000000
 49
2.500000
 49
-2.000000
 49
2.500000
 49
-2.000000
 49
2.500000
 49
-2.000000
  0
LTYPE
  2
SBK2
 70
    64
  3
______ _ _ _ ______ _ _ _ ______ _ _ _ _____  
 72
    65
 73
     8
 40
84.000000
 49
64.000000
 49
-2.000000
 49
4.000000
 49
-2.000000
 49
4.000000
 49
-2.000000
 49
4.000000
 49
-2.000000
  0
LTYPE
  2
STCH
 70
    64
  3
__ __ __ __ __ __ __ __ __ __ __ __ __ __ __
 72
    65
 73
     2
 40
3.000000
 49
1.000000
 49
-2.000000
  0
LTYPE
  2
MTCH
 70
    64
  3
_____ _ _ _____ _ _ _____ _ _ _____ _ _ ____  
 72
    65
 73
     6
 40
80.000000
 49
66.000000
 49
-2.000000
 49
4.000000
 49
-2.000000
 49
4.000000
 49
-2.000000
  0
ENDTAB
  0
TABLE
  2
LAYER
 70
     1
  0
LAYER
  2
0
 70
     0
 62
     7
  6
CONTINUOUS
  0
ENDTAB
  0
TABLE
  2
STYLE
 70
     1
  0
STYLE
  2
STANDARD
 70
     0
 40
0.000000
 41
1.000000
 50
0.000000
 71
     0
 42
0.200000
  3
txt
  4
BIGFONT
  0
ENDTAB
  0
TABLE
  2
VIEW
 70
     0
  0
ENDTAB
  0
ENDSEC
  0
SECTION
  2
BLOCKS
  0
ENDSEC
  0
SECTION
  2
ENTITIES
  0
LINE
  8
0
  6
CENTER
 62
     2
 10
212.877487
 20
-153.376205
 11
212.877487
 21
-140.555893
  0
LINE
  8
0
  6
CENTER
 62
     2
 10
162.877487
 20
-153.376205
 11
162.877487
 21
-140.555893
  0
LINE
  8
0
  6
CENTER
 62
     2
 10
112.877502
 20
-153.376205
 11
112.877502
 21
-140.555893
  0
LINE
  8
0
  6
CENTER
 62
     2
 10
106.493469
 20
-146.887222
 11
223.948868
 21
-146.887222
  0
LINE
  8
0
  6
CENTER
 62
     2
 10
86.374527
 20
-143.887238
 11
97.428711
 21
-143.887238
  0
LINE
  8
0
  6
CENTER
 62
     2
 10
91.877487
 20
-137.912323
 11
91.877487
 21
-149.733871
  0
LINE
  8
0
  6
PHANTOM
 62
     3
 10
96.702499
 20
-121.387238
 11
96.702499
 21
-163.910690
  0
LINE
  8
0
  6
PHANTOM
 62
     3
 10
96.702499
 20
-54.959961
 11
96.702499
 21
-106.387238
  0
LINE
  8
0
  6
PHANTOM
 62
     3
 10
87.127487
 20
-121.387238
 11
96.702499
 21
-121.387238
  0
LINE
  8
0
  6
PHANTOM
 62
     3
 10
87.127487
 20
-106.387238
 11
96.702499
 21
-106.387238
  0
LINE
  8
0
  6
PHANTOM
 62
     3
 10
137.877502
 20
-64.127594
 11
137.877502
 21
-163.910690
  0
LINE
  8
0
  6
PHANTOM
 62
     3
 10
187.877487
 20
-54.127609
 11
187.877487
 21
-163.910690
  0
LINE
  8
0
  6
PHANTOM
 62
     3
 10
87.127487
 20
-106.387238
 11
87.127487
 21
-121.387238
  0
LINE
  8
0
 10
79.877502
 20
-109.887238
 11
79.877502
 21
-117.887238
  0
LINE
  8
0
 10
78.877502
 20
-117.887238
 11
79.877502
 21
-117.887238
  0
LINE
  8
0
 10
78.877502
 20
-109.887238
 11
79.877502
 21
-109.887238
  0
LINE
  8
0
  6
CENTER
 62
     2
 10
162.877487
 20
-107.398270
 11
162.877487
 21
-120.218567
  0
LINE
  8
0
  6
CENTER
 62
     2
 10
162.877487
 20
-74.398270
 11
162.877487
 21
-87.218582
  0
LINE
  8
0
 10
221.877487
 20
-115.887253
 11
223.877502
 21
-115.887253
  0
LINE
  8
0
 10
221.877487
 20
-111.887238
 11
223.877502
 21
-111.887238
  0
LINE
  8
0
  6
CENTER
 62
     2
 10
222.877487
 20
-107.398270
 11
222.877487
 21
-120.218567
  0
LINE
  8
0
  6
CENTER
 62
     2
 10
122.877502
 20
-107.398270
 11
122.877502
 21
-120.218567
  0
LINE
  8
0
  6
CENTER
 62
     2
 10
212.877487
 20
-107.398270
 11
212.877487
 21
-120.218567
  0
LINE
  8
0
  6
CENTER
 62
     2
 10
112.877502
 20
-107.398270
 11
112.877502
 21
-120.218567
  0
LINE
  8
0
  6
CENTER
 62
     2
 10
112.877502
 20
-74.398270
 11
112.877502
 21
-87.218582
  0
LINE
  8
0
  6
CENTER
 62
     2
 10
212.877487
 20
-74.398270
 11
212.877487
 21
-87.218582
  0
LINE
  8
0
  6
CENTER
 62
     2
 10
106.493469
 20
-80.887253
 11
223.948868
 21
-80.887253
  0
LINE
  8
0
 10
97.877502
 20
-105.087311
 11
242.877502
 21
-105.087311
  0
LINE
  8
0
 10
97.877502
 20
-105.387314
 11
242.877502
 21
-105.387314
  0
LINE
  8
0
 10
97.877502
 20
-89.687149
 11
242.877502
 21
-89.687149
  0
LINE
  8
0
 10
97.877502
 20
-89.387161
 11
242.877502
 21
-89.387161
  0
LINE
  8
0
 10
97.877502
 20
-138.386993
 11
242.877502
 21
-138.386993
  0
LINE
  8
0
 10
97.877502
 20
-138.087006
 11
242.877502
 21
-138.087006
  0
LINE
  8
0
 10
97.877502
 20
-122.687027
 11
242.877502
 21
-122.687027
  0
LINE
  8
0
 10
97.877502
 20
-122.386993
 11
242.877502
 21
-122.386993
  0
LINE
  8
0
 10
242.877502
 20
-68.887238
 11
242.877502
 21
-158.887238
  0
LINE
  8
0
 10
66.877487
 20
-158.887238
 11
242.877502
 21
-158.887238
  0
LINE
  8
0
 10
66.877487
 20
-68.887238
 11
242.877502
 21
-68.887238
  0
LINE
  8
0
  6
CENTER
 62
     2
 10
58.613342
 20
-113.887238
 11
247.492371
 21
-113.887238
  0
LINE
  8
0
 10
93.877502
 20
-109.887238
 11
97.877495
 21
-109.887238
  0
LINE
  8
0
 10
93.877502
 20
-117.887238
 11
93.877502
 21
-109.887238
  0
LINE
  8
0
 10
94.234772
 20
-113.887238
 11
97.520248
 21
-113.887238
  0
LINE
  8
0
 10
93.877502
 20
-117.887238
 11
97.877495
 21
-117.887238
  0
LINE
  8
0
 10
93.377487
 20
-109.887238
 11
93.377487
 21
-117.887238
  0
LINE
  8
0
 10
89.877502
 20
-117.887238
 11
93.377487
 21
-117.887238
  0
LINE
  8
0
 10
89.877502
 20
-109.887238
 11
93.377487
 21
-109.887238
  0
LINE
  8
0
 10
93.377487
 20
-116.387238
 11
93.877502
 21
-116.387238
  0
LINE
  8
0
 10
93.377487
 20
-111.387238
 11
93.877502
 21
-111.387238
  0
LINE
  8
0
 10
90.234772
 20
-113.887238
 11
93.377487
 21
-113.887238
  0
LINE
  8
0
 10
89.877502
 20
-109.887238
 11
89.877502
 21
-117.887238
  0
LINE
  8
0
 10
84.777496
 20
-90.887238
 11
97.877495
 21
-90.887238
  0
LINE
  8
0
 10
84.777496
 20
-102.887238
 11
97.877495
 21
-102.887238
  0
LINE
  8
0
 10
83.877548
 20
-101.987206
 11
84.777565
 21
-102.887222
  0
LINE
  8
0
 10
83.877533
 20
-91.787285
 11
84.777527
 21
-90.887291
  0
LINE
  8
0
 10
80.877487
 20
-101.987228
 11
83.877502
 21
-101.987228
  0
LINE
  8
0
 10
80.877487
 20
-91.787231
 11
83.877502
 21
-91.787231
  0
LINE
  8
0
 10
78.877502
 20
-104.887238
 11
80.877487
 21
-104.887238
  0
LINE
  8
0
 10
78.877502
 20
-88.887238
 11
80.877487
 21
-88.887238
  0
LINE
  8
0
 10
80.877487
 20
-88.887238
 11
80.877487
 21
-104.887238
  0
LINE
  8
0
  6
CENTER
 62
     2
 10
58.613342
 20
-130.887238
 11
103.211166
 21
-130.887238
  0
LINE
  8
0
  6
CENTER
 62
     2
 10
58.613342
 20
-96.887222
 11
104.523514
 21
-96.887222
  0
LINE
  8
0
 10
97.877495
 20
-68.887238
 11
97.877495
 21
-158.887238
  0
LINE
  8
0
 10
78.877502
 20
-68.887238
 11
78.877502
 21
-158.887238
  0
LINE
  8
0
 10
66.877487
 20
-68.887238
 11
66.877487
 21
-158.887238
  0
LINE
  8
0
  6
CENTER
 62
     2
 10
86.374527
 20
-83.887238
 11
97.428711
 21
-83.887238
  0
LINE
  8
0
  6
CENTER
 62
     2
 10
91.877487
 20
-89.862152
 11
91.877487
 21
-78.040604
  0
LINE
  8
0
 10
84.777496
 20
-124.887238
 11
97.877495
 21
-124.887238
  0
LINE
  8
0
 10
84.777496
 20
-136.887222
 11
97.877495
 21
-136.887222
  0
LINE
  8
0
 10
83.877563
 20
-135.987137
 11
84.777557
 21
-136.887131
  0
LINE
  8
0
 10
83.877563
 20
-125.787277
 11
84.777565
 21
-124.887276
  0
LINE
  8
0
 10
80.877487
 20
-135.987228
 11
83.877502
 21
-135.987228
  0
LINE
  8
0
 10
80.877487
 20
-125.787216
 11
83.877502
 21
-125.787216
  0
LINE
  8
0
 10
78.877502
 20
-138.887238
 11
80.877487
 21
-138.887238
  0
LINE
  8
0
 10
78.877502
 20
-122.887238
 11
80.877487
 21
-122.887238
  0
LINE
  8
0
 10
80.877487
 20
-122.887238
 11
80.877487
 21
-138.887238
  0
LINE
  8
0
  6
CENTER
 62
     2
 10
-91.058044
 20
-143.887238
 11
-80.003868
 21
-143.887238
  0
LINE
  8
0
  6
CENTER
 62
     2
 10
-85.555084
 20
-137.912323
 11
-85.555084
 21
-149.733871
  0
LINE
  8
0
  6
CENTER
 62
     2
 10
-14.555084
 20
-153.376205
 11
-14.555084
 21
-140.555908
  0
LINE
  8
0
  6
CENTER
 62
     2
 10
-64.555084
 20
-153.376205
 11
-64.555084
 21
-140.555908
  0
LINE
  8
0
  6
CENTER
 62
     2
 10
-74.106590
 20
-146.887238
 11
-2.923828
 21
-146.887238
  0
LINE
  8
0
  6
PHANTOM
 62
     3
 10
-80.730087
 20
-121.387238
 11
-80.730087
 21
-163.910690
  0
LINE
  8
0
  6
PHANTOM
 62
     3
 10
-90.305084
 20
-121.387238
 11
-80.730087
 21
-121.387238
  0
LINE
  8
0
  6
PHANTOM
 62
     3
 10
-90.305084
 20
-106.387238
 11
-90.305084
 21
-121.387238
  0
LINE
  8
0
  6
PHANTOM
 62
     3
 10
-90.305084
 20
-106.387238
 11
-80.730087
 21
-106.387238
  0
LINE
  8
0
  6
PHANTOM
 62
     3
 10
-80.730087
 20
-54.959961
 11
-80.730087
 21
-106.387238
  0
LINE
  8
0
  6
CENTER
 62
     2
 10
-91.058044
 20
-83.887238
 11
-80.003868
 21
-83.887238
  0
LINE
  8
0
  6
CENTER
 62
     2
 10
-85.555084
 20
-89.862152
 11
-85.555084
 21
-78.040604
  0
LINE
  8
0
 10
-97.555069
 20
-109.887238
 11
-97.555069
 21
-117.887238
  0
LINE
  8
0
 10
-98.555069
 20
-117.887238
 11
-97.555069
 21
-117.887238
  0
LINE
  8
0
 10
-98.555069
 20
-109.887238
 11
-97.555069
 21
-109.887238
  0
LINE
  8
0
 10
-83.555069
 20
-109.887238
 11
-79.555084
 21
-109.887238
  0
LINE
  8
0
 10
-83.555069
 20
-117.887238
 11
-83.555069
 21
-109.887238
  0
LINE
  8
0
 10
-83.197815
 20
-113.887238
 11
-79.912331
 21
-113.887238
  0
LINE
  8
0
 10
-83.555069
 20
-117.887238
 11
-79.555084
 21
-117.887238
  0
LINE
  8
0
 10
-84.055084
 20
-109.887238
 11
-84.055084
 21
-117.887238
  0
LINE
  8
0
 10
-87.555069
 20
-117.887238
 11
-84.055084
 21
-117.887238
  0
LINE
  8
0
 10
-87.555069
 20
-109.887238
 11
-84.055084
 21
-109.887238
  0
LINE
  8
0
 10
-84.055084
 20
-116.387238
 11
-83.555069
 21
-116.387238
  0
LINE
  8
0
 10
-84.055084
 20
-111.387238
 11
-83.555069
 21
-111.387238
  0
LINE
  8
0
 10
-87.197800
 20
-113.887238
 11
-84.055084
 21
-113.887238
  0
LINE
  8
0
 10
-87.555069
 20
-109.887238
 11
-87.555069
 21
-117.887238
  0
LINE
  8
0
 10
-92.655075
 20
-90.887238
 11
-79.555084
 21
-90.887238
  0
LINE
  8
0
 10
-92.655075
 20
-102.887238
 11
-79.555084
 21
-102.887238
  0
LINE
  8
0
 10
-93.555016
 20
-101.987198
 11
-92.655014
 21
-102.887199
  0
LINE
  8
0
 10
-93.555054
 20
-91.787254
 11
-92.655052
 21
-90.887253
  0
LINE
  8
0
 10
-96.555084
 20
-101.987228
 11
-93.555069
 21
-101.987228
  0
LINE
  8
0
 10
-96.555084
 20
-91.787231
 11
-93.555069
 21
-91.787231
  0
LINE
  8
0
 10
-98.555069
 20
-104.887238
 11
-96.555084
 21
-104.887238
  0
LINE
  8
0
 10
-98.555069
 20
-88.887238
 11
-96.555084
 21
-88.887238
  0
LINE
  8
0
 10
-96.555084
 20
-88.887238
 11
-96.555084
 21
-104.887238
  0
LINE
  8
0
  6
CENTER
 62
     2
 10
-119.379105
 20
-130.887238
 11
-74.221413
 21
-130.887238
  0
LINE
  8
0
  6
CENTER
 62
     2
 10
-118.819229
 20
-96.887222
 11
-72.909065
 21
-96.887222
  0
LINE
  8
0
 10
-79.555084
 20
-68.887238
 11
-79.555084
 21
-158.887238
  0
LINE
  8
0
 10
-98.555069
 20
-68.887238
 11
-98.555069
 21
-158.887238
  0
LINE
  8
0
 10
-110.555084
 20
-68.887238
 11
-110.555084
 21
-158.887238
  0
LINE
  8
0
  6
CENTER
 62
     2
 10
-119.930756
 20
-113.887238
 11
23.367950
 21
-113.887238
  0
LINE
  8
0
 10
-92.655075
 20
-124.887238
 11
-79.555084
 21
-124.887238
  0
LINE
  8
0
 10
-92.655075
 20
-136.887222
 11
-79.555084
 21
-136.887222
  0
LINE
  8
0
 10
-93.555016
 20
-135.987122
 11
-92.655006
 21
-136.887131
  0
LINE
  8
0
 10
-93.555046
 20
-125.787254
 11
-92.655045
 21
-124.887253
  0
LINE
  8
0
 10
-96.555084
 20
-135.987228
 11
-93.555069
 21
-135.987228
  0
LINE
  8
0
 10
-96.555084
 20
-125.787216
 11
-93.555069
 21
-125.787216
  0
LINE
  8
0
 10
-98.555069
 20
-138.887238
 11
-96.555084
 21
-138.887238
  0
LINE
  8
0
 10
-98.555069
 20
-122.887238
 11
-96.555084
 21
-122.887238
  0
LINE
  8
0
 10
-96.555084
 20
-122.887238
 11
-96.555084
 21
-138.887238
  0
LINE
  8
0
  6
PHANTOM
 62
     3
 10
-39.555084
 20
-64.127594
 11
-39.555084
 21
-163.910690
  0
LINE
  8
0
 10
-5.555099
 20
-115.887238
 11
-3.555084
 21
-115.887238
  0
LINE
  8
0
 10
-5.555099
 20
-111.887222
 11
-3.555084
 21
-111.887222
  0
LINE
  8
0
  6
CENTER
 62
     2
 10
-4.555084
 20
-107.398270
 11
-4.555084
 21
-120.218567
  0
LINE
  8
0
  6
CENTER
 62
     2
 10
-54.555084
 20
-107.398270
 11
-54.555084
 21
-120.218567
  0
LINE
  8
0
 10
16.198334
 20
-113.887238
 11
15.444916
 21
-113.887238
  0
LINE
  8
0
  6
CENTER
 62
     2
 10
-14.555084
 20
-107.398270
 11
-14.555084
 21
-120.218567
  0
LINE
  8
0
  6
CENTER
 62
     2
 10
-64.555084
 20
-107.398270
 11
-64.555084
 21
-120.218567
  0
LINE
  8
0
  6
CENTER
 62
     2
 10
-64.555084
 20
-74.398270
 11
-64.555084
 21
-87.218567
  0
LINE
  8
0
  6
CENTER
 62
     2
 10
-14.555084
 20
-74.398270
 11
-14.555084
 21
-87.218567
  0
LINE
  8
0
  6
CENTER
 62
     2
 10
-74.106590
 20
-80.887238
 11
-2.923828
 21
-80.887238
  0
LINE
  8
0
 10
-79.555084
 20
-105.087296
 11
15.444916
 21
-105.087296
  0
LINE
  8
0
 10
-79.555084
 20
-105.387314
 11
15.444916
 21
-105.387314
  0
LINE
  8
0
 10
-79.555084
 20
-89.687134
 11
15.444916
 21
-89.687134
  0
LINE
  8
0
 10
-79.555084
 20
-89.387146
 11
15.444916
 21
-89.387146
  0
LINE
  8
0
 10
-79.555084
 20
-138.386993
 11
15.444916
 21
-138.386993
  0
LINE
  8
0
 10
-79.555084
 20
-138.087006
 11
15.444916
 21
-138.087006
  0
LINE
  8
0
 10
-79.555084
 20
-122.687012
 11
15.444916
 21
-122.687012
  0
LINE
  8
0
 10
-79.555084
 20
-122.386993
 11
15.444916
 21
-122.386993
  0
LINE
  8
0
 10
15.444916
 20
-68.887238
 11
15.444916
 21
-158.887238
  0
LINE
  8
0
 10
-110.555084
 20
-158.887238
 11
15.444916
 21
-158.887238
  0
LINE
  8
0
 10
-110.555084
 20
-68.887238
 11
15.444916
 21
-68.887238
  0
LINE
  8
0
  6
PHANTOM
 62
     3
 10
-90.305099
 20
47.056381
 11
-90.305099
 21
-29.993706
  0
LINE
  8
0
  6
CENTER
 62
     2
 10
-14.555099
 20
-19.119675
 11
-14.555099
 21
-29.993706
  0
LINE
  8
0
  6
CENTER
 62
     2
 10
-64.555099
 20
-19.119675
 11
-64.555099
 21
-29.993706
  0
LINE
  8
0
 62
     2
 10
10.444916
 20
11.071304
 11
13.886398
 21
11.071304
  0
LINE
  8
0
 62
     2
 10
10.444916
 20
6.154297
 11
13.886398
 21
6.154297
  0
LINE
  8
0
  6
PHANTOM
 62
     3
 10
-23.055099
 20
-0.902191
 11
8.544907
 21
-0.902191
  0
LINE
  8
0
  6
PHANTOM
 62
     3
 10
8.544907
 20
-0.902191
 11
8.544907
 21
47.056381
  0
LINE
  8
0
  6
CENTER
 62
     3
 10
-23.055099
 20
-0.902191
 11
-23.055099
 21
-29.993706
  0
LINE
  8
0
 10
-98.555115
 20
-21.387238
 11
-97.555099
 21
-21.387238
  0
LINE
  8
0
 10
-97.555099
 20
-18.387238
 11
-97.555099
 21
-21.387238
  0
LINE
  8
0
 10
-98.555115
 20
10.612762
 11
0.444916
 21
10.612762
  0
LINE
  8
0
 10
-79.555099
 20
10.612762
 11
-79.555099
 21
-24.887238
  0
LINE
  8
0
 10
-93.555115
 20
-15.487244
 11
-93.555115
 21
-16.387238
  0
LINE
  8
0
 10
-93.555115
 20
-4.387253
 11
-93.555115
 21
-5.287247
  0
LINE
  8
0
 10
-3.555084
 20
10.612762
 11
-3.555084
 21
6.612762
  0
LINE
  8
0
 10
-38.555099
 20
10.612762
 11
-38.555099
 21
6.612762
  0
LINE
  8
0
 10
-43.555084
 20
10.612762
 11
-43.555084
 21
6.612762
  0
LINE
  8
0
 10
-78.555115
 20
10.612762
 11
-78.555115
 21
6.612762
  0
LINE
  8
0
 10
6.644913
 20
11.112762
 11
6.644913
 21
13.612808
  0
LINE
  8
0
 10
1.444909
 20
13.612779
 11
1.891495
 21
14.386290
  0
LINE
  8
0
 10
6.644913
 20
13.612807
 11
6.198334
 21
14.386304
  0
LINE
  8
0
 10
6.198318
 20
14.386307
 11
1.891479
 21
14.386307
  0
LINE
  8
0
 10
6.198318
 20
11.499557
 11
1.891495
 21
11.499557
  0
LINE
  8
0
  6
CENTER
 62
     2
 10
-100.747437
 20
-17.387238
 11
-95.297394
 21
-17.387238
  0
LINE
  8
0
 10
-93.555115
 20
-4.387253
 11
-79.555099
 21
-4.387253
  0
LINE
  8
0
 10
-93.555115
 20
-16.387238
 11
-79.555099
 21
-16.387238
  0
LINE
  8
0
 10
-98.555115
 20
-18.387238
 11
-96.555099
 21
-18.387238
  0
LINE
  8
0
 10
-98.555115
 20
-2.387238
 11
-96.555099
 21
-2.387238
  0
LINE
  8
0
 10
-96.555099
 20
-2.387238
 11
-96.555099
 21
-18.387238
  0
LINE
  8
0
  6
CENTER
 62
     2
 10
-88.462494
 20
-17.387238
 11
-78.395531
 21
-17.387238
  0
LINE
  8
0
 62
     2
 10
-84.055099
 20
-19.487244
 11
-83.555084
 21
-19.487244
  0
LINE
  8
0
 10
-84.055099
 20
-19.887238
 11
-83.555084
 21
-19.887238
  0
LINE
  8
0
 10
-87.555145
 20
-21.387276
 11
-87.197876
 21
-22.006079
  0
LINE
  8
0
 10
-87.197845
 20
-22.006058
 11
-84.055099
 21
-22.006058
  0
LINE
  8
0
 10
-87.197845
 20
-19.696640
 11
-84.055099
 21
-19.696640
  0
LINE
  8
0
 10
-84.055099
 20
-16.387238
 11
-84.055099
 21
-22.006058
  0
LINE
  8
0
 10
-87.555099
 20
-16.387238
 11
-87.555099
 21
-21.387238
  0
LINE
  8
0
 10
-79.555038
 20
-21.387278
 11
-79.912300
 21
-22.006069
  0
LINE
  8
0
 10
-83.197845
 20
-19.696640
 11
-79.912354
 21
-19.696640
  0
LINE
  8
0
 10
-83.555084
 20
-21.387238
 11
-83.555084
 21
-16.387238
  0
LINE
  8
0
 10
-83.555031
 20
-21.387217
 11
-83.197762
 21
-22.006016
  0
LINE
  8
0
 10
-83.197815
 20
-22.006058
 11
-79.912354
 21
-22.006058
  0
LINE
  8
0
 10
-98.555115
 20
30.112747
 11
0.444916
 21
30.112747
  0
LINE
  8
0
 10
-110.555099
 20
29.612762
 11
-98.555115
 21
29.612762
  0
LINE
  8
0
  6
CENTER
 62
     2
 10
-49.555084
 20
-3.929443
 11
-49.555084
 21
-17.222092
  0
LINE
  8
0
  6
CENTER
 62
     2
 10
3.444901
 20
-3.929443
 11
3.444901
 21
-17.222092
  0
LINE
  8
0
 10
10.444916
 20
5.612762
 11
15.444916
 21
5.612762
  0
LINE
  8
0
 10
-38.555099
 20
6.612762
 11
-3.555084
 21
6.612762
  0
LINE
  8
0
 10
-78.555115
 20
6.612762
 11
-43.555084
 21
6.612762
  0
LINE
  8
0
 10
13.344925
 20
11.112762
 11
13.344925
 21
11.612808
  0
LINE
  8
0
 10
13.845057
 20
11.112753
 11
14.444959
 21
10.512852
  0
LINE
  8
0
 10
0.444916
 20
11.112762
 11
10.444916
 21
11.112762
  0
LINE
  8
0
 10
-79.555099
 20
4.112762
 11
15.444916
 21
4.112762
  0
LINE
  8
0
 10
10.444916
 20
4.112762
 11
10.444916
 21
11.112762
  0
LINE
  8
0
 10
13.344925
 20
5.612808
 11
13.344925
 21
11.112762
  0
LINE
  8
0
 10
14.444901
 20
6.712753
 11
14.444901
 21
10.512802
  0
LINE
  8
0
 10
14.444952
 20
6.712788
 11
13.344941
 21
5.612779
  0
LINE
  8
0
 10
13.345014
 20
11.612797
 11
13.845057
 21
11.112753
  0
LINE
  8
0
 10
6.644913
 20
11.612808
 11
13.344925
 21
11.612808
  0
LINE
  8
0
 10
1.444901
 20
14.112808
 11
1.444901
 21
11.112762
  0
LINE
  8
0
 10
0.444916
 20
32.112762
 11
0.444916
 21
10.612762
  0
LINE
  8
0
  6
CENTER
 62
     2
 10
16.061996
 20
8.612808
 11
-1.803238
 21
8.612808
  0
LINE
  8
0
 10
1.444901
 20
14.112808
 11
0.444916
 21
14.112808
  0
LINE
  8
0
  6
CENTER
 62
     2
 10
-114.789474
 20
-10.387245
 11
20.252228
 21
-10.387245
  0
LINE
  8
0
 10
15.444916
 20
5.612762
 11
15.444916
 21
-24.887238
  0
LINE
  8
0
 10
-79.555099
 20
-24.887238
 11
15.444916
 21
-24.887238
  0
LINE
  8
0
 10
-96.555099
 20
-15.487244
 11
-93.555115
 21
-15.487244
  0
LINE
  8
0
 10
-96.555099
 20
-5.287247
 11
-93.555115
 21
-5.287247
  0
LINE
  8
0
 10
-110.555099
 20
31.612747
 11
-98.555115
 21
31.612747
  0
LINE
  8
0
 10
-110.555099
 20
31.612747
 11
-110.555099
 21
-22.887253
  0
LINE
  8
0
 10
-110.555099
 20
-22.887253
 11
-98.555115
 21
-22.887253
  0
LINE
  8
0
 10
-98.555115
 20
32.112762
 11
-98.555115
 21
-22.887253
  0
LINE
  8
0
 10
-98.555115
 20
32.112762
 11
0.444916
 21
32.112762
  0
LINE
  8
0
 10
120.499954
 20
102.794189
 11
120.499954
 21
99.999786
  0
LINE
  8
0
 10
118.886711
 20
99.999901
 11
121.773460
 21
104.999893
  0
LINE
  8
0
 10
110.226501
 20
104.999939
 11
113.113251
 21
109.999939
  0
LINE
  8
0
 10
121.773514
 20
105.000000
 11
118.886772
 21
109.999985
  0
LINE
  8
0
 10
113.113243
 20
99.999977
 11
110.226501
 21
104.999969
  0
LINE
  8
0
 10
117.563980
 20
98.999939
 11
121.999969
 21
98.999939
  0
LINE
  8
0
 10
113.113190
 20
99.999786
 11
120.499969
 21
99.999786
  0
LINE
  8
0
 10
116.999954
 20
92.999924
 11
116.999954
 21
99.999771
  0
LINE
  8
0
 10
109.999939
 20
92.999924
 11
116.999969
 21
92.999924
  0
LINE
  8
0
 10
113.999985
 20
69.999939
 11
114.290634
 21
69.999939
  0
LINE
  8
0
 10
113.499954
 20
70.499924
 11
113.499954
 21
81.499908
  0
LINE
  8
0
 10
113.999985
 20
81.999939
 11
114.290634
 21
81.999939
  0
LINE
  8
0
 10
120.499931
 20
69.999992
 11
120.999924
 21
70.499977
  0
LINE
  8
0
 10
116.709305
 20
69.999939
 11
120.499969
 21
69.999939
  0
LINE
  8
0
 10
120.499992
 20
81.999840
 11
121.000015
 21
81.499809
  0
LINE
  8
0
 10
116.709335
 20
81.999939
 11
120.999985
 21
81.999939
  0
LINE
  8
0
 10
120.999954
 20
81.999893
 11
120.999954
 21
68.999893
  0
LINE
  8
0
 10
92.499969
 20
92.499931
 11
92.999962
 21
92.999916
  0
LINE
  8
0
 10
92.499939
 20
92.499924
 11
92.499939
 21
61.999985
  0
LINE
  8
0
 10
107.999954
 20
61.999939
 11
107.999954
 21
89.499939
  0
LINE
  8
0
 10
107.999969
 20
89.499939
 11
117.999954
 21
89.499939
  0
LINE
  8
0
 10
108.499893
 20
62.499889
 11
107.999901
 21
62.999882
  0
LINE
  8
0
 10
117.999954
 20
62.499939
 11
117.999954
 21
69.999954
  0
LINE
  8
0
 10
108.499985
 20
62.499939
 11
117.999954
 21
62.499939
  0
LINE
  8
0
 10
108.500008
 20
89.499962
 11
108.000023
 21
88.999977
  0
LINE
  8
0
 10
117.999954
 20
89.499939
 11
117.999954
 21
81.999939
  0
LINE
  8
0
  6
CENTER
 62
     2
 10
86.442841
 20
75.999939
 11
127.053497
 21
75.999939
  0
LINE
  8
0
 10
109.999939
 20
119.999969
 11
109.999939
 21
89.499939
  0
LINE
  8
0
 10
92.499931
 20
61.999966
 11
94.499916
 21
59.999973
  0
LINE
  8
0
 10
108.000000
 20
61.999939
 11
114.000000
 21
61.999939
  0
LINE
  8
0
 10
113.999939
 20
61.999985
 11
113.999939
 21
59.999969
  0
LINE
  8
0
 10
94.499985
 20
59.999939
 11
148.799973
 21
59.999939
  0
LINE
  8
0
 10
120.499954
 20
60.999985
 11
120.499954
 21
68.999969
  0
LINE
  8
0
 10
120.500000
 20
68.999939
 11
120.999985
 21
68.999939
  0
LINE
  8
0
  6
CENTER
 62
     2
 10
119.637207
 20
87.999924
 11
152.251434
 21
87.999924
  0
LINE
  8
0
 10
149.199951
 20
96.199966
 11
149.199951
 21
80.799973
  0
LINE
  8
0
 10
118.999939
 20
96.000000
 11
118.999939
 21
81.999939
  0
LINE
  8
0
 10
149.499939
 20
80.499985
 11
149.499939
 21
60.699966
  0
LINE
  8
0
 10
149.200256
 20
80.800316
 11
149.500259
 21
80.500313
  0
LINE
  8
0
  6
CENTER
 62
     2
 10
134.999924
 20
147.220230
 11
134.999924
 21
52.561386
  0
LINE
  8
0
 10
92.500145
 20
117.500061
 11
93.000145
 21
117.000053
  0
LINE
  8
0
 10
117.563980
 20
110.999939
 11
121.999969
 21
110.999939
  0
LINE
  8
0
 10
120.499954
 20
110.000107
 11
120.499954
 21
107.205688
  0
LINE
  8
0
 10
113.113190
 20
110.000092
 11
120.499969
 21
110.000092
  0
LINE
  8
0
 10
116.999954
 20
116.999939
 11
116.999954
 21
110.000107
  0
LINE
  8
0
 10
109.999939
 20
116.999939
 11
116.999969
 21
116.999939
  0
LINE
  8
0
 10
92.999954
 20
116.999939
 11
92.999954
 21
92.999924
  0
LINE
  8
0
 10
108.499985
 20
120.499924
 11
117.999954
 21
120.499924
  0
LINE
  8
0
 10
117.999954
 20
147.499939
 11
117.999954
 21
139.999954
  0
LINE
  8
0
 10
108.499985
 20
147.499939
 11
117.999954
 21
147.499939
  0
LINE
  8
0
 10
113.999985
 20
139.999939
 11
114.290634
 21
139.999939
  0
LINE
  8
0
 10
113.499954
 20
139.499939
 11
113.499954
 21
128.499954
  0
LINE
  8
0
 10
117.999954
 20
120.499924
 11
117.999954
 21
127.999954
  0
LINE
  8
0
 10
107.999954
 20
119.999939
 11
107.999954
 21
147.999924
  0
LINE
  8
0
 10
113.999985
 20
127.999924
 11
114.290634
 21
127.999924
  0
LINE
  8
0
  6
CENTER
 62
     2
 10
86.873779
 20
133.999939
 11
127.368851
 21
133.999939
  0
LINE
  8
0
 10
120.499870
 20
139.999802
 11
120.999847
 21
139.499832
  0
LINE
  8
0
 10
116.709305
 20
139.999939
 11
120.499969
 21
139.999939
  0
LINE
  8
0
 10
120.500053
 20
127.999977
 11
121.000084
 21
128.500015
  0
LINE
  8
0
 10
108.499916
 20
120.499817
 11
107.999908
 21
120.999832
  0
LINE
  8
0
 10
108.500031
 20
147.499863
 11
108.000046
 21
146.999893
  0
LINE
  8
0
  6
CENTER
 62
     2
 10
115.999954
 20
112.739487
 11
115.999954
 21
97.745941
  0
LINE
  8
0
 10
126.999939
 20
144.500015
 11
126.999939
 21
149.999969
  0
LINE
  8
0
 10
142.999939
 20
144.499924
 11
142.999939
 21
149.999969
  0
LINE
  8
0
 10
133.599869
 20
140.574966
 11
133.599869
 21
140.799988
  0
LINE
  8
0
 10
134.074875
 20
138.500259
 11
134.074875
 21
140.099991
  0
LINE
  8
0
 10
134.075195
 20
140.100235
 11
133.600143
 21
140.575256
  0
LINE
  8
0
 10
129.924927
 20
140.099930
 11
130.399994
 21
140.575012
  0
LINE
  8
0
 10
129.924896
 20
138.474991
 11
129.924896
 21
140.125153
  0
LINE
  8
0
 10
130.399811
 20
141.099731
 11
126.999664
 21
144.499847
  0
LINE
  8
0
 10
130.399857
 20
140.575119
 11
130.399857
 21
141.099976
  0
LINE
  8
0
 10
139.599976
 20
140.575119
 11
139.599976
 21
141.099976
  0
LINE
  8
0
 10
140.075302
 20
140.100372
 11
139.600235
 21
140.575424
  0
LINE
  8
0
 10
139.599747
 20
141.099762
 11
142.999985
 21
144.499939
  0
LINE
  8
0
 10
140.074936
 20
138.474991
 11
140.074936
 21
140.125153
  0
LINE
  8
0
  6
CENTER
 62
     2
 10
137.999954
 20
135.757523
 11
137.999954
 21
143.335678
  0
LINE
  8
0
 10
135.924957
 20
138.500259
 11
135.924957
 21
140.099991
  0
LINE
  8
0
 10
135.925018
 20
140.099899
 11
136.400085
 21
140.574982
  0
LINE
  8
0
 10
136.399963
 20
140.575119
 11
136.399963
 21
140.799988
  0
LINE
  8
0
 10
136.099976
 20
141.099945
 11
133.899963
 21
141.099945
  0
LINE
  8
0
  6
CENTER
 62
     2
 10
131.999939
 20
135.757523
 11
131.999939
 21
143.464279
  0
LINE
  8
0
  6
CENTER
 62
     2
 10
141.246506
 20
138.474930
 11
128.936325
 21
138.474930
  0
LINE
  8
0
 10
108.000000
 20
119.999939
 11
110.000000
 21
119.999939
  0
LINE
  8
0
 10
92.500053
 20
147.999924
 11
94.500053
 21
149.999939
  0
LINE
  8
0
 10
108.000000
 20
147.999924
 11
114.000000
 21
147.999924
  0
LINE
  8
0
 10
94.499985
 20
149.999939
 11
148.799973
 21
149.999939
  0
LINE
  8
0
 10
113.999939
 20
149.999969
 11
113.999939
 21
147.999985
  0
LINE
  8
0
 10
92.499939
 20
147.999985
 11
92.499939
 21
117.499939
  0
LINE
  8
0
 10
120.499954
 20
148.999985
 11
120.499954
 21
140.999985
  0
LINE
  8
0
 10
120.500000
 20
140.999939
 11
120.999985
 21
140.999939
  0
LINE
  8
0
 10
116.709335
 20
127.999924
 11
120.999985
 21
127.999924
  0
LINE
  8
0
  6
CENTER
 62
     2
 10
81.510986
 20
104.999939
 11
160.471573
 21
104.999939
  0
LINE
  8
0
  6
CENTER
 62
     2
 10
119.637207
 20
121.999939
 11
152.251434
 21
121.999939
  0
LINE
  8
0
 10
149.199951
 20
113.800003
 11
149.199951
 21
129.199997
  0
LINE
  8
0
 10
118.999939
 20
113.999969
 11
118.999939
 21
127.999985
  0
LINE
  8
0
 10
119.000328
 20
114.000229
 11
122.000282
 21
111.000267
  0
LINE
  8
0
 10
149.499939
 20
129.499985
 11
149.499939
 21
149.299973
  0
LINE
  8
0
 10
149.199753
 20
113.799797
 11
149.499771
 21
113.499771
  0
LINE
  8
0
 10
149.200012
 20
129.200043
 11
149.500061
 21
129.500076
  0
LINE
  8
0
 10
120.999954
 20
127.999985
 11
120.999954
 21
140.999985
  0
LINE
  8
0
 10
119.000023
 20
95.999985
 11
122.000008
 21
98.999969
  0
LINE
  8
0
 10
149.199875
 20
96.200066
 11
149.499939
 21
96.500130
  0
LINE
  8
0
 10
121.999954
 20
110.999985
 11
121.999954
 21
98.999939
  0
LINE
  8
0
 10
149.499939
 20
113.499985
 11
149.499939
 21
96.500137
  0
LINE
  8
0
 10
118.973175
 20
104.599960
 11
113.026749
 21
104.599960
  0
LINE
  8
0
 10
118.973175
 20
105.399979
 11
113.026749
 21
105.399979
  0
LINE
  8
0
  6
CENTER
 62
     2
 10
-223.850479
 20
70.000000
 11
-191.277679
 21
70.000000
  0
LINE
  8
0
  6
CENTER
 62
     2
 10
-217.610184
 20
75.763977
 11
-217.610184
 21
63.314941
  0
LINE
  8
0
  6
CENTER
 62
     2
 10
-197.610184
 20
75.763977
 11
-197.610184
 21
63.314941
  0
LINE
  8
0
 10
-215.666763
 20
119.499931
 11
-214.223389
 21
121.999931
  0
LINE
  8
0
 10
-219.996933
 20
121.999954
 11
-218.553558
 21
124.499947
  0
LINE
  8
0
 10
-214.223495
 20
121.999992
 11
-215.666855
 21
124.499985
  0
LINE
  8
0
 10
-218.553589
 20
119.499977
 11
-219.996979
 21
121.999985
  0
LINE
  8
0
 10
-218.553574
 20
124.499985
 11
-215.666824
 21
124.499985
  0
LINE
  8
0
 10
-218.553574
 20
119.499985
 11
-215.666824
 21
119.499985
  0
LINE
  8
0
 10
-215.666733
 20
85.499954
 11
-214.223358
 21
87.999947
  0
LINE
  8
0
 10
-219.996902
 20
87.999954
 11
-218.553528
 21
90.499954
  0
LINE
  8
0
 10
-214.223511
 20
88.000000
 11
-215.666885
 21
90.500000
  0
LINE
  8
0
 10
-218.553589
 20
85.499977
 11
-219.996964
 21
87.999977
  0
LINE
  8
0
 10
-218.553574
 20
90.499969
 11
-215.666824
 21
90.499969
  0
LINE
  8
0
 10
-218.553574
 20
85.499969
 11
-215.666824
 21
85.499969
  0
LINE
  8
0
 10
-177.110184
 20
149.999954
 11
-175.110214
 21
147.999969
  0
LINE
  8
0
  6
CENTER
 62
     2
 10
-217.610184
 20
134.236023
 11
-217.610184
 21
146.685059
  0
LINE
  8
0
  6
CENTER
 62
     2
 10
-197.610184
 20
134.236023
 11
-197.610184
 21
146.685059
  0
LINE
  8
0
  6
CENTER
 62
     2
 10
-205.686966
 20
122.000000
 11
-228.205551
 21
122.000000
  0
LINE
  8
0
  6
CENTER
 62
     2
 10
-217.110199
 20
109.391861
 11
-217.110199
 21
133.518723
  0
LINE
  8
0
  6
CENTER
 62
     2
 10
-217.110199
 20
100.608139
 11
-217.110199
 21
76.481262
  0
LINE
  8
0
 10
-174.610199
 20
92.499939
 11
-174.610199
 21
62.000000
  0
LINE
  8
0
 10
-174.610199
 20
148.000031
 11
-174.610199
 21
117.499954
  0
LINE
  8
0
 10
-174.610275
 20
92.499962
 11
-175.110275
 21
92.999962
  0
LINE
  8
0
 10
-174.610428
 20
117.500153
 11
-175.110428
 21
117.000153
  0
LINE
  8
0
  6
CENTER
 62
     2
 10
-223.850479
 20
140.000000
 11
-191.277679
 21
140.000000
  0
LINE
  8
0
 10
-174.610046
 20
61.999908
 11
-176.610046
 21
59.999905
  0
LINE
  8
0
 10
-229.610107
 20
150.000000
 11
-229.610107
 21
60.000000
  0
LINE
  8
0
 10
-175.110031
 20
61.999844
 11
-177.110031
 21
59.999840
  0
LINE
  8
0
 10
-174.610153
 20
148.000000
 11
-176.610016
 21
149.999863
  0
LINE
  8
0
 10
-176.610184
 20
60.000000
 11
-230.910156
 21
60.000000
  0
LINE
  8
0
 10
-176.610184
 20
150.000000
 11
-230.910156
 21
150.000000
  0
LINE
  8
0
 10
-175.110184
 20
147.999985
 11
-175.110184
 21
62.000000
  0
LINE
  8
0
  6
CENTER
 62
     2
 10
-205.686966
 20
87.999985
 11
-228.205551
 21
87.999985
  0
LINE
  8
0
 10
-231.310043
 20
113.800003
 11
-231.310043
 21
129.200012
  0
LINE
  8
0
 10
-231.610092
 20
129.500000
 11
-231.610092
 21
149.300003
  0
LINE
  8
0
 10
-231.310272
 20
113.800133
 11
-231.610275
 21
113.500114
  0
LINE
  8
0
 10
-231.310089
 20
129.199966
 11
-231.610123
 21
129.499969
  0
LINE
  8
0
 10
-231.310043
 20
96.199982
 11
-231.310043
 21
80.799973
  0
LINE
  8
0
 10
-231.610092
 20
80.499985
 11
-231.610092
 21
60.699997
  0
LINE
  8
0
 10
-231.310196
 20
96.199966
 11
-231.610077
 21
96.499847
  0
LINE
  8
0
 10
-231.310486
 20
80.800224
 11
-231.610504
 21
80.500221
  0
LINE
  8
0
 10
-231.610092
 20
113.500000
 11
-231.610092
 21
96.499969
  0
LINE
  8
0
  6
CENTER
 62
     2
 10
-236.932129
 20
105.000000
 11
-168.577545
 21
105.000000
  0
LINE
  8
0
  6
CENTER
 62
     2
 10
-67.445618
 20
75.000000
 11
-33.423920
 21
75.000000
  0
LINE
  8
0
  6
CENTER
 62
     2
 10
-60.555099
 20
81.388397
 11
-60.555099
 21
69.533005
  0
LINE
  8
0
  6
CENTER
 62
     2
 10
-85.555099
 20
80.974915
 11
-85.555099
 21
69.153366
  0
LINE
  8
0
  6
CENTER
 62
     2
 10
-91.058060
 20
75.000000
 11
-80.003876
 21
75.000000
  0
LINE
  8
0
  6
CENTER
 62
     2
 10
-40.555099
 20
81.388397
 11
-40.555099
 21
69.533005
  0
LINE
  8
0
  6
PHANTOM
 62
     3
 10
-90.305099
 20
47.056381
 11
-47.555099
 21
47.056381
  0
LINE
  8
0
  6
PHANTOM
 62
     3
 10
-47.555099
 20
165.264084
 11
-47.555099
 21
47.056381
  0
LINE
  8
0
  6
CENTER
 62
     2
 10
-74.555092
 20
95.931335
 11
-74.555092
 21
114.541656
  0
LINE
  8
0
  6
PHANTOM
 62
     3
 10
8.544907
 20
100.000000
 11
23.444916
 21
100.000000
  0
LINE
  8
0
  6
PHANTOM
 62
     3
 10
23.444916
 20
110.000000
 11
23.444916
 21
100.000000
  0
LINE
  8
0
  6
PHANTOM
 62
     3
 10
8.544907
 20
110.000000
 11
23.444916
 21
110.000000
  0
LINE
  8
0
  6
PHANTOM
 62
     3
 10
8.544907
 20
157.875702
 11
8.544907
 21
110.000000
  0
LINE
  8
0
 10
0.444916
 20
70.000000
 11
10.444916
 21
70.000000
  0
LINE
  8
0
  6
PHANTOM
 62
     3
 10
8.544907
 20
47.056381
 11
8.544907
 21
100.000000
  0
LINE
  8
0
  6
CENTER
 62
     2
 10
-24.555084
 20
95.931335
 11
-24.555084
 21
114.541656
  0
LINE
  8
0
 10
13.344894
 20
105.400009
 11
13.344894
 21
108.000000
  0
LINE
  8
0
 10
14.444901
 20
105.400009
 11
14.444901
 21
106.899994
  0
LINE
  8
0
 10
12.444901
 20
104.600006
 11
12.444901
 21
105.400009
  0
LINE
  8
0
 10
12.444901
 20
104.600006
 11
14.444901
 21
104.600006
  0
LINE
  8
0
 10
12.444901
 20
105.400009
 11
14.444901
 21
105.400009
  0
LINE
  8
0
 10
1.444901
 20
95.999710
 11
15.444916
 21
95.999710
  0
LINE
  8
0
 10
1.444901
 20
114.000290
 11
15.444916
 21
114.000290
  0
LINE
  8
0
 10
1.444901
 20
99.000015
 11
15.444916
 21
99.000015
  0
LINE
  8
0
 10
1.444901
 20
111.000000
 11
15.444916
 21
111.000000
  0
LINE
  8
0
 10
15.444916
 20
150.000000
 11
15.444916
 21
60.000000
  0
LINE
  8
0
 10
10.444916
 20
70.000000
 11
10.444916
 21
82.000000
  0
LINE
  8
0
 10
10.444916
 20
140.000000
 11
10.444916
 21
128.000000
  0
LINE
  8
0
 10
15.444916
 20
69.000015
 11
0.444916
 21
69.000015
  0
LINE
  8
0
 10
15.444916
 20
82.000000
 11
0.444916
 21
82.000000
  0
LINE
  8
0
 10
0.444916
 20
140.000000
 11
10.444916
 21
140.000000
  0
LINE
  8
0
 10
15.444916
 20
141.000000
 11
0.444916
 21
141.000000
  0
LINE
  8
0
 10
15.444916
 20
128.000000
 11
0.444916
 21
128.000000
  0
LINE
  8
0
 10
-98.555115
 20
117.000046
 11
0.444916
 21
117.000046
  0
LINE
  8
0
 10
-98.555115
 20
117.500046
 11
0.444916
 21
117.500046
  0
LINE
  8
0
 10
14.444901
 20
103.099945
 11
14.444901
 21
104.600006
  0
LINE
  8
0
 10
13.344895
 20
108.000000
 11
14.444895
 21
106.899994
  0
LINE
  8
0
 10
14.444924
 20
103.099983
 11
13.344925
 21
101.999985
  0
LINE
  8
0
 10
13.344894
 20
102.000000
 11
13.344894
 21
104.600006
  0
LINE
  8
0
 10
6.644897
 20
110.000000
 11
1.444901
 21
110.000000
  0
LINE
  8
0
 10
6.644897
 20
100.000000
 11
6.644897
 21
110.000000
  0
LINE
  8
0
 10
6.198318
 20
105.000000
 11
1.891479
 21
105.000000
  0
LINE
  8
0
 10
6.644897
 20
100.000000
 11
1.444901
 21
100.000000
  0
LINE
  8
0
 62
     2
 10
6.644897
 20
102.541504
 11
13.886398
 21
102.541504
  0
LINE
  8
0
 10
6.644897
 20
102.000000
 11
13.344894
 21
102.000000
  0
LINE
  8
0
 62
     2
 10
6.644897
 20
107.458496
 11
13.886398
 21
107.458496
  0
LINE
  8
0
 10
6.644897
 20
108.000000
 11
13.344894
 21
108.000000
  0
LINE
  8
0
 10
-110.555099
 20
150.000000
 11
15.444916
 21
150.000000
  0
LINE
  8
0
 10
-110.555099
 20
148.000000
 11
0.444916
 21
148.000000
  0
LINE
  8
0
  6
CENTER
 62
     2
 10
-40.555099
 20
128.611603
 11
-40.555099
 21
140.466995
  0
LINE
  8
0
  6
CENTER
 62
     2
 10
-91.058060
 20
135.000000
 11
-80.003876
 21
135.000000
  0
LINE
  8
0
  6
CENTER
 62
     2
 10
-85.555099
 20
129.025085
 11
-85.555099
 21
140.846634
  0
LINE
  8
0
  6
CENTER
 62
     2
 10
-60.555099
 20
128.611603
 11
-60.555099
 21
140.466995
  0
LINE
  8
0
  6
CENTER
 62
     2
 10
-67.445618
 20
135.000000
 11
-33.423920
 21
135.000000
  0
LINE
  8
0
 10
-110.555099
 20
62.000000
 11
0.444916
 21
62.000000
  0
LINE
  8
0
 10
0.444916
 20
117.000046
 11
1.444901
 21
117.000046
  0
LINE
  8
0
 10
0.444916
 20
92.999954
 11
1.444901
 21
92.999954
  0
LINE
  8
0
 10
1.444901
 20
117.000046
 11
1.444901
 21
92.999954
  0
LINE
  8
0
 10
-98.555115
 20
92.499954
 11
0.444916
 21
92.499954
  0
LINE
  8
0
 10
-98.555115
 20
92.999954
 11
0.444916
 21
92.999954
  0
LINE
  8
0
 10
0.444916
 20
150.000000
 11
0.444916
 21
60.000000
  0
LINE
  8
0
 10
-61.555099
 20
107.000000
 11
-59.555099
 21
107.000000
  0
LINE
  8
0
 10
-98.555115
 20
60.000000
 11
-98.555115
 21
150.000000
  0
LINE
  8
0
  6
CENTER
 62
     2
 10
-117.907043
 20
105.000000
 11
24.293808
 21
105.000000
  0
LINE
  8
0
 10
-61.555099
 20
103.000000
 11
-59.555099
 21
103.000000
  0
LINE
  8
0
  6
CENTER
 62
     2
 10
-85.555099
 20
108.818329
 11
-85.555099
 21
99.971313
  0
LINE
  8
0
  6
CENTER
 62
     2
 10
-60.555099
 20
111.896301
 11
-60.555099
 21
97.813614
  0
LINE
  8
0
 10
-110.555099
 20
150.000000
 11
-110.555099
 21
60.000000
  0
LINE
  8
0
 10
-110.555099
 20
60.000000
 11
15.444916
 21
60.000000
  0
LINE
  8
0
 10
-271.250000
 20
-175.000000
 11
-131.250000
 21
-175.000000
  0
LINE
  8
0
 10
-271.250000
 20
-165.000000
 11
-131.250000
 21
-165.000000
  0
LINE
  8
0
 10
-131.250000
 20
-115.000000
 11
-131.250000
 21
-185.000000
  0
LINE
  8
0
 10
-146.250000
 20
-115.000000
 11
-146.250000
 21
-185.000000
  0
LINE
  8
0
 10
-161.250000
 20
-115.000000
 11
-161.250000
 21
-185.000000
  0
LINE
  8
0
 10
-176.250000
 20
-115.000000
 11
-176.250000
 21
-185.000000
  0
LINE
  8
0
 10
-191.250000
 20
-115.000000
 11
-191.250000
 21
-185.000000
  0
LINE
  8
0
 10
-206.250000
 20
-115.000000
 11
-206.250000
 21
-185.000000
  0
LINE
  8
0
 10
-221.250000
 20
-115.000000
 11
-221.250000
 21
-185.000000
  0
LINE
  8
0
 10
-236.250046
 20
-144.999985
 11
-239.776581
 21
-124.999985
  0
LINE
  8
0
 10
-236.250000
 20
-115.000000
 11
-236.250000
 21
-185.000000
  0
LINE
  8
0
 10
-271.250000
 20
-115.000000
 11
-131.250000
 21
-115.000000
  0
LINE
  8
0
 10
-271.250000
 20
-125.000000
 11
-239.776535
 21
-125.000000
  0
LINE
  8
0
 10
-271.250000
 20
-145.000000
 11
-131.250000
 21
-145.000000
  0
LINE
  8
0
 10
-271.250000
 20
-155.000000
 11
-131.250000
 21
-155.000000
  0
LINE
  8
0
 10
-271.250000
 20
-115.000000
 11
-271.250000
 21
-185.000000
  0
LINE
  8
0
 10
-271.250000
 20
-185.000000
 11
-131.250000
 21
-185.000000
  0
LINE
  8
0
 10
-161.250000
 20
195.500000
 11
-161.250000
 21
175.500000
  0
LINE
  8
0
 10
162.099976
 20
195.500000
 11
162.099976
 21
175.500000
  0
LINE
  8
0
 10
-281.250000
 20
175.500000
 11
-161.250000
 21
175.500000
  0
LINE
  8
0
 10
162.099976
 20
175.500000
 11
282.099854
 21
175.500000
  0
LINE
  8
0
 10
162.099976
 20
-175.000000
 11
282.099854
 21
-175.000000
  0
LINE
  8
0
 10
162.099976
 20
-175.000000
 11
162.099976
 21
-195.000000
  0
LINE
  8
0
 10
-281.250000
 20
-195.000000
 11
282.099854
 21
-195.000000
  0
LINE
  8
0
 10
282.099854
 20
195.500000
 11
282.099854
 21
-195.000000
  0
LINE
  8
0
 10
-281.250000
 20
195.500000
 11
-281.250000
 21
-195.000000
  0
LINE
  8
0
 10
-281.250000
 20
195.500000
 11
282.099854
 21
195.500000
  0
CIRCLE
  8
0
 10
212.877487
 20
-146.887222
 40
2.500000
  0
CIRCLE
  8
0
 62
     2
 10
212.877487
 20
-146.887222
 40
3.000000
  0
CIRCLE
  8
0
 62
     2
 10
162.877487
 20
-146.887222
 40
3.000000
  0
CIRCLE
  8
0
 10
162.877487
 20
-146.887222
 40
2.500000
  0
CIRCLE
  8
0
 62
     2
 10
112.877502
 20
-146.887222
 40
3.000000
  0
CIRCLE
  8
0
 10
112.877502
 20
-146.887222
 40
2.500000
  0
CIRCLE
  8
0
 62
     2
 10
91.877487
 20
-143.887238
 40
3.000000
  0
CIRCLE
  8
0
 10
91.877487
 20
-143.887238
 40
2.500000
  0
CIRCLE
  8
0
 10
212.877487
 20
-113.887238
 40
2.500000
  0
CIRCLE
  8
0
 10
162.877487
 20
-113.887238
 40
2.500000
  0
CIRCLE
  8
0
 10
112.877502
 20
-113.887238
 40
2.500000
  0
CIRCLE
  8
0
 10
91.877487
 20
-83.887238
 40
2.500000
  0
CIRCLE
  8
0
 10
112.877502
 20
-80.887253
 40
2.500000
  0
CIRCLE
  8
0
 10
162.877487
 20
-80.887253
 40
2.500000
  0
CIRCLE
  8
0
 10
212.877487
 20
-80.887253
 40
2.500000
  0
CIRCLE
  8
0
 62
     2
 10
212.877487
 20
-113.887238
 40
3.000000
  0
CIRCLE
  8
0
 62
     2
 10
162.877487
 20
-113.887238
 40
3.000000
  0
CIRCLE
  8
0
 62
     2
 10
112.877502
 20
-113.887238
 40
3.000000
  0
CIRCLE
  8
0
 62
     2
 10
91.877487
 20
-83.887238
 40
3.000000
  0
CIRCLE
  8
0
 62
     2
 10
112.877502
 20
-80.887253
 40
3.000000
  0
CIRCLE
  8
0
 62
     2
 10
162.877487
 20
-80.887253
 40
3.000000
  0
CIRCLE
  8
0
 62
     2
 10
212.877487
 20
-80.887253
 40
3.000000
  0
ARC
  8
0
 10
223.877502
 20
-113.887238
 40
2.000000
 50
270.000000
 51
90.000000
  0
ARC
  8
0
 10
221.877487
 20
-113.887238
 40
2.000000
 50
90.000000
 51
270.000000
  0
CIRCLE
  8
0
 10
122.877502
 20
-113.887238
 40
2.000001
  0
ARC
  8
0
 10
95.654190
 20
-111.887222
 40
5.776700
 50
159.743805
 51
200.256088
  0
ARC
  8
0
 10
95.654190
 20
-115.887238
 40
5.776702
 50
159.743744
 51
200.256088
  0
ARC
  8
0
 10
99.654190
 20
-115.887238
 40
5.776707
 50
159.743835
 51
200.256073
  0
ARC
  8
0
 10
99.654190
 20
-111.887222
 40
5.776707
 50
159.743835
 51
200.256088
  0
ARC
  8
0
 10
92.100784
 20
-111.887222
 40
5.776704
 50
339.743896
 51
20.256166
  0
ARC
  8
0
 10
92.100784
 20
-115.887238
 40
5.776704
 50
339.743896
 51
20.256166
  0
CIRCLE
  8
0
 62
     2
 10
-85.555084
 20
-143.887238
 40
3.000000
  0
CIRCLE
  8
0
 10
-85.555084
 20
-143.887238
 40
2.500000
  0
CIRCLE
  8
0
 62
     2
 10
-14.555084
 20
-146.887238
 40
3.000000
  0
CIRCLE
  8
0
 10
-14.555084
 20
-146.887238
 40
2.500000
  0
CIRCLE
  8
0
 62
     2
 10
-64.555084
 20
-146.887238
 40
3.000000
  0
CIRCLE
  8
0
 10
-64.555084
 20
-146.887238
 40
2.500000
  0
CIRCLE
  8
0
 10
-14.555084
 20
-113.887238
 40
2.500000
  0
CIRCLE
  8
0
 10
-64.555084
 20
-113.887238
 40
2.500000
  0
CIRCLE
  8
0
 10
-85.555084
 20
-83.887238
 40
2.500000
  0
CIRCLE
  8
0
 10
-64.555084
 20
-80.887238
 40
2.500000
  0
CIRCLE
  8
0
 10
-14.555084
 20
-80.887238
 40
2.500000
  0
CIRCLE
  8
0
 62
     2
 10
-14.555084
 20
-113.887238
 40
3.000000
  0
CIRCLE
  8
0
 62
     2
 10
-64.555084
 20
-113.887238
 40
3.000000
  0
CIRCLE
  8
0
 62
     2
 10
-85.555084
 20
-83.887238
 40
3.000000
  0
CIRCLE
  8
0
 62
     2
 10
-64.555084
 20
-80.887238
 40
3.000000
  0
CIRCLE
  8
0
 62
     2
 10
-14.555084
 20
-80.887238
 40
3.000000
  0
ARC
  8
0
 10
-81.778381
 20
-111.887222
 40
5.776700
 50
159.743805
 51
200.256088
  0
ARC
  8
0
 10
-81.778381
 20
-115.887238
 40
5.776702
 50
159.743744
 51
200.256088
  0
ARC
  8
0
 10
-77.778389
 20
-115.887238
 40
5.776707
 50
159.743835
 51
200.256073
  0
ARC
  8
0
 10
-77.778389
 20
-111.887222
 40
5.776707
 50
159.743835
 51
200.256088
  0
ARC
  8
0
 10
-85.331787
 20
-111.887222
 40
5.776704
 50
339.743896
 51
20.256166
  0
ARC
  8
0
 10
-85.331787
 20
-115.887238
 40
5.776704
 50
339.743896
 51
20.256166
  0
ARC
  8
0
 10
-3.555084
 20
-113.887238
 40
2.000000
 50
270.000031
 51
89.999977
  0
ARC
  8
0
 10
-5.555099
 20
-113.887238
 40
2.000000
 50
89.999985
 51
270.000000
  0
CIRCLE
  8
0
 10
-54.555084
 20
-113.887238
 40
2.000001
  0
ARC
  8
0
 10
-2.908508
 20
8.612793
 40
9.553423
 50
15.169861
 51
17.587902
  0
ARC
  8
0
 10
10.998322
 20
8.612808
 40
9.553423
 50
162.412003
 51
164.830170
  0
ARC
  8
0
 10
4.000717
 20
12.942932
 40
2.555820
 50
154.384125
 51
214.384171
  0
ARC
  8
0
 10
4.089096
 20
12.942932
 40
2.555819
 50
325.615692
 51
25.615734
  0
ARC
  8
0
 10
-85.510437
 20
-20.851349
 40
2.044659
 50
145.615753
 51
205.615585
  0
ARC
  8
0
 10
-79.912369
 20
-17.387238
 40
7.642730
 50
172.481674
 51
197.587921
  0
ARC
  8
0
 10
-81.599762
 20
-20.851349
 40
2.044657
 50
334.384369
 51
34.384209
  0
ARC
  8
0
 10
-87.197845
 20
-17.387238
 40
7.642741
 50
342.412109
 51
7.518290
  0
ARC
  8
0
 10
-75.912354
 20
-17.387238
 40
7.642738
 50
172.481674
 51
197.587860
  0
ARC
  8
0
 10
-81.510422
 20
-20.851349
 40
2.044659
 50
145.615753
 51
205.615585
  0
CIRCLE
  8
0
 62
     2
 10
-49.555084
 20
-10.387245
 40
2.500000
  0
CIRCLE
  8
0
 10
-49.555084
 20
-10.387245
 40
2.099999
  0
CIRCLE
  8
0
 10
3.444901
 20
-10.387245
 40
2.099999
  0
CIRCLE
  8
0
 62
     2
 10
3.444901
 20
-10.387245
 40
2.500000
  0
CIRCLE
  8
0
 10
135.000000
 20
87.999893
 40
13.250001
  0
CIRCLE
  8
0
 10
135.000000
 20
87.999893
 40
13.000000
  0
CIRCLE
  8
0
 10
135.000000
 20
121.999985
 40
13.250001
  0
CIRCLE
  8
0
 10
135.000000
 20
121.999985
 40
13.000000
  0
ARC
  8
0
 10
115.999985
 20
104.999954
 40
2.499999
 50
189.206223
 51
350.793762
  0
CIRCLE
  8
0
 10
115.999954
 20
104.999939
 40
5.000000
  0
ARC
  8
0
 10
115.499969
 20
82.599915
 40
1.350003
 50
206.389832
 51
333.613800
  0
ARC
  8
0
 10
115.499969
 20
69.399918
 40
1.350003
 50
26.389109
 51
153.612625
  0
ARC
  8
0
 10
121.500000
 20
60.999985
 40
1.000000
 50
180.000000
 51
270.000000
  0
ARC
  8
0
 10
148.799973
 20
60.699966
 40
0.700001
 50
270.000000
 51
0.000000
  0
ARC
  8
0
 10
115.999985
 20
104.999954
 40
2.500001
 50
9.207635
 51
170.792358
  0
CIRCLE
  8
0
 62
     2
 10
115.999985
 20
104.999954
 40
3.000000
  0
ARC
  8
0
 10
113.999985
 20
128.499954
 40
0.500000
 50
179.998245
 51
269.999115
  0
ARC
  8
0
 10
115.499969
 20
127.399948
 40
1.350003
 50
26.386213
 51
153.609879
  0
ARC
  8
0
 10
115.499969
 20
140.599945
 40
1.350000
 50
206.387375
 51
333.611176
  0
ARC
  8
0
 10
113.999985
 20
139.499939
 40
0.500000
 50
90.000000
 51
179.998245
  0
ARC
  8
0
 10
138.000000
 20
138.474991
 40
2.074997
 50
180.000000
 51
0.000000
  0
ARC
  8
0
 10
136.099976
 20
140.799988
 40
0.300003
 50
0.000000
 51
90.000000
  0
ARC
  8
0
 10
133.899963
 20
140.799988
 40
0.300003
 50
90.000000
 51
180.000000
  0
ARC
  8
0
 10
133.899963
 20
140.799988
 40
0.300003
 50
90.000000
 51
180.000000
  0
ARC
  8
0
 10
131.999939
 20
138.474991
 40
2.074997
 50
180.000000
 51
0.000000
  0
ARC
  8
0
 10
148.799973
 20
149.299973
 40
0.699997
 50
0.000000
 51
90.000000
  0
ARC
  8
0
 10
121.500000
 20
148.999985
 40
1.000000
 50
90.000000
 51
180.000000
  0
ARC
  8
0
 10
113.999985
 20
70.499924
 40
0.500000
 50
180.000870
 51
270.000000
  0
ARC
  8
0
 10
113.999985
 20
81.499908
 40
0.500000
 50
90.000877
 51
180.000870
  0
CIRCLE
  8
0
 62
     2
 10
-217.610184
 20
70.000000
 40
3.000000
  0
CIRCLE
  8
0
 62
     2
 10
-197.610184
 20
70.000000
 40
3.000000
  0
CIRCLE
  8
0
 10
-217.610184
 20
70.000000
 40
2.500000
  0
CIRCLE
  8
0
 10
-197.610184
 20
70.000000
 40
2.500000
  0
CIRCLE
  8
0
 10
-197.610184
 20
140.000000
 40
2.500000
  0
CIRCLE
  8
0
 10
-217.610184
 20
140.000000
 40
2.500000
  0
CIRCLE
  8
0
 62
     2
 10
-197.610184
 20
140.000000
 40
3.000000
  0
CIRCLE
  8
0
 62
     2
 10
-217.610184
 20
140.000000
 40
3.000000
  0
CIRCLE
  8
0
 10
-217.110199
 20
122.000000
 40
4.307179
  0
CIRCLE
  8
0
 10
-217.110199
 20
122.000000
 40
5.000000
  0
CIRCLE
  8
0
 10
-217.110199
 20
87.999985
 40
4.307179
  0
CIRCLE
  8
0
 10
-217.110199
 20
87.999985
 40
5.000000
  0
CIRCLE
  8
0
 10
-217.110199
 20
87.999985
 40
8.000000
  0
CIRCLE
  8
0
 10
-217.110199
 20
122.000000
 40
8.000000
  0
CIRCLE
  8
0
 10
-217.110199
 20
122.000000
 40
8.500000
  0
CIRCLE
  8
0
 10
-217.110199
 20
87.999985
 40
8.500000
  0
ARC
  8
0
 10
-230.910156
 20
149.300003
 40
0.699997
 50
90.000000
 51
180.000000
  0
ARC
  8
0
 10
-230.910156
 20
60.699997
 40
0.699997
 50
180.000000
 51
270.000000
  0
CIRCLE
  8
0
 62
     2
 10
-85.555099
 20
75.000000
 40
3.000000
  0
CIRCLE
  8
0
 62
     2
 10
-60.555099
 20
75.000000
 40
3.000000
  0
CIRCLE
  8
0
 62
     2
 10
-40.555099
 20
75.000000
 40
3.000000
  0
CIRCLE
  8
0
 10
-85.555099
 20
75.000000
 40
2.500000
  0
CIRCLE
  8
0
 10
-60.555099
 20
75.000000
 40
2.500000
  0
CIRCLE
  8
0
 10
-40.555099
 20
75.000000
 40
2.500000
  0
CIRCLE
  8
0
 10
-40.555099
 20
135.000000
 40
2.500000
  0
CIRCLE
  8
0
 10
-60.555099
 20
135.000000
 40
2.500000
  0
CIRCLE
  8
0
 10
-85.555099
 20
135.000000
 40
2.500000
  0
CIRCLE
  8
0
 62
     2
 10
-40.555099
 20
135.000000
 40
3.000000
  0
CIRCLE
  8
0
 62
     2
 10
-60.555099
 20
135.000000
 40
3.000000
  0
CIRCLE
  8
0
 62
     2
 10
-85.555099
 20
135.000000
 40
3.000000
  0
ARC
  8
0
 10
-0.575974
 20
107.500000
 40
7.220889
 50
339.743774
 51
20.256084
  0
ARC
  8
0
 10
8.665787
 20
107.500000
 40
7.220889
 50
159.743851
 51
200.256088
  0
ARC
  8
0
 10
8.665787
 20
102.500000
 40
7.220889
 50
159.743851
 51
200.256088
  0
ARC
  8
0
 10
-0.575974
 20
102.500000
 40
7.220889
 50
339.743835
 51
20.256090
  0
CIRCLE
  8
0
 10
-74.555092
 20
105.000000
 40
6.000000
  0
CIRCLE
  8
0
 10
-24.555084
 20
105.000000
 40
6.000000
  0
ARC
  8
0
 10
-61.555099
 20
105.000000
 40
2.000000
 50
90.000000
 51
270.000000
  0
CIRCLE
  8
0
 10
-85.555099
 20
105.000000
 40
2.000001
  0
ARC
  8
0
 10
-59.555099
 20
105.000000
 40
2.000000
 50
270.000000
 51
90.000000
  0
TEXT
  8
0
 10
-186.392654
 20
-183.050003
 40
4.500000
  1
-
 50
0.000000
 41
1.052632
 51
0.000000
  7
STANDARD
  0
TEXT
  8
0
 10
-201.392654
 20
-183.050003
 40
4.500000
  1
-
 50
0.000000
 41
1.052632
 51
0.000000
  7
STANDARD
  0
TEXT
  8
0
 10
-216.392654
 20
-183.050003
 40
4.500000
  1
-
 50
0.000000
 41
1.052632
 51
0.000000
  7
STANDARD
  0
TEXT
  8
0
 10
-231.392654
 20
-183.050003
 40
4.500000
  1
-
 50
0.000000
 41
1.052632
 51
0.000000
  7
STANDARD
  0
TEXT
  8
0
 10
-171.392654
 20
-183.050003
 40
4.500000
  1
-
 50
0.000000
 41
1.052632
 51
0.000000
  7
STANDARD
  0
TEXT
  8
0
 10
-143.642654
 20
-163.050003
 40
4.500000
  1
70
 50
0.000000
 41
1.052632
 51
0.000000
  7
STANDARD
  0
TEXT
  8
0
 10
-158.642654
 20
-163.050003
 40
4.500000
  1
50
 50
0.000000
 41
1.052632
 51
0.000000
  7
STANDARD
  0
TEXT
  8
0
 10
-173.642654
 20
-163.050003
 40
4.500000
  1
40
 50
0.000000
 41
1.052632
 51
0.000000
  7
STANDARD
  0
TEXT
  8
0
 10
-188.642654
 20
-163.050003
 40
4.500000
  1
30
 50
0.000000
 41
1.052632
 51
0.000000
  7
STANDARD
  0
TEXT
  8
0
 10
-203.642654
 20
-163.050003
 40
4.500000
  1
20
 50
0.000000
 41
1.052632
 51
0.000000
  7
STANDARD
  0
TEXT
  8
0
 10
-218.642654
 20
-163.050003
 40
4.500000
  1
10
 50
0.000000
 41
1.052632
 51
0.000000
  7
STANDARD
  0
TEXT
  8
0
 10
-231.392654
 20
-163.050003
 40
4.500000
  1
0
 50
0.000000
 41
1.052632
 51
0.000000
  7
STANDARD
  0
TEXT
  8
0
 62
     3
 10
105.984848
 20
-61.177593
 40
4.500000
  1
STRETCH LINE C
 50
0.000000
 41
1.052632
 51
0.000000
  7
STANDARD
  0
TEXT
  8
0
 62
     3
 10
55.234833
 20
-51.177593
 40
4.500000
  1
STRETCH LINE A
 50
0.000000
 41
1.052632
 51
0.000000
  7
STANDARD
  0
TEXT
  8
0
 10
-141.392654
 20
-183.050003
 40
4.500000
  1
5
 50
0.000000
 41
1.052632
 51
0.000000
  7
STANDARD
  0
TEXT
  8
0
 10
-156.392654
 20
-183.050003
 40
4.500000
  1
0
 50
0.000000
 41
1.052632
 51
0.000000
  7
STANDARD
  0
TEXT
  8
0
 10
-256.392670
 20
-183.050003
 40
4.500000
  1
D
 50
0.000000
 41
1.052632
 51
0.000000
  7
STANDARD
  0
TEXT
  8
0
 10
-256.392670
 20
-173.050003
 40
4.500000
  1
C
 50
0.000000
 41
1.052632
 51
0.000000
  7
STANDARD
  0
TEXT
  8
0
 62
     3
 10
-122.197754
 20
-53.177593
 40
4.500000
  1
STRETCH LINE A
 50
0.000000
 41
1.052632
 51
0.000000
  7
STANDARD
  0
TEXT
  8
0
 62
     3
 10
-46.447739
 20
-61.177593
 40
4.500000
  1
STRETCH LINE B
 50
0.000000
 41
1.052632
 51
0.000000
  7
STANDARD
  0
TEXT
  8
0
 62
     3
 10
-23.347748
 20
160.825699
 40
4.500000
  1
STRETCH LINE B
 50
0.000000
 41
1.052632
 51
0.000000
  7
STANDARD
  0
TEXT
  8
0
 10
-218.642654
 20
-153.050003
 40
4.500000
  1
10
 50
0.000000
 41
1.052632
 51
0.000000
  7
STANDARD
  0
TEXT
  8
0
 10
-203.642654
 20
-153.050003
 40
4.500000
  1
20
 50
0.000000
 41
1.052632
 51
0.000000
  7
STANDARD
  0
TEXT
  8
0
 10
-188.642654
 20
-153.050003
 40
4.500000
  1
30
 50
0.000000
 41
1.052632
 51
0.000000
  7
STANDARD
  0
TEXT
  8
0
 10
-173.642654
 20
-153.050003
 40
4.500000
  1
40
 50
0.000000
 41
1.052632
 51
0.000000
  7
STANDARD
  0
TEXT
  8
0
 10
-158.642654
 20
-153.050003
 40
4.500000
  1
50
 50
0.000000
 41
1.052632
 51
0.000000
  7
STANDARD
  0
TEXT
  8
0
 10
-143.642654
 20
-153.050003
 40
4.500000
  1
70
 50
0.000000
 41
1.052632
 51
0.000000
  7
STANDARD
  0
TEXT
  8
0
 10
-231.392654
 20
-153.050003
 40
4.500000
  1
0
 50
0.000000
 41
1.052632
 51
0.000000
  7
STANDARD
  0
TEXT
  8
0
 10
-231.392654
 20
-173.050003
 40
4.500000
  1
-
 50
0.000000
 41
1.052632
 51
0.000000
  7
STANDARD
  0
TEXT
  8
0
 10
-141.392654
 20
-173.050003
 40
4.500000
  1
5
 50
0.000000
 41
1.052632
 51
0.000000
  7
STANDARD
  0
TEXT
  8
0
 10
-156.392654
 20
-173.050003
 40
4.500000
  1
0
 50
0.000000
 41
1.052632
 51
0.000000
  7
STANDARD
  0
TEXT
  8
0
 10
-171.392654
 20
-173.050003
 40
4.500000
  1
-
 50
0.000000
 41
1.052632
 51
0.000000
  7
STANDARD
  0
TEXT
  8
0
 10
-186.392654
 20
-173.050003
 40
4.500000
  1
-
 50
0.000000
 41
1.052632
 51
0.000000
  7
STANDARD
  0
TEXT
  8
0
 10
-201.392654
 20
-173.050003
 40
4.500000
  1
-
 50
0.000000
 41
1.052632
 51
0.000000
  7
STANDARD
  0
TEXT
  8
0
 10
-216.392654
 20
-173.050003
 40
4.500000
  1
-
 50
0.000000
 41
1.052632
 51
0.000000
  7
STANDARD
  0
TEXT
  8
0
 10
-148.142654
 20
-113.050003
 40
4.500000
  1
（ｍｍ）
 50
0.000000
 41
0.833333
 51
0.000000
  7
STANDARD
  0
TEXT
  8
0
 10
-228.642654
 20
-113.050003
 40
4.500000
  1
STRETCH LIST
 50
0.000000
 41
1.052632
 51
0.000000
  7
STANDARD
  0
TEXT
  8
0
 10
-143.642654
 20
-133.050003
 40
4.500000
  1
80
 50
0.000000
 41
1.052632
 51
0.000000
  7
STANDARD
  0
TEXT
  8
0
 10
-158.642654
 20
-133.050003
 40
4.500000
  1
60
 50
0.000000
 41
1.052632
 51
0.000000
  7
STANDARD
  0
TEXT
  8
0
 10
-173.642654
 20
-133.050003
 40
4.500000
  1
50
 50
0.000000
 41
1.052632
 51
0.000000
  7
STANDARD
  0
TEXT
  8
0
 10
-188.642654
 20
-133.050003
 40
4.500000
  1
40
 50
0.000000
 41
1.052632
 51
0.000000
  7
STANDARD
  0
TEXT
  8
0
 10
-203.642654
 20
-133.050003
 40
4.500000
  1
30
 50
0.000000
 41
1.052632
 51
0.000000
  7
STANDARD
  0
TEXT
  8
0
 10
-218.642654
 20
-133.050003
 40
4.500000
  1
20
 50
0.000000
 41
1.052632
 51
0.000000
  7
STANDARD
  0
TEXT
  8
0
 10
-233.642654
 20
-133.050003
 40
4.500000
  1
10
 50
0.000000
 41
1.052632
 51
0.000000
  7
STANDARD
  0
TEXT
  8
0
 10
-270.892670
 20
-133.324997
 40
4.500000
  1
STRETCH
 50
0.000000
 41
1.052632
 51
0.000000
  7
STANDARD
  0
TEXT
  8
0
 10
-270.892670
 20
-140.074997
 40
4.500000
  1
  PLACE
 50
0.000000
 41
1.052632
 51
0.000000
  7
STANDARD
  0
TEXT
  8
0
 10
-267.642670
 20
-123.050003
 40
4.500000
  1
STROKE
 50
0.000000
 41
1.052632
 51
0.000000
  7
STANDARD
  0
TEXT
  8
0
 10
-256.392670
 20
-153.050003
 40
4.500000
  1
A
 50
0.000000
 41
1.052632
 51
0.000000
  7
STANDARD
  0
TEXT
  8
0
 10
-256.392670
 20
-163.050003
 40
4.500000
  1
B
 50
0.000000
 41
1.052632
 51
0.000000
  7
STANDARD
  0
TEXT
  8
0
 62
     3
 10
155.984833
 20
-51.177593
 40
4.500000
  1
STRETCH LINE D
 50
0.000000
 41
1.052632
 51
0.000000
  7
STANDARD
  0
TEXT
  8
0
 62
     3
 10
-79.447739
 20
168.214081
 40
4.500000
  1
STRETCH LINE A
 50
0.000000
 41
1.052632
 51
0.000000
  7
STANDARD
  0
TEXT
  8
0
 10
-270.049713
 20
155.830002
 40
6.300000
  1
MODEL:ARS25*ST(10)
 50
0.000000
 41
1.052632
 51
0.000000
  7
STANDARD
  0
TEXT
  8
0
 10
-253.399719
 20
180.830002
 40
6.300000
  1
ROD SLIDER
 50
0.000000
 41
1.052632
 51
0.000000
  7
STANDARD
  0
TEXT
  8
0
 10
167.564667
 20
-192.100006
 40
9.000000
  1
KOGANEI CORP.
 50
0.000000
 41
1.052632
 51
0.000000
  7
STANDARD
  0
TEXT
  8
0
 10
196.250259
 20
180.830002
 40
6.300000
  1
Ver. 1.1
 50
0.000000
 41
1.052632
 51
0.000000
  7
STANDARD
  0
ENDSEC
  0
EOF
