  0
SECTION
  2
HEADER
  0
ENDSEC
  0
SECTION
  2
TABLES
  0
TABLE
  2
LTYPE
 70
     4
  0
LTYPE
  2
CONTINUOUS
 70
    64
  3
Solid line
 72
    65
 73
     0
 40
0.000000
  0
LTYPE
  2
DASHED
 70
    64
  3
__ __ __ __ __ __ __ __ __ __ __ __ __ __ __
 72
    65
 73
     2
 40
3.500000
 49
2.000000
 49
-1.500000
  0
LTYPE
  2
CENTER
 70
    64
  3
____ _ ____ _ ____ _ ____ _ ____ _ ____ _ ____
 72
    65
 73
     4
 40
17.500000
 49
13.000000
 49
-1.500000
 49
1.500000
 49
-1.500000
  0
LTYPE
  2
PHANTOM
 70
    64
  3
_____ _ _ _____ _ _ _____ _ _ _____ _ _ ____  
 72
    65
 73
     6
 40
15.500000
 49
8.000000
 49
-1.500000
 49
1.500000
 49
-1.500000
 49
1.500000
 49
-1.500000
  0
LTYPE
  2
DASHED1
 70
    64
  3
__ __ __ __ __ __ __ __ __ __ __ __ __ __ __
 72
    65
 73
     2
 40
1.500000
 49
1.000000
 49
-0.500000
  0
LTYPE
  2
DASHED2
 70
    64
  3
__ __ __ __ __ __ __ __ __ __ __ __ __ __ __
 72
    65
 73
     2
 40
3.500000
 49
2.500000
 49
-1.000000
  0
LTYPE
  2
DASHED3
 70
    64
  3
__ __ __ __ __ __ __ __ __ __ __ __ __ __ __
 72
    65
 73
     2
 40
6.000000
 49
4.000000
 49
-2.000000
  0
LTYPE
  2
DASHED4
 70
    64
  3
__ __ __ __ __ __ __ __ __ __ __ __ __ __ __
 72
    65
 73
     2
 40
12.000000
 49
10.000000
 49
-2.000000
  0
LTYPE
  2
DASHED5
 70
    64
  3
__ __ __ __ __ __ __ __ __ __ __ __ __ __ __
 72
    65
 73
     2
 40
17.000000
 49
15.000000
 49
-2.000000
  0
LTYPE
  2
DASHED6
 70
    64
  3
__ __ __ __ __ __ __ __ __ __ __ __ __ __ __
 72
    65
 73
     2
 40
29.000000
 49
27.000000
 49
-2.000000
  0
LTYPE
  2
PHANTOM1
 70
    64
  3
_____ _ _ _____ _ _ _____ _ _ _____ _ _ ____  
 72
    65
 73
     6
 40
31.000000
 49
25.000000
 49
-1.500000
 49
1.000000
 49
-1.000000
 49
1.000000
 49
-1.500000
  0
LTYPE
  2
PHANTOM2
 70
    64
  3
_____ _ _ _____ _ _ _____ _ _ _____ _ _ ____  
 72
    65
 73
     6
 40
36.000000
 49
27.000000
 49
-1.500000
 49
2.500000
 49
-1.000000
 49
2.500000
 49
-1.500000
  0
LTYPE
  2
PHANTOM3
 70
    64
  3
_____ _ _ _____ _ _ _____ _ _ _____ _ _ ____  
 72
    65
 73
     6
 40
78.000000
 49
64.000000
 49
-2.000000
 49
4.000000
 49
-2.000000
 49
4.000000
 49
-2.000000
  0
LTYPE
  2
CENTER1
 70
    64
  3
____ _ ____ _ ____ _ ____ _ ____ _ ____ _ ____
 72
    65
 73
     4
 40
19.000000
 49
14.000000
 49
-1.000000
 49
3.000000
 49
-1.000000
  0
LTYPE
  2
CENTER2
 70
    64
  3
____ _ ____ _ ____ _ ____ _ ____ _ ____ _ ____
 72
    65
 73
     4
 40
28.500000
 49
25.000000
 49
-1.000000
 49
1.500000
 49
-1.000000
  0
LTYPE
  2
CENTER3
 70
    64
  3
____ _ ____ _ ____ _ ____ _ ____ _ ____ _ ____
 72
    65
 73
     4
 40
31.500000
 49
27.000000
 49
-1.000000
 49
2.500000
 49
-1.000000
  0
LTYPE
  2
CENTER4
 70
    64
  3
____ _ ____ _ ____ _ ____ _ ____ _ ____ _ ____
 72
    65
 73
     4
 40
50.000000
 49
45.000000
 49
-1.000000
 49
3.000000
 49
-1.000000
  0
LTYPE
  2
CENTER5
 70
    64
  3
____ _ ____ _ ____ _ ____ _ ____ _ ____ _ ____
 72
    65
 73
     4
 40
100.000000
 49
92.000000
 49
-2.000000
 49
4.000000
 49
-2.000000
  0
LTYPE
  2
SBK1
 70
    64
  3
______ _ _ _ ______ _ _ _ ______ _ _ _ _____  
 72
    65
 73
     8
 40
60.500000
 49
45.000000
 49
-2.000000
 49
2.500000
 49
-2.000000
 49
2.500000
 49
-2.000000
 49
2.500000
 49
-2.000000
  0
LTYPE
  2
SBK2
 70
    64
  3
______ _ _ _ ______ _ _ _ ______ _ _ _ _____  
 72
    65
 73
     8
 40
84.000000
 49
64.000000
 49
-2.000000
 49
4.000000
 49
-2.000000
 49
4.000000
 49
-2.000000
 49
4.000000
 49
-2.000000
  0
LTYPE
  2
STCH
 70
    64
  3
__ __ __ __ __ __ __ __ __ __ __ __ __ __ __
 72
    65
 73
     2
 40
3.000000
 49
1.000000
 49
-2.000000
  0
LTYPE
  2
MTCH
 70
    64
  3
_____ _ _ _____ _ _ _____ _ _ _____ _ _ ____  
 72
    65
 73
     6
 40
80.000000
 49
66.000000
 49
-2.000000
 49
4.000000
 49
-2.000000
 49
4.000000
 49
-2.000000
  0
ENDTAB
  0
TABLE
  2
LAYER
 70
     1
  0
LAYER
  2
0
 70
     0
 62
     7
  6
CONTINUOUS
  0
ENDTAB
  0
TABLE
  2
STYLE
 70
     1
  0
STYLE
  2
STANDARD
 70
     0
 40
0.000000
 41
1.000000
 50
0.000000
 71
     0
 42
0.200000
  3
txt
  4
BIGFONT
  0
ENDTAB
  0
TABLE
  2
VIEW
 70
     0
  0
ENDTAB
  0
ENDSEC
  0
SECTION
  2
BLOCKS
  0
ENDSEC
  0
SECTION
  2
ENTITIES
  0
LINE
  8
0
  6
CENTER
 62
     2
 10
97.855728
 20
-138.255524
 11
113.188828
 21
-138.255524
  0
LINE
  8
0
  6
CENTER
 62
     2
 10
105.681137
 20
-144.931946
 11
105.681137
 21
-131.788498
  0
LINE
  8
0
  6
CENTER
 62
     2
 10
200.855728
 20
-140.255524
 11
216.188828
 21
-140.255524
  0
LINE
  8
0
  6
CENTER
 62
     2
 10
208.681137
 20
-146.931946
 11
208.681137
 21
-133.788498
  0
LINE
  8
0
  6
CENTER
 62
     2
 10
160.855728
 20
-140.255524
 11
176.188828
 21
-140.255524
  0
LINE
  8
0
  6
CENTER
 62
     2
 10
168.681137
 20
-146.931946
 11
168.681137
 21
-133.788498
  0
LINE
  8
0
  6
CENTER
 62
     2
 10
120.855728
 20
-140.255524
 11
136.188828
 21
-140.255524
  0
LINE
  8
0
  6
CENTER
 62
     2
 10
128.681137
 20
-146.931946
 11
128.681137
 21
-133.788498
  0
LINE
  8
0
  6
CENTER
 62
     2
 10
97.855728
 20
-88.255524
 11
113.188828
 21
-88.255524
  0
LINE
  8
0
  6
CENTER
 62
     2
 10
105.681137
 20
-81.579102
 11
105.681137
 21
-94.722549
  0
LINE
  8
0
  6
CENTER
 62
     2
 10
120.855728
 20
-86.255524
 11
136.188828
 21
-86.255524
  0
LINE
  8
0
  6
CENTER
 62
     2
 10
128.681137
 20
-79.579102
 11
128.681137
 21
-92.722549
  0
LINE
  8
0
  6
CENTER
 62
     2
 10
160.855728
 20
-86.255524
 11
176.188828
 21
-86.255524
  0
LINE
  8
0
  6
CENTER
 62
     2
 10
168.681137
 20
-79.579102
 11
168.681137
 21
-92.722549
  0
LINE
  8
0
  6
PHANTOM
 62
     3
 10
111.191132
 20
-119.755524
 11
111.191132
 21
-153.700867
  0
LINE
  8
0
  6
PHANTOM
 62
     3
 10
100.681137
 20
-119.755524
 11
111.191132
 21
-119.755524
  0
LINE
  8
0
  6
PHANTOM
 62
     3
 10
100.681137
 20
-106.755524
 11
111.191132
 21
-106.755524
  0
LINE
  8
0
  6
PHANTOM
 62
     3
 10
111.191132
 20
-60.439789
 11
111.191132
 21
-106.755524
  0
LINE
  8
0
  6
PHANTOM
 62
     3
 10
188.681137
 20
-58.083084
 11
188.681137
 21
-153.700867
  0
LINE
  8
0
  6
PHANTOM
 62
     3
 10
153.681137
 20
-68.135086
 11
153.681137
 21
-153.700867
  0
LINE
  8
0
  6
PHANTOM
 62
     3
 10
100.681137
 20
-106.755524
 11
100.681137
 21
-119.755524
  0
LINE
  8
0
 10
93.681137
 20
-109.255524
 11
93.681137
 21
-117.255524
  0
LINE
  8
0
 10
92.681137
 20
-117.255524
 11
93.681137
 21
-117.255524
  0
LINE
  8
0
 10
92.681137
 20
-109.255524
 11
93.681137
 21
-109.255524
  0
LINE
  8
0
  6
CENTER
 62
     2
 10
168.681137
 20
-105.451920
 11
168.681137
 21
-120.206421
  0
LINE
  8
0
 10
217.681137
 20
-115.255524
 11
219.681137
 21
-115.255524
  0
LINE
  8
0
 10
217.681137
 20
-111.255524
 11
219.681137
 21
-111.255524
  0
LINE
  8
0
  6
CENTER
 62
     2
 10
218.681137
 20
-108.545547
 11
218.681137
 21
-119.179169
  0
LINE
  8
0
  6
CENTER
 62
     2
 10
138.681137
 20
-105.451920
 11
138.681137
 21
-120.206421
  0
LINE
  8
0
 10
113.681137
 20
-133.755493
 11
243.681152
 21
-133.755493
  0
LINE
  8
0
 10
113.681137
 20
-133.455460
 11
243.681152
 21
-133.455460
  0
LINE
  8
0
 10
113.681137
 20
-120.755508
 11
243.681152
 21
-120.755508
  0
LINE
  8
0
 10
113.681137
 20
-121.055527
 11
243.681152
 21
-121.055527
  0
LINE
  8
0
 10
113.681137
 20
-105.755615
 11
243.681152
 21
-105.755615
  0
LINE
  8
0
 10
113.681137
 20
-105.455612
 11
243.681152
 21
-105.455612
  0
LINE
  8
0
 10
113.681137
 20
-93.055496
 11
243.681152
 21
-93.055496
  0
LINE
  8
0
 10
113.681137
 20
-92.755493
 11
243.681152
 21
-92.755493
  0
LINE
  8
0
  6
CENTER
 62
     2
 10
208.681137
 20
-107.075867
 11
208.681137
 21
-119.265625
  0
LINE
  8
0
  6
CENTER
 62
     2
 10
128.681137
 20
-105.451920
 11
128.681137
 21
-120.206421
  0
LINE
  8
0
  6
CENTER
 62
     2
 10
200.855728
 20
-86.255524
 11
216.188828
 21
-86.255524
  0
LINE
  8
0
  6
CENTER
 62
     2
 10
208.681137
 20
-79.579102
 11
208.681137
 21
-92.722549
  0
LINE
  8
0
 10
113.681137
 20
-77.255524
 11
113.681137
 21
-149.255524
  0
LINE
  8
0
 10
243.681152
 20
-77.255524
 11
243.681152
 21
-149.255524
  0
LINE
  8
0
 10
80.681137
 20
-77.255524
 11
243.681152
 21
-77.255524
  0
LINE
  8
0
 10
80.681137
 20
-149.255524
 11
243.681152
 21
-149.255524
  0
LINE
  8
0
 10
108.981140
 20
-109.255524
 11
113.681152
 21
-109.255524
  0
LINE
  8
0
 10
108.981140
 20
-117.255524
 11
108.981140
 21
-109.255524
  0
LINE
  8
0
 10
109.338409
 20
-113.255524
 11
113.323883
 21
-113.255524
  0
LINE
  8
0
 10
108.981140
 20
-117.255524
 11
113.681137
 21
-117.255524
  0
LINE
  8
0
 10
107.181137
 20
-109.255524
 11
107.181137
 21
-117.255524
  0
LINE
  8
0
 10
103.681137
 20
-117.255524
 11
107.181137
 21
-117.255524
  0
LINE
  8
0
 10
103.681137
 20
-109.255524
 11
107.181137
 21
-109.255524
  0
LINE
  8
0
 10
107.181137
 20
-115.755524
 11
108.981140
 21
-115.755524
  0
LINE
  8
0
 10
107.181137
 20
-110.755524
 11
108.981140
 21
-110.755524
  0
LINE
  8
0
 10
104.038406
 20
-113.255524
 11
107.181137
 21
-113.255524
  0
LINE
  8
0
 10
103.681137
 20
-109.255524
 11
103.681137
 21
-117.255524
  0
LINE
  8
0
 10
98.581146
 20
-122.255524
 11
113.681137
 21
-122.255524
  0
LINE
  8
0
 10
97.681244
 20
-123.155655
 11
98.581245
 21
-122.255653
  0
LINE
  8
0
 10
94.681137
 20
-123.155533
 11
97.681137
 21
-123.155533
  0
LINE
  8
0
 10
98.581146
 20
-132.255524
 11
113.681137
 21
-132.255524
  0
LINE
  8
0
 10
97.681152
 20
-131.355530
 11
98.581146
 21
-132.255524
  0
LINE
  8
0
 10
94.681137
 20
-131.355530
 11
97.681137
 21
-131.355530
  0
LINE
  8
0
 10
98.581146
 20
-104.255524
 11
113.681137
 21
-104.255524
  0
LINE
  8
0
 10
97.681160
 20
-103.355545
 11
98.581161
 21
-104.255547
  0
LINE
  8
0
 10
94.681137
 20
-103.355530
 11
97.681137
 21
-103.355530
  0
LINE
  8
0
 10
97.681259
 20
-95.155632
 11
98.581261
 21
-94.255630
  0
LINE
  8
0
 10
94.681137
 20
-95.155533
 11
97.681137
 21
-95.155533
  0
LINE
  8
0
 10
92.681137
 20
-106.255524
 11
94.681137
 21
-106.255524
  0
LINE
  8
0
 10
92.681137
 20
-92.255524
 11
94.681137
 21
-92.255524
  0
LINE
  8
0
 10
94.681137
 20
-92.255524
 11
94.681137
 21
-106.255524
  0
LINE
  8
0
 10
98.581146
 20
-94.255524
 11
113.681137
 21
-94.255524
  0
LINE
  8
0
 10
92.681137
 20
-134.255524
 11
94.681137
 21
-134.255524
  0
LINE
  8
0
 10
92.681137
 20
-120.255524
 11
94.681137
 21
-120.255524
  0
LINE
  8
0
 10
94.681137
 20
-120.255524
 11
94.681137
 21
-134.255524
  0
LINE
  8
0
  6
CENTER
 62
     2
 10
86.576431
 20
-99.255524
 11
125.762375
 21
-99.255524
  0
LINE
  8
0
  6
CENTER
 62
     2
 10
86.576431
 20
-127.255524
 11
126.340988
 21
-127.255524
  0
LINE
  8
0
 10
92.681137
 20
-77.255524
 11
92.681137
 21
-149.255524
  0
LINE
  8
0
 10
80.681137
 20
-77.255524
 11
80.681137
 21
-149.255524
  0
LINE
  8
0
  6
CENTER
 62
     2
 10
75.021164
 20
-113.255524
 11
249.069397
 21
-113.255524
  0
LINE
  8
0
  6
CENTER
 62
     2
 10
-65.000015
 20
-142.355515
 11
-65.000015
 21
-134.155518
  0
LINE
  8
0
  6
CENTER
 62
     2
 10
-60.900009
 20
-138.255524
 11
-69.100006
 21
-138.255524
  0
LINE
  8
0
  6
CENTER
 62
     2
 10
-7.000015
 20
-140.255524
 11
2.999985
 21
-140.255524
  0
LINE
  8
0
  6
CENTER
 62
     2
 10
-2.000015
 20
-145.255524
 11
-2.000015
 21
-135.255524
  0
LINE
  8
0
  6
CENTER
 62
     2
 10
-47.000015
 20
-140.255524
 11
-37.000015
 21
-140.255524
  0
LINE
  8
0
  6
CENTER
 62
     2
 10
-42.000015
 20
-145.255524
 11
-42.000015
 21
-135.255524
  0
LINE
  8
0
  6
PHANTOM
 62
     3
 10
-59.490005
 20
-119.755524
 11
-59.490005
 21
-153.700867
  0
LINE
  8
0
  6
PHANTOM
 62
     3
 10
-70.000015
 20
-119.755524
 11
-59.490005
 21
-119.755524
  0
LINE
  8
0
  6
PHANTOM
 62
     3
 10
-70.000015
 20
-106.755524
 11
-59.490005
 21
-106.755524
  0
LINE
  8
0
  6
PHANTOM
 62
     3
 10
-59.490005
 20
-60.439789
 11
-59.490005
 21
-106.755524
  0
LINE
  8
0
  6
CENTER
 62
     2
 10
-65.000015
 20
-84.155533
 11
-65.000015
 21
-92.355530
  0
LINE
  8
0
  6
CENTER
 62
     2
 10
-60.900009
 20
-88.255524
 11
-69.100006
 21
-88.255524
  0
LINE
  8
0
  6
CENTER
 62
     2
 10
-7.000015
 20
-86.255524
 11
2.999985
 21
-86.255524
  0
LINE
  8
0
  6
CENTER
 62
     2
 10
-2.000015
 20
-81.255524
 11
-2.000015
 21
-91.255524
  0
LINE
  8
0
  6
PHANTOM
 62
     3
 10
-17.000015
 20
-72.130142
 11
-17.000015
 21
-153.700867
  0
LINE
  8
0
  6
PHANTOM
 62
     3
 10
-70.000015
 20
-106.755524
 11
-70.000015
 21
-119.755524
  0
LINE
  8
0
 10
-77.000015
 20
-109.255524
 11
-77.000015
 21
-117.255524
  0
LINE
  8
0
 10
-78.000015
 20
-117.255524
 11
-77.000015
 21
-117.255524
  0
LINE
  8
0
 10
-78.000015
 20
-109.255524
 11
-77.000015
 21
-109.255524
  0
LINE
  8
0
 10
-61.700012
 20
-109.255524
 11
-57.000000
 21
-109.255524
  0
LINE
  8
0
 10
-61.700012
 20
-117.255524
 11
-61.700012
 21
-109.255524
  0
LINE
  8
0
 10
-61.342743
 20
-113.255524
 11
-57.357269
 21
-113.255524
  0
LINE
  8
0
 10
-61.700012
 20
-117.255524
 11
-57.000015
 21
-117.255524
  0
LINE
  8
0
 10
-63.500015
 20
-109.255524
 11
-63.500015
 21
-117.255524
  0
LINE
  8
0
 10
-67.000015
 20
-117.255524
 11
-63.500015
 21
-117.255524
  0
LINE
  8
0
 10
-67.000015
 20
-109.255524
 11
-63.500015
 21
-109.255524
  0
LINE
  8
0
 10
-63.500015
 20
-115.755524
 11
-61.700012
 21
-115.755524
  0
LINE
  8
0
 10
-63.500015
 20
-110.755524
 11
-61.700012
 21
-110.755524
  0
LINE
  8
0
 10
-66.642746
 20
-113.255524
 11
-63.500015
 21
-113.255524
  0
LINE
  8
0
 10
-67.000015
 20
-109.255524
 11
-67.000015
 21
-117.255524
  0
LINE
  8
0
 10
-72.100006
 20
-122.255524
 11
-57.000015
 21
-122.255524
  0
LINE
  8
0
 10
-72.999985
 20
-123.155586
 11
-72.099976
 21
-122.255592
  0
LINE
  8
0
 10
-76.000015
 20
-123.155533
 11
-73.000015
 21
-123.155533
  0
LINE
  8
0
 10
-72.100006
 20
-132.255524
 11
-57.000015
 21
-132.255524
  0
LINE
  8
0
 10
-73.000038
 20
-131.355576
 11
-72.100037
 21
-132.255585
  0
LINE
  8
0
 10
-76.000015
 20
-131.355530
 11
-73.000015
 21
-131.355530
  0
LINE
  8
0
 10
-72.100006
 20
-104.255524
 11
-57.000015
 21
-104.255524
  0
LINE
  8
0
 10
-73.000031
 20
-103.355560
 11
-72.100029
 21
-104.255562
  0
LINE
  8
0
 10
-76.000015
 20
-103.355530
 11
-73.000015
 21
-103.355530
  0
LINE
  8
0
 10
-72.999931
 20
-95.155563
 11
-72.099930
 21
-94.255562
  0
LINE
  8
0
 10
-76.000015
 20
-95.155533
 11
-73.000015
 21
-95.155533
  0
LINE
  8
0
 10
-78.000015
 20
-106.255524
 11
-76.000015
 21
-106.255524
  0
LINE
  8
0
 10
-78.000015
 20
-92.255524
 11
-76.000015
 21
-92.255524
  0
LINE
  8
0
 10
-76.000015
 20
-92.255524
 11
-76.000015
 21
-106.255524
  0
LINE
  8
0
 10
-72.100006
 20
-94.255524
 11
-57.000015
 21
-94.255524
  0
LINE
  8
0
 10
-78.000015
 20
-134.255524
 11
-76.000015
 21
-134.255524
  0
LINE
  8
0
 10
-78.000015
 20
-120.255524
 11
-76.000015
 21
-120.255524
  0
LINE
  8
0
 10
-76.000015
 20
-120.255524
 11
-76.000015
 21
-134.255524
  0
LINE
  8
0
  6
CENTER
 62
     2
 10
-84.104721
 20
-99.255524
 11
-49.301476
 21
-99.255524
  0
LINE
  8
0
  6
CENTER
 62
     2
 10
-84.104721
 20
-127.255524
 11
-49.301476
 21
-127.255524
  0
LINE
  8
0
 10
-78.000015
 20
-77.255524
 11
-78.000015
 21
-149.255524
  0
LINE
  8
0
 10
-90.000015
 20
-77.255524
 11
-90.000015
 21
-149.255524
  0
LINE
  8
0
 10
-90.000015
 20
-77.255524
 11
32.999985
 21
-77.255524
  0
LINE
  8
0
 10
-90.000015
 20
-149.255524
 11
32.999985
 21
-149.255524
  0
LINE
  8
0
  6
CENTER
 62
     2
 10
-95.659988
 20
-113.255524
 11
38.550079
 21
-113.255524
  0
LINE
  8
0
 10
6.999985
 20
-115.255524
 11
8.999985
 21
-115.255524
  0
LINE
  8
0
 10
6.999985
 20
-111.255524
 11
8.999985
 21
-111.255524
  0
LINE
  8
0
  6
CENTER
 62
     2
 10
7.999985
 20
-108.545547
 11
7.999985
 21
-119.179169
  0
LINE
  8
0
  6
CENTER
 62
     2
 10
-32.000015
 20
-107.075867
 11
-32.000015
 21
-119.265625
  0
LINE
  8
0
 10
-57.000015
 20
-133.755493
 11
32.999985
 21
-133.755493
  0
LINE
  8
0
 10
-57.000015
 20
-133.455460
 11
32.999985
 21
-133.455460
  0
LINE
  8
0
 10
-57.000015
 20
-120.755508
 11
32.999985
 21
-120.755508
  0
LINE
  8
0
 10
-57.000015
 20
-121.055527
 11
32.999985
 21
-121.055527
  0
LINE
  8
0
 10
-57.000015
 20
-105.755615
 11
32.999985
 21
-105.755615
  0
LINE
  8
0
 10
-57.000015
 20
-105.455612
 11
32.999985
 21
-105.455612
  0
LINE
  8
0
 10
-57.000015
 20
-93.055496
 11
32.999985
 21
-93.055496
  0
LINE
  8
0
 10
-57.000015
 20
-92.755493
 11
32.999985
 21
-92.755493
  0
LINE
  8
0
  6
CENTER
 62
     2
 10
-42.000015
 20
-81.255524
 11
-42.000015
 21
-91.255524
  0
LINE
  8
0
  6
CENTER
 62
     2
 10
-2.000015
 20
-107.075867
 11
-2.000015
 21
-119.265625
  0
LINE
  8
0
  6
CENTER
 62
     2
 10
-42.000015
 20
-107.075867
 11
-42.000015
 21
-119.265625
  0
LINE
  8
0
  6
CENTER
 62
     2
 10
-47.000015
 20
-86.255524
 11
-37.000015
 21
-86.255524
  0
LINE
  8
0
 10
-57.000015
 20
-77.255524
 11
-57.000015
 21
-149.255524
  0
LINE
  8
0
 10
32.999985
 20
-77.255524
 11
32.999985
 21
-149.255524
  0
LINE
  8
0
  6
PHANTOM
 62
     3
 10
-71.000015
 20
46.863251
 11
-71.000015
 21
-24.418396
  0
LINE
  8
0
  6
PHANTOM
 62
     3
 10
27.999985
 20
-0.372055
 11
-17.000015
 21
-0.372055
  0
LINE
  8
0
  6
PHANTOM
 62
     3
 10
-17.000015
 20
-0.372055
 11
-17.000015
 21
-24.301441
  0
LINE
  8
0
  6
CENTER
 62
     2
 10
-32.000015
 20
-3.817177
 11
-32.000015
 21
-11.817177
  0
LINE
  8
0
  6
CENTER
 62
     2
 10
20.999985
 20
-3.817177
 11
20.999985
 21
-11.817177
  0
LINE
  8
0
  6
PHANTOM
 62
     3
 10
27.999985
 20
-0.372055
 11
27.999985
 21
46.863251
  0
LINE
  8
0
  6
CENTER
 62
     2
 10
-2.000015
 20
-15.817169
 11
-2.000015
 21
-23.817169
  0
LINE
  8
0
  6
CENTER
 62
     2
 10
-42.000015
 20
-15.817169
 11
-42.000015
 21
-23.817169
  0
LINE
  8
0
 10
30.999985
 20
4.682816
 11
32.499985
 21
4.682816
  0
LINE
  8
0
 62
     2
 10
30.999985
 20
5.082825
 11
32.499985
 21
5.082825
  0
LINE
  8
0
  6
CENTER
 62
     2
 10
14.750565
 20
7.182831
 11
35.251709
 21
7.182831
  0
LINE
  8
0
 10
-77.000015
 20
-14.817169
 11
-77.000015
 21
-17.317177
  0
LINE
  8
0
 10
-78.000015
 20
-17.317177
 11
-77.000015
 21
-17.317177
  0
LINE
  8
0
 10
-57.000015
 20
8.182831
 11
-57.000015
 21
-19.817169
  0
LINE
  8
0
  6
CENTER
 62
     2
 10
-69.411011
 20
-13.317184
 11
-54.175308
 21
-13.317184
  0
LINE
  8
0
 10
17.999985
 20
9.182831
 11
30.999985
 21
9.182831
  0
LINE
  8
0
 10
23.699982
 20
9.182831
 11
23.699982
 21
11.182846
  0
LINE
  8
0
 62
     2
 10
23.699982
 20
9.282837
 11
32.499985
 21
9.282837
  0
LINE
  8
0
 10
23.699982
 20
9.682846
 11
32.499985
 21
9.682846
  0
LINE
  8
0
 10
19.000013
 20
11.182850
 11
19.357283
 21
11.801658
  0
LINE
  8
0
 10
23.699940
 20
11.182828
 11
23.342678
 21
11.801623
  0
LINE
  8
0
 10
23.342728
 20
11.801651
 11
19.357254
 21
11.801651
  0
LINE
  8
0
 10
23.342728
 20
9.492249
 11
19.357254
 21
9.492249
  0
LINE
  8
0
 10
18.999985
 20
11.182831
 11
17.999985
 21
11.182831
  0
LINE
  8
0
 10
18.999985
 20
11.182831
 11
18.999985
 21
9.182831
  0
LINE
  8
0
 10
32.499985
 20
9.682846
 11
32.499985
 21
4.682816
  0
LINE
  8
0
 10
30.999985
 20
4.182831
 11
30.999985
 21
9.182831
  0
LINE
  8
0
 62
     2
 10
-63.500015
 20
-15.417175
 11
-61.000015
 21
-15.417175
  0
LINE
  8
0
 10
-63.500015
 20
-15.817184
 11
-61.000015
 21
-15.817184
  0
LINE
  8
0
 10
-67.000061
 20
-17.317213
 11
-66.642792
 21
-17.936022
  0
LINE
  8
0
 10
-66.642746
 20
-17.935974
 11
-63.500015
 21
-17.935974
  0
LINE
  8
0
 10
-66.642746
 20
-15.626587
 11
-63.500015
 21
-15.626587
  0
LINE
  8
0
 10
-63.500015
 20
-12.817169
 11
-63.500015
 21
-17.935974
  0
LINE
  8
0
 10
-67.000015
 20
-12.817169
 11
-67.000015
 21
-17.317184
  0
LINE
  8
0
 10
-56.999989
 20
-17.317186
 11
-57.357262
 21
-17.935989
  0
LINE
  8
0
 10
-60.642761
 20
-15.626587
 11
-57.357285
 21
-15.626587
  0
LINE
  8
0
 10
-61.000015
 20
-17.317184
 11
-61.000015
 21
-12.817169
  0
LINE
  8
0
 10
-60.999989
 20
-17.317131
 11
-60.642715
 21
-17.935938
  0
LINE
  8
0
 10
-60.642761
 20
-17.935974
 11
-57.357285
 21
-17.935974
  0
LINE
  8
0
  6
CENTER
 62
     2
 10
14.750565
 20
7.182831
 11
35.251709
 21
7.182831
  0
LINE
  8
0
 10
-76.000015
 20
-10.678997
 11
-73.000015
 21
-10.678997
  0
LINE
  8
0
 10
-76.000015
 20
-4.955357
 11
-73.000015
 21
-4.955357
  0
LINE
  8
0
 10
-76.000015
 20
-2.817184
 11
-57.000015
 21
-2.817184
  0
LINE
  8
0
 10
-76.000015
 20
-12.817169
 11
-57.000015
 21
-12.817169
  0
LINE
  8
0
 10
-78.000015
 20
-14.817169
 11
-76.000015
 21
-14.817169
  0
LINE
  8
0
 10
-78.000015
 20
-0.817184
 11
-76.000015
 21
-0.817184
  0
LINE
  8
0
 10
-76.000015
 20
-0.817184
 11
-76.000015
 21
-14.817169
  0
LINE
  8
0
 62
     2
 10
-75.999969
 20
-10.678972
 11
-72.999977
 21
-4.955347
  0
LINE
  8
0
 62
     2
 10
-75.999908
 20
-4.955330
 11
-72.999908
 21
-10.678960
  0
LINE
  8
0
 10
-73.000015
 20
-4.955357
 11
-73.000015
 21
-10.678997
  0
LINE
  8
0
 10
13.699982
 20
5.682831
 11
13.699982
 21
8.182831
  0
LINE
  8
0
 10
-13.700027
 20
5.682831
 11
13.699982
 21
5.682831
  0
LINE
  8
0
 10
-13.700027
 20
5.682831
 11
-13.700027
 21
8.182831
  0
LINE
  8
0
 10
-53.700027
 20
5.682831
 11
-26.300018
 21
5.682831
  0
LINE
  8
0
 10
-26.300018
 20
5.682831
 11
-26.300018
 21
8.182831
  0
LINE
  8
0
 10
-53.700027
 20
5.682831
 11
-53.700027
 21
8.182831
  0
LINE
  8
0
 10
-90.000015
 20
-18.317169
 11
-78.000015
 21
-18.317169
  0
LINE
  8
0
 10
32.999985
 20
4.182831
 11
32.999985
 21
-19.817169
  0
LINE
  8
0
 10
-90.000015
 20
26.682816
 11
-78.000015
 21
26.682816
  0
LINE
  8
0
 10
-78.000015
 20
25.182816
 11
17.999985
 21
25.182816
  0
LINE
  8
0
  6
CENTER
 62
     2
 10
-95.659988
 20
-7.817177
 11
38.550079
 21
-7.817177
  0
LINE
  8
0
 10
-78.000015
 20
27.182816
 11
-78.000015
 21
-18.317169
  0
LINE
  8
0
 10
-90.000015
 20
26.682816
 11
-90.000015
 21
-18.317169
  0
LINE
  8
0
 10
-90.000015
 20
24.682816
 11
-78.000015
 21
24.682816
  0
LINE
  8
0
 10
-78.000015
 20
8.182831
 11
17.999985
 21
8.182831
  0
LINE
  8
0
 10
17.999985
 20
27.182816
 11
17.999985
 21
8.182831
  0
LINE
  8
0
 10
-57.000015
 20
4.182831
 11
32.999985
 21
4.182831
  0
LINE
  8
0
 10
-57.000015
 20
-19.817169
 11
32.999985
 21
-19.817169
  0
LINE
  8
0
 10
-78.000015
 20
27.182816
 11
17.999985
 21
27.182816
  0
LINE
  8
0
 10
128.500015
 20
102.205780
 11
128.500015
 21
115.999939
  0
LINE
  8
0
  6
CENTER
 62
     2
 10
136.133087
 20
87.999969
 11
162.371063
 21
87.999969
  0
LINE
  8
0
 10
130.532196
 20
101.599960
 11
135.467773
 21
101.599960
  0
LINE
  8
0
 10
130.532181
 20
102.399963
 11
135.467773
 21
102.399963
  0
LINE
  8
0
 10
137.000015
 20
103.071747
 11
137.000015
 21
108.000000
  0
LINE
  8
0
 10
128.500015
 20
101.794159
 11
128.500015
 21
88.000000
  0
LINE
  8
0
 10
134.000015
 20
95.999939
 11
134.000015
 21
90.999939
  0
LINE
  8
0
 10
128.500015
 20
90.999969
 11
133.999985
 21
90.999969
  0
LINE
  8
0
 10
137.255356
 20
95.999969
 11
138.000015
 21
95.999969
  0
LINE
  8
0
 10
137.197800
 20
107.999969
 11
138.000015
 21
107.999969
  0
LINE
  8
0
 10
113.000008
 20
68.000076
 11
115.000015
 21
66.000084
  0
LINE
  8
0
 10
112.999947
 20
90.499954
 11
113.499962
 21
90.999969
  0
LINE
  8
0
 10
113.000015
 20
90.500000
 11
113.000015
 21
67.999985
  0
LINE
  8
0
 10
113.500015
 20
113.000000
 11
113.500015
 21
91.000000
  0
LINE
  8
0
 10
112.999977
 20
113.499969
 11
113.499969
 21
112.999977
  0
LINE
  8
0
 10
113.000015
 20
136.000000
 11
113.000015
 21
113.500015
  0
LINE
  8
0
 10
113.000023
 20
135.999939
 11
115.000008
 21
137.999924
  0
LINE
  8
0
 10
136.500015
 20
72.499969
 11
136.500015
 21
82.500000
  0
LINE
  8
0
 10
126.500000
 20
67.499969
 11
132.000000
 21
67.499969
  0
LINE
  8
0
 10
132.000015
 20
66.000000
 11
132.000015
 21
67.500000
  0
LINE
  8
0
 10
114.999985
 20
65.999969
 11
160.000015
 21
65.999969
  0
LINE
  8
0
 10
129.000015
 20
113.000000
 11
129.000015
 21
103.071838
  0
LINE
  8
0
 10
135.309433
 20
97.999977
 11
137.618835
 21
101.999977
  0
LINE
  8
0
 10
128.381165
 20
101.999992
 11
130.690567
 21
105.999992
  0
LINE
  8
0
 10
137.618851
 20
102.000031
 11
135.309448
 21
106.000031
  0
LINE
  8
0
 10
130.690598
 20
98.000031
 11
128.381195
 21
102.000031
  0
LINE
  8
0
 10
130.690582
 20
105.999969
 11
135.309387
 21
105.999969
  0
LINE
  8
0
 10
130.690582
 20
97.999969
 11
135.309387
 21
97.999969
  0
LINE
  8
0
  6
CENTER
 62
     2
 10
103.837112
 20
101.999969
 11
165.645065
 21
101.999969
  0
LINE
  8
0
 10
128.500015
 20
112.999969
 11
133.999985
 21
112.999969
  0
LINE
  8
0
 10
137.000015
 20
95.999969
 11
137.000015
 21
100.928162
  0
LINE
  8
0
 10
133.999985
 20
107.999969
 11
137.000015
 21
107.999969
  0
LINE
  8
0
 10
159.700012
 20
109.799881
 11
159.700012
 21
122.199997
  0
LINE
  8
0
 10
159.999985
 20
94.499962
 11
159.699951
 21
94.199944
  0
LINE
  8
0
 10
160.000107
 20
81.500107
 11
159.700089
 21
81.800117
  0
LINE
  8
0
 10
146.899994
 20
132.599960
 11
149.100006
 21
132.599960
  0
LINE
  8
0
 10
152.600128
 20
132.600021
 11
155.000244
 21
135.000153
  0
LINE
  8
0
 10
152.600021
 20
132.074982
 11
152.600021
 21
132.599991
  0
LINE
  8
0
 10
153.074997
 20
131.599945
 11
152.599991
 21
132.074951
  0
LINE
  8
0
 10
153.075012
 20
129.974991
 11
153.075012
 21
131.599976
  0
LINE
  8
0
 10
148.925018
 20
129.974991
 11
148.925018
 21
131.599976
  0
LINE
  8
0
 10
148.925140
 20
131.600021
 11
149.400070
 21
132.074936
  0
LINE
  8
0
 10
149.400024
 20
132.074982
 11
149.400024
 21
132.299988
  0
LINE
  8
0
 10
146.600021
 20
132.074982
 11
146.600021
 21
132.299988
  0
LINE
  8
0
 10
147.074982
 20
131.599945
 11
146.599976
 21
132.074951
  0
LINE
  8
0
  6
CENTER
 10
147.075012
 20
129.974991
 11
147.075012
 21
131.599976
  0
LINE
  8
0
 10
143.400177
 20
132.600174
 11
141.000198
 21
135.000168
  0
LINE
  8
0
 10
143.400024
 20
132.074982
 11
143.400024
 21
132.599991
  0
LINE
  8
0
 10
142.924957
 20
131.599976
 11
143.399963
 21
132.074997
  0
LINE
  8
0
 10
142.925018
 20
129.974991
 11
142.925018
 21
131.599976
  0
LINE
  8
0
  6
CENTER
 62
     2
 10
141.858490
 20
129.974960
 11
154.120941
 21
129.974960
  0
LINE
  8
0
  6
CENTER
 62
     2
 10
151.000015
 20
126.808914
 11
151.000015
 21
133.857895
  0
LINE
  8
0
  6
CENTER
 62
     2
 10
145.000015
 20
126.759369
 11
145.000015
 21
134.032669
  0
LINE
  8
0
 10
141.000015
 20
134.999985
 11
141.000015
 21
138.000000
  0
LINE
  8
0
 10
155.000015
 20
135.000015
 11
155.000015
 21
138.000000
  0
LINE
  8
0
 10
160.000031
 20
122.500008
 11
159.699982
 21
122.199966
  0
LINE
  8
0
 10
160.000015
 20
122.500000
 11
160.000015
 21
138.000000
  0
LINE
  8
0
 10
159.999893
 20
109.499763
 11
159.699875
 21
109.799767
  0
LINE
  8
0
 10
160.000015
 20
94.499985
 11
160.000015
 21
109.499878
  0
LINE
  8
0
 10
159.700012
 20
81.800034
 11
159.700012
 21
94.199966
  0
LINE
  8
0
  6
CENTER
 62
     2
 10
148.000015
 20
62.022964
 11
148.000015
 21
134.859314
  0
LINE
  8
0
  6
CENTER
 62
     2
 10
136.133087
 20
115.999969
 11
162.371063
 21
115.999969
  0
LINE
  8
0
 10
160.000015
 20
66.000000
 11
160.000015
 21
81.500000
  0
LINE
  8
0
 10
138.000015
 20
96.000015
 11
138.000015
 21
108.000000
  0
LINE
  8
0
 10
136.500015
 20
131.500000
 11
136.500015
 21
121.500000
  0
LINE
  8
0
 10
135.000015
 20
82.500000
 11
135.000015
 21
93.000000
  0
LINE
  8
0
  6
CENTER
 62
     2
 10
109.333328
 20
77.999969
 11
141.873428
 21
77.999969
  0
LINE
  8
0
  6
CENTER
 62
     2
 10
109.333328
 20
125.999969
 11
142.869156
 21
125.999969
  0
LINE
  8
0
 10
135.000000
 20
92.999969
 11
138.000015
 21
95.999977
  0
LINE
  8
0
 10
136.000000
 20
72.499969
 11
136.500000
 21
72.499969
  0
LINE
  8
0
 10
138.000076
 20
108.000122
 11
135.000046
 21
111.000153
  0
LINE
  8
0
 10
135.000015
 20
111.000000
 11
135.000015
 21
121.500000
  0
LINE
  8
0
 10
136.000015
 20
131.500000
 11
136.000015
 21
138.000000
  0
LINE
  8
0
 10
136.000015
 20
65.999969
 11
136.000015
 21
72.500000
  0
LINE
  8
0
 10
136.000000
 20
131.499969
 11
136.500000
 21
131.499969
  0
LINE
  8
0
 10
134.000015
 20
108.000000
 11
134.000015
 21
113.000000
  0
LINE
  8
0
 10
131.008591
 20
82.499969
 11
136.499985
 21
82.499969
  0
LINE
  8
0
 10
134.000015
 20
95.999969
 11
137.000015
 21
95.999969
  0
LINE
  8
0
  6
CENTER
 62
     2
 10
133.000015
 20
108.407227
 11
133.000015
 21
95.493271
  0
LINE
  8
0
 10
129.000015
 20
100.928131
 11
129.000015
 21
90.999969
  0
LINE
  8
0
 10
114.999985
 20
137.999969
 11
160.000015
 21
137.999969
  0
LINE
  8
0
 10
126.500015
 20
67.500000
 11
126.500015
 21
88.000000
  0
LINE
  8
0
 10
126.500000
 20
115.499969
 11
128.500000
 21
115.499969
  0
LINE
  8
0
 10
132.000015
 20
138.000000
 11
132.000015
 21
136.500000
  0
LINE
  8
0
 10
126.500000
 20
136.499969
 11
132.000000
 21
136.499969
  0
LINE
  8
0
 10
126.500000
 20
115.999969
 11
134.300003
 21
115.999969
  0
LINE
  8
0
 10
134.300018
 20
121.500000
 11
134.300018
 21
116.000000
  0
LINE
  8
0
 10
131.008591
 20
121.499969
 11
136.499985
 21
121.499969
  0
LINE
  8
0
 10
131.000015
 20
130.500000
 11
131.000015
 21
121.500000
  0
LINE
  8
0
 10
131.008591
 20
130.499969
 11
136.500000
 21
130.499969
  0
LINE
  8
0
 10
134.300018
 20
136.000000
 11
134.300018
 21
130.500000
  0
LINE
  8
0
 10
126.500000
 20
135.999969
 11
134.300003
 21
135.999969
  0
LINE
  8
0
 10
126.500015
 20
136.500000
 11
126.500015
 21
115.500000
  0
LINE
  8
0
 10
131.008591
 20
73.499969
 11
136.500000
 21
73.499969
  0
LINE
  8
0
 10
126.500000
 20
87.999969
 11
134.300003
 21
87.999969
  0
LINE
  8
0
 10
126.500000
 20
67.999969
 11
134.300003
 21
67.999969
  0
LINE
  8
0
 10
134.300018
 20
82.500000
 11
134.300018
 21
88.000000
  0
LINE
  8
0
 10
134.300018
 20
68.000000
 11
134.300018
 21
73.500000
  0
LINE
  8
0
 10
131.000015
 20
73.500000
 11
131.000015
 21
82.500000
  0
LINE
  8
0
  6
CENTER
 62
     2
 10
-191.000015
 20
67.423492
 11
-191.000015
 21
77.001495
  0
LINE
  8
0
  6
CENTER
 62
     2
 10
-191.000015
 20
127.423492
 11
-191.000015
 21
137.001495
  0
LINE
  8
0
  6
CENTER
 62
     2
 10
-184.983536
 20
72.000031
 11
-214.788589
 21
72.000031
  0
LINE
  8
0
  6
CENTER
 62
     2
 10
-209.000015
 20
76.576569
 11
-209.000015
 21
66.998566
  0
LINE
  8
0
 10
-206.556610
 20
85.500015
 11
-205.113235
 21
88.000015
  0
LINE
  8
0
 10
-210.886719
 20
88.000000
 11
-209.443344
 21
90.500000
  0
LINE
  8
0
 10
-205.113281
 20
88.000015
 11
-206.556656
 21
90.500015
  0
LINE
  8
0
 10
-209.443405
 20
85.500053
 11
-210.886780
 21
88.000053
  0
LINE
  8
0
 10
-209.443390
 20
90.500015
 11
-206.556641
 21
90.500015
  0
LINE
  8
0
 10
-209.443390
 20
85.500015
 11
-206.556641
 21
85.500015
  0
LINE
  8
0
 10
-206.556595
 20
113.499992
 11
-205.113220
 21
115.999977
  0
LINE
  8
0
 10
-210.886719
 20
115.999985
 11
-209.443344
 21
118.499985
  0
LINE
  8
0
 10
-205.113281
 20
116.000000
 11
-206.556656
 21
118.500000
  0
LINE
  8
0
 10
-209.443420
 20
113.500023
 11
-210.886795
 21
116.000038
  0
LINE
  8
0
 10
-209.443390
 20
118.500015
 11
-206.556641
 21
118.500015
  0
LINE
  8
0
 10
-209.443390
 20
113.500015
 11
-206.556641
 21
113.500015
  0
LINE
  8
0
 10
-173.499969
 20
112.999954
 11
-172.999969
 21
113.499954
  0
LINE
  8
0
 10
-173.000015
 20
113.500015
 11
-173.000015
 21
136.000061
  0
LINE
  8
0
 10
-219.700012
 20
122.200180
 11
-219.700012
 21
109.800034
  0
LINE
  8
0
  6
CENTER
 62
     2
 10
-209.000015
 20
127.423492
 11
-209.000015
 21
137.001495
  0
LINE
  8
0
  6
CENTER
 62
     2
 10
-184.983536
 20
132.000031
 11
-214.788589
 21
132.000031
  0
LINE
  8
0
 10
-172.999954
 20
136.000122
 11
-174.999954
 21
138.000107
  0
LINE
  8
0
 10
-173.500015
 20
136.000061
 11
-175.500015
 21
138.000061
  0
LINE
  8
0
 10
-175.000000
 20
138.000031
 11
-219.699997
 21
138.000031
  0
LINE
  8
0
 10
-219.999802
 20
109.499908
 11
-219.699829
 21
109.799881
  0
LINE
  8
0
 10
-219.999863
 20
122.500145
 11
-219.699936
 21
122.200211
  0
LINE
  8
0
  6
CENTER
 62
     2
 10
-198.477783
 20
116.000031
 11
-217.348450
 21
116.000031
  0
LINE
  8
0
 10
-220.000015
 20
137.700058
 11
-220.000015
 21
122.500061
  0
LINE
  8
0
 10
-173.500046
 20
91.000038
 11
-173.000031
 21
90.500031
  0
LINE
  8
0
 10
-173.000015
 20
90.500031
 11
-173.000015
 21
68.000000
  0
LINE
  8
0
 10
-218.500015
 20
138.000031
 11
-218.500015
 21
66.000000
  0
LINE
  8
0
 10
-219.700012
 20
81.799881
 11
-219.700012
 21
94.200027
  0
LINE
  8
0
  6
CENTER
 62
     2
 10
-208.000015
 20
78.587952
 11
-208.000015
 21
125.279694
  0
LINE
  8
0
 10
-172.999985
 20
68.000008
 11
-175.000000
 21
66.000008
  0
LINE
  8
0
 10
-173.499939
 20
67.999962
 11
-175.499924
 21
65.999985
  0
LINE
  8
0
 10
-173.500015
 20
136.000107
 11
-173.500015
 21
68.000000
  0
LINE
  8
0
 10
-175.000000
 20
66.000031
 11
-219.699997
 21
66.000031
  0
LINE
  8
0
 10
-220.000015
 20
94.499985
 11
-220.000015
 21
109.500031
  0
LINE
  8
0
 10
-219.999832
 20
94.500061
 11
-219.699860
 21
94.200089
  0
LINE
  8
0
 10
-219.999893
 20
81.499939
 11
-219.699966
 21
81.799873
  0
LINE
  8
0
  6
CENTER
 62
     2
 10
-198.477783
 20
88.000031
 11
-217.465652
 21
88.000031
  0
LINE
  8
0
 10
-220.000015
 20
66.300003
 11
-220.000015
 21
81.500000
  0
LINE
  8
0
  6
CENTER
 62
     2
 10
-168.651413
 20
102.000031
 11
-225.068329
 21
102.000031
  0
LINE
  8
0
  6
PHANTOM
 62
     3
 10
27.999985
 20
46.863251
 11
27.999985
 21
97.866943
  0
LINE
  8
0
  6
PHANTOM
 62
     3
 10
-30.000015
 20
46.863251
 11
-71.000015
 21
46.863251
  0
LINE
  8
0
  6
PHANTOM
 62
     3
 10
42.999985
 20
97.866943
 11
42.999985
 21
106.133057
  0
LINE
  8
0
  6
PHANTOM
 62
     3
 10
27.999985
 20
97.866943
 11
42.999985
 21
97.866943
  0
LINE
  8
0
  6
PHANTOM
 62
     3
 10
27.999985
 20
106.133057
 11
42.999985
 21
106.133057
  0
LINE
  8
0
  6
PHANTOM
 62
     3
 10
27.999985
 20
142.799622
 11
27.999985
 21
106.133057
  0
LINE
  8
0
  6
PHANTOM
 62
     3
 10
-30.000015
 20
147.799622
 11
-30.000015
 21
46.863251
  0
LINE
  8
0
 10
32.499985
 20
101.599991
 11
32.499985
 21
99.500000
  0
LINE
  8
0
 10
30.499985
 20
102.399994
 11
30.499985
 21
101.599991
  0
LINE
  8
0
 10
30.499985
 20
101.599991
 11
32.499985
 21
101.599991
  0
LINE
  8
0
 10
30.499985
 20
102.399994
 11
32.499985
 21
102.399994
  0
LINE
  8
0
  6
CENTER
 62
     2
 10
-52.000015
 20
109.770889
 11
-52.000015
 21
93.960953
  0
LINE
  8
0
  6
CENTER
 62
     2
 10
-12.000015
 20
110.209259
 11
-12.000015
 21
93.855133
  0
LINE
  8
0
 10
30.999985
 20
73.500000
 11
30.999985
 21
82.500000
  0
LINE
  8
0
  6
CENTER
 62
     2
 10
13.625076
 20
78.000000
 11
36.661102
 21
78.000000
  0
LINE
  8
0
 10
17.999985
 20
73.000000
 11
32.999985
 21
73.000000
  0
LINE
  8
0
 10
17.999985
 20
82.500000
 11
32.999985
 21
82.500000
  0
LINE
  8
0
 10
17.999985
 20
73.500000
 11
30.999985
 21
73.500000
  0
LINE
  8
0
  6
CENTER
 62
     2
 10
13.625076
 20
126.000000
 11
36.661102
 21
126.000000
  0
LINE
  8
0
 10
17.999985
 20
131.000000
 11
32.999985
 21
131.000000
  0
LINE
  8
0
 10
30.999985
 20
130.500000
 11
30.999985
 21
121.500000
  0
LINE
  8
0
 10
17.999985
 20
121.500000
 11
32.999985
 21
121.500000
  0
LINE
  8
0
 10
17.999985
 20
130.500000
 11
30.999985
 21
130.500000
  0
LINE
  8
0
 10
-78.000015
 20
113.000015
 11
17.999985
 21
113.000015
  0
LINE
  8
0
 10
-78.000015
 20
113.500015
 11
17.999985
 21
113.500015
  0
LINE
  8
0
  6
CENTER
 62
     2
 10
-65.000015
 20
95.666656
 11
-65.000015
 21
108.333328
  0
LINE
  8
0
  6
CENTER
 62
     2
 10
-65.000015
 20
121.333328
 11
-65.000015
 21
130.934540
  0
LINE
  8
0
 10
-90.000015
 20
136.000000
 11
17.999985
 21
136.000000
  0
LINE
  8
0
 10
32.499985
 20
104.500000
 11
32.499985
 21
102.399994
  0
LINE
  8
0
 62
     2
 10
23.699982
 20
104.099991
 11
32.499985
 21
104.099991
  0
LINE
  8
0
 10
23.699982
 20
104.500000
 11
32.499985
 21
104.500000
  0
LINE
  8
0
 10
23.699982
 20
99.500000
 11
32.499985
 21
99.500000
  0
LINE
  8
0
 62
     2
 10
23.699982
 20
99.899994
 11
32.499985
 21
99.899994
  0
LINE
  8
0
 10
23.699982
 20
98.000000
 11
18.999985
 21
98.000000
  0
LINE
  8
0
 10
23.699982
 20
106.000000
 11
18.999985
 21
106.000000
  0
LINE
  8
0
 10
23.699982
 20
98.000000
 11
23.699982
 21
106.000000
  0
LINE
  8
0
 10
-90.000015
 20
68.000000
 11
17.999985
 21
68.000000
  0
LINE
  8
0
 10
-41.000015
 20
104.000000
 11
-39.000015
 21
104.000000
  0
LINE
  8
0
 10
-41.000015
 20
100.000000
 11
-39.000015
 21
100.000000
  0
LINE
  8
0
 10
-90.000015
 20
138.000000
 11
32.999985
 21
138.000000
  0
LINE
  8
0
  6
CENTER
 62
     2
 10
-69.806122
 20
127.000000
 11
-59.862869
 21
127.000000
  0
LINE
  8
0
  6
CENTER
 62
     2
 10
-40.000015
 20
95.666656
 11
-40.000015
 21
108.333328
  0
LINE
  8
0
  6
CENTER
 62
     2
 10
-24.806137
 20
127.000000
 11
-14.862885
 21
127.000000
  0
LINE
  8
0
  6
CENTER
 62
     2
 10
-40.000015
 20
130.630096
 11
-40.000015
 21
122.587814
  0
LINE
  8
0
  6
CENTER
 62
     2
 10
-44.050659
 20
127.000000
 11
-36.496414
 21
127.000000
  0
LINE
  8
0
  6
CENTER
 62
     2
 10
-20.000015
 20
122.780746
 11
-20.000015
 21
130.934540
  0
LINE
  8
0
  6
CENTER
 62
     2
 10
-69.806122
 20
77.000000
 11
-59.862869
 21
77.000000
  0
LINE
  8
0
  6
CENTER
 62
     2
 10
-65.000015
 20
81.219254
 11
-65.000015
 21
73.065460
  0
LINE
  8
0
 10
23.342712
 20
102.000000
 11
19.357239
 21
102.000000
  0
LINE
  8
0
  6
CENTER
 62
     2
 10
-24.806137
 20
77.000000
 11
-14.862885
 21
77.000000
  0
LINE
  8
0
 10
17.999985
 20
90.000000
 11
18.999985
 21
90.000000
  0
LINE
  8
0
 10
18.999985
 20
108.000000
 11
32.999985
 21
108.000000
  0
LINE
  8
0
 10
18.999985
 20
111.000031
 11
32.999985
 21
111.000031
  0
LINE
  8
0
  6
CENTER
 62
     2
 10
-94.957870
 20
102.000000
 11
38.397797
 21
102.000000
  0
LINE
  8
0
 10
17.999985
 20
138.000000
 11
17.999985
 21
66.000000
  0
LINE
  8
0
 10
18.999985
 20
114.000000
 11
18.999985
 21
90.000000
  0
LINE
  8
0
 10
-78.000015
 20
90.999985
 11
17.999985
 21
90.999985
  0
LINE
  8
0
 10
-78.000015
 20
90.499969
 11
17.999985
 21
90.499969
  0
LINE
  8
0
 10
17.999985
 20
114.000000
 11
18.999985
 21
114.000000
  0
LINE
  8
0
  6
CENTER
 62
     2
 10
-40.000015
 20
73.369904
 11
-40.000015
 21
81.412186
  0
LINE
  8
0
  6
CENTER
 62
     2
 10
-44.050659
 20
77.000000
 11
-36.496414
 21
77.000000
  0
LINE
  8
0
  6
CENTER
 62
     2
 10
-20.000015
 20
81.219254
 11
-20.000015
 21
73.065460
  0
LINE
  8
0
 10
18.999985
 20
92.999969
 11
32.999985
 21
92.999969
  0
LINE
  8
0
 10
18.999985
 20
96.000000
 11
32.999985
 21
96.000000
  0
LINE
  8
0
 10
-78.000015
 20
138.000000
 11
-78.000015
 21
66.000000
  0
LINE
  8
0
 10
-90.000015
 20
138.000000
 11
-90.000015
 21
66.000000
  0
LINE
  8
0
 10
-90.000015
 20
66.000000
 11
32.999985
 21
66.000000
  0
LINE
  8
0
 10
32.999985
 20
138.000000
 11
32.999985
 21
66.000000
  0
LINE
  8
0
 10
-271.250000
 20
-175.000000
 11
-131.250000
 21
-175.000000
  0
LINE
  8
0
 10
-271.250000
 20
-165.000000
 11
-131.250000
 21
-165.000000
  0
LINE
  8
0
 10
-131.250000
 20
-115.000000
 11
-131.250000
 21
-185.000000
  0
LINE
  8
0
 10
-146.250000
 20
-115.000000
 11
-146.250000
 21
-185.000000
  0
LINE
  8
0
 10
-161.250000
 20
-115.000000
 11
-161.250000
 21
-185.000000
  0
LINE
  8
0
 10
-176.250000
 20
-115.000000
 11
-176.250000
 21
-185.000000
  0
LINE
  8
0
 10
-191.250000
 20
-115.000000
 11
-191.250000
 21
-185.000000
  0
LINE
  8
0
 10
-206.250000
 20
-115.000000
 11
-206.250000
 21
-185.000000
  0
LINE
  8
0
 10
-221.250000
 20
-115.000000
 11
-221.250000
 21
-185.000000
  0
LINE
  8
0
 10
-236.250046
 20
-144.999985
 11
-239.776581
 21
-124.999985
  0
LINE
  8
0
 10
-236.250000
 20
-115.000000
 11
-236.250000
 21
-185.000000
  0
LINE
  8
0
 10
-271.250000
 20
-115.000000
 11
-131.250000
 21
-115.000000
  0
LINE
  8
0
 10
-271.250000
 20
-125.000000
 11
-239.776535
 21
-125.000000
  0
LINE
  8
0
 10
-271.250000
 20
-145.000000
 11
-131.250000
 21
-145.000000
  0
LINE
  8
0
 10
-271.250000
 20
-155.000000
 11
-131.250000
 21
-155.000000
  0
LINE
  8
0
 10
-271.250000
 20
-115.000000
 11
-271.250000
 21
-185.000000
  0
LINE
  8
0
 10
-271.250000
 20
-185.000000
 11
-131.250000
 21
-185.000000
  0
LINE
  8
0
 10
-161.250000
 20
195.500000
 11
-161.250000
 21
175.500000
  0
LINE
  8
0
 10
162.099976
 20
195.500000
 11
162.099976
 21
175.500000
  0
LINE
  8
0
 10
-281.250000
 20
175.500000
 11
-161.250000
 21
175.500000
  0
LINE
  8
0
 10
162.099976
 20
175.500000
 11
282.099854
 21
175.500000
  0
LINE
  8
0
 10
162.099976
 20
-175.000000
 11
282.099854
 21
-175.000000
  0
LINE
  8
0
 10
162.099976
 20
-175.000000
 11
162.099976
 21
-195.000000
  0
LINE
  8
0
 10
-281.250000
 20
-195.000000
 11
282.099854
 21
-195.000000
  0
LINE
  8
0
 10
282.099854
 20
195.500000
 11
282.099854
 21
-195.000000
  0
LINE
  8
0
 10
-281.250000
 20
195.500000
 11
-281.250000
 21
-195.000000
  0
LINE
  8
0
 10
-281.250000
 20
195.500000
 11
282.099854
 21
195.500000
  0
CIRCLE
  8
0
 62
     2
 10
105.681137
 20
-138.255524
 40
2.500000
  0
CIRCLE
  8
0
 10
105.681137
 20
-138.255524
 40
2.099999
  0
CIRCLE
  8
0
 62
     2
 10
208.681137
 20
-140.255524
 40
2.500000
  0
CIRCLE
  8
0
 10
208.681137
 20
-140.255524
 40
2.099999
  0
CIRCLE
  8
0
 62
     2
 10
168.681137
 20
-140.255524
 40
2.500000
  0
CIRCLE
  8
0
 10
168.681137
 20
-140.255524
 40
2.099999
  0
CIRCLE
  8
0
 62
     2
 10
128.681137
 20
-140.255524
 40
2.500000
  0
CIRCLE
  8
0
 10
128.681137
 20
-140.255524
 40
2.099999
  0
CIRCLE
  8
0
 10
128.681137
 20
-113.255524
 40
2.099999
  0
CIRCLE
  8
0
 10
168.681137
 20
-113.255524
 40
2.099999
  0
CIRCLE
  8
0
 10
208.681137
 20
-113.255524
 40
2.099999
  0
CIRCLE
  8
0
 10
105.681137
 20
-88.255524
 40
2.099999
  0
CIRCLE
  8
0
 10
128.681137
 20
-86.255524
 40
2.099999
  0
CIRCLE
  8
0
 10
168.681137
 20
-86.255524
 40
2.099999
  0
CIRCLE
  8
0
 62
     2
 10
208.681137
 20
-113.255524
 40
2.500000
  0
CIRCLE
  8
0
 62
     2
 10
168.681137
 20
-113.255524
 40
2.500000
  0
CIRCLE
  8
0
 62
     2
 10
128.681137
 20
-113.255524
 40
2.500000
  0
CIRCLE
  8
0
 62
     2
 10
105.681137
 20
-88.255524
 40
2.500000
  0
CIRCLE
  8
0
 62
     2
 10
128.681137
 20
-86.255524
 40
2.500000
  0
CIRCLE
  8
0
 62
     2
 10
168.681137
 20
-86.255524
 40
2.500000
  0
CIRCLE
  8
0
 10
208.681137
 20
-86.255524
 40
2.099999
  0
CIRCLE
  8
0
 62
     2
 10
208.681137
 20
-86.255524
 40
2.500000
  0
ARC
  8
0
 10
219.681137
 20
-113.255524
 40
2.000000
 50
270.000000
 51
90.000000
  0
ARC
  8
0
 10
217.681137
 20
-113.255524
 40
2.000000
 50
90.000000
 51
270.000000
  0
CIRCLE
  8
0
 10
138.681137
 20
-113.255524
 40
2.000000
  0
ARC
  8
0
 10
107.904434
 20
-115.255524
 40
5.776704
 50
339.743896
 51
20.256166
  0
ARC
  8
0
 10
107.904434
 20
-111.255524
 40
5.776704
 50
339.743896
 51
20.256166
  0
ARC
  8
0
 10
114.757858
 20
-111.255524
 40
5.776707
 50
159.743835
 51
200.256088
  0
ARC
  8
0
 10
114.757858
 20
-115.255524
 40
5.776707
 50
159.743835
 51
200.256073
  0
ARC
  8
0
 10
109.457840
 20
-115.255524
 40
5.776702
 50
159.743744
 51
200.256088
  0
ARC
  8
0
 10
109.457840
 20
-111.255524
 40
5.776700
 50
159.743805
 51
200.256088
  0
CIRCLE
  8
0
 62
     2
 10
-65.000015
 20
-138.255524
 40
2.500000
  0
CIRCLE
  8
0
 10
-65.000015
 20
-138.255524
 40
2.099999
  0
CIRCLE
  8
0
 62
     2
 10
-2.000015
 20
-140.255524
 40
2.500000
  0
CIRCLE
  8
0
 10
-2.000015
 20
-140.255524
 40
2.099999
  0
CIRCLE
  8
0
 62
     2
 10
-42.000015
 20
-140.255524
 40
2.500000
  0
CIRCLE
  8
0
 10
-42.000015
 20
-140.255524
 40
2.099999
  0
CIRCLE
  8
0
 10
-2.000015
 20
-113.255524
 40
2.099999
  0
CIRCLE
  8
0
 10
-42.000015
 20
-113.255524
 40
2.099999
  0
CIRCLE
  8
0
 10
-65.000015
 20
-88.255524
 40
2.099999
  0
CIRCLE
  8
0
 10
-42.000015
 20
-86.255524
 40
2.099999
  0
CIRCLE
  8
0
 10
-2.000015
 20
-86.255524
 40
2.099999
  0
CIRCLE
  8
0
 62
     2
 10
-42.000015
 20
-113.255524
 40
2.500000
  0
CIRCLE
  8
0
 62
     2
 10
-2.000015
 20
-113.255524
 40
2.500000
  0
CIRCLE
  8
0
 62
     2
 10
-65.000015
 20
-88.255524
 40
2.500000
  0
CIRCLE
  8
0
 62
     2
 10
-42.000015
 20
-86.255524
 40
2.500000
  0
CIRCLE
  8
0
 62
     2
 10
-2.000015
 20
-86.255524
 40
2.500000
  0
ARC
  8
0
 10
-62.776718
 20
-115.255524
 40
5.776708
 50
339.743927
 51
20.256153
  0
ARC
  8
0
 10
-62.776718
 20
-111.255524
 40
5.776708
 50
339.743927
 51
20.256153
  0
ARC
  8
0
 10
-55.923294
 20
-111.255524
 40
5.776711
 50
159.743851
 51
200.256088
  0
ARC
  8
0
 10
-55.923294
 20
-115.255524
 40
5.776707
 50
159.743835
 51
200.256088
  0
ARC
  8
0
 10
-61.223312
 20
-115.255524
 40
5.776702
 50
159.743744
 51
200.256088
  0
ARC
  8
0
 10
-61.223312
 20
-111.255524
 40
5.776700
 50
159.743805
 51
200.256088
  0
ARC
  8
0
 10
8.999985
 20
-113.255524
 40
2.000000
 50
270.000031
 51
89.999969
  0
ARC
  8
0
 10
6.999985
 20
-113.255524
 40
2.000000
 50
89.999985
 51
270.000000
  0
CIRCLE
  8
0
 10
-32.000015
 20
-113.255524
 40
2.000000
  0
ARC
  8
0
 10
16.057251
 20
7.182846
 40
7.642740
 50
15.170024
 51
17.587898
  0
ARC
  8
0
 10
26.642731
 20
7.182846
 40
7.642740
 50
162.412018
 51
164.829956
  0
ARC
  8
0
 10
21.044647
 20
10.646942
 40
2.044658
 50
154.384293
 51
214.384140
  0
ARC
  8
0
 10
21.655334
 20
10.646942
 40
2.044660
 50
325.615723
 51
25.615545
  0
ARC
  8
0
 10
-64.955353
 20
-16.781281
 40
2.044660
 50
145.615723
 51
205.615585
  0
ARC
  8
0
 10
-59.357285
 20
-13.317184
 40
7.642732
 50
176.248886
 51
197.587921
  0
ARC
  8
0
 10
-59.044678
 20
-16.781281
 40
2.044660
 50
334.384399
 51
34.384209
  0
ARC
  8
0
 10
-64.642761
 20
-13.317169
 40
7.642740
 50
342.412109
 51
3.751081
  0
ARC
  8
0
 10
-53.357285
 20
-13.317184
 40
7.642739
 50
176.248871
 51
197.587860
  0
ARC
  8
0
 10
-58.955368
 20
-16.781281
 40
2.044659
 50
145.615753
 51
205.615540
  0
CIRCLE
  8
0
 62
     2
 10
-32.000015
 20
-7.817177
 40
2.500000
  0
CIRCLE
  8
0
 10
-32.000015
 20
-7.817177
 40
2.099999
  0
CIRCLE
  8
0
 10
20.999985
 20
-7.817177
 40
2.099999
  0
CIRCLE
  8
0
 62
     2
 10
20.999985
 20
-7.817177
 40
2.500000
  0
CIRCLE
  8
0
 10
148.000000
 20
87.999939
 40
10.750000
  0
CIRCLE
  8
0
 10
148.000000
 20
87.999939
 40
10.500000
  0
CIRCLE
  8
0
 10
148.000000
 20
116.000000
 40
10.750000
  0
CIRCLE
  8
0
 10
148.000000
 20
116.000000
 40
10.500000
  0
ARC
  8
0
 10
132.999985
 20
102.000000
 40
2.067003
 50
191.159012
 51
348.841003
  0
ARC
  8
0
 10
145.000015
 20
129.974991
 40
2.074997
 50
180.000000
 51
0.000000
  0
ARC
  8
0
 10
149.100021
 20
132.299988
 40
0.300003
 50
0.000000
 51
90.000000
  0
ARC
  8
0
 10
146.900024
 20
132.299988
 40
0.300003
 50
90.000000
 51
180.000000
  0
ARC
  8
0
 10
151.000015
 20
129.974991
 40
2.074997
 50
180.000000
 51
0.000000
  0
ARC
  8
0
 10
132.999985
 20
102.000000
 40
2.067006
 50
11.157264
 51
168.842743
  0
CIRCLE
  8
0
 62
     2
 10
132.999985
 20
102.000000
 40
2.500000
  0
CIRCLE
  8
0
 10
132.999985
 20
102.000000
 40
4.000000
  0
CIRCLE
  8
0
 62
     2
 10
-209.000015
 20
72.000031
 40
2.500000
  0
CIRCLE
  8
0
 62
     2
 10
-191.000015
 20
72.000031
 40
2.500000
  0
CIRCLE
  8
0
 10
-209.000015
 20
72.000031
 40
2.099999
  0
CIRCLE
  8
0
 10
-191.000015
 20
72.000031
 40
2.099999
  0
CIRCLE
  8
0
 10
-191.000015
 20
132.000031
 40
2.099999
  0
CIRCLE
  8
0
 10
-209.000015
 20
132.000031
 40
2.099999
  0
CIRCLE
  8
0
 62
     2
 10
-191.000015
 20
132.000031
 40
2.500000
  0
CIRCLE
  8
0
 62
     2
 10
-209.000015
 20
132.000031
 40
2.500000
  0
CIRCLE
  8
0
 10
-208.000015
 20
88.000031
 40
4.307179
  0
CIRCLE
  8
0
 10
-208.000015
 20
88.000031
 40
5.000000
  0
CIRCLE
  8
0
 10
-208.000015
 20
116.000031
 40
4.307179
  0
CIRCLE
  8
0
 10
-208.000015
 20
116.000031
 40
5.000000
  0
CIRCLE
  8
0
 10
-208.000000
 20
116.000061
 40
7.000000
  0
CIRCLE
  8
0
 10
-208.000000
 20
88.000000
 40
7.000000
  0
CIRCLE
  8
0
 10
-208.000000
 20
116.000061
 40
7.500000
  0
ARC
  8
0
 10
-219.699997
 20
137.700058
 40
0.300003
 50
90.000000
 51
180.000000
  0
CIRCLE
  8
0
 10
-208.000000
 20
88.000000
 40
7.500000
  0
ARC
  8
0
 10
-219.699997
 20
66.300003
 40
0.300003
 50
180.000000
 51
270.000000
  0
CIRCLE
  8
0
 10
-65.000015
 20
77.000000
 40
2.099999
  0
CIRCLE
  8
0
 62
     2
 10
-65.000015
 20
77.000000
 40
2.500000
  0
CIRCLE
  8
0
 10
-40.000015
 20
77.000000
 40
2.099999
  0
CIRCLE
  8
0
 62
     2
 10
-40.000015
 20
77.000000
 40
2.500000
  0
CIRCLE
  8
0
 10
-20.000015
 20
77.000000
 40
2.099999
  0
CIRCLE
  8
0
 62
     2
 10
-20.000015
 20
77.000000
 40
2.500000
  0
CIRCLE
  8
0
 10
-20.000015
 20
127.000000
 40
2.099999
  0
CIRCLE
  8
0
 62
     2
 10
-20.000015
 20
127.000000
 40
2.500000
  0
CIRCLE
  8
0
 10
-40.000015
 20
127.000000
 40
2.099999
  0
CIRCLE
  8
0
 62
     2
 10
-40.000015
 20
127.000000
 40
2.500000
  0
CIRCLE
  8
0
 10
-65.000015
 20
127.000000
 40
2.099999
  0
CIRCLE
  8
0
 62
     2
 10
-65.000015
 20
127.000000
 40
2.500000
  0
ARC
  8
0
 10
17.923279
 20
100.000000
 40
5.776709
 50
339.743835
 51
20.256081
  0
ARC
  8
0
 10
17.923279
 20
104.000000
 40
5.776707
 50
339.743835
 51
20.256075
  0
ARC
  8
0
 10
-39.000015
 20
102.000000
 40
2.000000
 50
270.000000
 51
90.000000
  0
ARC
  8
0
 10
-41.000015
 20
102.000000
 40
2.000000
 50
90.000000
 51
270.000000
  0
CIRCLE
  8
0
 10
-65.000015
 20
102.000000
 40
2.000000
  0
ARC
  8
0
 10
24.776688
 20
100.000000
 40
5.776707
 50
159.743835
 51
200.256073
  0
ARC
  8
0
 10
24.776688
 20
104.000000
 40
5.776707
 50
159.743835
 51
200.256073
  0
CIRCLE
  8
0
 10
-12.000015
 20
102.000000
 40
5.000000
  0
CIRCLE
  8
0
 10
-52.000015
 20
102.000000
 40
5.000000
  0
TEXT
  8
0
 62
     3
 10
-61.892670
 20
149.749619
 40
4.500000
  1
STRETCH LINE A
 50
0.000000
 41
1.052632
 51
0.000000
  7
STANDARD
  0
TEXT
  8
0
 62
     3
 10
-5.792679
 20
142.361237
 40
4.500000
  1
STRETCH LINE B
 50
0.000000
 41
1.052632
 51
0.000000
  7
STANDARD
  0
TEXT
  8
0
 62
     3
 10
78.788483
 20
-57.771069
 40
4.500000
  1
STRETCH LINE A
 50
0.000000
 41
1.052632
 51
0.000000
  7
STANDARD
  0
TEXT
  8
0
 62
     3
 10
171.788483
 20
-57.771069
 40
4.500000
  1
STRETCH LINE D
 50
0.000000
 41
1.052632
 51
0.000000
  7
STANDARD
  0
TEXT
  8
0
 62
     3
 10
121.788483
 20
-67.771072
 40
4.500000
  1
STRETCH LINE C
 50
0.000000
 41
1.052632
 51
0.000000
  7
STANDARD
  0
TEXT
  8
0
 62
     3
 10
-91.892670
 20
-59.771069
 40
4.500000
  1
STRETCH LINE A
 50
0.000000
 41
1.052632
 51
0.000000
  7
STANDARD
  0
TEXT
  8
0
 62
     3
 10
-48.892670
 20
-69.771072
 40
4.500000
  1
STRETCH LINE B
 50
0.000000
 41
1.052632
 51
0.000000
  7
STANDARD
  0
TEXT
  8
0
 10
-186.392654
 20
-183.050003
 40
4.500000
  1
-
 50
0.000000
 41
1.052632
 51
0.000000
  7
STANDARD
  0
TEXT
  8
0
 10
-201.392654
 20
-183.050003
 40
4.500000
  1
-
 50
0.000000
 41
1.052632
 51
0.000000
  7
STANDARD
  0
TEXT
  8
0
 10
-216.392654
 20
-183.050003
 40
4.500000
  1
-
 50
0.000000
 41
1.052632
 51
0.000000
  7
STANDARD
  0
TEXT
  8
0
 10
-231.392654
 20
-183.050003
 40
4.500000
  1
-
 50
0.000000
 41
1.052632
 51
0.000000
  7
STANDARD
  0
TEXT
  8
0
 10
-171.392654
 20
-183.050003
 40
4.500000
  1
0
 50
0.000000
 41
1.052632
 51
0.000000
  7
STANDARD
  0
TEXT
  8
0
 10
-143.642654
 20
-163.050003
 40
4.500000
  1
70
 50
0.000000
 41
1.052632
 51
0.000000
  7
STANDARD
  0
TEXT
  8
0
 10
-158.642654
 20
-163.050003
 40
4.500000
  1
50
 50
0.000000
 41
1.052632
 51
0.000000
  7
STANDARD
  0
TEXT
  8
0
 10
-173.642654
 20
-163.050003
 40
4.500000
  1
40
 50
0.000000
 41
1.052632
 51
0.000000
  7
STANDARD
  0
TEXT
  8
0
 10
-188.642654
 20
-163.050003
 40
4.500000
  1
30
 50
0.000000
 41
1.052632
 51
0.000000
  7
STANDARD
  0
TEXT
  8
0
 10
-203.642654
 20
-163.050003
 40
4.500000
  1
20
 50
0.000000
 41
1.052632
 51
0.000000
  7
STANDARD
  0
TEXT
  8
0
 10
-218.642654
 20
-163.050003
 40
4.500000
  1
10
 50
0.000000
 41
1.052632
 51
0.000000
  7
STANDARD
  0
TEXT
  8
0
 10
-231.392654
 20
-163.050003
 40
4.500000
  1
0
 50
0.000000
 41
1.052632
 51
0.000000
  7
STANDARD
  0
TEXT
  8
0
 10
-143.642654
 20
-183.050003
 40
4.500000
  1
15
 50
0.000000
 41
1.052632
 51
0.000000
  7
STANDARD
  0
TEXT
  8
0
 10
-156.392654
 20
-183.050003
 40
4.500000
  1
5
 50
0.000000
 41
1.052632
 51
0.000000
  7
STANDARD
  0
TEXT
  8
0
 10
-256.392670
 20
-183.050003
 40
4.500000
  1
D
 50
0.000000
 41
1.052632
 51
0.000000
  7
STANDARD
  0
TEXT
  8
0
 10
-256.392670
 20
-173.050003
 40
4.500000
  1
C
 50
0.000000
 41
1.052632
 51
0.000000
  7
STANDARD
  0
TEXT
  8
0
 10
-218.642654
 20
-153.050003
 40
4.500000
  1
10
 50
0.000000
 41
1.052632
 51
0.000000
  7
STANDARD
  0
TEXT
  8
0
 10
-203.642654
 20
-153.050003
 40
4.500000
  1
20
 50
0.000000
 41
1.052632
 51
0.000000
  7
STANDARD
  0
TEXT
  8
0
 10
-188.642654
 20
-153.050003
 40
4.500000
  1
30
 50
0.000000
 41
1.052632
 51
0.000000
  7
STANDARD
  0
TEXT
  8
0
 10
-173.642654
 20
-153.050003
 40
4.500000
  1
40
 50
0.000000
 41
1.052632
 51
0.000000
  7
STANDARD
  0
TEXT
  8
0
 10
-158.642654
 20
-153.050003
 40
4.500000
  1
50
 50
0.000000
 41
1.052632
 51
0.000000
  7
STANDARD
  0
TEXT
  8
0
 10
-143.642654
 20
-153.050003
 40
4.500000
  1
70
 50
0.000000
 41
1.052632
 51
0.000000
  7
STANDARD
  0
TEXT
  8
0
 10
-231.392654
 20
-153.050003
 40
4.500000
  1
0
 50
0.000000
 41
1.052632
 51
0.000000
  7
STANDARD
  0
TEXT
  8
0
 10
-231.392654
 20
-173.050003
 40
4.500000
  1
-
 50
0.000000
 41
1.052632
 51
0.000000
  7
STANDARD
  0
TEXT
  8
0
 10
-143.642654
 20
-173.050003
 40
4.500000
  1
15
 50
0.000000
 41
1.052632
 51
0.000000
  7
STANDARD
  0
TEXT
  8
0
 10
-156.392654
 20
-173.050003
 40
4.500000
  1
5
 50
0.000000
 41
1.052632
 51
0.000000
  7
STANDARD
  0
TEXT
  8
0
 10
-171.392654
 20
-173.050003
 40
4.500000
  1
0
 50
0.000000
 41
1.052632
 51
0.000000
  7
STANDARD
  0
TEXT
  8
0
 10
-186.392654
 20
-173.050003
 40
4.500000
  1
-
 50
0.000000
 41
1.052632
 51
0.000000
  7
STANDARD
  0
TEXT
  8
0
 10
-201.392654
 20
-173.050003
 40
4.500000
  1
-
 50
0.000000
 41
1.052632
 51
0.000000
  7
STANDARD
  0
TEXT
  8
0
 10
-216.392654
 20
-173.050003
 40
4.500000
  1
-
 50
0.000000
 41
1.052632
 51
0.000000
  7
STANDARD
  0
TEXT
  8
0
 10
-148.142654
 20
-113.050003
 40
4.500000
  1
（ｍｍ）
 50
0.000000
 41
0.833333
 51
0.000000
  7
STANDARD
  0
TEXT
  8
0
 10
-228.642654
 20
-113.050003
 40
4.500000
  1
STRETCH LIST
 50
0.000000
 41
1.052632
 51
0.000000
  7
STANDARD
  0
TEXT
  8
0
 10
-143.642654
 20
-133.050003
 40
4.500000
  1
80
 50
0.000000
 41
1.052632
 51
0.000000
  7
STANDARD
  0
TEXT
  8
0
 10
-158.642654
 20
-133.050003
 40
4.500000
  1
60
 50
0.000000
 41
1.052632
 51
0.000000
  7
STANDARD
  0
TEXT
  8
0
 10
-173.642654
 20
-133.050003
 40
4.500000
  1
50
 50
0.000000
 41
1.052632
 51
0.000000
  7
STANDARD
  0
TEXT
  8
0
 10
-188.642654
 20
-133.050003
 40
4.500000
  1
40
 50
0.000000
 41
1.052632
 51
0.000000
  7
STANDARD
  0
TEXT
  8
0
 10
-203.642654
 20
-133.050003
 40
4.500000
  1
30
 50
0.000000
 41
1.052632
 51
0.000000
  7
STANDARD
  0
TEXT
  8
0
 10
-218.642654
 20
-133.050003
 40
4.500000
  1
20
 50
0.000000
 41
1.052632
 51
0.000000
  7
STANDARD
  0
TEXT
  8
0
 10
-233.642654
 20
-133.050003
 40
4.500000
  1
10
 50
0.000000
 41
1.052632
 51
0.000000
  7
STANDARD
  0
TEXT
  8
0
 10
-270.892670
 20
-133.324997
 40
4.500000
  1
STRETCH
 50
0.000000
 41
1.052632
 51
0.000000
  7
STANDARD
  0
TEXT
  8
0
 10
-270.892670
 20
-140.074997
 40
4.500000
  1
  PLACE
 50
0.000000
 41
1.052632
 51
0.000000
  7
STANDARD
  0
TEXT
  8
0
 10
-267.642670
 20
-123.050003
 40
4.500000
  1
STROKE
 50
0.000000
 41
1.052632
 51
0.000000
  7
STANDARD
  0
TEXT
  8
0
 10
-256.392670
 20
-153.050003
 40
4.500000
  1
A
 50
0.000000
 41
1.052632
 51
0.000000
  7
STANDARD
  0
TEXT
  8
0
 10
-256.392670
 20
-163.050003
 40
4.500000
  1
B
 50
0.000000
 41
1.052632
 51
0.000000
  7
STANDARD
  0
TEXT
  8
0
 10
-270.049713
 20
155.830002
 40
6.300000
  1
MODEL:ARS20*ST(10)
 50
0.000000
 41
1.052632
 51
0.000000
  7
STANDARD
  0
TEXT
  8
0
 10
-253.399719
 20
180.830002
 40
6.300000
  1
ROD SLIDER
 50
0.000000
 41
1.052632
 51
0.000000
  7
STANDARD
  0
TEXT
  8
0
 10
167.564667
 20
-192.100006
 40
9.000000
  1
KOGANEI CORP.
 50
0.000000
 41
1.052632
 51
0.000000
  7
STANDARD
  0
TEXT
  8
0
 10
196.250259
 20
180.830002
 40
6.300000
  1
Ver. 1.1
 50
0.000000
 41
1.052632
 51
0.000000
  7
STANDARD
  0
ENDSEC
  0
EOF
