  0
SECTION
  2
HEADER
  0
ENDSEC
  0
SECTION
  2
TABLES
  0
TABLE
  2
LTYPE
 70
     4
  0
LTYPE
  2
CONTINUOUS
 70
    64
  3
Solid line
 72
    65
 73
     0
 40
0.000000
  0
LTYPE
  2
DASHED
 70
    64
  3
__ __ __ __ __ __ __ __ __ __ __ __ __ __ __
 72
    65
 73
     2
 40
3.500000
 49
2.000000
 49
-1.500000
  0
LTYPE
  2
CENTER
 70
    64
  3
____ _ ____ _ ____ _ ____ _ ____ _ ____ _ ____
 72
    65
 73
     4
 40
17.500000
 49
13.000000
 49
-1.500000
 49
1.500000
 49
-1.500000
  0
LTYPE
  2
PHANTOM
 70
    64
  3
_____ _ _ _____ _ _ _____ _ _ _____ _ _ ____  
 72
    65
 73
     6
 40
15.500000
 49
8.000000
 49
-1.500000
 49
1.500000
 49
-1.500000
 49
1.500000
 49
-1.500000
  0
LTYPE
  2
DASHED1
 70
    64
  3
__ __ __ __ __ __ __ __ __ __ __ __ __ __ __
 72
    65
 73
     2
 40
1.500000
 49
1.000000
 49
-0.500000
  0
LTYPE
  2
DASHED2
 70
    64
  3
__ __ __ __ __ __ __ __ __ __ __ __ __ __ __
 72
    65
 73
     2
 40
3.500000
 49
2.500000
 49
-1.000000
  0
LTYPE
  2
DASHED3
 70
    64
  3
__ __ __ __ __ __ __ __ __ __ __ __ __ __ __
 72
    65
 73
     2
 40
6.000000
 49
4.000000
 49
-2.000000
  0
LTYPE
  2
DASHED4
 70
    64
  3
__ __ __ __ __ __ __ __ __ __ __ __ __ __ __
 72
    65
 73
     2
 40
12.000000
 49
10.000000
 49
-2.000000
  0
LTYPE
  2
DASHED5
 70
    64
  3
__ __ __ __ __ __ __ __ __ __ __ __ __ __ __
 72
    65
 73
     2
 40
17.000000
 49
15.000000
 49
-2.000000
  0
LTYPE
  2
DASHED6
 70
    64
  3
__ __ __ __ __ __ __ __ __ __ __ __ __ __ __
 72
    65
 73
     2
 40
29.000000
 49
27.000000
 49
-2.000000
  0
LTYPE
  2
PHANTOM1
 70
    64
  3
_____ _ _ _____ _ _ _____ _ _ _____ _ _ ____  
 72
    65
 73
     6
 40
31.000000
 49
25.000000
 49
-1.500000
 49
1.000000
 49
-1.000000
 49
1.000000
 49
-1.500000
  0
LTYPE
  2
PHANTOM2
 70
    64
  3
_____ _ _ _____ _ _ _____ _ _ _____ _ _ ____  
 72
    65
 73
     6
 40
36.000000
 49
27.000000
 49
-1.500000
 49
2.500000
 49
-1.000000
 49
2.500000
 49
-1.500000
  0
LTYPE
  2
PHANTOM3
 70
    64
  3
_____ _ _ _____ _ _ _____ _ _ _____ _ _ ____  
 72
    65
 73
     6
 40
78.000000
 49
64.000000
 49
-2.000000
 49
4.000000
 49
-2.000000
 49
4.000000
 49
-2.000000
  0
LTYPE
  2
CENTER1
 70
    64
  3
____ _ ____ _ ____ _ ____ _ ____ _ ____ _ ____
 72
    65
 73
     4
 40
19.000000
 49
14.000000
 49
-1.000000
 49
3.000000
 49
-1.000000
  0
LTYPE
  2
CENTER2
 70
    64
  3
____ _ ____ _ ____ _ ____ _ ____ _ ____ _ ____
 72
    65
 73
     4
 40
28.500000
 49
25.000000
 49
-1.000000
 49
1.500000
 49
-1.000000
  0
LTYPE
  2
CENTER3
 70
    64
  3
____ _ ____ _ ____ _ ____ _ ____ _ ____ _ ____
 72
    65
 73
     4
 40
31.500000
 49
27.000000
 49
-1.000000
 49
2.500000
 49
-1.000000
  0
LTYPE
  2
CENTER4
 70
    64
  3
____ _ ____ _ ____ _ ____ _ ____ _ ____ _ ____
 72
    65
 73
     4
 40
50.000000
 49
45.000000
 49
-1.000000
 49
3.000000
 49
-1.000000
  0
LTYPE
  2
CENTER5
 70
    64
  3
____ _ ____ _ ____ _ ____ _ ____ _ ____ _ ____
 72
    65
 73
     4
 40
100.000000
 49
92.000000
 49
-2.000000
 49
4.000000
 49
-2.000000
  0
LTYPE
  2
SBK1
 70
    64
  3
______ _ _ _ ______ _ _ _ ______ _ _ _ _____  
 72
    65
 73
     8
 40
60.500000
 49
45.000000
 49
-2.000000
 49
2.500000
 49
-2.000000
 49
2.500000
 49
-2.000000
 49
2.500000
 49
-2.000000
  0
LTYPE
  2
SBK2
 70
    64
  3
______ _ _ _ ______ _ _ _ ______ _ _ _ _____  
 72
    65
 73
     8
 40
84.000000
 49
64.000000
 49
-2.000000
 49
4.000000
 49
-2.000000
 49
4.000000
 49
-2.000000
 49
4.000000
 49
-2.000000
  0
LTYPE
  2
STCH
 70
    64
  3
__ __ __ __ __ __ __ __ __ __ __ __ __ __ __
 72
    65
 73
     2
 40
3.000000
 49
1.000000
 49
-2.000000
  0
LTYPE
  2
MTCH
 70
    64
  3
_____ _ _ _____ _ _ _____ _ _ _____ _ _ ____  
 72
    65
 73
     6
 40
80.000000
 49
66.000000
 49
-2.000000
 49
4.000000
 49
-2.000000
 49
4.000000
 49
-2.000000
  0
ENDTAB
  0
TABLE
  2
LAYER
 70
     1
  0
LAYER
  2
0
 70
     0
 62
     7
  6
CONTINUOUS
  0
ENDTAB
  0
TABLE
  2
STYLE
 70
     1
  0
STYLE
  2
STANDARD
 70
     0
 40
0.000000
 41
1.000000
 50
0.000000
 71
     0
 42
0.200000
  3
txt
  4
BIGFONT
  0
ENDTAB
  0
TABLE
  2
VIEW
 70
     0
  0
ENDTAB
  0
ENDSEC
  0
SECTION
  2
BLOCKS
  0
ENDSEC
  0
SECTION
  2
ENTITIES
  0
LINE
  8
0
  6
PHANTOM
 62
     3
 10
117.299423
 20
-101.104950
 11
117.299423
 21
-129.499969
  0
LINE
  8
0
  6
PHANTOM
 62
     3
 10
117.299423
 20
-51.800140
 11
117.299423
 21
-89.604950
  0
LINE
  8
0
  6
PHANTOM
 62
     3
 10
117.299423
 20
-89.604950
 11
108.289429
 21
-89.604950
  0
LINE
  8
0
  6
PHANTOM
 62
     3
 10
117.299423
 20
-101.104950
 11
108.289429
 21
-101.104950
  0
LINE
  8
0
  6
CENTER
 62
     2
 10
118.309425
 20
-115.354950
 11
108.269440
 21
-115.354950
  0
LINE
  8
0
  6
CENTER
 62
     2
 10
113.289429
 20
-120.374939
 11
113.289429
 21
-110.334953
  0
LINE
  8
0
  6
CENTER
 62
     2
 10
118.309425
 20
-75.354950
 11
108.269440
 21
-75.354950
  0
LINE
  8
0
  6
CENTER
 62
     2
 10
113.289429
 20
-70.334961
 11
113.289429
 21
-80.590958
  0
LINE
  8
0
  6
PHANTOM
 62
     3
 10
153.289429
 20
-129.499969
 11
153.289429
 21
-58.800140
  0
LINE
  8
0
  6
PHANTOM
 62
     3
 10
193.289429
 20
-129.499969
 11
193.289429
 21
-51.800140
  0
LINE
  8
0
  6
PHANTOM
 62
     3
 10
108.289429
 20
-89.604950
 11
108.289429
 21
-101.104950
  0
LINE
  8
0
 10
102.289429
 20
-98.104950
 11
101.289429
 21
-98.104950
  0
LINE
  8
0
 10
102.289429
 20
-92.604950
 11
101.289429
 21
-92.604950
  0
LINE
  8
0
 10
102.289429
 20
-92.604950
 11
102.289429
 21
-98.104950
  0
LINE
  8
0
  6
CENTER
 62
     2
 10
173.289429
 20
-101.356888
 11
173.289429
 21
-88.823959
  0
LINE
  8
0
 10
224.289429
 20
-97.354950
 11
222.289429
 21
-97.354950
  0
LINE
  8
0
 10
224.289429
 20
-93.354950
 11
222.289429
 21
-93.354950
  0
LINE
  8
0
  6
CENTER
 62
     2
 10
133.289429
 20
-101.356888
 11
133.289429
 21
-88.823959
  0
LINE
  8
0
  6
CENTER
 62
     2
 10
213.289429
 20
-101.356888
 11
213.289429
 21
-88.823959
  0
LINE
  8
0
  6
CENTER
 62
     2
 10
223.289429
 20
-101.356888
 11
223.289429
 21
-88.823959
  0
LINE
  8
0
  6
CENTER
 62
     2
 10
143.289429
 20
-101.356888
 11
143.289429
 21
-88.823959
  0
LINE
  8
0
 10
243.289429
 20
-111.854935
 11
118.289429
 21
-111.854935
  0
LINE
  8
0
 10
243.289429
 20
-111.354935
 11
118.289429
 21
-111.354935
  0
LINE
  8
0
 10
243.289429
 20
-79.354965
 11
118.289429
 21
-79.354965
  0
LINE
  8
0
 10
243.289429
 20
-78.854980
 11
118.289429
 21
-78.854980
  0
LINE
  8
0
 10
243.289429
 20
-87.354950
 11
118.289429
 21
-87.354950
  0
LINE
  8
0
 10
243.289429
 20
-87.854950
 11
118.289429
 21
-87.854950
  0
LINE
  8
0
 10
243.289429
 20
-103.354950
 11
118.289429
 21
-103.354950
  0
LINE
  8
0
 10
243.289429
 20
-102.854950
 11
118.289429
 21
-102.854950
  0
LINE
  8
0
  6
CENTER
 62
     2
 10
248.740601
 20
-95.354950
 11
86.247330
 21
-95.354950
  0
LINE
  8
0
 10
243.289429
 20
-125.854950
 11
243.289429
 21
-64.854950
  0
LINE
  8
0
 10
243.289429
 20
-64.854950
 11
93.289429
 21
-64.854950
  0
LINE
  8
0
 10
243.289429
 20
-125.854950
 11
93.289429
 21
-125.854950
  0
LINE
  8
0
 10
118.289429
 20
-125.854950
 11
118.289429
 21
-64.854950
  0
LINE
  8
0
 62
     2
 10
102.289421
 20
-104.827095
 11
105.289421
 21
-109.882759
  0
LINE
  8
0
 62
     2
 10
102.289421
 20
-109.882790
 11
105.289421
 21
-104.827126
  0
LINE
  8
0
 10
102.289429
 20
-104.827118
 11
105.289429
 21
-104.827118
  0
LINE
  8
0
 10
102.289429
 20
-109.882782
 11
105.289429
 21
-109.882782
  0
LINE
  8
0
 10
105.289429
 20
-104.827118
 11
105.289429
 21
-109.882782
  0
LINE
  8
0
 62
     2
 10
102.289436
 20
-85.882782
 11
105.289436
 21
-80.827118
  0
LINE
  8
0
 62
     2
 10
102.289429
 20
-80.827103
 11
105.289429
 21
-85.882767
  0
LINE
  8
0
 10
102.289429
 20
-85.882782
 11
105.289429
 21
-85.882782
  0
LINE
  8
0
 10
102.289429
 20
-80.827118
 11
105.289429
 21
-80.827118
  0
LINE
  8
0
 10
105.289429
 20
-85.882782
 11
105.289429
 21
-80.827118
  0
LINE
  8
0
 10
115.889435
 20
-91.854950
 11
118.289429
 21
-91.854950
  0
LINE
  8
0
 10
115.889435
 20
-98.854950
 11
115.889435
 21
-91.854950
  0
LINE
  8
0
 10
116.202042
 20
-95.354950
 11
117.976822
 21
-95.354950
  0
LINE
  8
0
 10
115.889435
 20
-98.854950
 11
118.289429
 21
-98.854950
  0
LINE
  8
0
 10
115.089447
 20
-91.854950
 11
115.089447
 21
-98.854950
  0
LINE
  8
0
 10
112.289444
 20
-98.854950
 11
115.089447
 21
-98.854950
  0
LINE
  8
0
 10
112.289444
 20
-91.854950
 11
115.089447
 21
-91.854950
  0
LINE
  8
0
 10
115.089447
 20
-97.354950
 11
115.889435
 21
-97.354950
  0
LINE
  8
0
 10
115.089447
 20
-93.354950
 11
115.889435
 21
-93.354950
  0
LINE
  8
0
 10
112.603531
 20
-95.354950
 11
115.090927
 21
-95.354950
  0
LINE
  8
0
 10
112.289444
 20
-91.854950
 11
112.289444
 21
-98.854950
  0
LINE
  8
0
 10
118.289429
 20
-87.354950
 11
102.289429
 21
-87.354950
  0
LINE
  8
0
 10
118.289429
 20
-79.354950
 11
102.289429
 21
-79.354950
  0
LINE
  8
0
  6
CENTER
 62
     2
 10
122.219498
 20
-83.354950
 11
90.079712
 21
-83.354950
  0
LINE
  8
0
 10
102.289429
 20
-77.354950
 11
102.289429
 21
-89.354950
  0
LINE
  8
0
 10
102.289429
 20
-89.354950
 11
101.289429
 21
-89.354950
  0
LINE
  8
0
 10
102.289429
 20
-77.354950
 11
101.289429
 21
-77.354950
  0
LINE
  8
0
  6
CENTER
 62
     2
 10
122.219498
 20
-107.354950
 11
90.079712
 21
-107.354950
  0
LINE
  8
0
 10
118.289429
 20
-111.354950
 11
102.289429
 21
-111.354950
  0
LINE
  8
0
 10
118.289429
 20
-103.354950
 11
102.289429
 21
-103.354950
  0
LINE
  8
0
 10
93.289429
 20
-64.854950
 11
93.289429
 21
-125.854950
  0
LINE
  8
0
 10
101.289429
 20
-64.854950
 11
101.289429
 21
-125.854950
  0
LINE
  8
0
 10
102.289429
 20
-101.354950
 11
102.289429
 21
-113.354950
  0
LINE
  8
0
 10
102.289429
 20
-113.354950
 11
101.289429
 21
-113.354950
  0
LINE
  8
0
 10
102.289429
 20
-101.354950
 11
101.289429
 21
-101.354950
  0
LINE
  8
0
  6
PHANTOM
 62
     3
 10
-47.207359
 20
-51.800140
 11
-47.207359
 21
-88.249969
  0
LINE
  8
0
  6
PHANTOM
 62
     3
 10
-47.207359
 20
-99.749969
 11
-47.207359
 21
-129.499969
  0
LINE
  8
0
  6
PHANTOM
 62
     3
 10
-47.207359
 20
-99.749969
 11
-56.217361
 21
-99.749969
  0
LINE
  8
0
  6
PHANTOM
 62
     3
 10
-47.207359
 20
-88.249969
 11
-56.217361
 21
-88.249969
  0
LINE
  8
0
  6
PHANTOM
 62
     3
 10
-11.217377
 20
-129.499969
 11
-11.217377
 21
-58.800140
  0
LINE
  8
0
  6
PHANTOM
 62
     3
 10
-56.217361
 20
-88.249969
 11
-56.217361
 21
-99.749969
  0
LINE
  8
0
 10
-62.217361
 20
-96.749969
 11
-63.217361
 21
-96.749969
  0
LINE
  8
0
 10
-62.217361
 20
-91.249969
 11
-63.217361
 21
-91.249969
  0
LINE
  8
0
 10
-62.217361
 20
-91.249969
 11
-62.217361
 21
-96.749969
  0
LINE
  8
0
 62
     2
 10
-62.217373
 20
-103.472137
 11
-59.217373
 21
-108.527809
  0
LINE
  8
0
 62
     2
 10
-62.217361
 20
-108.527802
 11
-59.217361
 21
-103.472137
  0
LINE
  8
0
 10
-62.217361
 20
-103.472137
 11
-59.217361
 21
-103.472137
  0
LINE
  8
0
 10
-62.217361
 20
-108.527802
 11
-59.217361
 21
-108.527802
  0
LINE
  8
0
 10
-59.217361
 20
-103.472137
 11
-59.217361
 21
-108.527802
  0
LINE
  8
0
 62
     2
 10
-62.217365
 20
-84.527809
 11
-59.217365
 21
-79.472145
  0
LINE
  8
0
 62
     2
 10
-62.217369
 20
-79.472145
 11
-59.217369
 21
-84.527809
  0
LINE
  8
0
 10
-62.217361
 20
-84.527802
 11
-59.217361
 21
-84.527802
  0
LINE
  8
0
 10
-62.217361
 20
-79.472137
 11
-59.217361
 21
-79.472137
  0
LINE
  8
0
 10
-59.217361
 20
-84.527802
 11
-59.217361
 21
-79.472137
  0
LINE
  8
0
 10
-48.617355
 20
-90.499969
 11
-46.217361
 21
-90.499969
  0
LINE
  8
0
 10
-48.617355
 20
-97.499969
 11
-48.617355
 21
-90.499969
  0
LINE
  8
0
 10
-48.304749
 20
-93.999969
 11
-46.529968
 21
-93.999969
  0
LINE
  8
0
 10
-48.617355
 20
-97.499969
 11
-46.217361
 21
-97.499969
  0
LINE
  8
0
 10
-49.417343
 20
-90.499969
 11
-49.417343
 21
-97.499969
  0
LINE
  8
0
 10
-52.217346
 20
-97.499969
 11
-49.417343
 21
-97.499969
  0
LINE
  8
0
 10
-52.217346
 20
-90.499969
 11
-49.417343
 21
-90.499969
  0
LINE
  8
0
 10
-49.417343
 20
-95.999969
 11
-48.617355
 21
-95.999969
  0
LINE
  8
0
 10
-49.417343
 20
-91.999969
 11
-48.617355
 21
-91.999969
  0
LINE
  8
0
 10
-51.903259
 20
-93.999969
 11
-49.415863
 21
-93.999969
  0
LINE
  8
0
 10
-52.217346
 20
-90.499969
 11
-52.217346
 21
-97.499969
  0
LINE
  8
0
 10
-46.217361
 20
-85.999969
 11
-62.217361
 21
-85.999969
  0
LINE
  8
0
 10
-46.217361
 20
-77.999969
 11
-62.217361
 21
-77.999969
  0
LINE
  8
0
  6
CENTER
 62
     2
 10
-42.287296
 20
-81.999969
 11
-74.427078
 21
-81.999969
  0
LINE
  8
0
 10
-62.217361
 20
-75.999969
 11
-62.217361
 21
-87.999969
  0
LINE
  8
0
 10
-62.217361
 20
-87.999969
 11
-63.217361
 21
-87.999969
  0
LINE
  8
0
 10
-62.217361
 20
-75.999969
 11
-63.217361
 21
-75.999969
  0
LINE
  8
0
  6
CENTER
 62
     2
 10
-42.287296
 20
-105.999969
 11
-74.427078
 21
-105.999969
  0
LINE
  8
0
 10
-46.217361
 20
-109.999969
 11
-62.217361
 21
-109.999969
  0
LINE
  8
0
 10
-46.217361
 20
-101.999969
 11
-62.217361
 21
-101.999969
  0
LINE
  8
0
 10
-71.217361
 20
-63.499969
 11
-71.217361
 21
-124.499969
  0
LINE
  8
0
 10
-63.217361
 20
-63.499969
 11
-63.217361
 21
-124.499969
  0
LINE
  8
0
 10
-62.217361
 20
-99.999969
 11
-62.217361
 21
-111.999969
  0
LINE
  8
0
 10
-62.217361
 20
-111.999969
 11
-63.217361
 21
-111.999969
  0
LINE
  8
0
 10
-62.217361
 20
-99.999969
 11
-63.217361
 21
-99.999969
  0
LINE
  8
0
  6
CENTER
 62
     2
 10
-46.197361
 20
-113.999969
 11
-56.237350
 21
-113.999969
  0
LINE
  8
0
  6
CENTER
 62
     2
 10
-51.217361
 20
-119.019958
 11
-51.217361
 21
-108.979973
  0
LINE
  8
0
  6
CENTER
 62
     2
 10
-46.197361
 20
-73.999969
 11
-56.237350
 21
-73.999969
  0
LINE
  8
0
  6
CENTER
 62
     2
 10
-51.217361
 20
-68.979980
 11
-51.217361
 21
-79.019966
  0
LINE
  8
0
 10
19.782623
 20
-95.999969
 11
17.782623
 21
-95.999969
  0
LINE
  8
0
 10
19.782623
 20
-91.999969
 11
17.782623
 21
-91.999969
  0
LINE
  8
0
  6
CENTER
 62
     2
 10
-31.217361
 20
-100.001907
 11
-31.217361
 21
-87.468979
  0
LINE
  8
0
  6
CENTER
 62
     2
 10
8.782623
 20
-100.001907
 11
8.782623
 21
-87.468979
  0
LINE
  8
0
  6
CENTER
 62
     2
 10
18.782623
 20
-100.001907
 11
18.782623
 21
-87.468979
  0
LINE
  8
0
  6
CENTER
 62
     2
 10
-21.217361
 20
-100.001907
 11
-21.217361
 21
-87.468979
  0
LINE
  8
0
 10
38.782639
 20
-110.499954
 11
-46.217361
 21
-110.499954
  0
LINE
  8
0
 10
38.782639
 20
-109.999954
 11
-46.217361
 21
-109.999954
  0
LINE
  8
0
 10
38.782639
 20
-77.999985
 11
-46.217361
 21
-77.999985
  0
LINE
  8
0
 10
38.782639
 20
-77.500000
 11
-46.217361
 21
-77.500000
  0
LINE
  8
0
 10
38.782639
 20
-85.999969
 11
-46.217361
 21
-85.999969
  0
LINE
  8
0
 10
38.782639
 20
-86.499969
 11
-46.217361
 21
-86.499969
  0
LINE
  8
0
 10
38.782639
 20
-101.999969
 11
-46.217361
 21
-101.999969
  0
LINE
  8
0
 10
38.782639
 20
-101.499969
 11
-46.217361
 21
-101.499969
  0
LINE
  8
0
  6
CENTER
 62
     2
 10
44.233765
 20
-93.999969
 11
-77.493332
 21
-93.999969
  0
LINE
  8
0
 10
38.782639
 20
-124.499969
 11
38.782639
 21
-63.499969
  0
LINE
  8
0
 10
38.782639
 20
-63.499969
 11
-71.217361
 21
-63.499969
  0
LINE
  8
0
 10
38.782639
 20
-124.499969
 11
-71.217361
 21
-124.499969
  0
LINE
  8
0
 10
-46.217361
 20
-124.499969
 11
-46.217361
 21
-63.499969
  0
LINE
  8
0
  6
PHANTOM
 62
     3
 10
23.782639
 20
47.344208
 11
23.782639
 21
7.694519
  0
LINE
  8
0
  6
CENTER
 62
     2
 10
28.782639
 20
6.118164
 11
28.782639
 21
-1.881836
  0
LINE
  8
0
  6
CENTER
 62
     2
 10
-24.217361
 20
6.118164
 11
-24.217361
 21
-1.881836
  0
LINE
  8
0
  6
PHANTOM
 62
     3
 10
-4.717361
 20
7.694519
 11
-4.717361
 21
-14.675198
  0
LINE
  8
0
  6
PHANTOM
 62
     3
 10
23.782639
 20
7.694519
 11
-4.717361
 21
7.694519
  0
LINE
  8
0
  6
CENTER
 62
     2
 10
8.782623
 20
-3.881836
 11
8.782623
 21
-11.881836
  0
LINE
  8
0
  6
CENTER
 62
     2
 10
-31.217361
 20
-3.881836
 11
-31.217361
 21
-11.881836
  0
LINE
  8
0
  6
PHANTOM
 62
     3
 10
-56.217361
 20
-14.675198
 11
-56.217361
 21
47.344208
  0
LINE
  8
0
 10
-62.217361
 20
-3.881836
 11
-62.217361
 21
-4.631836
  0
LINE
  8
0
 10
-63.217361
 20
-4.631836
 11
-62.217361
 21
-4.631836
  0
LINE
  8
0
 10
-62.217361
 20
-3.881836
 11
-63.217361
 21
-3.881836
  0
LINE
  8
0
 10
38.782639
 20
12.618164
 11
-46.217361
 21
12.618164
  0
LINE
  8
0
 10
-59.217361
 20
-1.881836
 11
-59.217361
 21
-0.981842
  0
LINE
  8
0
 10
18.782639
 20
28.118164
 11
-63.217361
 21
28.118164
  0
LINE
  8
0
 10
-63.217361
 20
27.618164
 11
-71.217361
 21
27.618164
  0
LINE
  8
0
 10
-49.017365
 20
-1.881836
 11
-49.017365
 21
-5.381836
  0
LINE
  8
0
 10
-52.217392
 20
-1.881836
 11
-52.217392
 21
-5.381836
  0
LINE
  8
0
  6
CENTER
 62
     2
 10
44.962524
 20
2.118164
 11
-82.106979
 21
2.118164
  0
LINE
  8
0
 10
-46.217331
 20
-5.381860
 11
-46.529938
 21
-5.923313
  0
LINE
  8
0
 10
-48.704742
 20
-3.902557
 11
-46.529968
 21
-3.902557
  0
LINE
  8
0
 10
-49.017429
 20
-5.381900
 11
-48.704823
 21
-5.923350
  0
LINE
  8
0
 10
-48.704758
 20
-5.923294
 11
-46.529968
 21
-5.923294
  0
LINE
  8
0
 62
     2
 10
-49.817368
 20
-3.502838
 11
-49.017349
 21
-3.502838
  0
LINE
  8
0
 10
-49.817368
 20
-3.881836
 11
-49.017349
 21
-3.881836
  0
LINE
  8
0
 10
-52.217453
 20
-5.381877
 11
-51.904839
 21
-5.923341
  0
LINE
  8
0
 10
-51.904755
 20
-5.923294
 11
-49.817368
 21
-5.923294
  0
LINE
  8
0
 10
-51.904755
 20
-3.902557
 11
-49.817368
 21
-3.902557
  0
LINE
  8
0
 10
-49.817368
 20
-1.881836
 11
-49.817368
 21
-5.923294
  0
LINE
  8
0
 10
-59.217361
 20
-0.981842
 11
-62.217361
 21
-0.981842
  0
LINE
  8
0
 10
-59.217361
 20
6.118149
 11
-59.217361
 21
5.218155
  0
LINE
  8
0
 10
-59.217361
 20
5.218155
 11
-62.217361
 21
5.218155
  0
LINE
  8
0
 10
-46.217361
 20
-1.881836
 11
-59.217361
 21
-1.881836
  0
LINE
  8
0
 10
-46.217361
 20
6.118164
 11
-59.217361
 21
6.118164
  0
LINE
  8
0
 10
-62.217361
 20
8.118164
 11
-62.217361
 21
-3.881836
  0
LINE
  8
0
 10
-62.217361
 20
8.118164
 11
-63.217361
 21
8.118164
  0
LINE
  8
0
 10
22.982635
 20
17.118164
 11
22.982635
 21
18.118164
  0
LINE
  8
0
 10
28.782639
 20
17.118164
 11
18.782639
 21
17.118164
  0
LINE
  8
0
 10
-44.717361
 20
15.118164
 11
-44.717361
 21
13.618164
  0
LINE
  8
0
 10
-21.717361
 20
13.618164
 11
-44.717361
 21
13.618164
  0
LINE
  8
0
 10
-21.717361
 20
15.118164
 11
-21.717361
 21
13.618164
  0
LINE
  8
0
 10
-4.717361
 20
15.118164
 11
-4.717361
 21
13.618164
  0
LINE
  8
0
 10
18.282639
 20
15.118164
 11
18.282639
 21
13.618164
  0
LINE
  8
0
 10
18.282639
 20
13.618164
 11
-4.717361
 21
13.618164
  0
LINE
  8
0
 10
19.782583
 20
18.118158
 11
20.095190
 21
18.659609
  0
LINE
  8
0
 10
22.982632
 20
18.118139
 11
22.670025
 21
18.659592
  0
LINE
  8
0
 10
22.670029
 20
18.659607
 11
20.095245
 21
18.659607
  0
LINE
  8
0
 10
19.782639
 20
18.618164
 11
18.782639
 21
18.618164
  0
LINE
  8
0
 10
19.782639
 20
18.618164
 11
19.782639
 21
17.118164
  0
LINE
  8
0
 62
     2
 10
28.782639
 20
16.268158
 11
29.582626
 21
16.268158
  0
LINE
  8
0
 10
28.782639
 20
16.618164
 11
29.582626
 21
16.618164
  0
LINE
  8
0
 10
-46.217361
 20
-7.881836
 11
-46.217361
 21
15.118164
  0
LINE
  8
0
 10
29.582626
 20
16.618164
 11
29.582626
 21
13.118164
  0
LINE
  8
0
 10
38.782639
 20
-7.881836
 11
38.782639
 21
13.118164
  0
LINE
  8
0
 10
38.782639
 20
13.118164
 11
28.782639
 21
13.118164
  0
LINE
  8
0
 10
38.782639
 20
-7.881836
 11
-46.217361
 21
-7.881836
  0
LINE
  8
0
  6
CENTER
 62
     2
 10
38.782639
 20
14.618164
 11
9.786652
 21
14.618164
  0
LINE
  8
0
 10
18.782639
 20
30.118164
 11
18.782639
 21
12.618164
  0
LINE
  8
0
 10
28.782639
 20
12.618164
 11
28.782639
 21
17.118164
  0
LINE
  8
0
 10
-63.217361
 20
30.118164
 11
-63.217361
 21
-5.881836
  0
LINE
  8
0
 10
-63.217361
 20
-5.881836
 11
-71.217361
 21
-5.881836
  0
LINE
  8
0
 10
18.782639
 20
15.118164
 11
-63.217361
 21
15.118164
  0
LINE
  8
0
 10
-63.217361
 20
29.618164
 11
-71.217361
 21
29.618164
  0
LINE
  8
0
 10
-71.217361
 20
29.618164
 11
-71.217361
 21
-5.881836
  0
LINE
  8
0
 10
18.782639
 20
30.118164
 11
-63.217361
 21
30.118164
  0
LINE
  8
0
 10
129.305267
 20
99.699997
 11
133.260010
 21
99.699997
  0
LINE
  8
0
 10
129.305267
 20
100.300003
 11
133.260010
 21
100.300003
  0
LINE
  8
0
 10
134.282639
 20
98.196167
 11
134.282639
 21
95.000015
  0
LINE
  8
0
 10
129.082642
 20
116.499985
 11
129.082642
 21
123.500000
  0
LINE
  8
0
 10
129.082642
 20
83.499985
 11
129.082642
 21
76.500000
  0
LINE
  8
0
 10
115.782623
 20
110.499977
 11
116.282623
 21
109.999977
  0
LINE
  8
0
 10
115.782639
 20
110.499985
 11
115.782639
 21
128.500015
  0
LINE
  8
0
 10
116.282639
 20
90.000015
 11
116.282639
 21
109.999985
  0
LINE
  8
0
 10
115.782631
 20
89.499992
 11
116.282631
 21
89.999992
  0
LINE
  8
0
  6
CENTER
 62
     2
 10
114.521790
 20
80.000000
 11
136.182983
 21
80.000000
  0
LINE
  8
0
 10
129.082642
 20
123.500000
 11
133.782639
 21
123.500000
  0
LINE
  8
0
 10
129.082642
 20
116.500000
 11
133.782639
 21
116.500000
  0
LINE
  8
0
 10
133.303360
 20
96.500015
 11
135.324081
 21
100.000008
  0
LINE
  8
0
 10
127.241196
 20
100.000000
 11
129.261917
 21
103.500008
  0
LINE
  8
0
 10
135.324158
 20
100.000076
 11
133.303436
 21
103.500069
  0
LINE
  8
0
 10
129.262009
 20
96.500061
 11
127.241295
 21
100.000046
  0
LINE
  8
0
 10
129.261917
 20
103.500000
 11
133.303360
 21
103.500000
  0
LINE
  8
0
 10
129.261917
 20
96.500000
 11
133.303360
 21
96.500000
  0
LINE
  8
0
 10
153.782639
 20
107.500076
 11
153.782639
 21
92.499908
  0
LINE
  8
0
 10
153.282654
 20
91.999908
 11
153.782684
 21
92.499939
  0
LINE
  8
0
 10
132.782639
 20
116.499985
 11
132.782639
 21
107.999969
  0
LINE
  8
0
 10
135.782639
 20
104.999985
 11
135.782639
 21
94.999985
  0
LINE
  8
0
 10
132.782547
 20
107.999847
 11
135.782578
 21
104.999817
  0
LINE
  8
0
 10
153.282745
 20
84.000107
 11
153.782745
 21
83.500107
  0
LINE
  8
0
 10
129.082642
 20
83.500000
 11
133.782639
 21
83.500000
  0
LINE
  8
0
 10
132.782639
 20
91.999985
 11
132.782639
 21
83.499985
  0
LINE
  8
0
 10
132.782639
 20
92.000008
 11
135.782654
 21
95.000023
  0
LINE
  8
0
  6
CENTER
 62
     2
 10
131.282639
 20
105.600250
 11
131.282639
 21
94.417038
  0
LINE
  8
0
 10
134.780426
 20
105.000000
 11
135.782608
 21
105.000000
  0
LINE
  8
0
 10
134.643784
 20
95.000000
 11
135.282593
 21
95.000000
  0
LINE
  8
0
 10
134.282639
 20
105.000015
 11
134.282639
 21
101.803970
  0
LINE
  8
0
 10
132.282623
 20
105.000000
 11
134.282623
 21
105.000000
  0
LINE
  8
0
 10
132.282623
 20
95.000000
 11
134.282623
 21
95.000000
  0
LINE
  8
0
 10
126.782639
 20
90.000000
 11
132.282623
 21
90.000000
  0
LINE
  8
0
 10
126.782639
 20
110.000000
 11
132.282623
 21
110.000000
  0
LINE
  8
0
 10
132.282639
 20
95.000015
 11
132.282639
 21
90.000031
  0
LINE
  8
0
 10
132.282639
 20
105.000015
 11
132.282639
 21
110.000031
  0
LINE
  8
0
 10
135.282562
 20
95.000099
 11
135.782562
 21
95.500084
  0
LINE
  8
0
 10
125.782639
 20
111.000000
 11
126.782639
 21
111.000000
  0
LINE
  8
0
 10
126.782639
 20
111.000000
 11
126.782639
 21
88.500000
  0
LINE
  8
0
 10
125.782639
 20
71.000000
 11
130.782639
 21
71.000000
  0
LINE
  8
0
 10
125.782639
 20
129.000000
 11
130.782639
 21
129.000000
  0
LINE
  8
0
 10
115.782608
 20
71.499954
 11
117.782608
 21
69.499954
  0
LINE
  8
0
 10
115.782677
 20
128.499985
 11
117.782669
 21
130.499985
  0
LINE
  8
0
 10
130.782639
 20
130.500015
 11
130.782639
 21
129.000000
  0
LINE
  8
0
 10
130.782639
 20
69.500015
 11
130.782639
 21
71.000000
  0
LINE
  8
0
 10
115.782639
 20
71.500015
 11
115.782639
 21
89.500000
  0
LINE
  8
0
 10
129.082642
 20
76.500000
 11
133.782639
 21
76.500000
  0
LINE
  8
0
 10
125.782639
 20
88.500000
 11
125.782639
 21
71.000000
  0
LINE
  8
0
 10
125.782639
 20
71.500000
 11
132.282639
 21
71.500000
  0
LINE
  8
0
 10
132.282639
 20
71.500000
 11
132.282639
 21
76.500000
  0
LINE
  8
0
 10
132.282639
 20
83.500000
 11
132.282639
 21
88.500000
  0
LINE
  8
0
 10
125.782639
 20
88.500000
 11
132.282639
 21
88.500000
  0
LINE
  8
0
 10
132.282639
 20
116.500000
 11
132.282639
 21
111.500000
  0
LINE
  8
0
 10
132.282639
 20
128.500000
 11
132.282639
 21
123.500000
  0
LINE
  8
0
 10
125.782639
 20
128.500000
 11
132.282639
 21
128.500000
  0
LINE
  8
0
 10
125.782639
 20
111.500000
 11
132.282639
 21
111.500000
  0
LINE
  8
0
 10
125.782639
 20
111.000000
 11
125.782639
 21
129.000000
  0
LINE
  8
0
  6
CENTER
 62
     2
 10
114.118805
 20
120.000000
 11
136.384476
 21
120.000000
  0
LINE
  8
0
  6
CENTER
 62
     2
 10
143.782639
 20
132.155716
 11
143.782639
 21
65.993958
  0
LINE
  8
0
 10
142.382599
 20
126.074966
 11
142.382599
 21
126.300003
  0
LINE
  8
0
 10
142.857605
 20
124.000290
 11
142.857605
 21
125.599991
  0
LINE
  8
0
 10
142.857773
 20
125.600151
 11
142.382721
 21
126.075188
  0
LINE
  8
0
 10
138.707657
 20
125.599998
 11
139.182693
 21
126.075050
  0
LINE
  8
0
 10
138.707611
 20
123.975006
 11
138.707611
 21
125.625168
  0
LINE
  8
0
 10
139.182831
 20
126.599869
 11
137.782745
 21
127.999939
  0
LINE
  8
0
 10
139.182587
 20
126.075119
 11
139.182587
 21
126.599991
  0
LINE
  8
0
 10
148.382690
 20
126.075119
 11
148.382690
 21
126.599991
  0
LINE
  8
0
 10
148.857773
 20
125.600151
 11
148.382721
 21
126.075188
  0
LINE
  8
0
 10
133.282639
 20
123.999985
 11
133.282639
 21
129.500000
  0
LINE
  8
0
 10
133.282639
 20
124.000000
 11
133.782639
 21
124.000000
  0
LINE
  8
0
 10
133.782639
 20
116.499985
 11
133.782639
 21
123.999985
  0
LINE
  8
0
 10
133.282639
 20
75.999985
 11
133.282639
 21
70.500000
  0
LINE
  8
0
 10
133.282639
 20
76.000000
 11
133.782639
 21
76.000000
  0
LINE
  8
0
 10
153.282715
 20
115.999893
 11
153.782730
 21
116.499901
  0
LINE
  8
0
 10
153.282654
 20
107.999985
 11
153.782654
 21
107.499992
  0
LINE
  8
0
 10
153.782639
 20
130.500015
 11
153.782639
 21
69.500015
  0
LINE
  8
0
 10
153.282639
 20
91.999908
 11
153.282639
 21
84.000076
  0
LINE
  8
0
 10
153.282639
 20
115.999985
 11
153.282639
 21
107.999985
  0
LINE
  8
0
 10
133.782639
 20
83.499985
 11
133.782639
 21
76.000000
  0
LINE
  8
0
  6
CENTER
 62
     2
 10
133.628067
 20
88.000000
 11
155.128159
 21
88.000000
  0
LINE
  8
0
 10
149.782639
 20
130.500000
 11
149.782639
 21
127.999985
  0
LINE
  8
0
 10
137.782639
 20
130.500000
 11
137.782639
 21
127.974731
  0
LINE
  8
0
 10
148.382507
 20
126.599846
 11
149.782608
 21
127.999924
  0
LINE
  8
0
 10
148.857666
 20
123.975006
 11
148.857666
 21
125.625168
  0
LINE
  8
0
  6
CENTER
 62
     2
 10
146.782684
 20
121.257538
 11
146.782684
 21
128.835693
  0
LINE
  8
0
 10
144.707672
 20
124.000290
 11
144.707672
 21
125.599991
  0
LINE
  8
0
 10
144.707733
 20
125.600006
 11
145.182770
 21
126.075058
  0
LINE
  8
0
 10
145.182678
 20
126.075119
 11
145.182678
 21
126.300003
  0
LINE
  8
0
 10
144.882629
 20
126.599991
 11
142.682617
 21
126.599991
  0
LINE
  8
0
  6
CENTER
 62
     2
 10
140.782654
 20
121.257538
 11
140.782654
 21
128.964294
  0
LINE
  8
0
  6
CENTER
 62
     2
 10
150.029205
 20
123.974991
 11
137.719025
 21
123.974991
  0
LINE
  8
0
 10
139.182587
 20
126.574524
 11
137.782562
 21
127.974548
  0
LINE
  8
0
  6
CENTER
 62
     2
 10
133.891418
 20
112.000000
 11
157.393295
 21
112.000000
  0
LINE
  8
0
  6
CENTER
 62
     2
 10
108.130035
 20
100.000000
 11
158.416580
 21
100.000000
  0
LINE
  8
0
 10
117.782639
 20
69.500015
 11
153.782639
 21
69.500015
  0
LINE
  8
0
 10
117.782639
 20
130.500015
 11
153.782639
 21
130.500015
  0
LINE
  8
0
 10
153.782639
 20
129.800003
 11
153.782639
 21
116.499985
  0
LINE
  8
0
 10
-191.217361
 20
69.499985
 11
-192.517349
 21
69.499985
  0
LINE
  8
0
 10
-191.217361
 20
130.500000
 11
-192.517365
 21
130.500000
  0
LINE
  8
0
  6
CENTER
 62
     2
 10
-170.217361
 20
129.628067
 11
-170.217361
 21
120.841934
  0
LINE
  8
0
  6
CENTER
 62
     2
 10
-170.217361
 20
79.628067
 11
-170.217361
 21
70.841934
  0
LINE
  8
0
 10
-182.351395
 20
113.499969
 11
-181.485382
 21
111.999992
  0
LINE
  8
0
 10
-184.949448
 20
111.999977
 11
-184.083420
 21
110.499977
  0
LINE
  8
0
 10
-181.485336
 20
111.999969
 11
-182.351349
 21
110.499969
  0
LINE
  8
0
 10
-184.083389
 20
113.499977
 11
-184.949417
 21
111.999977
  0
LINE
  8
0
 10
-184.083374
 20
110.499985
 11
-182.351334
 21
110.499985
  0
LINE
  8
0
 10
-184.083374
 20
113.499985
 11
-182.351334
 21
113.499985
  0
LINE
  8
0
 10
-155.217361
 20
110.499985
 11
-155.217361
 21
128.500000
  0
LINE
  8
0
 10
-155.717377
 20
89.999931
 11
-155.217392
 21
89.499939
  0
LINE
  8
0
 10
-155.717392
 20
110.000046
 11
-155.217392
 21
110.500038
  0
LINE
  8
0
 10
-182.351364
 20
86.500000
 11
-181.485336
 21
88.000008
  0
LINE
  8
0
 10
-184.949478
 20
88.000038
 11
-184.083450
 21
89.500038
  0
LINE
  8
0
 10
-181.485397
 20
87.999969
 11
-182.351425
 21
89.499969
  0
LINE
  8
0
 10
-184.083481
 20
86.499947
 11
-184.949509
 21
87.999954
  0
LINE
  8
0
 10
-184.083374
 20
89.499969
 11
-182.351334
 21
89.499969
  0
LINE
  8
0
 10
-184.083374
 20
86.499969
 11
-182.351334
 21
86.499969
  0
LINE
  8
0
  6
CENTER
 62
     2
 10
-183.217361
 20
96.376221
 11
-183.217361
 21
79.771683
  0
LINE
  8
0
  6
CENTER
 62
     2
 10
-183.217361
 20
120.298035
 11
-183.217361
 21
103.552765
  0
LINE
  8
0
  6
CENTER
 62
     2
 10
-185.217361
 20
79.628067
 11
-185.217361
 21
70.841934
  0
LINE
  8
0
  6
CENTER
 62
     2
 10
-185.217361
 20
129.628067
 11
-185.217361
 21
120.841934
  0
LINE
  8
0
  6
CENTER
 62
     2
 10
-164.440262
 20
124.999985
 11
-189.615051
 21
124.999985
  0
LINE
  8
0
  6
CENTER
 62
     2
 10
-164.440262
 20
74.999985
 11
-190.084076
 21
74.999985
  0
LINE
  8
0
 10
-157.717392
 20
69.499985
 11
-155.717377
 21
71.499985
  0
LINE
  8
0
 10
-157.717346
 20
130.499969
 11
-155.717346
 21
128.499969
  0
LINE
  8
0
 10
-191.217361
 20
130.500000
 11
-191.217361
 21
69.499985
  0
LINE
  8
0
 10
-155.717361
 20
71.499985
 11
-155.717361
 21
128.500000
  0
LINE
  8
0
 10
-155.217361
 20
71.499985
 11
-155.217361
 21
89.499969
  0
LINE
  8
0
 10
-155.217331
 20
71.499947
 11
-157.217331
 21
69.499947
  0
LINE
  8
0
 10
-155.217331
 20
128.499969
 11
-157.217331
 21
130.499969
  0
LINE
  8
0
 10
-157.217361
 20
69.499985
 11
-191.217361
 21
69.499985
  0
LINE
  8
0
 10
-157.217346
 20
130.500000
 11
-191.217361
 21
130.500000
  0
LINE
  8
0
 10
-192.717407
 20
115.999863
 11
-193.217422
 21
116.499886
  0
LINE
  8
0
 10
-192.717438
 20
84.000092
 11
-193.217438
 21
83.500092
  0
LINE
  8
0
 10
-193.217361
 20
107.499969
 11
-193.217361
 21
92.499969
  0
LINE
  8
0
 10
-192.717438
 20
108.000046
 11
-193.217422
 21
107.500046
  0
LINE
  8
0
 10
-193.217361
 20
83.499954
 11
-193.217361
 21
70.199966
  0
LINE
  8
0
 10
-192.717361
 20
91.999969
 11
-192.717361
 21
83.999954
  0
LINE
  8
0
 10
-192.717331
 20
91.999931
 11
-193.217346
 21
92.499939
  0
LINE
  8
0
 10
-192.717361
 20
115.999969
 11
-192.717361
 21
107.999969
  0
LINE
  8
0
  6
CENTER
 62
     2
 10
-173.415558
 20
87.999985
 11
-193.798004
 21
87.999985
  0
LINE
  8
0
  6
CENTER
 62
     2
 10
-173.415558
 20
111.999985
 11
-193.682266
 21
111.999985
  0
LINE
  8
0
  6
CENTER
 62
     2
 10
-150.083344
 20
99.999985
 11
-197.851303
 21
99.999985
  0
LINE
  8
0
 10
-193.217361
 20
129.799988
 11
-193.217361
 21
116.499969
  0
LINE
  8
0
  6
PHANTOM
 62
     3
 10
-56.217361
 20
47.344223
 11
-23.717361
 21
47.344223
  0
LINE
  8
0
  6
PHANTOM
 62
     3
 10
23.782639
 20
96.500008
 11
34.182632
 21
96.500008
  0
LINE
  8
0
  6
PHANTOM
 62
     3
 10
23.782639
 20
96.500008
 11
23.782639
 21
47.344223
  0
LINE
  8
0
  6
PHANTOM
 62
     3
 10
34.182632
 20
96.500008
 11
34.182632
 21
103.499992
  0
LINE
  8
0
  6
PHANTOM
 62
     3
 10
23.782639
 20
103.499992
 11
34.182632
 21
103.499992
  0
LINE
  8
0
  6
PHANTOM
 62
     3
 10
23.782639
 20
103.499992
 11
23.782639
 21
135.034103
  0
LINE
  8
0
  6
PHANTOM
 62
     3
 10
-23.717361
 20
141.510651
 11
-23.717361
 21
47.344223
  0
LINE
  8
0
 10
29.582626
 20
99.699997
 11
29.582626
 21
98.000000
  0
LINE
  8
0
 10
29.582626
 20
99.699997
 11
28.382629
 21
99.699997
  0
LINE
  8
0
 10
29.582626
 20
100.300003
 11
28.382629
 21
100.300003
  0
LINE
  8
0
 10
28.382629
 20
100.300003
 11
28.382629
 21
99.699997
  0
LINE
  8
0
  6
CENTER
 62
     2
 10
41.951599
 20
80.000000
 11
15.219650
 21
80.000000
  0
LINE
  8
0
 10
28.782639
 20
76.500000
 11
28.782639
 21
83.500000
  0
LINE
  8
0
 10
28.782639
 20
76.500000
 11
18.782639
 21
76.500000
  0
LINE
  8
0
  6
CENTER
 62
     2
 10
41.951599
 20
120.000000
 11
15.219650
 21
120.000000
  0
LINE
  8
0
 10
28.782639
 20
123.500000
 11
28.782639
 21
116.500000
  0
LINE
  8
0
 10
28.782639
 20
123.500000
 11
18.782639
 21
123.500000
  0
LINE
  8
0
 62
     2
 10
-1.217361
 20
106.721329
 11
-1.217361
 21
93.525742
  0
LINE
  8
0
  6
CENTER
 62
     2
 10
-41.217346
 20
106.721329
 11
-41.217346
 21
93.525742
  0
LINE
  8
0
 10
29.582626
 20
102.000000
 11
29.582626
 21
100.300003
  0
LINE
  8
0
 10
-63.217361
 20
109.999985
 11
18.782639
 21
109.999985
  0
LINE
  8
0
 10
-63.217361
 20
110.499985
 11
18.782639
 21
110.499985
  0
LINE
  8
0
  6
CENTER
 62
     2
 10
-31.217361
 20
104.914444
 11
-31.217361
 21
95.250732
  0
LINE
  8
0
  6
CENTER
 62
     2
 10
-51.217361
 20
104.914444
 11
-51.217361
 21
95.250732
  0
LINE
  8
0
  6
CENTER
 62
     2
 10
-31.217361
 20
74.165604
 11
-31.217361
 21
85.966522
  0
LINE
  8
0
  6
CENTER
 62
     2
 10
-31.217361
 20
125.834381
 11
-31.217361
 21
114.033463
  0
LINE
  8
0
  6
CENTER
 62
     2
 10
-11.844162
 20
80.000000
 11
-57.789581
 21
80.000000
  0
LINE
  8
0
  6
CENTER
 62
     2
 10
-51.217361
 20
74.165604
 11
-51.217361
 21
85.966522
  0
LINE
  8
0
  6
CENTER
 62
     2
 10
-16.217361
 20
74.165604
 11
-16.217361
 21
85.966522
  0
LINE
  8
0
 10
18.782639
 20
71.500000
 11
-71.217361
 21
71.500000
  0
LINE
  8
0
 10
-63.217361
 20
89.499969
 11
18.782639
 21
89.499969
  0
LINE
  8
0
 10
-63.217361
 20
89.999969
 11
18.782639
 21
89.999969
  0
LINE
  8
0
 10
22.982635
 20
103.500000
 11
19.782639
 21
103.500000
  0
LINE
  8
0
 10
22.670029
 20
100.000000
 11
20.095245
 21
100.000000
  0
LINE
  8
0
 10
22.982635
 20
96.500000
 11
19.782639
 21
96.500000
  0
LINE
  8
0
  6
CENTER
 62
     2
 10
-11.844162
 20
120.000000
 11
-57.789581
 21
120.000000
  0
LINE
  8
0
 10
38.782639
 20
130.500000
 11
-71.217361
 21
130.500000
  0
LINE
  8
0
 10
18.782639
 20
128.500000
 11
-71.217361
 21
128.500000
  0
LINE
  8
0
 10
-30.217361
 20
102.000000
 11
-32.217361
 21
102.000000
  0
LINE
  8
0
  6
CENTER
 62
     2
 10
-51.217361
 20
125.834381
 11
-51.217361
 21
114.763992
  0
LINE
  8
0
  6
CENTER
 62
     2
 10
-16.217361
 20
125.834381
 11
-16.217361
 21
114.033463
  0
LINE
  8
0
 10
18.782639
 20
110.000000
 11
19.782639
 21
110.000000
  0
LINE
  8
0
 10
18.782639
 20
69.500000
 11
18.782639
 21
130.500000
  0
LINE
  8
0
 10
-30.217361
 20
98.000000
 11
-32.217361
 21
98.000000
  0
LINE
  8
0
 10
18.782639
 20
90.000000
 11
19.782639
 21
90.000000
  0
LINE
  8
0
 10
19.782639
 20
110.000000
 11
19.782639
 21
90.000000
  0
LINE
  8
0
 10
38.782639
 20
69.500000
 11
-71.217361
 21
69.500000
  0
LINE
  8
0
 10
-71.217361
 20
130.500000
 11
-71.217361
 21
69.500000
  0
LINE
  8
0
 10
-63.217361
 20
130.500000
 11
-63.217361
 21
69.500000
  0
LINE
  8
0
  6
CENTER
 62
     2
 10
45.289078
 20
100.000000
 11
-76.184402
 21
100.000000
  0
LINE
  8
0
 10
22.982635
 20
98.000000
 11
29.582626
 21
98.000000
  0
LINE
  8
0
 62
     2
 10
22.982635
 20
98.349991
 11
29.582626
 21
98.349991
  0
LINE
  8
0
 10
22.982635
 20
102.000000
 11
29.582626
 21
102.000000
  0
LINE
  8
0
 10
18.782639
 20
76.000015
 11
38.782639
 21
76.000015
  0
LINE
  8
0
 10
18.782639
 20
83.500015
 11
38.782639
 21
83.500015
  0
LINE
  8
0
 10
19.782639
 20
92.000031
 11
38.782639
 21
92.000031
  0
LINE
  8
0
 10
19.782639
 20
107.999832
 11
38.782639
 21
107.999832
  0
LINE
  8
0
 10
19.782639
 20
94.999985
 11
38.782639
 21
94.999985
  0
LINE
  8
0
 10
22.982635
 20
96.500000
 11
22.982635
 21
103.500000
  0
LINE
  8
0
 10
38.782639
 20
69.500000
 11
38.782639
 21
130.500000
  0
LINE
  8
0
 10
19.782639
 20
104.999985
 11
38.782639
 21
104.999985
  0
LINE
  8
0
 62
     2
 10
22.982635
 20
101.649994
 11
29.582626
 21
101.649994
  0
LINE
  8
0
 10
18.782639
 20
123.999985
 11
38.782639
 21
123.999985
  0
LINE
  8
0
 10
18.782639
 20
116.499985
 11
38.782639
 21
116.499985
  0
LINE
  8
0
 10
-271.250000
 20
-175.000000
 11
-131.250000
 21
-175.000000
  0
LINE
  8
0
 10
-271.250000
 20
-165.000000
 11
-131.250000
 21
-165.000000
  0
LINE
  8
0
 10
-131.250000
 20
-115.000000
 11
-131.250000
 21
-185.000000
  0
LINE
  8
0
 10
-146.250000
 20
-115.000000
 11
-146.250000
 21
-185.000000
  0
LINE
  8
0
 10
-161.250000
 20
-115.000000
 11
-161.250000
 21
-185.000000
  0
LINE
  8
0
 10
-176.250000
 20
-115.000000
 11
-176.250000
 21
-185.000000
  0
LINE
  8
0
 10
-191.250000
 20
-115.000000
 11
-191.250000
 21
-185.000000
  0
LINE
  8
0
 10
-206.250000
 20
-115.000000
 11
-206.250000
 21
-185.000000
  0
LINE
  8
0
 10
-221.250000
 20
-115.000000
 11
-221.250000
 21
-185.000000
  0
LINE
  8
0
 10
-236.250046
 20
-144.999985
 11
-239.776581
 21
-124.999985
  0
LINE
  8
0
 10
-236.250000
 20
-115.000000
 11
-236.250000
 21
-185.000000
  0
LINE
  8
0
 10
-271.250000
 20
-115.000000
 11
-131.250000
 21
-115.000000
  0
LINE
  8
0
 10
-271.250000
 20
-125.000000
 11
-239.776535
 21
-125.000000
  0
LINE
  8
0
 10
-271.250000
 20
-145.000000
 11
-131.250000
 21
-145.000000
  0
LINE
  8
0
 10
-271.250000
 20
-155.000000
 11
-131.250000
 21
-155.000000
  0
LINE
  8
0
 10
-271.250000
 20
-115.000000
 11
-271.250000
 21
-185.000000
  0
LINE
  8
0
 10
-271.250000
 20
-185.000000
 11
-131.250000
 21
-185.000000
  0
LINE
  8
0
 10
-161.250000
 20
195.500000
 11
-161.250000
 21
175.500000
  0
LINE
  8
0
 10
162.099976
 20
195.500000
 11
162.099976
 21
175.500000
  0
LINE
  8
0
 10
-281.250000
 20
175.500000
 11
-161.250000
 21
175.500000
  0
LINE
  8
0
 10
162.099976
 20
175.500000
 11
282.099854
 21
175.500000
  0
LINE
  8
0
 10
162.099976
 20
-175.000000
 11
282.099854
 21
-175.000000
  0
LINE
  8
0
 10
162.099976
 20
-175.000000
 11
162.099976
 21
-195.000000
  0
LINE
  8
0
 10
-281.250000
 20
-195.000000
 11
282.099854
 21
-195.000000
  0
LINE
  8
0
 10
282.099854
 20
195.500000
 11
282.099854
 21
-195.000000
  0
LINE
  8
0
 10
-281.250000
 20
195.500000
 11
-281.250000
 21
-195.000000
  0
LINE
  8
0
 10
-281.250000
 20
195.500000
 11
282.099854
 21
195.500000
  0
CIRCLE
  8
0
 10
113.289429
 20
-115.354950
 40
2.099999
  0
CIRCLE
  8
0
 62
     2
 10
113.289429
 20
-115.354950
 40
2.500000
  0
CIRCLE
  8
0
 10
113.289429
 20
-75.354950
 40
2.099999
  0
CIRCLE
  8
0
 62
     2
 10
113.289429
 20
-75.354950
 40
2.500000
  0
CIRCLE
  8
0
 10
133.289429
 20
-95.354950
 40
2.099999
  0
CIRCLE
  8
0
 62
     2
 10
133.289429
 20
-95.354950
 40
2.500000
  0
CIRCLE
  8
0
 10
173.289429
 20
-95.354950
 40
2.099999
  0
CIRCLE
  8
0
 62
     2
 10
173.289429
 20
-95.354950
 40
2.500000
  0
CIRCLE
  8
0
 10
213.289429
 20
-95.354950
 40
2.099999
  0
CIRCLE
  8
0
 62
     2
 10
213.289429
 20
-95.354950
 40
2.500000
  0
ARC
  8
0
 10
222.289429
 20
-95.354950
 40
2.000000
 50
90.000000
 51
270.000000
  0
ARC
  8
0
 10
224.289429
 20
-95.354950
 40
2.000000
 50
270.000000
 51
90.000000
  0
CIRCLE
  8
0
 10
143.289429
 20
-95.354950
 40
2.000000
  0
ARC
  8
0
 10
120.944061
 20
-97.104950
 40
5.054619
 50
159.743835
 51
200.256165
  0
ARC
  8
0
 10
117.344070
 20
-97.104950
 40
5.054619
 50
159.743835
 51
200.256058
  0
ARC
  8
0
 10
117.344070
 20
-93.604950
 40
5.054619
 50
159.743835
 51
200.256165
  0
ARC
  8
0
 10
120.944061
 20
-93.604950
 40
5.054624
 50
159.743942
 51
200.256165
  0
ARC
  8
0
 10
113.234818
 20
-93.604950
 40
5.054624
 50
339.743958
 51
20.256163
  0
ARC
  8
0
 10
113.234818
 20
-97.104950
 40
5.054624
 50
339.743958
 51
20.256163
  0
CIRCLE
  8
0
 10
-51.217361
 20
-113.999969
 40
2.099999
  0
CIRCLE
  8
0
 10
-51.217361
 20
-73.999969
 40
2.099999
  0
CIRCLE
  8
0
 62
     2
 10
-51.217361
 20
-113.999969
 40
2.500000
  0
CIRCLE
  8
0
 62
     2
 10
-51.217361
 20
-73.999969
 40
2.500000
  0
CIRCLE
  8
0
 10
-31.217361
 20
-93.999969
 40
2.099999
  0
CIRCLE
  8
0
 10
8.782623
 20
-93.999969
 40
2.099999
  0
CIRCLE
  8
0
 62
     2
 10
-31.217361
 20
-93.999969
 40
2.500000
  0
CIRCLE
  8
0
 62
     2
 10
8.782623
 20
-93.999969
 40
2.500000
  0
ARC
  8
0
 10
-47.162720
 20
-92.249969
 40
5.054623
 50
159.743851
 51
200.256149
  0
ARC
  8
0
 10
-43.562729
 20
-92.249969
 40
5.054620
 50
159.743927
 51
200.256165
  0
ARC
  8
0
 10
-51.271973
 20
-92.249969
 40
5.054620
 50
339.743927
 51
20.256163
  0
ARC
  8
0
 10
-51.271973
 20
-95.749969
 40
5.054620
 50
339.743927
 51
20.256163
  0
ARC
  8
0
 10
-43.562729
 20
-95.749969
 40
5.054623
 50
159.743851
 51
200.256149
  0
ARC
  8
0
 10
-47.162720
 20
-95.749969
 40
5.054619
 50
159.743835
 51
200.256073
  0
ARC
  8
0
 10
17.782623
 20
-93.999969
 40
2.000000
 50
90.000053
 51
270.000061
  0
ARC
  8
0
 10
19.782623
 20
-93.999969
 40
2.000000
 50
270.000061
 51
90.000107
  0
CIRCLE
  8
0
 10
-21.217361
 20
-93.999969
 40
2.000000
  0
ARC
  8
0
 10
-48.006439
 20
-4.912933
 40
1.789075
 50
334.384399
 51
34.384296
  0
ARC
  8
0
 10
-52.904755
 20
-1.881836
 40
6.687394
 50
342.412140
 51
359.999969
  0
ARC
  8
0
 10
-42.329956
 20
-1.881836
 40
6.687393
 50
179.999969
 51
197.587967
  0
ARC
  8
0
 10
-47.228287
 20
-4.912933
 40
1.789077
 50
145.615829
 51
205.615677
  0
ARC
  8
0
 10
-50.428284
 20
-4.912933
 40
1.789075
 50
145.615707
 51
205.615906
  0
ARC
  8
0
 10
-45.529968
 20
-1.881836
 40
6.687393
 50
179.999969
 51
197.587921
  0
ARC
  8
0
 10
21.193558
 20
17.649261
 40
1.789077
 50
342.731171
 51
25.615593
  0
CIRCLE
  8
0
 10
-24.217361
 20
2.118164
 40
2.099999
  0
CIRCLE
  8
0
 62
     2
 10
-24.217361
 20
2.118164
 40
2.500000
  0
CIRCLE
  8
0
 10
28.782639
 20
2.118164
 40
2.099999
  0
ARC
  8
0
 10
21.571716
 20
17.649261
 40
1.789076
 50
154.384323
 51
197.268784
  0
CIRCLE
  8
0
 62
     2
 10
28.782639
 20
2.118164
 40
2.500000
  0
ARC
  8
0
 10
131.282639
 20
100.000000
 40
1.650000
 50
190.475784
 51
349.524200
  0
CIRCLE
  8
0
 10
143.782639
 20
88.000015
 40
8.750000
  0
CIRCLE
  8
0
 10
143.782639
 20
88.000015
 40
8.500000
  0
CIRCLE
  8
0
 10
143.782639
 20
111.999985
 40
8.750000
  0
CIRCLE
  8
0
 62
     2
 10
131.282639
 20
100.000000
 40
2.000000
  0
CIRCLE
  8
0
 10
131.282639
 20
100.000000
 40
3.500000
  0
CIRCLE
  8
0
 10
143.782639
 20
111.999985
 40
8.500000
  0
ARC
  8
0
 10
131.282639
 20
100.000000
 40
1.650000
 50
10.475789
 51
169.524216
  0
ARC
  8
0
 10
142.682632
 20
126.300003
 40
0.300003
 50
90.000000
 51
180.000000
  0
ARC
  8
0
 10
140.782608
 20
123.974991
 40
2.074997
 50
180.000000
 51
0.000000
  0
ARC
  8
0
 10
134.282639
 20
70.500000
 40
1.000000
 50
180.000000
 51
270.000000
  0
ARC
  8
0
 10
134.282639
 20
129.500000
 40
1.000000
 50
90.000000
 51
180.000000
  0
ARC
  8
0
 10
146.782669
 20
123.974991
 40
2.074997
 50
180.000000
 51
0.000000
  0
ARC
  8
0
 10
144.882645
 20
126.300003
 40
0.300003
 50
0.000000
 51
90.000000
  0
ARC
  8
0
 10
142.682632
 20
126.300003
 40
0.300003
 50
90.000000
 51
180.000000
  0
CIRCLE
  8
0
 62
     2
 10
-185.217361
 20
74.999985
 40
2.500000
  0
CIRCLE
  8
0
 62
     2
 10
-170.217361
 20
74.999985
 40
2.500000
  0
CIRCLE
  8
0
 10
-185.217361
 20
74.999985
 40
2.099999
  0
CIRCLE
  8
0
 10
-170.217361
 20
74.999985
 40
2.099999
  0
CIRCLE
  8
0
 10
-170.217361
 20
124.999985
 40
2.099999
  0
CIRCLE
  8
0
 10
-185.217361
 20
124.999985
 40
2.099999
  0
CIRCLE
  8
0
 62
     2
 10
-170.217361
 20
124.999985
 40
2.500000
  0
CIRCLE
  8
0
 62
     2
 10
-185.217361
 20
124.999985
 40
2.500000
  0
CIRCLE
  8
0
 10
-183.217361
 20
111.999985
 40
2.980385
  0
CIRCLE
  8
0
 10
-183.217361
 20
111.999985
 40
3.500000
  0
CIRCLE
  8
0
 10
-183.217361
 20
111.999985
 40
6.000000
  0
CIRCLE
  8
0
 10
-183.217361
 20
111.999985
 40
6.500000
  0
CIRCLE
  8
0
 10
-183.217361
 20
87.999985
 40
2.980385
  0
CIRCLE
  8
0
 10
-183.217361
 20
87.999985
 40
3.500000
  0
CIRCLE
  8
0
 10
-183.217361
 20
87.999985
 40
6.000000
  0
CIRCLE
  8
0
 10
-183.217361
 20
87.999985
 40
6.500000
  0
ARC
  8
0
 10
-192.517365
 20
129.799988
 40
0.699997
 50
90.000000
 51
180.000000
  0
ARC
  8
0
 10
-192.517349
 20
70.199966
 40
0.699997
 50
180.000000
 51
270.000000
  0
CIRCLE
  8
0
 62
     2
 10
-16.217361
 20
80.000000
 40
2.500000
  0
CIRCLE
  8
0
 10
-16.217361
 20
80.000000
 40
2.099999
  0
CIRCLE
  8
0
 62
     2
 10
-31.217361
 20
80.000000
 40
2.500000
  0
CIRCLE
  8
0
 10
-31.217361
 20
80.000000
 40
2.099999
  0
CIRCLE
  8
0
 62
     2
 10
-51.217361
 20
80.000000
 40
2.500000
  0
CIRCLE
  8
0
 10
-51.217361
 20
80.000000
 40
2.099999
  0
CIRCLE
  8
0
 10
-16.217361
 20
120.000000
 40
2.099999
  0
CIRCLE
  8
0
 10
-31.217361
 20
120.000000
 40
2.099999
  0
CIRCLE
  8
0
 10
-51.217361
 20
120.000000
 40
2.099999
  0
CIRCLE
  8
0
 62
     2
 10
-16.217361
 20
120.000000
 40
2.500000
  0
CIRCLE
  8
0
 62
     2
 10
-31.217361
 20
120.000000
 40
2.500000
  0
CIRCLE
  8
0
 62
     2
 10
-51.217361
 20
120.000000
 40
2.500000
  0
ARC
  8
0
 10
24.837250
 20
98.250000
 40
5.054621
 50
159.743851
 51
200.256058
  0
ARC
  8
0
 10
24.837250
 20
101.750000
 40
5.054621
 50
159.743851
 51
200.256058
  0
ARC
  8
0
 10
-41.217346
 20
100.000000
 40
5.000000
 50
0.000000
 51
180.000000
  0
ARC
  8
0
 10
-30.217361
 20
100.000000
 40
2.000000
 50
270.000000
 51
90.000000
  0
ARC
  8
0
 10
-32.217361
 20
100.000000
 40
2.000000
 50
90.000000
 51
270.000000
  0
CIRCLE
  8
0
 10
-51.217361
 20
100.000000
 40
2.000000
  0
CIRCLE
  8
0
 10
-1.217361
 20
100.000000
 40
5.000000
  0
ARC
  8
0
 10
-41.217346
 20
100.000000
 40
5.000000
 50
180.000000
 51
0.000000
  0
ARC
  8
0
 10
17.928009
 20
101.750000
 40
5.054621
 50
339.743835
 51
20.256058
  0
ARC
  8
0
 10
17.928009
 20
98.250000
 40
5.054621
 50
339.743835
 51
20.256147
  0
TEXT
  8
0
 62
     3
 10
-55.610016
 20
143.460648
 40
4.500000
  1
STRETCH LINE A
 50
0.000000
 41
1.052632
 51
0.000000
  7
STANDARD
  0
TEXT
  8
0
 62
     3
 10
-8.110016
 20
136.984100
 40
4.500000
  1
STRETCH LINE B
 50
0.000000
 41
1.052632
 51
0.000000
  7
STANDARD
  0
TEXT
  8
0
 62
     3
 10
85.396774
 20
-49.850124
 40
4.500000
  1
STRETCH LINE A
 50
0.000000
 41
1.052632
 51
0.000000
  7
STANDARD
  0
TEXT
  8
0
 62
     3
 10
161.396774
 20
-49.850124
 40
4.500000
  1
STRETCH LINE D
 50
0.000000
 41
1.052632
 51
0.000000
  7
STANDARD
  0
TEXT
  8
0
 62
     3
 10
121.396774
 20
-56.850124
 40
4.500000
  1
STRETCH LINE C
 50
0.000000
 41
1.052632
 51
0.000000
  7
STANDARD
  0
TEXT
  8
0
 62
     3
 10
-79.110016
 20
-49.850124
 40
4.500000
  1
STRETCH LINE A
 50
0.000000
 41
1.052632
 51
0.000000
  7
STANDARD
  0
TEXT
  8
0
 62
     3
 10
-43.110023
 20
-56.850124
 40
4.500000
  1
STRETCH LINE B
 50
0.000000
 41
1.052632
 51
0.000000
  7
STANDARD
  0
TEXT
  8
0
 10
195.421692
 20
180.649994
 40
6.500000
  1
Ver. 1.1
 50
0.000000
 41
1.052632
 51
0.000000
  7
STANDARD
  0
TEXT
  8
0
 10
-186.392654
 20
-183.050003
 40
4.500000
  1
-
 50
0.000000
 41
1.052632
 51
0.000000
  7
STANDARD
  0
TEXT
  8
0
 10
-201.392654
 20
-183.050003
 40
4.500000
  1
-
 50
0.000000
 41
1.052632
 51
0.000000
  7
STANDARD
  0
TEXT
  8
0
 10
-216.392654
 20
-183.050003
 40
4.500000
  1
-
 50
0.000000
 41
1.052632
 51
0.000000
  7
STANDARD
  0
TEXT
  8
0
 10
-231.392654
 20
-183.050003
 40
4.500000
  1
-
 50
0.000000
 41
1.052632
 51
0.000000
  7
STANDARD
  0
TEXT
  8
0
 10
-171.392654
 20
-183.050003
 40
4.500000
  1
0
 50
0.000000
 41
1.052632
 51
0.000000
  7
STANDARD
  0
TEXT
  8
0
 10
-143.642654
 20
-163.050003
 40
4.500000
  1
70
 50
0.000000
 41
1.052632
 51
0.000000
  7
STANDARD
  0
TEXT
  8
0
 10
-158.642654
 20
-163.050003
 40
4.500000
  1
50
 50
0.000000
 41
1.052632
 51
0.000000
  7
STANDARD
  0
TEXT
  8
0
 10
-173.642654
 20
-163.050003
 40
4.500000
  1
40
 50
0.000000
 41
1.052632
 51
0.000000
  7
STANDARD
  0
TEXT
  8
0
 10
-188.642654
 20
-163.050003
 40
4.500000
  1
30
 50
0.000000
 41
1.052632
 51
0.000000
  7
STANDARD
  0
TEXT
  8
0
 10
-203.642654
 20
-163.050003
 40
4.500000
  1
20
 50
0.000000
 41
1.052632
 51
0.000000
  7
STANDARD
  0
TEXT
  8
0
 10
-218.642654
 20
-163.050003
 40
4.500000
  1
10
 50
0.000000
 41
1.052632
 51
0.000000
  7
STANDARD
  0
TEXT
  8
0
 10
-231.392654
 20
-163.050003
 40
4.500000
  1
0
 50
0.000000
 41
1.052632
 51
0.000000
  7
STANDARD
  0
TEXT
  8
0
 10
-143.642654
 20
-183.050003
 40
4.500000
  1
15
 50
0.000000
 41
1.052632
 51
0.000000
  7
STANDARD
  0
TEXT
  8
0
 10
-156.392654
 20
-183.050003
 40
4.500000
  1
5
 50
0.000000
 41
1.052632
 51
0.000000
  7
STANDARD
  0
TEXT
  8
0
 10
-256.392670
 20
-183.050003
 40
4.500000
  1
D
 50
0.000000
 41
1.052632
 51
0.000000
  7
STANDARD
  0
TEXT
  8
0
 10
-256.392670
 20
-173.050003
 40
4.500000
  1
C
 50
0.000000
 41
1.052632
 51
0.000000
  7
STANDARD
  0
TEXT
  8
0
 10
-218.642654
 20
-153.050003
 40
4.500000
  1
10
 50
0.000000
 41
1.052632
 51
0.000000
  7
STANDARD
  0
TEXT
  8
0
 10
-203.642654
 20
-153.050003
 40
4.500000
  1
20
 50
0.000000
 41
1.052632
 51
0.000000
  7
STANDARD
  0
TEXT
  8
0
 10
-188.642654
 20
-153.050003
 40
4.500000
  1
30
 50
0.000000
 41
1.052632
 51
0.000000
  7
STANDARD
  0
TEXT
  8
0
 10
-173.642654
 20
-153.050003
 40
4.500000
  1
40
 50
0.000000
 41
1.052632
 51
0.000000
  7
STANDARD
  0
TEXT
  8
0
 10
-158.642654
 20
-153.050003
 40
4.500000
  1
50
 50
0.000000
 41
1.052632
 51
0.000000
  7
STANDARD
  0
TEXT
  8
0
 10
-143.642654
 20
-153.050003
 40
4.500000
  1
70
 50
0.000000
 41
1.052632
 51
0.000000
  7
STANDARD
  0
TEXT
  8
0
 10
-231.392654
 20
-153.050003
 40
4.500000
  1
0
 50
0.000000
 41
1.052632
 51
0.000000
  7
STANDARD
  0
TEXT
  8
0
 10
-231.392654
 20
-173.050003
 40
4.500000
  1
-
 50
0.000000
 41
1.052632
 51
0.000000
  7
STANDARD
  0
TEXT
  8
0
 10
-143.642654
 20
-173.050003
 40
4.500000
  1
15
 50
0.000000
 41
1.052632
 51
0.000000
  7
STANDARD
  0
TEXT
  8
0
 10
-156.392654
 20
-173.050003
 40
4.500000
  1
5
 50
0.000000
 41
1.052632
 51
0.000000
  7
STANDARD
  0
TEXT
  8
0
 10
-171.392654
 20
-173.050003
 40
4.500000
  1
0
 50
0.000000
 41
1.052632
 51
0.000000
  7
STANDARD
  0
TEXT
  8
0
 10
-186.392654
 20
-173.050003
 40
4.500000
  1
-
 50
0.000000
 41
1.052632
 51
0.000000
  7
STANDARD
  0
TEXT
  8
0
 10
-201.392654
 20
-173.050003
 40
4.500000
  1
-
 50
0.000000
 41
1.052632
 51
0.000000
  7
STANDARD
  0
TEXT
  8
0
 10
-216.392654
 20
-173.050003
 40
4.500000
  1
-
 50
0.000000
 41
1.052632
 51
0.000000
  7
STANDARD
  0
TEXT
  8
0
 10
-148.142654
 20
-113.050003
 40
4.500000
  1
（ｍｍ）
 50
0.000000
 41
0.833333
 51
0.000000
  7
STANDARD
  0
TEXT
  8
0
 10
-228.642654
 20
-113.050003
 40
4.500000
  1
STRETCH LIST
 50
0.000000
 41
1.052632
 51
0.000000
  7
STANDARD
  0
TEXT
  8
0
 10
-143.642654
 20
-133.050003
 40
4.500000
  1
80
 50
0.000000
 41
1.052632
 51
0.000000
  7
STANDARD
  0
TEXT
  8
0
 10
-158.642654
 20
-133.050003
 40
4.500000
  1
60
 50
0.000000
 41
1.052632
 51
0.000000
  7
STANDARD
  0
TEXT
  8
0
 10
-173.642654
 20
-133.050003
 40
4.500000
  1
50
 50
0.000000
 41
1.052632
 51
0.000000
  7
STANDARD
  0
TEXT
  8
0
 10
-188.642654
 20
-133.050003
 40
4.500000
  1
40
 50
0.000000
 41
1.052632
 51
0.000000
  7
STANDARD
  0
TEXT
  8
0
 10
-203.642654
 20
-133.050003
 40
4.500000
  1
30
 50
0.000000
 41
1.052632
 51
0.000000
  7
STANDARD
  0
TEXT
  8
0
 10
-218.642654
 20
-133.050003
 40
4.500000
  1
20
 50
0.000000
 41
1.052632
 51
0.000000
  7
STANDARD
  0
TEXT
  8
0
 10
-233.642654
 20
-133.050003
 40
4.500000
  1
10
 50
0.000000
 41
1.052632
 51
0.000000
  7
STANDARD
  0
TEXT
  8
0
 10
-270.892670
 20
-133.324997
 40
4.500000
  1
STRETCH
 50
0.000000
 41
1.052632
 51
0.000000
  7
STANDARD
  0
TEXT
  8
0
 10
-270.892670
 20
-140.074997
 40
4.500000
  1
  PLACE
 50
0.000000
 41
1.052632
 51
0.000000
  7
STANDARD
  0
TEXT
  8
0
 10
-267.642670
 20
-123.050003
 40
4.500000
  1
STROKE
 50
0.000000
 41
1.052632
 51
0.000000
  7
STANDARD
  0
TEXT
  8
0
 10
-256.392670
 20
-153.050003
 40
4.500000
  1
A
 50
0.000000
 41
1.052632
 51
0.000000
  7
STANDARD
  0
TEXT
  8
0
 10
-256.392670
 20
-163.050003
 40
4.500000
  1
B
 50
0.000000
 41
1.052632
 51
0.000000
  7
STANDARD
  0
TEXT
  8
0
 10
-270.049713
 20
155.830002
 40
6.300000
  1
MODEL:ARS16*ST(10)
 50
0.000000
 41
1.052632
 51
0.000000
  7
STANDARD
  0
TEXT
  8
0
 10
-253.399719
 20
180.830002
 40
6.300000
  1
ROD SLIDER
 50
0.000000
 41
1.052632
 51
0.000000
  7
STANDARD
  0
TEXT
  8
0
 10
167.564667
 20
-192.100006
 40
9.000000
  1
KOGANEI CORP.
 50
0.000000
 41
1.052632
 51
0.000000
  7
STANDARD
  0
ENDSEC
  0
EOF
