  0
SECTION
  2
HEADER
  0
ENDSEC
  0
SECTION
  2
TABLES
  0
TABLE
  2
LTYPE
 70
     4
  0
LTYPE
  2
CONTINUOUS
 70
    64
  3
Solid line
 72
    65
 73
     0
 40
0.000000
  0
LTYPE
  2
DASHED
 70
    64
  3
__ __ __ __ __ __ __ __ __ __ __ __ __ __ __
 72
    65
 73
     2
 40
3.500000
 49
2.000000
 49
-1.500000
  0
LTYPE
  2
CENTER
 70
    64
  3
____ _ ____ _ ____ _ ____ _ ____ _ ____ _ ____
 72
    65
 73
     4
 40
17.500000
 49
13.000000
 49
-1.500000
 49
1.500000
 49
-1.500000
  0
LTYPE
  2
PHANTOM
 70
    64
  3
_____ _ _ _____ _ _ _____ _ _ _____ _ _ ____  
 72
    65
 73
     6
 40
15.500000
 49
8.000000
 49
-1.500000
 49
1.500000
 49
-1.500000
 49
1.500000
 49
-1.500000
  0
LTYPE
  2
DASHED1
 70
    64
  3
__ __ __ __ __ __ __ __ __ __ __ __ __ __ __
 72
    65
 73
     2
 40
1.500000
 49
1.000000
 49
-0.500000
  0
LTYPE
  2
DASHED2
 70
    64
  3
__ __ __ __ __ __ __ __ __ __ __ __ __ __ __
 72
    65
 73
     2
 40
3.500000
 49
2.500000
 49
-1.000000
  0
LTYPE
  2
DASHED3
 70
    64
  3
__ __ __ __ __ __ __ __ __ __ __ __ __ __ __
 72
    65
 73
     2
 40
6.000000
 49
4.000000
 49
-2.000000
  0
LTYPE
  2
DASHED4
 70
    64
  3
__ __ __ __ __ __ __ __ __ __ __ __ __ __ __
 72
    65
 73
     2
 40
12.000000
 49
10.000000
 49
-2.000000
  0
LTYPE
  2
DASHED5
 70
    64
  3
__ __ __ __ __ __ __ __ __ __ __ __ __ __ __
 72
    65
 73
     2
 40
17.000000
 49
15.000000
 49
-2.000000
  0
LTYPE
  2
DASHED6
 70
    64
  3
__ __ __ __ __ __ __ __ __ __ __ __ __ __ __
 72
    65
 73
     2
 40
29.000000
 49
27.000000
 49
-2.000000
  0
LTYPE
  2
PHANTOM1
 70
    64
  3
_____ _ _ _____ _ _ _____ _ _ _____ _ _ ____  
 72
    65
 73
     6
 40
31.000000
 49
25.000000
 49
-1.500000
 49
1.000000
 49
-1.000000
 49
1.000000
 49
-1.500000
  0
LTYPE
  2
PHANTOM2
 70
    64
  3
_____ _ _ _____ _ _ _____ _ _ _____ _ _ ____  
 72
    65
 73
     6
 40
36.000000
 49
27.000000
 49
-1.500000
 49
2.500000
 49
-1.000000
 49
2.500000
 49
-1.500000
  0
LTYPE
  2
PHANTOM3
 70
    64
  3
_____ _ _ _____ _ _ _____ _ _ _____ _ _ ____  
 72
    65
 73
     6
 40
78.000000
 49
64.000000
 49
-2.000000
 49
4.000000
 49
-2.000000
 49
4.000000
 49
-2.000000
  0
LTYPE
  2
CENTER1
 70
    64
  3
____ _ ____ _ ____ _ ____ _ ____ _ ____ _ ____
 72
    65
 73
     4
 40
19.000000
 49
14.000000
 49
-1.000000
 49
3.000000
 49
-1.000000
  0
LTYPE
  2
CENTER2
 70
    64
  3
____ _ ____ _ ____ _ ____ _ ____ _ ____ _ ____
 72
    65
 73
     4
 40
28.500000
 49
25.000000
 49
-1.000000
 49
1.500000
 49
-1.000000
  0
LTYPE
  2
CENTER3
 70
    64
  3
____ _ ____ _ ____ _ ____ _ ____ _ ____ _ ____
 72
    65
 73
     4
 40
31.500000
 49
27.000000
 49
-1.000000
 49
2.500000
 49
-1.000000
  0
LTYPE
  2
CENTER4
 70
    64
  3
____ _ ____ _ ____ _ ____ _ ____ _ ____ _ ____
 72
    65
 73
     4
 40
50.000000
 49
45.000000
 49
-1.000000
 49
3.000000
 49
-1.000000
  0
LTYPE
  2
CENTER5
 70
    64
  3
____ _ ____ _ ____ _ ____ _ ____ _ ____ _ ____
 72
    65
 73
     4
 40
100.000000
 49
92.000000
 49
-2.000000
 49
4.000000
 49
-2.000000
  0
LTYPE
  2
SBK1
 70
    64
  3
______ _ _ _ ______ _ _ _ ______ _ _ _ _____  
 72
    65
 73
     8
 40
60.500000
 49
45.000000
 49
-2.000000
 49
2.500000
 49
-2.000000
 49
2.500000
 49
-2.000000
 49
2.500000
 49
-2.000000
  0
LTYPE
  2
SBK2
 70
    64
  3
______ _ _ _ ______ _ _ _ ______ _ _ _ _____  
 72
    65
 73
     8
 40
84.000000
 49
64.000000
 49
-2.000000
 49
4.000000
 49
-2.000000
 49
4.000000
 49
-2.000000
 49
4.000000
 49
-2.000000
  0
LTYPE
  2
STCH
 70
    64
  3
__ __ __ __ __ __ __ __ __ __ __ __ __ __ __
 72
    65
 73
     2
 40
3.000000
 49
1.000000
 49
-2.000000
  0
LTYPE
  2
MTCH
 70
    64
  3
_____ _ _ _____ _ _ _____ _ _ _____ _ _ ____  
 72
    65
 73
     6
 40
80.000000
 49
66.000000
 49
-2.000000
 49
4.000000
 49
-2.000000
 49
4.000000
 49
-2.000000
  0
ENDTAB
  0
TABLE
  2
LAYER
 70
     1
  0
LAYER
  2
0
 70
     0
 62
     7
  6
CONTINUOUS
  0
ENDTAB
  0
TABLE
  2
STYLE
 70
     1
  0
STYLE
  2
STANDARD
 70
     0
 40
0.000000
 41
1.000000
 50
0.000000
 71
     0
 42
0.200000
  3
txt
  4
BIGFONT
  0
ENDTAB
  0
TABLE
  2
VIEW
 70
     0
  0
ENDTAB
  0
ENDSEC
  0
SECTION
  2
BLOCKS
  0
ENDSEC
  0
SECTION
  2
ENTITIES
  0
LINE
  8
0
 62
     2
 10
113.188370
 20
-89.729500
 11
115.388367
 21
-89.729500
  0
LINE
  8
0
 62
     2
 10
113.188370
 20
-87.270500
 11
115.388367
 21
-87.270500
  0
LINE
  8
0
 10
111.433990
 20
-88.500000
 11
113.188370
 21
-88.500000
  0
LINE
  8
0
 10
113.188370
 20
-87.000000
 11
115.388367
 21
-87.000000
  0
LINE
  8
0
 10
113.188370
 20
-90.000000
 11
115.388367
 21
-90.000000
  0
LINE
  8
0
 10
111.188370
 20
-85.750000
 11
113.188370
 21
-85.750000
  0
LINE
  8
0
 10
111.188370
 20
-91.250000
 11
113.188370
 21
-91.250000
  0
LINE
  8
0
 10
113.188370
 20
-85.750000
 11
113.188370
 21
-91.250000
  0
LINE
  8
0
 10
111.188370
 20
-85.750000
 11
111.188370
 21
-91.250000
  0
LINE
  8
0
 10
115.388367
 20
-85.750000
 11
117.188354
 21
-85.750000
  0
LINE
  8
0
 10
115.633987
 20
-88.500000
 11
116.942734
 21
-88.500000
  0
LINE
  8
0
 10
115.388367
 20
-85.750000
 11
115.388367
 21
-91.250000
  0
LINE
  8
0
 10
115.388367
 20
-91.250000
 11
117.188354
 21
-91.250000
  0
LINE
  8
0
 10
117.188354
 20
-85.750000
 11
117.188354
 21
-91.250000
  0
LINE
  8
0
  6
PHANTOM
 62
     3
 10
115.913361
 20
-93.250000
 11
115.913361
 21
-118.415421
  0
LINE
  8
0
  6
PHANTOM
 62
     3
 10
107.188370
 20
-93.250000
 11
115.913361
 21
-93.250000
  0
LINE
  8
0
  6
PHANTOM
 62
     3
 10
107.188370
 20
-83.750000
 11
115.913361
 21
-83.750000
  0
LINE
  8
0
  6
PHANTOM
 62
     3
 10
115.913361
 20
-47.576035
 11
115.913361
 21
-83.750000
  0
LINE
  8
0
  6
PHANTOM
 62
     3
 10
192.188354
 20
-47.576035
 11
192.188354
 21
-118.415421
  0
LINE
  8
0
  6
PHANTOM
 62
     3
 10
107.188370
 20
-83.750000
 11
107.188370
 21
-93.250000
  0
LINE
  8
0
  6
PHANTOM
 62
     3
 10
152.188354
 20
-118.415421
 11
152.188354
 21
-58.759506
  0
LINE
  8
0
 10
101.188370
 20
-85.750000
 11
101.188370
 21
-91.250000
  0
LINE
  8
0
 10
100.188370
 20
-91.250000
 11
101.188370
 21
-91.250000
  0
LINE
  8
0
 10
100.188370
 20
-85.750000
 11
101.188370
 21
-85.750000
  0
LINE
  8
0
  6
CENTER
 62
     2
 10
172.188354
 20
-92.767250
 11
172.188354
 21
-84.215584
  0
LINE
  8
0
 10
235.188309
 20
-63.200012
 11
234.988342
 21
-63.000019
  0
LINE
  8
0
 10
235.188293
 20
-113.799843
 11
234.988297
 21
-113.999840
  0
LINE
  8
0
 10
117.188354
 20
-113.799988
 11
117.188354
 21
-63.200012
  0
LINE
  8
0
 10
92.188370
 20
-63.000015
 11
234.988342
 21
-63.000015
  0
LINE
  8
0
 10
92.188370
 20
-114.000000
 11
234.988251
 21
-114.000000
  0
LINE
  8
0
 10
235.188354
 20
-113.800018
 11
235.188354
 21
-63.200027
  0
LINE
  8
0
  6
CENTER
 62
     2
 10
132.188354
 20
-92.767250
 11
132.188354
 21
-84.215584
  0
LINE
  8
0
 10
117.188354
 20
-102.000008
 11
235.188354
 21
-102.000008
  0
LINE
  8
0
 10
117.188354
 20
-101.500008
 11
235.188354
 21
-101.500008
  0
LINE
  8
0
 10
117.188354
 20
-75.000008
 11
235.188354
 21
-75.000008
  0
LINE
  8
0
 10
117.188354
 20
-75.500008
 11
235.188354
 21
-75.500008
  0
LINE
  8
0
 10
117.188354
 20
-93.000008
 11
235.188354
 21
-93.000008
  0
LINE
  8
0
 10
117.188354
 20
-84.000008
 11
235.188354
 21
-84.000008
  0
LINE
  8
0
 10
117.188354
 20
-93.500008
 11
235.188354
 21
-93.500008
  0
LINE
  8
0
 10
117.188354
 20
-83.500008
 11
235.188354
 21
-83.500008
  0
LINE
  8
0
 10
221.188354
 20
-90.500008
 11
223.188354
 21
-90.500008
  0
LINE
  8
0
 10
221.188354
 20
-86.500008
 11
223.188354
 21
-86.500008
  0
LINE
  8
0
  6
CENTER
 62
     2
 10
222.188354
 20
-92.767265
 11
222.188354
 21
-84.215599
  0
LINE
  8
0
  6
CENTER
 62
     2
 10
142.188354
 20
-92.767250
 11
142.188354
 21
-84.215584
  0
LINE
  8
0
  6
CENTER
 62
     2
 10
212.188370
 20
-92.767265
 11
212.188370
 21
-84.215599
  0
LINE
  8
0
 10
105.088379
 20
-94.500000
 11
117.188354
 21
-94.500000
  0
LINE
  8
0
 10
104.688377
 20
-94.899971
 11
105.088394
 21
-94.499954
  0
LINE
  8
0
 10
101.688370
 20
-94.899994
 11
104.688370
 21
-94.899994
  0
LINE
  8
0
 10
105.088379
 20
-100.500000
 11
117.188354
 21
-100.500000
  0
LINE
  8
0
 10
104.688393
 20
-100.099960
 11
105.088402
 21
-100.499977
  0
LINE
  8
0
 10
101.688370
 20
-100.099991
 11
104.688370
 21
-100.099991
  0
LINE
  8
0
 10
105.088379
 20
-82.500000
 11
117.188354
 21
-82.500000
  0
LINE
  8
0
 10
104.688362
 20
-82.099998
 11
105.088371
 21
-82.500015
  0
LINE
  8
0
 10
104.688408
 20
-76.900009
 11
105.088409
 21
-76.500008
  0
LINE
  8
0
 10
101.688370
 20
-76.899994
 11
104.688370
 21
-76.899994
  0
LINE
  8
0
 10
101.688370
 20
-82.099991
 11
104.688370
 21
-82.099991
  0
LINE
  8
0
 10
105.088379
 20
-76.500000
 11
117.188354
 21
-76.500000
  0
LINE
  8
0
 10
100.288376
 20
-84.500000
 11
101.688370
 21
-84.500000
  0
LINE
  8
0
 10
100.288376
 20
-74.500000
 11
101.688370
 21
-74.500000
  0
LINE
  8
0
 10
101.688370
 20
-74.500000
 11
101.688370
 21
-84.500000
  0
LINE
  8
0
  6
CENTER
 62
     2
 10
88.593796
 20
-79.500000
 11
128.071136
 21
-79.500000
  0
LINE
  8
0
  6
CENTER
 62
     2
 10
88.790710
 20
-97.500000
 11
128.071136
 21
-97.500000
  0
LINE
  8
0
 10
100.188370
 20
-63.000000
 11
100.188370
 21
-114.000000
  0
LINE
  8
0
 10
92.188370
 20
-63.000000
 11
92.188370
 21
-114.000000
  0
LINE
  8
0
  6
CENTER
 62
     2
 10
107.738373
 20
-103.500000
 11
116.638367
 21
-103.500000
  0
LINE
  8
0
  6
CENTER
 62
     2
 10
112.188370
 20
-69.050003
 11
112.188370
 21
-77.949997
  0
LINE
  8
0
  6
CENTER
 62
     2
 10
107.738373
 20
-73.500000
 11
116.638367
 21
-73.500000
  0
LINE
  8
0
 10
100.288376
 20
-102.500000
 11
101.688370
 21
-102.500000
  0
LINE
  8
0
 10
100.288376
 20
-92.500000
 11
101.688370
 21
-92.500000
  0
LINE
  8
0
 10
101.688370
 20
-92.500000
 11
101.688370
 21
-102.500000
  0
LINE
  8
0
  6
CENTER
 62
     2
 10
112.188370
 20
-107.949997
 11
112.188370
 21
-99.050003
  0
LINE
  8
0
  6
CENTER
 62
     2
 10
83.868134
 20
-88.500000
 11
240.417358
 21
-88.500000
  0
LINE
  8
0
 62
     2
 10
-55.101974
 20
-89.729500
 11
-52.901978
 21
-89.729500
  0
LINE
  8
0
 62
     2
 10
-55.101974
 20
-87.270500
 11
-52.901978
 21
-87.270500
  0
LINE
  8
0
 10
-55.101974
 20
-90.000000
 11
-52.901978
 21
-90.000000
  0
LINE
  8
0
 10
-55.101974
 20
-87.000000
 11
-52.901978
 21
-87.000000
  0
LINE
  8
0
 10
-52.901978
 20
-91.250000
 11
-51.101990
 21
-91.250000
  0
LINE
  8
0
 10
-52.901978
 20
-85.750000
 11
-51.101990
 21
-85.750000
  0
LINE
  8
0
 10
-56.856354
 20
-88.500000
 11
-55.101974
 21
-88.500000
  0
LINE
  8
0
 10
-55.101974
 20
-85.750000
 11
-55.101974
 21
-91.250000
  0
LINE
  8
0
 10
-57.101974
 20
-85.750000
 11
-57.101974
 21
-91.250000
  0
LINE
  8
0
 10
-57.101974
 20
-85.750000
 11
-57.101974
 21
-91.250000
  0
LINE
  8
0
 10
-52.056370
 20
-88.500000
 11
-50.747612
 21
-88.500000
  0
LINE
  8
0
 10
-52.901978
 20
-85.750000
 11
-52.901978
 21
-91.250000
  0
LINE
  8
0
 10
-57.101974
 20
-91.250000
 11
-55.101974
 21
-91.250000
  0
LINE
  8
0
 10
-51.101990
 20
-85.750000
 11
-51.101990
 21
-91.250000
  0
LINE
  8
0
 10
-57.101974
 20
-85.750000
 11
-55.101974
 21
-85.750000
  0
LINE
  8
0
 10
-51.101990
 20
-113.799988
 11
-51.101990
 21
-63.199997
  0
LINE
  8
0
 10
-51.101990
 20
-113.799988
 11
-51.101990
 21
-63.199997
  0
LINE
  8
0
  6
PHANTOM
 62
     3
 10
-52.376984
 20
-93.250000
 11
-52.376984
 21
-118.415421
  0
LINE
  8
0
  6
PHANTOM
 62
     3
 10
-61.101974
 20
-93.250000
 11
-52.376984
 21
-93.250000
  0
LINE
  8
0
  6
PHANTOM
 62
     3
 10
-61.101974
 20
-83.750000
 11
-61.101974
 21
-93.250000
  0
LINE
  8
0
  6
PHANTOM
 62
     3
 10
-61.101974
 20
-83.750000
 11
-52.376984
 21
-83.750000
  0
LINE
  8
0
  6
PHANTOM
 62
     3
 10
-52.376984
 20
-47.576035
 11
-52.376984
 21
-83.750000
  0
LINE
  8
0
  6
CENTER
 62
     2
 10
-60.551971
 20
-103.500000
 11
-51.651974
 21
-103.500000
  0
LINE
  8
0
  6
CENTER
 62
     2
 10
-56.101974
 20
-107.949997
 11
-56.101974
 21
-99.050003
  0
LINE
  8
0
  6
CENTER
 62
     2
 10
-56.101974
 20
-69.050003
 11
-56.101974
 21
-77.949997
  0
LINE
  8
0
  6
CENTER
 62
     2
 10
-60.551971
 20
-73.500000
 11
-51.651974
 21
-73.500000
  0
LINE
  8
0
  6
PHANTOM
 62
     3
 10
-16.101990
 20
-118.415421
 11
-16.101990
 21
-58.759506
  0
LINE
  8
0
 10
-67.101974
 20
-85.750000
 11
-67.101974
 21
-91.250000
  0
LINE
  8
0
 10
-68.101974
 20
-91.250000
 11
-67.101974
 21
-91.250000
  0
LINE
  8
0
 10
-68.101974
 20
-85.750000
 11
-67.101974
 21
-85.750000
  0
LINE
  8
0
 10
-52.589371
 20
-88.500000
 11
-51.414597
 21
-88.500000
  0
LINE
  8
0
 10
-56.787888
 20
-88.500000
 11
-55.101974
 21
-88.500000
  0
LINE
  8
0
 10
-63.201965
 20
-94.500000
 11
-51.101990
 21
-94.500000
  0
LINE
  8
0
 10
-63.601978
 20
-94.899971
 11
-63.201962
 21
-94.499947
  0
LINE
  8
0
 10
-66.601974
 20
-94.899994
 11
-63.601974
 21
-94.899994
  0
LINE
  8
0
 10
-63.201965
 20
-100.500000
 11
-51.101990
 21
-100.500000
  0
LINE
  8
0
 10
-63.601959
 20
-100.099968
 11
-63.201950
 21
-100.499992
  0
LINE
  8
0
 10
-66.601974
 20
-100.099991
 11
-63.601974
 21
-100.099991
  0
LINE
  8
0
 10
-63.201965
 20
-82.500000
 11
-51.101990
 21
-82.500000
  0
LINE
  8
0
 10
-63.601974
 20
-82.099991
 11
-63.201969
 21
-82.500008
  0
LINE
  8
0
 10
-63.601959
 20
-76.899994
 11
-63.201954
 21
-76.499992
  0
LINE
  8
0
 10
-66.601974
 20
-76.899994
 11
-63.601974
 21
-76.899994
  0
LINE
  8
0
 10
-66.601974
 20
-82.099991
 11
-63.601974
 21
-82.099991
  0
LINE
  8
0
 10
-63.201965
 20
-76.500000
 11
-51.101990
 21
-76.500000
  0
LINE
  8
0
 10
-68.001968
 20
-84.500000
 11
-66.601974
 21
-84.500000
  0
LINE
  8
0
 10
-68.001968
 20
-74.500000
 11
-66.601974
 21
-74.500000
  0
LINE
  8
0
 10
-66.601974
 20
-74.500000
 11
-66.601974
 21
-84.500000
  0
LINE
  8
0
  6
CENTER
 62
     2
 10
-79.696548
 20
-79.500000
 11
-40.219208
 21
-79.500000
  0
LINE
  8
0
  6
CENTER
 62
     2
 10
-79.499634
 20
-97.500000
 11
-40.219208
 21
-97.500000
  0
LINE
  8
0
 10
-68.101974
 20
-63.000000
 11
-68.101974
 21
-114.000000
  0
LINE
  8
0
 10
-76.101974
 20
-63.000000
 11
-76.101974
 21
-114.000000
  0
LINE
  8
0
 10
-68.001968
 20
-102.500000
 11
-66.601974
 21
-102.500000
  0
LINE
  8
0
 10
-68.001968
 20
-92.500000
 11
-66.601974
 21
-92.500000
  0
LINE
  8
0
 10
-66.601974
 20
-92.500000
 11
-66.601974
 21
-102.500000
  0
LINE
  8
0
  6
CENTER
 62
     2
 10
-84.422211
 20
-88.500000
 11
35.505920
 21
-88.500000
  0
LINE
  8
0
 10
26.897972
 20
-63.200035
 11
26.697975
 21
-63.000038
  0
LINE
  8
0
 10
26.897923
 20
-113.799942
 11
26.697927
 21
-113.999939
  0
LINE
  8
0
 10
-51.101990
 20
-113.799988
 11
-51.101990
 21
-63.199997
  0
LINE
  8
0
 10
-76.101974
 20
-63.000000
 11
26.698013
 21
-63.000000
  0
LINE
  8
0
 10
-76.101974
 20
-114.000000
 11
26.698013
 21
-114.000000
  0
LINE
  8
0
 10
26.898010
 20
-113.800018
 11
26.898010
 21
-63.200012
  0
LINE
  8
0
  6
CENTER
 62
     2
 10
-36.101990
 20
-92.767242
 11
-36.101990
 21
-84.215576
  0
LINE
  8
0
 10
-51.101990
 20
-102.000000
 11
26.898010
 21
-102.000000
  0
LINE
  8
0
 10
-51.101990
 20
-101.500000
 11
26.898010
 21
-101.500000
  0
LINE
  8
0
 10
-51.101990
 20
-75.000000
 11
26.898010
 21
-75.000000
  0
LINE
  8
0
 10
-51.101990
 20
-75.500000
 11
26.898010
 21
-75.500000
  0
LINE
  8
0
 10
-51.101990
 20
-93.000000
 11
26.898010
 21
-93.000000
  0
LINE
  8
0
 10
-51.101990
 20
-84.000000
 11
26.898010
 21
-84.000000
  0
LINE
  8
0
 10
-51.101990
 20
-93.500000
 11
26.898010
 21
-93.500000
  0
LINE
  8
0
 10
-51.101990
 20
-83.500000
 11
26.898010
 21
-83.500000
  0
LINE
  8
0
 10
12.898010
 20
-90.500000
 11
14.898010
 21
-90.500000
  0
LINE
  8
0
 10
12.898010
 20
-86.500000
 11
14.898010
 21
-86.500000
  0
LINE
  8
0
  6
CENTER
 62
     2
 10
13.897995
 20
-92.767258
 11
13.897995
 21
-84.215591
  0
LINE
  8
0
  6
CENTER
 62
     2
 10
-26.101990
 20
-92.767242
 11
-26.101990
 21
-84.215576
  0
LINE
  8
0
  6
CENTER
 62
     2
 10
3.898010
 20
-92.767258
 11
3.898010
 21
-84.215591
  0
LINE
  8
0
 62
     2
 10
-55.101974
 20
1.595069
 11
-52.901978
 21
1.595069
  0
LINE
  8
0
 10
-55.101974
 20
1.324570
 11
-52.901978
 21
1.324570
  0
LINE
  8
0
 10
-57.101974
 20
0.074570
 11
-55.101974
 21
0.074570
  0
LINE
  8
0
 10
-55.101974
 20
2.500000
 11
-55.101974
 21
0.074570
  0
LINE
  8
0
 10
-57.101974
 20
2.500000
 11
-57.101974
 21
0.074570
  0
LINE
  8
0
 10
-52.901978
 20
2.500000
 11
-52.901978
 21
0.074570
  0
LINE
  8
0
 10
-52.901978
 20
0.074570
 11
-51.101990
 21
0.074570
  0
LINE
  8
0
 10
-51.101990
 20
5.574570
 11
-51.101990
 21
0.074570
  0
LINE
  8
0
  6
PHANTOM
 62
     3
 10
18.898010
 20
48.073746
 11
18.898010
 21
9.499989
  0
LINE
  8
0
  6
PHANTOM
 62
     3
 10
-62.101974
 20
48.073746
 11
-62.101974
 21
-6.910467
  0
LINE
  8
0
  6
CENTER
 62
     2
 10
-29.101974
 20
8.999992
 11
-29.101974
 21
1.999992
  0
LINE
  8
0
  6
CENTER
 62
     2
 10
16.897995
 20
8.999969
 11
16.897995
 21
1.999969
  0
LINE
  8
0
  6
PHANTOM
 62
     3
 10
-12.601990
 20
9.499989
 11
18.898010
 21
9.499989
  0
LINE
  8
0
  6
PHANTOM
 62
     3
 10
-12.601990
 20
9.499989
 11
-12.601990
 21
-6.910467
  0
LINE
  8
0
  6
CENTER
 62
     2
 10
-36.101990
 20
0.000000
 11
-36.101990
 21
-5.000000
  0
LINE
  8
0
  6
CENTER
 62
     2
 10
3.898010
 20
0.000000
 11
3.898010
 21
-5.000000
  0
LINE
  8
0
 10
-67.101974
 20
0.500000
 11
-67.101974
 21
-0.250015
  0
LINE
  8
0
 10
-68.101974
 20
-0.250015
 11
-67.101974
 21
-0.250015
  0
LINE
  8
0
 10
-51.101990
 20
16.000000
 11
-51.101990
 21
-2.500000
  0
LINE
  8
0
 10
18.098022
 20
17.999985
 11
18.098022
 21
19.000000
  0
LINE
  8
0
 10
23.897995
 20
17.999985
 11
23.897995
 21
13.499985
  0
LINE
  8
0
 10
13.898026
 20
17.999985
 11
23.897995
 21
17.999985
  0
LINE
  8
0
 10
24.698013
 20
17.500000
 11
24.698013
 21
14.000000
  0
LINE
  8
0
 10
-76.101974
 20
26.000000
 11
-68.101974
 21
26.000000
  0
LINE
  8
0
 10
-68.101974
 20
26.500000
 11
13.898026
 21
26.500000
  0
LINE
  8
0
 10
-26.601974
 20
16.000000
 11
-26.601974
 21
14.499985
  0
LINE
  8
0
 10
-49.601974
 20
14.499985
 11
-26.601974
 21
14.499985
  0
LINE
  8
0
 10
-49.601974
 20
16.000000
 11
-49.601974
 21
14.499985
  0
LINE
  8
0
 10
-19.601974
 20
14.499985
 11
3.398026
 21
14.499985
  0
LINE
  8
0
 10
3.398026
 20
16.000000
 11
3.398026
 21
14.499985
  0
LINE
  8
0
 10
-19.601974
 20
16.000000
 11
-19.601974
 21
14.499985
  0
LINE
  8
0
 10
13.898010
 20
16.000000
 11
13.898010
 21
13.499985
  0
LINE
  8
0
 10
14.898021
 20
18.999960
 11
15.210628
 21
19.541410
  0
LINE
  8
0
 10
18.098021
 20
18.999981
 11
17.785414
 21
19.541431
  0
LINE
  8
0
 10
17.785416
 20
19.541443
 11
15.210632
 21
19.541443
  0
LINE
  8
0
 62
     2
 10
23.897995
 20
17.149994
 11
24.698013
 21
17.149994
  0
LINE
  8
0
 10
23.897995
 20
17.500000
 11
24.698013
 21
17.500000
  0
LINE
  8
0
 62
     2
 10
-66.601952
 20
4.003345
 11
-63.601959
 21
6.996669
  0
LINE
  8
0
 62
     2
 10
-66.601974
 20
6.996676
 11
-63.601986
 21
4.003352
  0
LINE
  8
0
 10
-66.601974
 20
4.003326
 11
-63.601974
 21
4.003326
  0
LINE
  8
0
 10
-66.601974
 20
6.996658
 11
-63.601974
 21
6.996658
  0
LINE
  8
0
 10
-66.601974
 20
2.500000
 11
-51.101990
 21
2.500000
  0
LINE
  8
0
 10
-66.601974
 20
8.500000
 11
-51.101990
 21
8.500000
  0
LINE
  8
0
 10
-63.601974
 20
6.996658
 11
-63.601974
 21
4.003326
  0
LINE
  8
0
 10
-68.101974
 20
0.500000
 11
-66.601974
 21
0.500000
  0
LINE
  8
0
 10
-68.101974
 20
10.500000
 11
-66.601974
 21
10.500000
  0
LINE
  8
0
 10
-66.601974
 20
10.500000
 11
-66.601974
 21
0.500000
  0
LINE
  8
0
 10
-76.101974
 20
-1.000000
 11
-68.101974
 21
-1.000000
  0
LINE
  8
0
  6
CENTER
 62
     2
 10
10.030441
 20
15.500000
 11
27.220306
 21
15.500000
  0
LINE
  8
0
 10
13.898026
 20
19.500000
 11
14.898026
 21
19.500000
  0
LINE
  8
0
 10
14.898026
 20
19.500000
 11
14.898026
 21
17.999985
  0
LINE
  8
0
 10
-68.101974
 20
16.000000
 11
13.898026
 21
16.000000
  0
LINE
  8
0
 10
13.898026
 20
28.500000
 11
13.898026
 21
16.000000
  0
LINE
  8
0
 10
-76.101974
 20
28.000000
 11
-68.101974
 21
28.000000
  0
LINE
  8
0
 10
-68.101974
 20
28.500000
 11
13.898026
 21
28.500000
  0
LINE
  8
0
 10
-68.101974
 20
28.500000
 11
-68.101974
 21
-1.000000
  0
LINE
  8
0
 10
-76.101974
 20
28.000000
 11
-76.101974
 21
-1.000000
  0
LINE
  8
0
 10
26.897917
 20
-2.299981
 11
26.697910
 21
-2.499988
  0
LINE
  8
0
 10
-51.101974
 20
13.499985
 11
26.898010
 21
13.499985
  0
LINE
  8
0
 10
23.897995
 20
14.000000
 11
26.898010
 21
14.000000
  0
LINE
  8
0
  6
CENTER
 62
     2
 10
-80.346207
 20
5.499992
 11
33.511322
 21
5.499992
  0
LINE
  8
0
 10
26.898010
 20
14.000000
 11
26.898010
 21
-2.300018
  0
LINE
  8
0
 10
-51.101990
 20
-2.500000
 11
26.898010
 21
-2.500000
  0
LINE
  8
0
 10
117.901169
 20
92.199951
 11
121.855911
 21
92.199951
  0
LINE
  8
0
 10
117.901169
 20
92.799957
 11
121.855911
 21
92.799957
  0
LINE
  8
0
 10
117.678543
 20
104.000031
 11
117.678543
 21
110.999954
  0
LINE
  8
0
 10
117.678543
 20
81.000031
 11
117.678543
 21
73.999954
  0
LINE
  8
0
 10
117.857819
 20
88.999954
 11
121.899277
 21
88.999954
  0
LINE
  8
0
 10
121.899300
 20
88.999939
 11
123.920021
 21
92.499931
  0
LINE
  8
0
 10
123.920242
 20
92.500061
 11
121.899513
 21
96.000061
  0
LINE
  8
0
 10
117.857819
 20
95.999954
 11
121.899277
 21
95.999954
  0
LINE
  8
0
 10
117.858070
 20
89.000053
 11
115.837349
 21
92.500046
  0
LINE
  8
0
 10
115.837105
 20
92.499924
 11
117.857834
 21
95.999931
  0
LINE
  8
0
 10
121.878525
 20
73.499954
 11
122.378525
 21
73.499954
  0
LINE
  8
0
 10
121.878525
 20
111.499954
 11
122.378540
 21
111.499954
  0
LINE
  8
0
 10
117.678543
 20
80.999954
 11
122.378525
 21
80.999954
  0
LINE
  8
0
 10
117.678543
 20
103.999954
 11
122.378525
 21
103.999954
  0
LINE
  8
0
 10
115.878540
 20
92.571762
 11
115.878540
 21
102.499954
  0
LINE
  8
0
 10
122.878540
 20
90.696121
 11
122.878540
 21
87.499985
  0
LINE
  8
0
 10
115.878540
 20
82.499954
 11
115.878540
 21
92.428177
  0
LINE
  8
0
 10
114.378540
 20
98.499954
 11
114.378540
 21
116.499954
  0
LINE
  8
0
 10
137.578461
 20
105.699913
 11
137.878433
 21
105.999886
  0
LINE
  8
0
 10
137.578384
 20
97.299843
 11
137.878418
 21
96.999802
  0
LINE
  8
0
 10
137.578537
 20
105.699951
 11
137.578537
 21
97.299927
  0
LINE
  8
0
 10
137.578537
 20
79.299957
 11
137.578537
 21
87.699982
  0
LINE
  8
0
  6
CENTER
 62
     2
 10
119.878540
 20
98.036606
 11
119.878540
 21
86.983109
  0
LINE
  8
0
 10
106.878502
 20
68.999924
 11
108.878510
 21
66.999916
  0
LINE
  8
0
 10
106.878532
 20
115.999908
 11
108.878525
 21
117.999901
  0
LINE
  8
0
 10
123.376328
 20
97.499954
 11
124.378510
 21
97.499954
  0
LINE
  8
0
 10
123.239685
 20
87.499954
 11
124.378525
 21
87.499954
  0
LINE
  8
0
 10
122.878540
 20
97.499985
 11
122.878540
 21
94.303818
  0
LINE
  8
0
 10
120.878525
 20
97.499954
 11
122.878525
 21
97.499954
  0
LINE
  8
0
 10
120.878525
 20
87.499954
 11
122.878525
 21
87.499954
  0
LINE
  8
0
 10
120.878540
 20
103.058472
 11
120.878540
 21
104.000000
  0
LINE
  8
0
 10
120.878540
 20
82.082428
 11
120.878540
 21
81.000000
  0
LINE
  8
0
 10
114.378525
 20
82.499954
 11
120.878525
 21
82.499954
  0
LINE
  8
0
 10
114.378540
 20
102.499954
 11
120.878540
 21
102.499954
  0
LINE
  8
0
  6
CENTER
 62
     2
 10
105.201645
 20
107.499954
 11
125.862900
 21
107.499954
  0
LINE
  8
0
 10
119.378540
 20
68.500000
 11
119.378540
 21
67.000000
  0
LINE
  8
0
 10
114.378525
 20
116.499954
 11
119.378525
 21
116.499954
  0
LINE
  8
0
 10
114.378525
 20
68.499954
 11
119.378525
 21
68.499954
  0
LINE
  8
0
 10
119.378540
 20
118.000000
 11
119.378540
 21
116.500000
  0
LINE
  8
0
 10
108.878540
 20
117.999954
 11
137.178497
 21
117.999954
  0
LINE
  8
0
 10
106.878540
 20
115.999954
 11
106.878540
 21
68.999954
  0
LINE
  8
0
 10
114.378525
 20
98.499954
 11
115.378525
 21
98.499954
  0
LINE
  8
0
 10
115.378540
 20
86.000000
 11
115.378540
 21
98.500000
  0
LINE
  8
0
  6
CENTER
 62
     2
 10
105.201645
 20
77.499954
 11
126.909164
 21
77.499954
  0
LINE
  8
0
 10
120.878540
 20
87.499985
 11
120.878540
 21
82.499985
  0
LINE
  8
0
 10
114.378525
 20
85.999954
 11
115.378525
 21
85.999954
  0
LINE
  8
0
 10
120.878540
 20
74.000000
 11
120.878540
 21
69.000000
  0
LINE
  8
0
 10
117.678543
 20
73.999954
 11
122.378525
 21
73.999954
  0
LINE
  8
0
 10
114.378525
 20
68.999954
 11
120.878525
 21
68.999954
  0
LINE
  8
0
 10
114.378540
 20
86.000000
 11
114.378540
 21
68.500000
  0
LINE
  8
0
 10
120.878540
 20
97.499985
 11
120.878540
 21
102.499985
  0
LINE
  8
0
 10
117.678543
 20
110.999954
 11
122.378525
 21
110.999954
  0
LINE
  8
0
 10
120.878540
 20
111.000000
 11
120.878540
 21
116.000000
  0
LINE
  8
0
 10
114.378525
 20
115.999954
 11
120.878525
 21
115.999954
  0
LINE
  8
0
 10
125.278511
 20
112.574982
 11
124.803497
 21
112.099953
  0
LINE
  8
0
 10
128.478729
 20
112.575172
 11
128.953552
 21
112.100365
  0
LINE
  8
0
 10
134.478714
 20
112.575096
 11
134.953720
 21
112.100113
  0
LINE
  8
0
 10
131.278503
 20
112.575020
 11
130.803543
 21
112.100067
  0
LINE
  8
0
  6
CENTER
 62
     2
 10
124.321625
 20
110.474960
 11
135.487183
 21
110.474960
  0
LINE
  8
0
  6
CENTER
 62
     2
 10
129.878540
 20
65.376602
 11
129.878540
 21
114.817429
  0
LINE
  8
0
 10
134.953537
 20
110.500305
 11
134.953537
 21
112.100021
  0
LINE
  8
0
 10
130.803528
 20
110.500305
 11
130.803528
 21
112.100082
  0
LINE
  8
0
 10
124.803543
 20
110.475006
 11
124.803543
 21
112.100021
  0
LINE
  8
0
 10
128.953522
 20
110.475006
 11
128.953522
 21
112.100342
  0
LINE
  8
0
 10
121.878525
 20
111.500031
 11
121.878525
 21
117.000031
  0
LINE
  8
0
 10
121.878525
 20
73.500031
 11
121.878525
 21
68.000031
  0
LINE
  8
0
 10
124.378525
 20
114.000031
 11
124.378525
 21
118.000031
  0
LINE
  8
0
 10
135.378540
 20
114.000031
 11
135.378540
 21
118.000031
  0
LINE
  8
0
 10
122.378540
 20
81.000031
 11
122.378540
 21
73.499954
  0
LINE
  8
0
 10
122.378540
 20
104.000031
 11
122.378540
 21
111.500031
  0
LINE
  8
0
  6
CENTER
 62
     2
 10
122.256531
 20
83.499954
 11
138.651062
 21
83.499954
  0
LINE
  8
0
  6
CENTER
 62
     2
 10
103.397583
 20
92.499954
 11
140.752014
 21
92.499954
  0
LINE
  8
0
  6
CENTER
 62
     2
 10
121.976486
 20
101.499954
 11
138.687698
 21
101.499954
  0
LINE
  8
0
 10
134.478607
 20
113.099998
 11
135.378616
 21
113.999992
  0
LINE
  8
0
 10
134.478531
 20
112.575027
 11
134.478531
 21
113.100037
  0
LINE
  8
0
 10
125.278481
 20
113.099968
 11
124.378456
 21
113.999992
  0
LINE
  8
0
 10
128.478531
 20
112.575027
 11
128.478531
 21
112.800018
  0
LINE
  8
0
 10
125.278534
 20
112.575027
 11
125.278534
 21
113.100067
  0
LINE
  8
0
 10
128.778519
 20
113.099960
 11
130.978531
 21
113.099960
  0
LINE
  8
0
 10
131.278534
 20
112.574997
 11
131.278534
 21
112.800018
  0
LINE
  8
0
  6
CENTER
 62
     2
 10
132.878540
 20
107.782837
 11
132.878540
 21
115.489594
  0
LINE
  8
0
  6
CENTER
 62
     2
 10
126.878525
 20
107.782837
 11
126.878525
 21
115.360992
  0
LINE
  8
0
 10
108.878540
 20
66.999954
 11
137.178513
 21
66.999954
  0
LINE
  8
0
 10
137.878540
 20
106.000000
 11
137.878540
 21
117.300018
  0
LINE
  8
0
 10
137.878540
 20
88.000031
 11
137.878540
 21
97.000031
  0
LINE
  8
0
 10
137.578506
 20
79.299911
 11
137.878479
 21
78.999939
  0
LINE
  8
0
 10
137.578552
 20
87.700020
 11
137.878586
 21
88.000053
  0
LINE
  8
0
 10
121.378693
 20
100.500221
 11
124.378647
 21
97.500259
  0
LINE
  8
0
 10
121.378426
 20
84.500130
 11
124.378433
 21
87.500130
  0
LINE
  8
0
 10
124.378525
 20
97.500000
 11
124.378525
 21
87.500031
  0
LINE
  8
0
 10
121.378510
 20
84.500031
 11
121.378510
 21
81.000031
  0
LINE
  8
0
 10
121.378510
 20
100.500031
 11
121.378510
 21
104.000031
  0
LINE
  8
0
 10
137.878540
 20
67.700012
 11
137.878540
 21
79.000031
  0
LINE
  8
0
  6
CENTER
 62
     2
 10
-188.082458
 20
68.945267
 11
-188.082458
 21
76.219788
  0
LINE
  8
0
  6
CENTER
 62
     2
 10
-188.082458
 20
116.054642
 11
-188.082458
 21
108.780121
  0
LINE
  8
0
 10
-198.360809
 20
100.249977
 11
-197.639114
 21
101.499985
  0
LINE
  8
0
 10
-200.525833
 20
101.499985
 11
-199.804138
 21
102.749992
  0
LINE
  8
0
 10
-197.639084
 20
101.499939
 11
-198.360779
 21
102.749939
  0
LINE
  8
0
 10
-199.804184
 20
100.249947
 11
-200.525879
 21
101.499939
  0
LINE
  8
0
 10
-199.804138
 20
102.749954
 11
-198.360779
 21
102.749954
  0
LINE
  8
0
 10
-199.804138
 20
100.249954
 11
-198.360779
 21
100.249954
  0
LINE
  8
0
 10
-198.360779
 20
82.249947
 11
-197.639084
 21
83.499969
  0
LINE
  8
0
 10
-200.525879
 20
83.499977
 11
-199.804184
 21
84.749992
  0
LINE
  8
0
 10
-197.639099
 20
83.499931
 11
-198.360779
 21
84.749916
  0
LINE
  8
0
 10
-199.804169
 20
82.249931
 11
-200.525864
 21
83.499939
  0
LINE
  8
0
 10
-199.804138
 20
84.749954
 11
-198.360779
 21
84.749954
  0
LINE
  8
0
 10
-199.804138
 20
82.249954
 11
-198.360779
 21
82.249954
  0
LINE
  8
0
 10
-178.082428
 20
66.999947
 11
-176.082443
 21
68.999931
  0
LINE
  8
0
 10
-178.582443
 20
66.999947
 11
-176.582428
 21
68.999947
  0
LINE
  8
0
 10
-178.082413
 20
117.999931
 11
-176.082413
 21
115.999939
  0
LINE
  8
0
 10
-178.582428
 20
117.999939
 11
-176.582428
 21
115.999939
  0
LINE
  8
0
 10
-178.082458
 20
117.999969
 11
-206.382477
 21
117.999969
  0
LINE
  8
0
 10
-176.582458
 20
115.999969
 11
-176.582458
 21
68.999969
  0
LINE
  8
0
 10
-176.082458
 20
115.999969
 11
-176.082458
 21
68.999969
  0
LINE
  8
0
  6
CENTER
 62
     2
 10
-174.049103
 20
92.499954
 11
-209.972000
 21
92.499954
  0
LINE
  8
0
 10
-178.082458
 20
66.999969
 11
-206.382477
 21
66.999969
  0
LINE
  8
0
  6
CENTER
 62
     2
 10
-200.082458
 20
68.945267
 11
-200.082458
 21
76.219788
  0
LINE
  8
0
  6
CENTER
 62
     2
 10
-181.219208
 20
72.499954
 11
-203.738098
 21
72.499954
  0
LINE
  8
0
  6
CENTER
 62
     2
 10
-200.082458
 20
116.054642
 11
-200.082458
 21
108.780121
  0
LINE
  8
0
  6
CENTER
 62
     2
 10
-181.219208
 20
112.499954
 11
-203.869522
 21
112.499954
  0
LINE
  8
0
  6
CENTER
 62
     2
 10
-199.082458
 20
76.876694
 11
-199.082458
 21
89.873367
  0
LINE
  8
0
  6
CENTER
 62
     2
 10
-192.750519
 20
83.499954
 11
-205.160873
 21
83.499954
  0
LINE
  8
0
 10
-205.582458
 20
67.000000
 11
-205.582458
 21
117.999954
  0
LINE
  8
0
  6
CENTER
 62
     2
 10
-192.750534
 20
101.499969
 11
-205.160889
 21
101.499969
  0
LINE
  8
0
  6
CENTER
 62
     2
 10
-199.082458
 20
94.876709
 11
-199.082458
 21
107.873383
  0
LINE
  8
0
 10
-207.082458
 20
106.000000
 11
-207.082458
 21
117.300018
  0
LINE
  8
0
 10
-206.582413
 20
97.500015
 11
-207.082382
 21
97.000015
  0
LINE
  8
0
 10
-206.582504
 20
105.499985
 11
-207.082535
 21
105.999992
  0
LINE
  8
0
 10
-206.582458
 20
105.500000
 11
-206.582458
 21
97.500031
  0
LINE
  8
0
 10
-207.082458
 20
88.000031
 11
-207.082458
 21
97.000031
  0
LINE
  8
0
 10
-206.582535
 20
79.500107
 11
-207.082565
 21
79.000107
  0
LINE
  8
0
 10
-206.582458
 20
87.500061
 11
-207.082474
 21
88.000061
  0
LINE
  8
0
 10
-206.582458
 20
79.500031
 11
-206.582458
 21
87.500031
  0
LINE
  8
0
 10
-207.082458
 20
67.700012
 11
-207.082458
 21
79.000031
  0
LINE
  8
0
  6
PHANTOM
 62
     3
 10
-28.601974
 20
48.073761
 11
-62.101974
 21
48.073761
  0
LINE
  8
0
  6
CENTER
 62
     2
 10
-61.466156
 20
77.500000
 11
-30.461960
 21
77.500000
  0
LINE
  8
0
  6
CENTER
 62
     2
 10
-56.101974
 20
71.665604
 11
-56.101974
 21
83.466522
  0
LINE
  8
0
  6
CENTER
 62
     2
 10
-56.101974
 20
113.334381
 11
-56.101974
 21
101.846512
  0
LINE
  8
0
  6
CENTER
 62
     2
 10
-61.466156
 20
107.500000
 11
-30.461960
 21
107.500000
  0
LINE
  8
0
  6
PHANTOM
 62
     3
 10
18.898010
 20
89.000000
 11
25.798004
 21
89.000000
  0
LINE
  8
0
  6
PHANTOM
 62
     3
 10
18.898010
 20
89.000000
 11
18.898010
 21
48.073761
  0
LINE
  8
0
  6
PHANTOM
 62
     3
 10
18.898010
 20
96.000000
 11
25.798004
 21
96.000000
  0
LINE
  8
0
  6
PHANTOM
 62
     3
 10
25.798004
 20
89.000000
 11
25.798004
 21
96.000000
  0
LINE
  8
0
  6
PHANTOM
 62
     3
 10
18.898010
 20
123.758423
 11
18.898010
 21
96.000000
  0
LINE
  8
0
  6
PHANTOM
 62
     3
 10
-28.601974
 20
131.146805
 11
-28.601974
 21
48.073761
  0
LINE
  8
0
  6
CENTER
 62
     2
 10
-6.101974
 20
99.498825
 11
-6.101974
 21
85.903931
  0
LINE
  8
0
 10
24.698013
 20
92.199997
 11
24.698013
 21
90.500000
  0
LINE
  8
0
 10
23.498016
 20
92.800003
 11
23.498016
 21
92.199997
  0
LINE
  8
0
 10
23.498016
 20
92.199997
 11
24.698013
 21
92.199997
  0
LINE
  8
0
 10
23.498016
 20
92.800003
 11
24.698013
 21
92.800003
  0
LINE
  8
0
 10
24.698013
 20
94.500000
 11
24.698013
 21
92.800003
  0
LINE
  8
0
  6
CENTER
 62
     2
 10
10.920090
 20
77.499954
 11
29.256012
 21
77.499954
  0
LINE
  8
0
  6
CENTER
 62
     2
 10
10.920090
 20
107.499954
 11
29.256012
 21
107.499954
  0
LINE
  8
0
 10
23.897995
 20
73.999954
 11
23.897995
 21
80.999954
  0
LINE
  8
0
 10
13.898026
 20
73.999954
 11
23.897995
 21
73.999954
  0
LINE
  8
0
 10
13.898026
 20
110.999954
 11
23.897995
 21
110.999954
  0
LINE
  8
0
 10
23.897995
 20
110.999954
 11
23.897995
 21
103.999954
  0
LINE
  8
0
  6
CENTER
 62
     2
 10
-36.101974
 20
96.935425
 11
-36.101974
 21
88.291931
  0
LINE
  8
0
  6
CENTER
 62
     2
 10
-56.101974
 20
96.935425
 11
-56.101974
 21
88.291931
  0
LINE
  8
0
 10
-76.101974
 20
116.000000
 11
13.898026
 21
116.000000
  0
LINE
  8
0
 10
-76.101974
 20
118.000000
 11
13.898026
 21
118.000000
  0
LINE
  8
0
 10
14.898026
 20
84.500183
 11
26.898010
 21
84.500183
  0
LINE
  8
0
 10
14.898026
 20
100.500244
 11
26.898010
 21
100.500244
  0
LINE
  8
0
 10
14.898026
 20
87.500000
 11
26.898010
 21
87.500000
  0
LINE
  8
0
 10
14.898026
 20
97.500000
 11
26.898010
 21
97.500000
  0
LINE
  8
0
 10
-76.101974
 20
69.000000
 11
13.898026
 21
69.000000
  0
LINE
  8
0
 10
18.098022
 20
89.000000
 11
14.898026
 21
89.000000
  0
LINE
  8
0
 10
18.098022
 20
96.000000
 11
14.898026
 21
96.000000
  0
LINE
  8
0
 10
18.098022
 20
89.000000
 11
18.098022
 21
96.000000
  0
LINE
  8
0
 10
17.785416
 20
92.500000
 11
15.210632
 21
92.500000
  0
LINE
  8
0
  6
CENTER
 62
     2
 10
-25.766785
 20
77.500000
 11
-15.874969
 21
77.500000
  0
LINE
  8
0
  6
CENTER
 62
     2
 10
-25.766785
 20
107.500000
 11
-15.874969
 21
107.500000
  0
LINE
  8
0
 10
13.898026
 20
102.500000
 11
14.898026
 21
102.500000
  0
LINE
  8
0
 10
-37.101974
 20
94.500000
 11
-35.101974
 21
94.500000
  0
LINE
  8
0
 10
13.898026
 20
118.000000
 11
26.898010
 21
118.000000
  0
LINE
  8
0
 10
26.898010
 20
67.000000
 11
26.898010
 21
118.000015
  0
LINE
  8
0
 62
     2
 10
18.098022
 20
94.149994
 11
24.698013
 21
94.149994
  0
LINE
  8
0
 10
18.098022
 20
94.500000
 11
24.698013
 21
94.500000
  0
LINE
  8
0
  6
CENTER
 62
     2
 10
-36.101974
 20
113.334381
 11
-36.101974
 21
101.533463
  0
LINE
  8
0
  6
CENTER
 62
     2
 10
-21.101974
 20
113.334381
 11
-21.101974
 21
101.533463
  0
LINE
  8
0
 10
-37.101974
 20
90.500000
 11
-35.101974
 21
90.500000
  0
LINE
  8
0
 10
13.898026
 20
82.500000
 11
14.898026
 21
82.500000
  0
LINE
  8
0
 62
     2
 10
18.098022
 20
90.849991
 11
24.698013
 21
90.849991
  0
LINE
  8
0
  6
CENTER
 62
     2
 10
-36.101974
 20
71.665604
 11
-36.101974
 21
83.466522
  0
LINE
  8
0
  6
CENTER
 62
     2
 10
-21.101974
 20
71.665604
 11
-21.101974
 21
83.466522
  0
LINE
  8
0
 10
14.898026
 20
102.500000
 11
14.898026
 21
82.500000
  0
LINE
  8
0
 10
-76.101974
 20
67.000000
 11
13.898026
 21
67.000000
  0
LINE
  8
0
 10
-68.101974
 20
118.000000
 11
-68.101974
 21
67.000000
  0
LINE
  8
0
 10
-76.101974
 20
118.000000
 11
-76.101974
 21
66.999969
  0
LINE
  8
0
 10
18.098022
 20
90.500000
 11
24.698013
 21
90.500000
  0
LINE
  8
0
 10
13.898026
 20
67.000000
 11
26.898010
 21
67.000000
  0
LINE
  8
0
 10
13.898026
 20
118.000000
 11
13.898026
 21
66.999969
  0
LINE
  8
0
 10
13.898026
 20
111.499954
 11
26.898010
 21
111.499954
  0
LINE
  8
0
 10
13.898026
 20
73.499954
 11
26.898010
 21
73.499954
  0
LINE
  8
0
 10
13.898026
 20
80.999954
 11
26.898010
 21
80.999954
  0
LINE
  8
0
 10
13.898026
 20
103.999954
 11
26.898010
 21
103.999954
  0
LINE
  8
0
  6
CENTER
 62
     2
 10
-46.101990
 20
99.101379
 11
-46.101990
 21
85.898605
  0
LINE
  8
0
  6
CENTER
 62
     2
 10
-79.773392
 20
92.500000
 11
32.202682
 21
92.500000
  0
LINE
  8
0
 10
-271.250000
 20
-175.000000
 11
-146.250000
 21
-175.000000
  0
LINE
  8
0
 10
-271.250000
 20
-165.000000
 11
-146.250000
 21
-165.000000
  0
LINE
  8
0
 10
-146.250000
 20
-115.000000
 11
-146.250000
 21
-185.000000
  0
LINE
  8
0
 10
-161.250000
 20
-115.000000
 11
-161.250000
 21
-185.000000
  0
LINE
  8
0
 10
-176.250000
 20
-115.000000
 11
-176.250000
 21
-185.000000
  0
LINE
  8
0
 10
-191.250000
 20
-115.000000
 11
-191.250000
 21
-185.000000
  0
LINE
  8
0
 10
-206.250000
 20
-115.000000
 11
-206.250000
 21
-185.000000
  0
LINE
  8
0
 10
-221.250000
 20
-115.000000
 11
-221.250000
 21
-185.000000
  0
LINE
  8
0
 10
-236.250046
 20
-144.999985
 11
-239.776581
 21
-124.999985
  0
LINE
  8
0
 10
-236.250000
 20
-115.000000
 11
-236.250000
 21
-185.000000
  0
LINE
  8
0
 10
-271.250000
 20
-115.000000
 11
-146.250000
 21
-115.000000
  0
LINE
  8
0
 10
-271.250000
 20
-125.000000
 11
-239.776535
 21
-125.000000
  0
LINE
  8
0
 10
-271.250000
 20
-145.000000
 11
-146.250000
 21
-145.000000
  0
LINE
  8
0
 10
-271.250000
 20
-155.000000
 11
-146.250000
 21
-155.000000
  0
LINE
  8
0
 10
-271.250000
 20
-115.000000
 11
-271.250000
 21
-185.000000
  0
LINE
  8
0
 10
-271.250000
 20
-185.000000
 11
-146.250000
 21
-185.000000
  0
LINE
  8
0
 10
-161.250000
 20
195.500000
 11
-161.250000
 21
175.500000
  0
LINE
  8
0
 10
162.099976
 20
195.500000
 11
162.099976
 21
175.500000
  0
LINE
  8
0
 10
-281.250000
 20
175.500000
 11
-161.250000
 21
175.500000
  0
LINE
  8
0
 10
162.099976
 20
175.500000
 11
282.099854
 21
175.500000
  0
LINE
  8
0
 10
162.099976
 20
-175.000000
 11
282.099854
 21
-175.000000
  0
LINE
  8
0
 10
162.099976
 20
-175.000000
 11
162.099976
 21
-195.000000
  0
LINE
  8
0
 10
-281.250000
 20
-195.000000
 11
282.099854
 21
-195.000000
  0
LINE
  8
0
 10
282.099854
 20
195.500000
 11
282.099854
 21
-195.000000
  0
LINE
  8
0
 10
-281.250000
 20
195.500000
 11
-281.250000
 21
-195.000000
  0
LINE
  8
0
 10
-281.250000
 20
195.500000
 11
282.099854
 21
195.500000
  0
ARC
  8
0
 10
115.159866
 20
-87.125000
 40
3.971488
 50
159.743851
 51
200.256149
  0
ARC
  8
0
 10
115.159866
 20
-89.875000
 40
3.971488
 50
159.743851
 51
200.256058
  0
ARC
  8
0
 10
119.359840
 20
-87.125000
 40
3.971481
 50
159.743805
 51
200.256149
  0
ARC
  8
0
 10
119.359840
 20
-89.875000
 40
3.971484
 50
159.743698
 51
200.256058
  0
ARC
  8
0
 10
113.216873
 20
-89.875000
 40
3.971488
 50
339.743835
 51
20.256153
  0
ARC
  8
0
 10
113.216873
 20
-87.125000
 40
3.971488
 50
339.743835
 51
20.256153
  0
CIRCLE
  8
0
 10
112.188370
 20
-103.500000
 40
1.650000
  0
CIRCLE
  8
0
 62
     2
 10
112.188370
 20
-103.500000
 40
2.000000
  0
CIRCLE
  8
0
 10
112.188370
 20
-73.500000
 40
1.650000
  0
CIRCLE
  8
0
 62
     2
 10
112.188370
 20
-73.500000
 40
2.000000
  0
CIRCLE
  8
0
 10
132.188354
 20
-88.500000
 40
1.650000
  0
CIRCLE
  8
0
 62
     2
 10
132.188354
 20
-88.500000
 40
2.000000
  0
CIRCLE
  8
0
 10
132.188354
 20
-88.500000
 40
1.599999
  0
CIRCLE
  8
0
 10
172.188354
 20
-88.500000
 40
1.650000
  0
CIRCLE
  8
0
 10
172.188354
 20
-88.500000
 40
1.599999
  0
CIRCLE
  8
0
 62
     2
 10
172.188354
 20
-88.500000
 40
2.000000
  0
CIRCLE
  8
0
 10
212.188370
 20
-88.500000
 40
1.650000
  0
CIRCLE
  8
0
 10
212.188370
 20
-88.500000
 40
1.599999
  0
CIRCLE
  8
0
 62
     2
 10
212.188370
 20
-88.500000
 40
2.000000
  0
ARC
  8
0
 10
223.188354
 20
-88.500023
 40
2.000000
 50
270.000000
 51
90.000000
  0
ARC
  8
0
 10
221.188354
 20
-88.500023
 40
2.000000
 50
90.000000
 51
270.000000
  0
CIRCLE
  8
0
 10
142.188354
 20
-88.500008
 40
2.000000
  0
ARC
  8
0
 10
-53.130478
 20
-87.125000
 40
3.971488
 50
159.743851
 51
200.256149
  0
ARC
  8
0
 10
-53.130478
 20
-89.875000
 40
3.971485
 50
159.743820
 51
200.256058
  0
ARC
  8
0
 10
-48.930504
 20
-87.125000
 40
3.971485
 50
159.743820
 51
200.256180
  0
ARC
  8
0
 10
-48.930504
 20
-89.875000
 40
3.971487
 50
159.743729
 51
200.256058
  0
ARC
  8
0
 10
-55.073471
 20
-89.875000
 40
3.971485
 50
339.743835
 51
20.256172
  0
ARC
  8
0
 10
-55.073471
 20
-87.125000
 40
3.971485
 50
339.743835
 51
20.256172
  0
CIRCLE
  8
0
 10
-36.101990
 20
-88.500000
 40
1.650000
  0
CIRCLE
  8
0
 10
-36.101990
 20
-88.500000
 40
1.599999
  0
CIRCLE
  8
0
 62
     2
 10
-36.101990
 20
-88.500000
 40
2.000000
  0
CIRCLE
  8
0
 10
3.898010
 20
-88.500000
 40
1.650000
  0
CIRCLE
  8
0
 62
     2
 10
3.898010
 20
-88.500000
 40
2.000000
  0
CIRCLE
  8
0
 10
3.898010
 20
-88.500000
 40
1.599999
  0
CIRCLE
  8
0
 62
     2
 10
-56.101974
 20
-73.500000
 40
2.000000
  0
CIRCLE
  8
0
 10
-56.101974
 20
-73.500000
 40
1.650000
  0
CIRCLE
  8
0
 10
-56.101974
 20
-103.500000
 40
1.650000
  0
CIRCLE
  8
0
 62
     2
 10
-56.101974
 20
-103.500000
 40
2.000000
  0
ARC
  8
0
 10
14.898010
 20
-88.500015
 40
2.000000
 50
270.000092
 51
90.000031
  0
ARC
  8
0
 10
12.898010
 20
-88.500015
 40
2.000000
 50
89.999969
 51
270.000000
  0
CIRCLE
  8
0
 10
-26.101990
 20
-88.500000
 40
2.000000
  0
ARC
  8
0
 10
-53.130478
 20
1.449570
 40
3.971486
 50
164.663132
 51
200.256073
  0
ARC
  8
0
 10
-48.930504
 20
1.449570
 40
3.971486
 50
164.663132
 51
200.256058
  0
ARC
  8
0
 10
-55.073471
 20
1.449570
 40
3.971485
 50
339.743835
 51
15.336831
  0
ARC
  8
0
 10
16.308945
 20
18.531082
 40
1.789077
 50
342.731171
 51
25.615593
  0
CIRCLE
  8
0
 62
     2
 10
-29.101974
 20
5.499992
 40
2.500000
  0
CIRCLE
  8
0
 10
-29.101974
 20
5.499992
 40
2.099999
  0
CIRCLE
  8
0
 10
16.897995
 20
5.499969
 40
2.099999
  0
CIRCLE
  8
0
 62
     2
 10
16.897995
 20
5.499969
 40
2.500000
  0
ARC
  8
0
 10
16.687103
 20
18.531082
 40
1.789075
 50
154.384308
 51
197.268845
  0
ARC
  8
0
 10
-66.201965
 20
5.499992
 40
3.000000
 50
330.073517
 51
29.926491
  0
ARC
  8
0
 62
     2
 10
119.878540
 20
92.499954
 40
1.650000
 50
190.475784
 51
349.524200
  0
ARC
  8
0
 62
     2
 10
119.878540
 20
92.499954
 40
1.650000
 50
10.475789
 51
169.524216
  0
CIRCLE
  8
0
 10
119.878540
 20
92.499954
 40
3.500000
  0
CIRCLE
  8
0
 62
     2
 10
119.878540
 20
92.499954
 40
2.000000
  0
CIRCLE
  8
0
 10
119.878540
 20
92.499954
 40
2.000000
  0
ARC
  8
0
 10
126.878525
 20
110.475006
 40
2.074997
 50
180.000000
 51
0.000000
  0
ARC
  8
0
 10
132.878525
 20
110.475006
 40
2.074997
 50
180.000000
 51
0.000000
  0
CIRCLE
  8
0
 10
129.878525
 20
83.500031
 40
6.000000
  0
CIRCLE
  8
0
 10
129.878525
 20
83.500031
 40
6.400001
  0
CIRCLE
  8
0
 10
129.878525
 20
101.500031
 40
6.000000
  0
CIRCLE
  8
0
 10
129.878525
 20
101.500031
 40
6.400001
  0
ARC
  8
0
 10
128.778503
 20
112.800018
 40
0.300003
 50
90.000000
 51
180.000000
  0
ARC
  8
0
 10
130.978531
 20
112.800018
 40
0.300003
 50
0.000000
 51
90.000000
  0
ARC
  8
0
 10
137.178497
 20
117.300018
 40
0.699997
 50
0.000000
 51
90.000000
  0
ARC
  8
0
 10
137.178513
 20
67.700027
 40
0.699997
 50
270.000000
 51
0.000000
  0
ARC
  8
0
 10
122.878525
 20
68.000015
 40
1.000000
 50
180.000000
 51
270.000000
  0
ARC
  8
0
 10
122.878510
 20
117.000000
 40
1.000000
 50
90.000000
 51
180.000000
  0
CIRCLE
  8
0
 62
     2
 10
-188.082458
 20
72.499954
 40
2.000000
  0
CIRCLE
  8
0
 10
-188.082458
 20
72.499954
 40
1.650000
  0
CIRCLE
  8
0
 10
-200.082458
 20
72.499954
 40
1.650000
  0
CIRCLE
  8
0
 62
     2
 10
-200.082458
 20
72.499954
 40
2.000000
  0
CIRCLE
  8
0
 62
     2
 10
-188.082458
 20
112.499954
 40
2.000000
  0
CIRCLE
  8
0
 10
-188.082458
 20
112.499954
 40
1.650000
  0
CIRCLE
  8
0
 10
-200.082458
 20
112.499954
 40
1.650000
  0
CIRCLE
  8
0
 62
     2
 10
-200.082458
 20
112.499954
 40
2.000000
  0
CIRCLE
  8
0
 10
-199.082458
 20
101.499969
 40
5.000000
  0
CIRCLE
  8
0
 10
-199.082458
 20
101.499969
 40
2.750000
  0
CIRCLE
  8
0
 10
-199.082458
 20
101.499969
 40
2.403589
  0
CIRCLE
  8
0
 10
-199.082458
 20
83.499954
 40
2.403589
  0
CIRCLE
  8
0
 10
-199.082458
 20
83.499954
 40
2.750000
  0
CIRCLE
  8
0
 10
-199.082458
 20
83.499954
 40
5.000000
  0
CIRCLE
  8
0
 10
-199.082474
 20
83.499954
 40
5.500000
  0
CIRCLE
  8
0
 10
-199.082474
 20
101.499969
 40
5.500000
  0
ARC
  8
0
 10
-206.382477
 20
117.299881
 40
0.699997
 50
90.000000
 51
180.000000
  0
ARC
  8
0
 10
-206.382477
 20
67.700027
 40
0.699997
 50
180.000000
 51
270.000000
  0
CIRCLE
  8
0
 10
-21.101974
 20
77.500000
 40
1.650000
  0
CIRCLE
  8
0
 10
-36.101974
 20
77.500000
 40
1.650000
  0
CIRCLE
  8
0
 10
-56.101974
 20
77.500000
 40
1.650000
  0
CIRCLE
  8
0
 10
-21.101974
 20
107.500000
 40
1.650000
  0
CIRCLE
  8
0
 10
-36.101974
 20
107.500000
 40
1.650000
  0
CIRCLE
  8
0
 10
-56.101974
 20
107.500000
 40
1.650000
  0
CIRCLE
  8
0
 62
     2
 10
-21.101974
 20
77.500000
 40
2.000000
  0
CIRCLE
  8
0
 62
     2
 10
-36.101974
 20
77.500000
 40
2.000000
  0
CIRCLE
  8
0
 62
     2
 10
-56.101974
 20
77.500000
 40
2.000000
  0
CIRCLE
  8
0
 62
     2
 10
-21.101974
 20
107.500000
 40
2.000000
  0
CIRCLE
  8
0
 62
     2
 10
-36.101974
 20
107.500000
 40
2.000000
  0
CIRCLE
  8
0
 62
     2
 10
-56.101974
 20
107.500000
 40
2.000000
  0
ARC
  8
0
 10
19.952637
 20
94.250000
 40
5.054620
 50
159.743835
 51
200.256058
  0
ARC
  8
0
 10
19.952652
 20
90.750000
 40
5.054620
 50
159.743835
 51
200.256058
  0
ARC
  8
0
 10
13.043396
 20
94.250000
 40
5.054621
 50
339.743835
 51
20.256058
  0
ARC
  8
0
 10
13.043396
 20
90.750000
 40
5.054621
 50
339.743835
 51
20.256147
  0
ARC
  8
0
 10
-37.101974
 20
92.500000
 40
2.000000
 50
90.000000
 51
270.000000
  0
CIRCLE
  8
0
 10
-56.101974
 20
92.500000
 40
2.000000
  0
ARC
  8
0
 10
-35.101974
 20
92.500000
 40
2.000000
 50
270.000000
 51
90.000000
  0
CIRCLE
  8
0
 10
-6.101974
 20
92.499969
 40
5.000000
  0
CIRCLE
  8
0
 10
-46.101974
 20
92.499969
 40
5.000000
  0
TEXT
  8
0
 62
     3
 10
-84.269638
 20
-46.219494
 40
4.500000
  1
STRETCH LINE A
 50
0.000000
 41
1.052632
 51
0.000000
  7
STANDARD
  0
TEXT
  8
0
 62
     3
 10
-60.494629
 20
133.096802
 40
4.500000
  1
STRETCH LINE A
 50
0.000000
 41
1.052632
 51
0.000000
  7
STANDARD
  0
TEXT
  8
0
 62
     3
 10
-12.994644
 20
125.708420
 40
4.500000
  1
STRETCH LINE B
 50
0.000000
 41
1.052632
 51
0.000000
  7
STANDARD
  0
TEXT
  8
0
 62
     3
 10
170.295685
 20
-46.219494
 40
4.500000
  1
STRETCH LINE D
 50
0.000000
 41
1.052632
 51
0.000000
  7
STANDARD
  0
TEXT
  8
0
 62
     3
 10
120.295700
 20
-56.809490
 40
4.500000
  1
STRETCH LINE C
 50
0.000000
 41
1.052632
 51
0.000000
  7
STANDARD
  0
TEXT
  8
0
 62
     3
 10
84.020706
 20
-46.219494
 40
4.500000
  1
STRETCH LINE A
 50
0.000000
 41
1.052632
 51
0.000000
  7
STANDARD
  0
TEXT
  8
0
 62
     3
 10
-47.994644
 20
-56.809490
 40
4.500000
  1
STRETCH LINE B
 50
0.000000
 41
1.052632
 51
0.000000
  7
STANDARD
  0
TEXT
  8
0
 10
196.250259
 20
180.830002
 40
6.300000
  1
Ver. 1.1
 50
0.000000
 41
1.052632
 51
0.000000
  7
STANDARD
  0
TEXT
  8
0
 10
-186.392654
 20
-183.050003
 40
4.500000
  1
-
 50
0.000000
 41
1.052632
 51
0.000000
  7
STANDARD
  0
TEXT
  8
0
 10
-201.392654
 20
-183.050003
 40
4.500000
  1
-
 50
0.000000
 41
1.052632
 51
0.000000
  7
STANDARD
  0
TEXT
  8
0
 10
-216.392654
 20
-183.050003
 40
4.500000
  1
-
 50
0.000000
 41
1.052632
 51
0.000000
  7
STANDARD
  0
TEXT
  8
0
 10
-231.392654
 20
-183.050003
 40
4.500000
  1
-
 50
0.000000
 41
1.052632
 51
0.000000
  7
STANDARD
  0
TEXT
  8
0
 10
-171.392654
 20
-183.050003
 40
4.500000
  1
0
 50
0.000000
 41
1.052632
 51
0.000000
  7
STANDARD
  0
TEXT
  8
0
 10
-158.642654
 20
-163.050003
 40
4.500000
  1
50
 50
0.000000
 41
1.052632
 51
0.000000
  7
STANDARD
  0
TEXT
  8
0
 10
-173.642654
 20
-163.050003
 40
4.500000
  1
40
 50
0.000000
 41
1.052632
 51
0.000000
  7
STANDARD
  0
TEXT
  8
0
 10
-188.642654
 20
-163.050003
 40
4.500000
  1
30
 50
0.000000
 41
1.052632
 51
0.000000
  7
STANDARD
  0
TEXT
  8
0
 10
-203.642654
 20
-163.050003
 40
4.500000
  1
20
 50
0.000000
 41
1.052632
 51
0.000000
  7
STANDARD
  0
TEXT
  8
0
 10
-218.642654
 20
-163.050003
 40
4.500000
  1
10
 50
0.000000
 41
1.052632
 51
0.000000
  7
STANDARD
  0
TEXT
  8
0
 10
-231.392654
 20
-163.050003
 40
4.500000
  1
0
 50
0.000000
 41
1.052632
 51
0.000000
  7
STANDARD
  0
TEXT
  8
0
 10
-156.392654
 20
-183.050003
 40
4.500000
  1
5
 50
0.000000
 41
1.052632
 51
0.000000
  7
STANDARD
  0
TEXT
  8
0
 10
-256.392670
 20
-183.050003
 40
4.500000
  1
D
 50
0.000000
 41
1.052632
 51
0.000000
  7
STANDARD
  0
TEXT
  8
0
 10
-256.392670
 20
-173.050003
 40
4.500000
  1
C
 50
0.000000
 41
1.052632
 51
0.000000
  7
STANDARD
  0
TEXT
  8
0
 10
-218.642654
 20
-153.050003
 40
4.500000
  1
10
 50
0.000000
 41
1.052632
 51
0.000000
  7
STANDARD
  0
TEXT
  8
0
 10
-203.642654
 20
-153.050003
 40
4.500000
  1
20
 50
0.000000
 41
1.052632
 51
0.000000
  7
STANDARD
  0
TEXT
  8
0
 10
-188.642654
 20
-153.050003
 40
4.500000
  1
30
 50
0.000000
 41
1.052632
 51
0.000000
  7
STANDARD
  0
TEXT
  8
0
 10
-173.642654
 20
-153.050003
 40
4.500000
  1
40
 50
0.000000
 41
1.052632
 51
0.000000
  7
STANDARD
  0
TEXT
  8
0
 10
-158.642654
 20
-153.050003
 40
4.500000
  1
50
 50
0.000000
 41
1.052632
 51
0.000000
  7
STANDARD
  0
TEXT
  8
0
 10
-231.392654
 20
-153.050003
 40
4.500000
  1
0
 50
0.000000
 41
1.052632
 51
0.000000
  7
STANDARD
  0
TEXT
  8
0
 10
-231.392654
 20
-173.050003
 40
4.500000
  1
-
 50
0.000000
 41
1.052632
 51
0.000000
  7
STANDARD
  0
TEXT
  8
0
 10
-156.392654
 20
-173.050003
 40
4.500000
  1
5
 50
0.000000
 41
1.052632
 51
0.000000
  7
STANDARD
  0
TEXT
  8
0
 10
-171.392654
 20
-173.050003
 40
4.500000
  1
0
 50
0.000000
 41
1.052632
 51
0.000000
  7
STANDARD
  0
TEXT
  8
0
 10
-186.392654
 20
-173.050003
 40
4.500000
  1
-
 50
0.000000
 41
1.052632
 51
0.000000
  7
STANDARD
  0
TEXT
  8
0
 10
-201.392654
 20
-173.050003
 40
4.500000
  1
-
 50
0.000000
 41
1.052632
 51
0.000000
  7
STANDARD
  0
TEXT
  8
0
 10
-216.392654
 20
-173.050003
 40
4.500000
  1
-
 50
0.000000
 41
1.052632
 51
0.000000
  7
STANDARD
  0
TEXT
  8
0
 10
-163.142654
 20
-113.050003
 40
4.500000
  1
（ｍｍ）
 50
0.000000
 41
0.833333
 51
0.000000
  7
STANDARD
  0
TEXT
  8
0
 10
-236.142654
 20
-113.050003
 40
4.500000
  1
STRETCH LIST
 50
0.000000
 41
1.052632
 51
0.000000
  7
STANDARD
  0
TEXT
  8
0
 10
-158.642654
 20
-133.050003
 40
4.500000
  1
60
 50
0.000000
 41
1.052632
 51
0.000000
  7
STANDARD
  0
TEXT
  8
0
 10
-173.642654
 20
-133.050003
 40
4.500000
  1
50
 50
0.000000
 41
1.052632
 51
0.000000
  7
STANDARD
  0
TEXT
  8
0
 10
-188.642654
 20
-133.050003
 40
4.500000
  1
40
 50
0.000000
 41
1.052632
 51
0.000000
  7
STANDARD
  0
TEXT
  8
0
 10
-203.642654
 20
-133.050003
 40
4.500000
  1
30
 50
0.000000
 41
1.052632
 51
0.000000
  7
STANDARD
  0
TEXT
  8
0
 10
-218.642654
 20
-133.050003
 40
4.500000
  1
20
 50
0.000000
 41
1.052632
 51
0.000000
  7
STANDARD
  0
TEXT
  8
0
 10
-233.642654
 20
-133.050003
 40
4.500000
  1
10
 50
0.000000
 41
1.052632
 51
0.000000
  7
STANDARD
  0
TEXT
  8
0
 10
-270.892670
 20
-133.324997
 40
4.500000
  1
STRETCH
 50
0.000000
 41
1.052632
 51
0.000000
  7
STANDARD
  0
TEXT
  8
0
 10
-270.892670
 20
-140.074997
 40
4.500000
  1
  PLACE
 50
0.000000
 41
1.052632
 51
0.000000
  7
STANDARD
  0
TEXT
  8
0
 10
-267.642670
 20
-123.050003
 40
4.500000
  1
STROKE
 50
0.000000
 41
1.052632
 51
0.000000
  7
STANDARD
  0
TEXT
  8
0
 10
-256.392670
 20
-153.050003
 40
4.500000
  1
A
 50
0.000000
 41
1.052632
 51
0.000000
  7
STANDARD
  0
TEXT
  8
0
 10
-256.392670
 20
-163.050003
 40
4.500000
  1
B
 50
0.000000
 41
1.052632
 51
0.000000
  7
STANDARD
  0
TEXT
  8
0
 10
-270.049713
 20
155.830002
 40
6.300000
  1
MODEL:ARS10*ST(10)
 50
0.000000
 41
1.052632
 51
0.000000
  7
STANDARD
  0
TEXT
  8
0
 10
-253.399719
 20
180.830002
 40
6.300000
  1
ROD SLIDER
 50
0.000000
 41
1.052632
 51
0.000000
  7
STANDARD
  0
TEXT
  8
0
 10
167.564667
 20
-192.100006
 40
9.000000
  1
KOGANEI CORP.
 50
0.000000
 41
1.052632
 51
0.000000
  7
STANDARD
  0
ENDSEC
  0
EOF
