  0
SECTION
  2
HEADER
  0
ENDSEC
  0
SECTION
  2
TABLES
  0
TABLE
  2
LTYPE
 70
     4
  0
LTYPE
  2
CONTINUOUS
 70
    64
  3
Solid line
 72
    65
 73
     0
 40
0.000000
  0
LTYPE
  2
DASHED
 70
    64
  3
__ __ __ __ __ __ __ __ __ __ __ __ __ __ __
 72
    65
 73
     2
 40
3.500000
 49
2.000000
 49
-1.500000
  0
LTYPE
  2
CENTER
 70
    64
  3
____ _ ____ _ ____ _ ____ _ ____ _ ____ _ ____
 72
    65
 73
     4
 40
17.500000
 49
13.000000
 49
-1.500000
 49
1.500000
 49
-1.500000
  0
LTYPE
  2
PHANTOM
 70
    64
  3
_____ _ _ _____ _ _ _____ _ _ _____ _ _ ____  
 72
    65
 73
     6
 40
15.500000
 49
8.000000
 49
-1.500000
 49
1.500000
 49
-1.500000
 49
1.500000
 49
-1.500000
  0
ENDTAB
  0
TABLE
  2
LAYER
 70
     1
  0
LAYER
  2
0
 70
     0
 62
     7
  6
CONTINUOUS
  0
ENDTAB
  0
TABLE
  2
STYLE
 70
     1
  0
STYLE
  2
STANDARD
 70
     0
 40
0.000000
 41
1.000000
 50
0.000000
 71
     0
 42
0.200000
  3
txt
  4
BIGFONT
  0
ENDTAB
  0
TABLE
  2
VIEW
 70
     0
  0
ENDTAB
  0
ENDSEC
  0
SECTION
  2
BLOCKS
  0
ENDSEC
  0
SECTION
  2
ENTITIES
  0
LINE
  8
0
  6
CONTINUOUS
 62
7
 10
399.799988
 20
276.250000
 11
399.799988
 21
-276.750000
  0
LINE
  8
0
  6
CONTINUOUS
 62
7
 10
-399.250000
 20
276.250000
 11
-399.250000
 21
-276.750000
  0
LINE
  8
0
  6
CONTINUOUS
 62
7
 10
-399.250000
 20
276.250000
 11
399.799988
 21
276.250000
  0
LINE
  8
0
  6
CONTINUOUS
 62
7
 10
-399.250000
 20
-276.750000
 11
399.799988
 21
-276.750000
  0
LINE
  8
0
  6
CONTINUOUS
 62
7
 10
239.800003
 20
-251.750000
 11
399.799988
 21
-251.750000
  0
LINE
  8
0
  6
CONTINUOUS
 62
7
 10
239.800003
 20
251.250000
 11
399.799988
 21
251.250000
  0
LINE
  8
0
  6
CONTINUOUS
 62
7
 10
-399.250000
 20
251.250000
 11
-239.250000
 21
251.250000
  0
LINE
  8
0
  6
CONTINUOUS
 62
7
 10
239.800003
 20
-251.750000
 11
239.800003
 21
-276.750000
  0
LINE
  8
0
  6
CONTINUOUS
 62
7
 10
239.800003
 20
251.250000
 11
239.800003
 21
276.250000
  0
LINE
  8
0
  6
CONTINUOUS
 62
7
 10
-239.250000
 20
276.250000
 11
-239.250000
 21
251.250000
  0
LINE
  8
0
  6
CENTER
 62
2
 10
240.199997
 20
-102.000000
 11
122.000000
 21
-102.000000
  0
LINE
  8
0
  6
CONTINUOUS
 62
7
 10
239.199997
 20
-118.000000
 11
123.000000
 21
-118.000000
  0
LINE
  8
0
  6
CONTINUOUS
 62
7
 10
238.000000
 20
-111.000000
 11
131.000000
 21
-111.000000
  0
LINE
  8
0
  6
CONTINUOUS
 62
7
 10
133.000000
 20
-85.500000
 11
145.800003
 21
-85.500000
  0
LINE
  8
0
  6
CONTINUOUS
 62
7
 10
133.000000
 20
-118.500000
 11
145.800003
 21
-118.500000
  0
LINE
  8
0
  6
CONTINUOUS
 62
7
 10
133.000000
 20
-118.500000
 11
133.000000
 21
-118.000000
  0
LINE
  8
0
  6
CONTINUOUS
 62
7
 10
239.000000
 20
-118.500000
 11
239.000000
 21
-118.000000
  0
LINE
  8
0
  6
CONTINUOUS
 62
7
 10
133.000000
 20
-86.000000
 11
133.000000
 21
-85.500000
  0
LINE
  8
0
  6
CONTINUOUS
 62
7
 10
131.000000
 20
-118.000000
 11
131.000000
 21
-86.000000
  0
LINE
  8
0
  6
CONTINUOUS
 62
7
 10
239.199997
 20
-86.000000
 11
123.000000
 21
-86.000000
  0
LINE
  8
0
  6
CONTINUOUS
 62
7
 10
238.000000
 20
-118.000000
 11
238.000000
 21
-86.000000
  0
LINE
  8
0
  6
CONTINUOUS
 62
7
 10
238.000000
 20
-93.000000
 11
131.000000
 21
-93.000000
  0
LINE
  8
0
  6
CONTINUOUS
 62
7
 10
150.199997
 20
-118.500000
 11
239.000000
 21
-118.500000
  0
LINE
  8
0
  6
CONTINUOUS
 62
7
 10
123.000000
 20
-86.000000
 11
123.000000
 21
-118.000000
  0
LINE
  8
0
  6
CONTINUOUS
 62
7
 10
150.199997
 20
-85.500000
 11
222.199997
 21
-85.500000
  0
LINE
  8
0
  6
DASHED
 62
2
 10
145.800003
 20
-114.000000
 11
145.800003
 21
-118.000000
  0
LINE
  8
0
  6
DASHED
 62
2
 10
150.199997
 20
-114.000000
 11
150.199997
 21
-118.000000
  0
LINE
  8
0
  6
DASHED
 62
2
 10
145.800003
 20
-90.000000
 11
145.800003
 21
-86.000000
  0
LINE
  8
0
  6
DASHED
 62
2
 10
150.199997
 20
-90.000000
 11
150.199997
 21
-86.000000
  0
LINE
  8
0
  6
CONTINUOUS
 62
7
 10
145.800003
 20
-118.000000
 11
145.800003
 21
-118.500000
  0
LINE
  8
0
  6
CONTINUOUS
 62
7
 10
150.199997
 20
-118.000000
 11
150.199997
 21
-118.500000
  0
LINE
  8
0
  6
CONTINUOUS
 62
7
 10
150.199997
 20
-85.500000
 11
150.199997
 21
-86.000000
  0
LINE
  8
0
  6
CONTINUOUS
 62
7
 10
145.800003
 20
-85.500000
 11
145.800003
 21
-86.000000
  0
LINE
  8
0
  6
CENTER
 62
2
 10
-164.800003
 20
-102.000000
 11
-253.000000
 21
-102.000000
  0
LINE
  8
0
  6
CONTINUOUS
 62
7
 10
-165.800003
 20
-118.000000
 11
-252.000000
 21
-118.000000
  0
LINE
  8
0
  6
CONTINUOUS
 62
7
 10
-167.000000
 20
-111.000000
 11
-244.000000
 21
-111.000000
  0
LINE
  8
0
  6
CONTINUOUS
 62
7
 10
-242.000000
 20
-85.500000
 11
-229.199997
 21
-85.500000
  0
LINE
  8
0
  6
CONTINUOUS
 62
7
 10
-242.000000
 20
-118.500000
 11
-229.199997
 21
-118.500000
  0
LINE
  8
0
  6
CONTINUOUS
 62
7
 10
-242.000000
 20
-118.500000
 11
-242.000000
 21
-118.000000
  0
LINE
  8
0
  6
CONTINUOUS
 62
7
 10
-166.000000
 20
-118.500000
 11
-166.000000
 21
-118.000000
  0
LINE
  8
0
  6
CONTINUOUS
 62
7
 10
-242.000000
 20
-86.000000
 11
-242.000000
 21
-85.500000
  0
LINE
  8
0
  6
CONTINUOUS
 62
7
 10
-244.000000
 20
-118.000000
 11
-244.000000
 21
-86.000000
  0
LINE
  8
0
  6
CONTINUOUS
 62
7
 10
-165.800003
 20
-86.000000
 11
-252.000000
 21
-86.000000
  0
LINE
  8
0
  6
CONTINUOUS
 62
7
 10
-167.000000
 20
-118.000000
 11
-167.000000
 21
-86.000000
  0
LINE
  8
0
  6
CONTINUOUS
 62
7
 10
-167.000000
 20
-93.000000
 11
-244.000000
 21
-93.000000
  0
LINE
  8
0
  6
CONTINUOUS
 62
7
 10
-224.800003
 20
-118.500000
 11
-166.000000
 21
-118.500000
  0
LINE
  8
0
  6
CONTINUOUS
 62
7
 10
-252.000000
 20
-86.000000
 11
-252.000000
 21
-118.000000
  0
LINE
  8
0
  6
CONTINUOUS
 62
7
 10
-224.800003
 20
-85.500000
 11
-182.800003
 21
-85.500000
  0
LINE
  8
0
  6
DASHED
 62
2
 10
-229.199997
 20
-114.000000
 11
-229.199997
 21
-118.000000
  0
LINE
  8
0
  6
DASHED
 62
2
 10
-224.800003
 20
-114.000000
 11
-224.800003
 21
-118.000000
  0
LINE
  8
0
  6
DASHED
 62
2
 10
-229.199997
 20
-90.000000
 11
-229.199997
 21
-86.000000
  0
LINE
  8
0
  6
DASHED
 62
2
 10
-224.800003
 20
-90.000000
 11
-224.800003
 21
-86.000000
  0
LINE
  8
0
  6
CONTINUOUS
 62
7
 10
-229.199997
 20
-118.000000
 11
-229.199997
 21
-118.500000
  0
LINE
  8
0
  6
CONTINUOUS
 62
7
 10
-224.800003
 20
-118.000000
 11
-224.800003
 21
-118.500000
  0
LINE
  8
0
  6
CONTINUOUS
 62
7
 10
-224.800003
 20
-85.500000
 11
-224.800003
 21
-86.000000
  0
LINE
  8
0
  6
CONTINUOUS
 62
7
 10
-229.199997
 20
-85.500000
 11
-229.199997
 21
-86.000000
  0
LINE
  8
0
  6
CONTINUOUS
 62
7
 10
145.800003
 20
-42.000000
 11
150.199997
 21
-42.000000
  0
LINE
  8
0
  6
CONTINUOUS
 62
7
 10
131.000000
 20
-59.500000
 11
238.000000
 21
-59.500000
  0
LINE
  8
0
  6
CONTINUOUS
 62
7
 10
133.000000
 20
-37.500000
 11
239.000000
 21
-37.500000
  0
LINE
  8
0
  6
CONTINUOUS
 62
7
 10
133.000000
 20
-47.500000
 11
133.000000
 21
-37.500000
  0
LINE
  8
0
  6
CONTINUOUS
 62
7
 10
239.000000
 20
-38.000000
 11
239.000000
 21
-37.500000
  0
LINE
  8
0
  6
CONTINUOUS
 62
7
 10
131.000000
 20
-59.500000
 11
131.000000
 21
-38.500000
  0
LINE
  8
0
  6
CONTINUOUS
 62
7
 10
238.000000
 20
-59.000000
 11
239.199997
 21
-59.000000
  0
LINE
  8
0
  6
CONTINUOUS
 62
7
 10
131.000000
 20
-47.500000
 11
152.000000
 21
-47.500000
  0
LINE
  8
0
  6
CONTINUOUS
 62
7
 10
133.000000
 20
-47.000000
 11
152.000000
 21
-47.000000
  0
LINE
  8
0
  6
CENTER
 62
2
 10
148.000000
 20
-44.000000
 11
148.000000
 21
-36.500000
  0
LINE
  8
0
  6
CONTINUOUS
 62
7
 10
145.800003
 20
-43.000000
 11
145.800003
 21
-37.500000
  0
LINE
  8
0
  6
CONTINUOUS
 62
7
 10
150.199997
 20
-43.000000
 11
150.199997
 21
-37.500000
  0
LINE
  8
0
  6
CONTINUOUS
 62
7
 10
123.000000
 20
-38.500000
 11
123.000000
 21
-59.000000
  0
LINE
  8
0
  6
CONTINUOUS
 62
7
 10
131.000000
 20
-59.000000
 11
123.000000
 21
-59.000000
  0
LINE
  8
0
  6
CONTINUOUS
 62
7
 10
131.000000
 20
-38.500000
 11
123.000000
 21
-38.500000
  0
LINE
  8
0
  6
CONTINUOUS
 62
7
 10
238.000000
 20
-59.500000
 11
238.000000
 21
-55.299999
  0
LINE
  8
0
  6
CONTINUOUS
 62
7
 10
133.000000
 20
-40.500000
 11
131.000000
 21
-40.500000
  0
LINE
  8
0
  6
DASHED
 62
2
 10
228.000000
 20
-43.000000
 11
220.000000
 21
-43.000000
  0
LINE
  8
0
  6
CONTINUOUS
 62
7
 10
143.800003
 20
-43.000000
 11
152.000000
 21
-43.000000
  0
LINE
  8
0
  6
CONTINUOUS
 62
7
 10
142.500000
 20
-42.500000
 11
135.500000
 21
-42.500000
  0
LINE
  8
0
  6
CONTINUOUS
 62
7
 10
142.500000
 20
-43.500000
 11
135.500000
 21
-43.500000
  0
LINE
  8
0
  6
CONTINUOUS
 62
7
 10
139.000000
 20
-47.041401
 11
135.500000
 21
-45.020699
  0
LINE
  8
0
  6
CONTINUOUS
 62
7
 10
135.500000
 20
-45.020699
 11
135.500000
 21
-40.979198
  0
LINE
  8
0
  6
CONTINUOUS
 62
7
 10
142.500000
 20
-45.020699
 11
139.000000
 21
-47.041401
  0
LINE
  8
0
  6
CONTINUOUS
 62
7
 10
142.500000
 20
-45.020699
 11
142.500000
 21
-40.979198
  0
LINE
  8
0
  6
CONTINUOUS
 62
7
 10
135.500000
 20
-40.979198
 11
139.000000
 21
-38.958500
  0
LINE
  8
0
  6
CONTINUOUS
 62
7
 10
142.500000
 20
-40.979301
 11
139.000000
 21
-38.958500
  0
LINE
  8
0
  6
CENTER
 62
2
 10
224.000000
 20
-44.000000
 11
224.000000
 21
-36.500000
  0
LINE
  8
0
  6
DASHED
 62
2
 10
226.100006
 20
-42.000000
 11
226.100006
 21
-37.500000
  0
LINE
  8
0
  6
DASHED
 62
2
 10
221.899994
 20
-42.000000
 11
221.899994
 21
-37.500000
  0
LINE
  8
0
  6
DASHED
 62
2
 10
226.500000
 20
-42.000000
 11
226.500000
 21
-37.500000
  0
LINE
  8
0
  6
DASHED
 62
2
 10
221.500000
 20
-42.000000
 11
221.500000
 21
-37.500000
  0
LINE
  8
0
  6
DASHED
 62
2
 10
228.000000
 20
-42.000000
 11
220.000000
 21
-42.000000
  0
LINE
  8
0
  6
DASHED
 62
2
 10
167.000000
 20
-39.099998
 11
161.000000
 21
-39.099998
  0
LINE
  8
0
  6
DASHED
 62
2
 10
167.000000
 20
-39.099998
 11
167.000000
 21
-37.500000
  0
LINE
  8
0
  6
DASHED
 62
2
 10
161.000000
 20
-39.099998
 11
161.000000
 21
-37.500000
  0
LINE
  8
0
  6
DASHED
 62
2
 10
144.000000
 20
-43.000000
 11
144.000000
 21
-42.000000
  0
LINE
  8
0
  6
DASHED
 62
2
 10
228.000000
 20
-43.000000
 11
228.000000
 21
-42.000000
  0
LINE
  8
0
  6
DASHED
 62
2
 10
152.000000
 20
-42.000000
 11
150.199997
 21
-42.000000
  0
LINE
  8
0
  6
DASHED
 62
2
 10
145.800003
 20
-42.000000
 11
144.000000
 21
-42.000000
  0
LINE
  8
0
  6
CENTER
 62
2
 10
121.000000
 20
-54.500000
 11
125.000000
 21
-54.500000
  0
LINE
  8
0
  6
CENTER
 62
2
 10
121.000000
 20
-45.500000
 11
125.000000
 21
-45.500000
  0
LINE
  8
0
  6
CENTER
 62
2
 10
143.000000
 20
-57.500000
 11
143.000000
 21
-61.500000
  0
LINE
  8
0
  6
CENTER
 62
2
 10
168.000000
 20
-57.500000
 11
168.000000
 21
-61.500000
  0
LINE
  8
0
  6
CENTER
 62
2
 10
223.000000
 20
-57.500000
 11
223.000000
 21
-61.500000
  0
LINE
  8
0
  6
CONTINUOUS
 62
7
 10
-165.800003
 20
-91.000000
 11
-165.800003
 21
-86.000000
  0
LINE
  8
0
  6
CONTINUOUS
 62
7
 10
-165.399994
 20
-95.000000
 11
-165.399994
 21
-91.000000
  0
LINE
  8
0
  6
CONTINUOUS
 62
7
 10
-165.399994
 20
-91.000000
 11
-166.500000
 21
-91.000000
  0
LINE
  8
0
  6
CONTINUOUS
 62
7
 10
-166.500000
 20
-95.000000
 11
-166.500000
 21
-91.000000
  0
LINE
  8
0
  6
CONTINUOUS
 62
7
 10
-165.399994
 20
-95.000000
 11
-166.500000
 21
-95.000000
  0
LINE
  8
0
  6
CONTINUOUS
 62
7
 10
-165.800003
 20
-109.000000
 11
-165.800003
 21
-95.000000
  0
LINE
  8
0
  6
CONTINUOUS
 62
7
 10
-165.399994
 20
-109.000000
 11
-166.500000
 21
-109.000000
  0
LINE
  8
0
  6
CONTINUOUS
 62
7
 10
-166.500000
 20
-109.000000
 11
-166.500000
 21
-113.000000
  0
LINE
  8
0
  6
CONTINUOUS
 62
7
 10
-165.399994
 20
-109.000000
 11
-165.399994
 21
-113.000000
  0
LINE
  8
0
  6
CONTINUOUS
 62
7
 10
-165.399994
 20
-113.000000
 11
-166.500000
 21
-113.000000
  0
LINE
  8
0
  6
CONTINUOUS
 62
7
 10
-165.800003
 20
-118.000000
 11
-165.800003
 21
-113.000000
  0
LINE
  8
0
  6
CONTINUOUS
 62
7
 10
-166.000000
 20
-86.000000
 11
-166.000000
 21
-85.500000
  0
LINE
  8
0
  6
CENTER
 62
2
 10
-236.000000
 20
-82.500000
 11
-236.000000
 21
-87.000000
  0
LINE
  8
0
  6
CONTINUOUS
 62
7
 10
-236.000000
 20
-84.900002
 11
-236.000000
 21
-83.500000
  0
LINE
  8
0
  6
CONTINUOUS
 62
7
 10
-239.899994
 20
-84.900002
 11
-232.100006
 21
-84.900002
  0
LINE
  8
0
  6
CONTINUOUS
 62
7
 10
-232.100006
 20
-84.900002
 11
-232.100006
 21
-85.500000
  0
LINE
  8
0
  6
CONTINUOUS
 62
7
 10
-239.899994
 20
-84.900002
 11
-239.899994
 21
-85.500000
  0
LINE
  8
0
  6
CONTINUOUS
 62
7
 10
-232.500000
 20
-83.500000
 11
-232.500000
 21
-84.900002
  0
LINE
  8
0
  6
CONTINUOUS
 62
7
 10
-239.500000
 20
-83.500000
 11
-239.500000
 21
-84.900002
  0
LINE
  8
0
  6
CENTER
 62
2
 10
-172.000000
 20
-82.500000
 11
-172.000000
 21
-87.000000
  0
LINE
  8
0
  6
CENTER
 62
2
 10
139.000000
 20
-82.500000
 11
139.000000
 21
-87.000000
  0
LINE
  8
0
  6
CONTINUOUS
 62
7
 10
139.000000
 20
-84.900002
 11
139.000000
 21
-83.500000
  0
LINE
  8
0
  6
CONTINUOUS
 62
7
 10
135.100006
 20
-84.900002
 11
142.899994
 21
-84.900002
  0
LINE
  8
0
  6
CONTINUOUS
 62
7
 10
142.899994
 20
-84.900002
 11
142.899994
 21
-85.500000
  0
LINE
  8
0
  6
CONTINUOUS
 62
7
 10
135.100006
 20
-84.900002
 11
135.100006
 21
-85.500000
  0
LINE
  8
0
  6
CONTINUOUS
 62
7
 10
142.500000
 20
-83.500000
 11
142.500000
 21
-84.900002
  0
LINE
  8
0
  6
CONTINUOUS
 62
7
 10
135.500000
 20
-83.500000
 11
135.500000
 21
-84.900002
  0
LINE
  8
0
  6
CENTER
 62
2
 10
233.000000
 20
-82.500000
 11
233.000000
 21
-87.000000
  0
LINE
  8
0
  6
CONTINUOUS
 62
7
 10
239.600006
 20
-58.500000
 11
239.600006
 21
-56.500000
  0
LINE
  8
0
  6
CONTINUOUS
 62
7
 10
239.199997
 20
-58.500000
 11
239.600006
 21
-58.500000
  0
LINE
  8
0
  6
CONTINUOUS
 62
7
 10
239.199997
 20
-118.000000
 11
239.199997
 21
-113.000000
  0
LINE
  8
0
  6
CONTINUOUS
 62
7
 10
239.199997
 20
-91.000000
 11
239.199997
 21
-86.000000
  0
LINE
  8
0
  6
CONTINUOUS
 62
7
 10
239.600006
 20
-95.000000
 11
239.600006
 21
-91.000000
  0
LINE
  8
0
  6
CONTINUOUS
 62
7
 10
239.600006
 20
-91.000000
 11
238.500000
 21
-91.000000
  0
LINE
  8
0
  6
CONTINUOUS
 62
7
 10
238.500000
 20
-95.000000
 11
238.500000
 21
-91.000000
  0
LINE
  8
0
  6
CONTINUOUS
 62
7
 10
239.600006
 20
-95.000000
 11
238.500000
 21
-95.000000
  0
LINE
  8
0
  6
CONTINUOUS
 62
7
 10
239.199997
 20
-109.000000
 11
239.199997
 21
-95.000000
  0
LINE
  8
0
  6
CONTINUOUS
 62
7
 10
239.600006
 20
-109.000000
 11
238.500000
 21
-109.000000
  0
LINE
  8
0
  6
CONTINUOUS
 62
7
 10
238.500000
 20
-109.000000
 11
238.500000
 21
-113.000000
  0
LINE
  8
0
  6
CONTINUOUS
 62
7
 10
239.600006
 20
-109.000000
 11
239.600006
 21
-113.000000
  0
LINE
  8
0
  6
CONTINUOUS
 62
7
 10
239.600006
 20
-113.000000
 11
238.500000
 21
-113.000000
  0
LINE
  8
0
  6
CONTINUOUS
 62
7
 10
239.000000
 20
-86.000000
 11
239.000000
 21
-85.500000
  0
LINE
  8
0
  6
CENTER
 62
2
 10
225.199997
 20
148.000000
 11
122.000000
 21
148.000000
  0
LINE
  8
0
  6
CONTINUOUS
 62
7
 10
224.199997
 20
132.000000
 11
123.000000
 21
132.000000
  0
LINE
  8
0
  6
CONTINUOUS
 62
7
 10
223.000000
 20
139.000000
 11
131.000000
 21
139.000000
  0
LINE
  8
0
  6
CONTINUOUS
 62
7
 10
133.000000
 20
164.500000
 11
145.800003
 21
164.500000
  0
LINE
  8
0
  6
CONTINUOUS
 62
7
 10
133.000000
 20
131.500000
 11
145.800003
 21
131.500000
  0
LINE
  8
0
  6
CONTINUOUS
 62
7
 10
133.000000
 20
131.500000
 11
133.000000
 21
132.000000
  0
LINE
  8
0
  6
CONTINUOUS
 62
7
 10
224.000000
 20
131.500000
 11
224.000000
 21
132.000000
  0
LINE
  8
0
  6
CONTINUOUS
 62
7
 10
133.000000
 20
164.000000
 11
133.000000
 21
164.500000
  0
LINE
  8
0
  6
CONTINUOUS
 62
7
 10
131.000000
 20
132.000000
 11
131.000000
 21
164.000000
  0
LINE
  8
0
  6
CONTINUOUS
 62
7
 10
224.199997
 20
164.000000
 11
123.000000
 21
164.000000
  0
LINE
  8
0
  6
CONTINUOUS
 62
7
 10
223.000000
 20
132.000000
 11
223.000000
 21
164.000000
  0
LINE
  8
0
  6
CONTINUOUS
 62
7
 10
223.000000
 20
157.000000
 11
131.000000
 21
157.000000
  0
LINE
  8
0
  6
CONTINUOUS
 62
7
 10
150.199997
 20
131.500000
 11
224.000000
 21
131.500000
  0
LINE
  8
0
  6
CONTINUOUS
 62
7
 10
123.000000
 20
164.000000
 11
123.000000
 21
132.000000
  0
LINE
  8
0
  6
CONTINUOUS
 62
7
 10
150.199997
 20
164.500000
 11
207.199997
 21
164.500000
  0
LINE
  8
0
  6
DASHED
 62
2
 10
145.800003
 20
136.000000
 11
145.800003
 21
132.000000
  0
LINE
  8
0
  6
DASHED
 62
2
 10
150.199997
 20
136.000000
 11
150.199997
 21
132.000000
  0
LINE
  8
0
  6
DASHED
 62
2
 10
145.800003
 20
160.000000
 11
145.800003
 21
164.000000
  0
LINE
  8
0
  6
DASHED
 62
2
 10
150.199997
 20
160.000000
 11
150.199997
 21
164.000000
  0
LINE
  8
0
  6
CONTINUOUS
 62
7
 10
145.800003
 20
132.000000
 11
145.800003
 21
131.500000
  0
LINE
  8
0
  6
CONTINUOUS
 62
7
 10
150.199997
 20
132.000000
 11
150.199997
 21
131.500000
  0
LINE
  8
0
  6
CONTINUOUS
 62
7
 10
150.199997
 20
164.500000
 11
150.199997
 21
164.000000
  0
LINE
  8
0
  6
CONTINUOUS
 62
7
 10
145.800003
 20
164.500000
 11
145.800003
 21
164.000000
  0
LINE
  8
0
  6
CONTINUOUS
 62
7
 10
108.000000
 20
132.000000
 11
108.000000
 21
139.000000
  0
LINE
  8
0
  6
CONTINUOUS
 62
7
 10
107.699997
 20
139.300003
 11
107.699997
 21
156.699997
  0
LINE
  8
0
  6
CONTINUOUS
 62
7
 10
108.000000
 20
139.000000
 11
107.699997
 21
139.300003
  0
LINE
  8
0
  6
CONTINUOUS
 62
7
 10
108.000000
 20
132.000000
 11
87.000000
 21
132.000000
  0
LINE
  8
0
  6
CONTINUOUS
 62
7
 10
108.000000
 20
164.000000
 11
108.000000
 21
157.000000
  0
LINE
  8
0
  6
CONTINUOUS
 62
7
 10
108.000000
 20
157.000000
 11
107.699997
 21
156.699997
  0
LINE
  8
0
  6
CONTINUOUS
 62
7
 10
108.000000
 20
164.000000
 11
87.000000
 21
164.000000
  0
LINE
  8
0
  6
CONTINUOUS
 62
7
 10
95.500000
 20
164.500000
 11
95.500000
 21
164.000000
  0
LINE
  8
0
  6
CONTINUOUS
 62
7
 10
86.000000
 20
164.500000
 11
86.000000
 21
131.500000
  0
LINE
  8
0
  6
CONTINUOUS
 62
7
 10
95.500000
 20
131.500000
 11
86.000000
 21
131.500000
  0
LINE
  8
0
  6
CONTINUOUS
 62
7
 10
95.500000
 20
131.500000
 11
95.500000
 21
132.000000
  0
LINE
  8
0
  6
CENTER
 62
2
 10
108.699997
 20
148.000000
 11
85.000000
 21
148.000000
  0
LINE
  8
0
  6
CONTINUOUS
 62
7
 10
107.500000
 20
164.000000
 11
107.500000
 21
132.000000
  0
LINE
  8
0
  6
CONTINUOUS
 62
7
 10
87.000000
 20
164.000000
 11
87.000000
 21
132.000000
  0
LINE
  8
0
  6
CENTER
 62
2
 10
103.000000
 20
151.000000
 11
103.000000
 21
145.000000
  0
LINE
  8
0
  6
CONTINUOUS
 62
7
 10
86.000000
 20
164.500000
 11
107.500000
 21
164.500000
  0
LINE
  8
0
  6
CENTER
 62
2
 10
94.000000
 20
155.000000
 11
94.000000
 21
141.000000
  0
LINE
  8
0
  6
CENTER
 62
2
 10
240.199997
 20
-218.500000
 11
122.000000
 21
-218.500000
  0
LINE
  8
0
  6
CONTINUOUS
 62
7
 10
133.000000
 20
-235.000000
 11
145.800003
 21
-235.000000
  0
LINE
  8
0
  6
CONTINUOUS
 62
7
 10
133.000000
 20
-202.000000
 11
145.800003
 21
-202.000000
  0
LINE
  8
0
  6
CONTINUOUS
 62
7
 10
133.000000
 20
-202.000000
 11
133.000000
 21
-235.000000
  0
LINE
  8
0
  6
CONTINUOUS
 62
7
 10
239.000000
 20
-202.000000
 11
239.000000
 21
-235.000000
  0
LINE
  8
0
  6
CONTINUOUS
 62
7
 10
123.000000
 20
-202.500000
 11
133.000000
 21
-202.500000
  0
LINE
  8
0
  6
CONTINUOUS
 62
7
 10
123.000000
 20
-234.500000
 11
133.000000
 21
-234.500000
  0
LINE
  8
0
  6
CONTINUOUS
 62
7
 10
131.000000
 20
-202.500000
 11
131.000000
 21
-234.500000
  0
LINE
  8
0
  6
CONTINUOUS
 62
7
 10
150.199997
 20
-202.000000
 11
239.000000
 21
-202.000000
  0
LINE
  8
0
  6
CONTINUOUS
 62
7
 10
150.199997
 20
-235.000000
 11
250.000000
 21
-235.000000
  0
LINE
  8
0
  6
CONTINUOUS
 62
7
 10
145.800003
 20
-202.500000
 11
150.199997
 21
-202.500000
  0
LINE
  8
0
  6
CONTINUOUS
 62
7
 10
145.800003
 20
-234.500000
 11
150.199997
 21
-234.500000
  0
LINE
  8
0
  6
CONTINUOUS
 62
7
 10
123.000000
 20
-202.500000
 11
123.000000
 21
-234.500000
  0
LINE
  8
0
  6
CONTINUOUS
 62
7
 10
145.800003
 20
-206.500000
 11
145.800003
 21
-202.000000
  0
LINE
  8
0
  6
CONTINUOUS
 62
7
 10
150.199997
 20
-206.500000
 11
150.199997
 21
-202.000000
  0
LINE
  8
0
  6
CONTINUOUS
 62
7
 10
145.800003
 20
-230.500000
 11
145.800003
 21
-235.000000
  0
LINE
  8
0
  6
CONTINUOUS
 62
7
 10
150.199997
 20
-230.500000
 11
150.199997
 21
-235.000000
  0
LINE
  8
0
  6
CENTER
 62
2
 10
139.000000
 20
167.500000
 11
139.000000
 21
163.000000
  0
LINE
  8
0
  6
CONTINUOUS
 62
7
 10
139.000000
 20
165.100006
 11
139.000000
 21
166.500000
  0
LINE
  8
0
  6
CONTINUOUS
 62
7
 10
135.100006
 20
165.100006
 11
142.899994
 21
165.100006
  0
LINE
  8
0
  6
CONTINUOUS
 62
7
 10
142.899994
 20
165.100006
 11
142.899994
 21
164.500000
  0
LINE
  8
0
  6
CONTINUOUS
 62
7
 10
135.100006
 20
165.100006
 11
135.100006
 21
164.500000
  0
LINE
  8
0
  6
CONTINUOUS
 62
7
 10
142.500000
 20
166.500000
 11
142.500000
 21
165.100006
  0
LINE
  8
0
  6
CONTINUOUS
 62
7
 10
135.500000
 20
166.500000
 11
135.500000
 21
165.100006
  0
LINE
  8
0
  6
CENTER
 62
2
 10
218.000000
 20
167.500000
 11
218.000000
 21
163.000000
  0
LINE
  8
0
  6
CONTINUOUS
 62
7
 10
87.458603
 20
168.000000
 11
87.458603
 21
165.100006
  0
LINE
  8
0
  6
CONTINUOUS
 62
7
 10
87.599998
 20
165.100006
 11
87.599998
 21
164.500000
  0
LINE
  8
0
  6
CONTINUOUS
 62
7
 10
95.541496
 20
165.100006
 11
87.458603
 21
165.100006
  0
LINE
  8
0
  6
CONTINUOUS
 62
7
 10
89.479301
 20
168.000000
 11
89.479301
 21
165.100006
  0
LINE
  8
0
  6
CENTER
 62
2
 10
91.500000
 20
169.000000
 11
91.500000
 21
163.500000
  0
LINE
  8
0
  6
CONTINUOUS
 62
7
 10
95.541496
 20
168.000000
 11
87.458603
 21
168.000000
  0
LINE
  8
0
  6
CONTINUOUS
 62
7
 10
95.541496
 20
168.000000
 11
95.541496
 21
165.100006
  0
LINE
  8
0
  6
CONTINUOUS
 62
7
 10
93.520699
 20
168.000000
 11
93.520699
 21
165.100006
  0
LINE
  8
0
  6
CONTINUOUS
 62
7
 10
95.400002
 20
165.100006
 11
95.400002
 21
164.500000
  0
LINE
  8
0
  6
CONTINUOUS
 62
7
 10
142.500000
 20
-238.500000
 11
135.500000
 21
-238.500000
  0
LINE
  8
0
  6
CENTER
 62
2
 10
139.000000
 20
-239.500000
 11
139.000000
 21
-233.500000
  0
LINE
  8
0
  6
CONTINUOUS
 62
7
 10
139.000000
 20
-235.600006
 11
139.000000
 21
-238.500000
  0
LINE
  8
0
  6
CONTINUOUS
 62
7
 10
142.899994
 20
-235.600006
 11
135.100006
 21
-235.600006
  0
LINE
  8
0
  6
CONTINUOUS
 62
7
 10
135.100006
 20
-235.600006
 11
135.100006
 21
-235.000000
  0
LINE
  8
0
  6
CONTINUOUS
 62
7
 10
142.899994
 20
-235.600006
 11
142.899994
 21
-235.000000
  0
LINE
  8
0
  6
CONTINUOUS
 62
7
 10
135.500000
 20
-238.500000
 11
135.500000
 21
-235.600006
  0
LINE
  8
0
  6
CONTINUOUS
 62
7
 10
142.500000
 20
-238.500000
 11
142.500000
 21
-235.600006
  0
LINE
  8
0
  6
CONTINUOUS
 62
7
 10
224.199997
 20
132.000000
 11
224.199997
 21
137.000000
  0
LINE
  8
0
  6
CONTINUOUS
 62
7
 10
224.199997
 20
159.000000
 11
224.199997
 21
164.000000
  0
LINE
  8
0
  6
CONTINUOUS
 62
7
 10
224.600006
 20
155.000000
 11
224.600006
 21
159.000000
  0
LINE
  8
0
  6
CONTINUOUS
 62
7
 10
224.600006
 20
159.000000
 11
223.500000
 21
159.000000
  0
LINE
  8
0
  6
CONTINUOUS
 62
7
 10
223.500000
 20
155.000000
 11
223.500000
 21
159.000000
  0
LINE
  8
0
  6
CONTINUOUS
 62
7
 10
224.600006
 20
155.000000
 11
223.500000
 21
155.000000
  0
LINE
  8
0
  6
CONTINUOUS
 62
7
 10
224.199997
 20
141.000000
 11
224.199997
 21
155.000000
  0
LINE
  8
0
  6
CONTINUOUS
 62
7
 10
224.600006
 20
141.000000
 11
223.500000
 21
141.000000
  0
LINE
  8
0
  6
CONTINUOUS
 62
7
 10
223.500000
 20
141.000000
 11
223.500000
 21
137.000000
  0
LINE
  8
0
  6
CONTINUOUS
 62
7
 10
224.600006
 20
141.000000
 11
224.600006
 21
137.000000
  0
LINE
  8
0
  6
CONTINUOUS
 62
7
 10
224.600006
 20
137.000000
 11
223.500000
 21
137.000000
  0
LINE
  8
0
  6
CONTINUOUS
 62
7
 10
239.600006
 20
-225.500000
 11
239.600006
 21
-229.500000
  0
LINE
  8
0
  6
CONTINUOUS
 62
7
 10
239.600006
 20
-211.500000
 11
239.199997
 21
-211.500000
  0
LINE
  8
0
  6
CONTINUOUS
 62
7
 10
239.600006
 20
-225.500000
 11
239.199997
 21
-225.500000
  0
LINE
  8
0
  6
CONTINUOUS
 62
7
 10
239.600006
 20
-229.500000
 11
239.199997
 21
-229.500000
  0
LINE
  8
0
  6
CONTINUOUS
 62
7
 10
239.600006
 20
-207.500000
 11
239.199997
 21
-207.500000
  0
LINE
  8
0
  6
CONTINUOUS
 62
7
 10
239.199997
 20
-202.500000
 11
239.199997
 21
-234.500000
  0
LINE
  8
0
  6
CONTINUOUS
 62
7
 10
239.000000
 20
-202.500000
 11
239.199997
 21
-202.500000
  0
LINE
  8
0
  6
CONTINUOUS
 62
7
 10
239.000000
 20
-234.500000
 11
239.199997
 21
-234.500000
  0
LINE
  8
0
  6
CONTINUOUS
 62
7
 10
239.600006
 20
-207.500000
 11
239.600006
 21
-211.500000
  0
LINE
  8
0
  6
CONTINUOUS
 62
7
 10
224.000000
 20
164.000000
 11
224.000000
 21
164.500000
  0
LINE
  8
0
  6
CENTER
 62
2
 10
-174.800003
 20
148.000000
 11
-253.000000
 21
148.000000
  0
LINE
  8
0
  6
CONTINUOUS
 62
7
 10
-175.800003
 20
132.000000
 11
-252.000000
 21
132.000000
  0
LINE
  8
0
  6
CONTINUOUS
 62
7
 10
-177.000000
 20
139.000000
 11
-244.000000
 21
139.000000
  0
LINE
  8
0
  6
CONTINUOUS
 62
7
 10
-242.000000
 20
164.500000
 11
-229.199997
 21
164.500000
  0
LINE
  8
0
  6
CONTINUOUS
 62
7
 10
-242.000000
 20
131.500000
 11
-229.199997
 21
131.500000
  0
LINE
  8
0
  6
CONTINUOUS
 62
7
 10
-242.000000
 20
131.500000
 11
-242.000000
 21
132.000000
  0
LINE
  8
0
  6
CONTINUOUS
 62
7
 10
-176.000000
 20
131.500000
 11
-176.000000
 21
132.000000
  0
LINE
  8
0
  6
CONTINUOUS
 62
7
 10
-242.000000
 20
164.000000
 11
-242.000000
 21
164.500000
  0
LINE
  8
0
  6
CONTINUOUS
 62
7
 10
-244.000000
 20
132.000000
 11
-244.000000
 21
164.000000
  0
LINE
  8
0
  6
CONTINUOUS
 62
7
 10
-175.800003
 20
164.000000
 11
-252.000000
 21
164.000000
  0
LINE
  8
0
  6
CONTINUOUS
 62
7
 10
-177.000000
 20
132.000000
 11
-177.000000
 21
164.000000
  0
LINE
  8
0
  6
CONTINUOUS
 62
7
 10
-177.000000
 20
157.000000
 11
-244.000000
 21
157.000000
  0
LINE
  8
0
  6
CONTINUOUS
 62
7
 10
-224.800003
 20
131.500000
 11
-176.000000
 21
131.500000
  0
LINE
  8
0
  6
CONTINUOUS
 62
7
 10
-252.000000
 20
164.000000
 11
-252.000000
 21
132.000000
  0
LINE
  8
0
  6
CONTINUOUS
 62
7
 10
-224.800003
 20
164.500000
 11
-192.800003
 21
164.500000
  0
LINE
  8
0
  6
DASHED
 62
2
 10
-229.199997
 20
136.000000
 11
-229.199997
 21
132.000000
  0
LINE
  8
0
  6
DASHED
 62
2
 10
-224.800003
 20
136.000000
 11
-224.800003
 21
132.000000
  0
LINE
  8
0
  6
DASHED
 62
2
 10
-229.199997
 20
160.000000
 11
-229.199997
 21
164.000000
  0
LINE
  8
0
  6
DASHED
 62
2
 10
-224.800003
 20
160.000000
 11
-224.800003
 21
164.000000
  0
LINE
  8
0
  6
CONTINUOUS
 62
7
 10
-229.199997
 20
132.000000
 11
-229.199997
 21
131.500000
  0
LINE
  8
0
  6
CONTINUOUS
 62
7
 10
-224.800003
 20
132.000000
 11
-224.800003
 21
131.500000
  0
LINE
  8
0
  6
CONTINUOUS
 62
7
 10
-224.800003
 20
164.500000
 11
-224.800003
 21
164.000000
  0
LINE
  8
0
  6
CONTINUOUS
 62
7
 10
-229.199997
 20
164.500000
 11
-229.199997
 21
164.000000
  0
LINE
  8
0
  6
CONTINUOUS
 62
7
 10
-267.000000
 20
132.000000
 11
-267.000000
 21
139.000000
  0
LINE
  8
0
  6
CONTINUOUS
 62
7
 10
-267.299988
 20
139.300003
 11
-267.299988
 21
156.699997
  0
LINE
  8
0
  6
CONTINUOUS
 62
7
 10
-267.000000
 20
139.000000
 11
-267.299988
 21
139.300003
  0
LINE
  8
0
  6
CONTINUOUS
 62
7
 10
-267.000000
 20
132.000000
 11
-288.000000
 21
132.000000
  0
LINE
  8
0
  6
CONTINUOUS
 62
7
 10
-267.000000
 20
164.000000
 11
-267.000000
 21
157.000000
  0
LINE
  8
0
  6
CONTINUOUS
 62
7
 10
-267.000000
 20
157.000000
 11
-267.299988
 21
156.699997
  0
LINE
  8
0
  6
CONTINUOUS
 62
7
 10
-267.000000
 20
164.000000
 11
-288.000000
 21
164.000000
  0
LINE
  8
0
  6
CONTINUOUS
 62
7
 10
-279.500000
 20
164.500000
 11
-279.500000
 21
164.000000
  0
LINE
  8
0
  6
CONTINUOUS
 62
7
 10
-289.000000
 20
164.500000
 11
-289.000000
 21
131.500000
  0
LINE
  8
0
  6
CONTINUOUS
 62
7
 10
-279.500000
 20
131.500000
 11
-289.000000
 21
131.500000
  0
LINE
  8
0
  6
CONTINUOUS
 62
7
 10
-279.500000
 20
131.500000
 11
-279.500000
 21
132.000000
  0
LINE
  8
0
  6
CENTER
 62
2
 10
-266.299988
 20
148.000000
 11
-290.000000
 21
148.000000
  0
LINE
  8
0
  6
CONTINUOUS
 62
7
 10
-267.500000
 20
164.000000
 11
-267.500000
 21
132.000000
  0
LINE
  8
0
  6
CONTINUOUS
 62
7
 10
-288.000000
 20
164.000000
 11
-288.000000
 21
132.000000
  0
LINE
  8
0
  6
CONTINUOUS
 62
7
 10
-289.000000
 20
164.500000
 11
-267.500000
 21
164.500000
  0
LINE
  8
0
  6
CENTER
 62
2
 10
-281.000000
 20
155.000000
 11
-281.000000
 21
141.000000
  0
LINE
  8
0
  6
CENTER
 62
2
 10
298.000000
 20
140.600006
 11
298.000000
 21
155.399994
  0
LINE
  8
0
  6
CONTINUOUS
 62
7
 10
292.885986
 20
155.500000
 11
296.500000
 21
155.500000
  0
LINE
  8
0
  6
CONTINUOUS
 62
7
 10
289.000000
 20
155.500000
 11
290.114014
 21
155.500000
  0
LINE
  8
0
  6
CONTINUOUS
 62
7
 10
284.000000
 20
164.000000
 11
284.000000
 21
157.000000
  0
LINE
  8
0
  6
CONTINUOUS
 62
7
 10
284.299988
 20
156.699997
 11
284.299988
 21
139.300003
  0
LINE
  8
0
  6
CONTINUOUS
 62
7
 10
284.000000
 20
157.000000
 11
284.299988
 21
156.699997
  0
LINE
  8
0
  6
CONTINUOUS
 62
7
 10
289.000000
 20
140.500000
 11
290.114014
 21
140.500000
  0
LINE
  8
0
  6
CONTINUOUS
 62
7
 10
284.000000
 20
132.000000
 11
296.500000
 21
132.000000
  0
LINE
  8
0
  6
CONTINUOUS
 62
7
 10
284.000000
 20
132.000000
 11
284.000000
 21
139.000000
  0
LINE
  8
0
  6
CONTINUOUS
 62
7
 10
284.000000
 20
139.000000
 11
284.299988
 21
139.300003
  0
LINE
  8
0
  6
CONTINUOUS
 62
7
 10
284.000000
 20
164.000000
 11
296.500000
 21
164.000000
  0
LINE
  8
0
  6
CONTINUOUS
 62
7
 10
306.000000
 20
131.500000
 11
306.000000
 21
164.500000
  0
LINE
  8
0
  6
CONTINUOUS
 62
7
 10
296.500000
 20
164.500000
 11
296.500000
 21
155.500000
  0
LINE
  8
0
  6
CONTINUOUS
 62
7
 10
296.500000
 20
131.500000
 11
306.000000
 21
131.500000
  0
LINE
  8
0
  6
CENTER
 62
2
 10
283.299988
 20
148.000000
 11
307.000000
 21
148.000000
  0
LINE
  8
0
  6
CONTINUOUS
 62
7
 10
296.000000
 20
132.000000
 11
296.000000
 21
140.500000
  0
LINE
  8
0
  6
CONTINUOUS
 62
7
 10
289.000000
 20
155.500000
 11
289.000000
 21
140.500000
  0
LINE
  8
0
  6
CONTINUOUS
 62
7
 10
296.500000
 20
131.500000
 11
296.500000
 21
140.500000
  0
LINE
  8
0
  6
CONTINUOUS
 62
7
 10
292.885986
 20
140.500000
 11
296.500000
 21
140.500000
  0
LINE
  8
0
  6
CONTINUOUS
 62
7
 10
296.000000
 20
164.000000
 11
296.000000
 21
155.500000
  0
LINE
  8
0
  6
CENTER
 62
2
 10
-164.800003
 20
-218.500000
 11
-253.000000
 21
-218.500000
  0
LINE
  8
0
  6
CONTINUOUS
 62
7
 10
-242.000000
 20
-235.000000
 11
-229.199997
 21
-235.000000
  0
LINE
  8
0
  6
CONTINUOUS
 62
7
 10
-242.000000
 20
-202.000000
 11
-229.199997
 21
-202.000000
  0
LINE
  8
0
  6
CONTINUOUS
 62
7
 10
-242.000000
 20
-202.000000
 11
-242.000000
 21
-235.000000
  0
LINE
  8
0
  6
CONTINUOUS
 62
7
 10
-166.000000
 20
-202.000000
 11
-166.000000
 21
-235.000000
  0
LINE
  8
0
  6
CONTINUOUS
 62
7
 10
-252.000000
 20
-202.500000
 11
-242.000000
 21
-202.500000
  0
LINE
  8
0
  6
CONTINUOUS
 62
7
 10
-252.000000
 20
-234.500000
 11
-242.000000
 21
-234.500000
  0
LINE
  8
0
  6
CONTINUOUS
 62
7
 10
-244.000000
 20
-202.500000
 11
-244.000000
 21
-234.500000
  0
LINE
  8
0
  6
CONTINUOUS
 62
7
 10
-165.399994
 20
-211.500000
 11
-165.800003
 21
-211.500000
  0
LINE
  8
0
  6
CONTINUOUS
 62
7
 10
-165.399994
 20
-225.500000
 11
-165.800003
 21
-225.500000
  0
LINE
  8
0
  6
CONTINUOUS
 62
7
 10
-165.399994
 20
-229.500000
 11
-165.800003
 21
-229.500000
  0
LINE
  8
0
  6
CONTINUOUS
 62
7
 10
-165.399994
 20
-207.500000
 11
-165.800003
 21
-207.500000
  0
LINE
  8
0
  6
CONTINUOUS
 62
7
 10
-224.800003
 20
-202.000000
 11
-166.000000
 21
-202.000000
  0
LINE
  8
0
  6
CONTINUOUS
 62
7
 10
-224.800003
 20
-235.000000
 11
-155.000000
 21
-235.000000
  0
LINE
  8
0
  6
CONTINUOUS
 62
7
 10
-229.199997
 20
-202.500000
 11
-224.800003
 21
-202.500000
  0
LINE
  8
0
  6
CONTINUOUS
 62
7
 10
-229.199997
 20
-234.500000
 11
-224.800003
 21
-234.500000
  0
LINE
  8
0
  6
CONTINUOUS
 62
7
 10
-252.000000
 20
-202.500000
 11
-252.000000
 21
-234.500000
  0
LINE
  8
0
  6
CONTINUOUS
 62
7
 10
-229.199997
 20
-206.500000
 11
-229.199997
 21
-202.000000
  0
LINE
  8
0
  6
CONTINUOUS
 62
7
 10
-224.800003
 20
-206.500000
 11
-224.800003
 21
-202.000000
  0
LINE
  8
0
  6
CONTINUOUS
 62
7
 10
-229.199997
 20
-230.500000
 11
-229.199997
 21
-235.000000
  0
LINE
  8
0
  6
CONTINUOUS
 62
7
 10
-224.800003
 20
-230.500000
 11
-224.800003
 21
-235.000000
  0
LINE
  8
0
  6
CONTINUOUS
 62
7
 10
131.000000
 20
190.500000
 11
223.000000
 21
190.500000
  0
LINE
  8
0
  6
CONTINUOUS
 62
7
 10
133.000000
 20
212.500000
 11
224.000000
 21
212.500000
  0
LINE
  8
0
  6
CONTINUOUS
 62
7
 10
133.000000
 20
202.500000
 11
133.000000
 21
212.500000
  0
LINE
  8
0
  6
CONTINUOUS
 62
7
 10
224.000000
 20
212.000000
 11
224.000000
 21
212.500000
  0
LINE
  8
0
  6
CONTINUOUS
 62
7
 10
131.000000
 20
190.500000
 11
131.000000
 21
211.500000
  0
LINE
  8
0
  6
CONTINUOUS
 62
7
 10
223.000000
 20
191.000000
 11
224.199997
 21
191.000000
  0
LINE
  8
0
  6
CONTINUOUS
 62
7
 10
131.000000
 20
202.500000
 11
152.000000
 21
202.500000
  0
LINE
  8
0
  6
CONTINUOUS
 62
7
 10
133.000000
 20
203.000000
 11
152.000000
 21
203.000000
  0
LINE
  8
0
  6
CENTER
 62
2
 10
148.000000
 20
206.199997
 11
148.000000
 21
213.500000
  0
LINE
  8
0
  6
CONTINUOUS
 62
7
 10
123.000000
 20
211.500000
 11
123.000000
 21
191.000000
  0
LINE
  8
0
  6
CONTINUOUS
 62
7
 10
131.000000
 20
191.000000
 11
123.000000
 21
191.000000
  0
LINE
  8
0
  6
CONTINUOUS
 62
7
 10
131.000000
 20
211.500000
 11
123.000000
 21
211.500000
  0
LINE
  8
0
  6
CONTINUOUS
 62
7
 10
223.000000
 20
190.500000
 11
223.000000
 21
194.699997
  0
LINE
  8
0
  6
CONTINUOUS
 62
7
 10
133.000000
 20
209.500000
 11
131.000000
 21
209.500000
  0
LINE
  8
0
  6
CONTINUOUS
 62
7
 10
142.500000
 20
207.500000
 11
135.500000
 21
207.500000
  0
LINE
  8
0
  6
CONTINUOUS
 62
7
 10
142.500000
 20
206.500000
 11
135.500000
 21
206.500000
  0
LINE
  8
0
  6
CONTINUOUS
 62
7
 10
139.000000
 20
202.959000
 11
135.500000
 21
204.979004
  0
LINE
  8
0
  6
CONTINUOUS
 62
7
 10
135.500000
 20
204.979004
 11
135.500000
 21
209.020996
  0
LINE
  8
0
  6
CONTINUOUS
 62
7
 10
142.500000
 20
204.979004
 11
139.000000
 21
202.959000
  0
LINE
  8
0
  6
CONTINUOUS
 62
7
 10
142.500000
 20
204.979004
 11
142.500000
 21
209.020996
  0
LINE
  8
0
  6
CONTINUOUS
 62
7
 10
135.500000
 20
209.020996
 11
139.000000
 21
211.041000
  0
LINE
  8
0
  6
CONTINUOUS
 62
7
 10
142.500000
 20
209.020996
 11
139.000000
 21
211.041000
  0
LINE
  8
0
  6
DASHED
 62
2
 10
152.000000
 20
207.199997
 11
152.000000
 21
208.000000
  0
LINE
  8
0
  6
DASHED
 62
2
 10
144.000000
 20
207.199997
 11
144.000000
 21
208.000000
  0
LINE
  8
0
  6
DASHED
 62
2
 10
152.000000
 20
208.000000
 11
150.199997
 21
208.000000
  0
LINE
  8
0
  6
DASHED
 62
2
 10
145.800003
 20
208.000000
 11
144.000000
 21
208.000000
  0
LINE
  8
0
  6
CENTER
 62
2
 10
121.000000
 20
195.500000
 11
125.000000
 21
195.500000
  0
LINE
  8
0
  6
CENTER
 62
2
 10
121.000000
 20
204.500000
 11
125.000000
 21
204.500000
  0
LINE
  8
0
  6
CENTER
 62
2
 10
143.000000
 20
192.500000
 11
143.000000
 21
188.500000
  0
LINE
  8
0
  6
CENTER
 62
2
 10
208.000000
 20
192.500000
 11
208.000000
 21
188.500000
  0
LINE
  8
0
  6
CENTER
 62
2
 10
282.000000
 20
160.500000
 11
286.000000
 21
160.500000
  0
LINE
  8
0
  6
CENTER
 62
2
 10
304.000000
 20
160.000000
 11
308.000000
 21
160.000000
  0
LINE
  8
0
  6
CENTER
 62
2
 10
304.000000
 20
136.000000
 11
308.000000
 21
136.000000
  0
LINE
  8
0
  6
CENTER
 62
2
 10
282.000000
 20
135.500000
 11
286.000000
 21
135.500000
  0
LINE
  8
0
  6
CONTINUOUS
 62
7
 10
-175.800003
 20
159.000000
 11
-175.800003
 21
164.000000
  0
LINE
  8
0
  6
CONTINUOUS
 62
7
 10
-175.399994
 20
155.000000
 11
-175.399994
 21
159.000000
  0
LINE
  8
0
  6
CONTINUOUS
 62
7
 10
-175.399994
 20
159.000000
 11
-176.500000
 21
159.000000
  0
LINE
  8
0
  6
CONTINUOUS
 62
7
 10
-176.500000
 20
155.000000
 11
-176.500000
 21
159.000000
  0
LINE
  8
0
  6
CONTINUOUS
 62
7
 10
-175.399994
 20
155.000000
 11
-176.500000
 21
155.000000
  0
LINE
  8
0
  6
CONTINUOUS
 62
7
 10
-175.800003
 20
141.000000
 11
-175.800003
 21
155.000000
  0
LINE
  8
0
  6
CONTINUOUS
 62
7
 10
-175.399994
 20
141.000000
 11
-176.500000
 21
141.000000
  0
LINE
  8
0
  6
CONTINUOUS
 62
7
 10
-176.500000
 20
141.000000
 11
-176.500000
 21
137.000000
  0
LINE
  8
0
  6
CONTINUOUS
 62
7
 10
-175.399994
 20
141.000000
 11
-175.399994
 21
137.000000
  0
LINE
  8
0
  6
CONTINUOUS
 62
7
 10
-175.399994
 20
137.000000
 11
-176.500000
 21
137.000000
  0
LINE
  8
0
  6
CONTINUOUS
 62
7
 10
-175.800003
 20
132.000000
 11
-175.800003
 21
137.000000
  0
LINE
  8
0
  6
CONTINUOUS
 62
7
 10
-176.000000
 20
164.000000
 11
-176.000000
 21
164.500000
  0
LINE
  8
0
  6
CENTER
 62
2
 10
-236.000000
 20
167.500000
 11
-236.000000
 21
163.000000
  0
LINE
  8
0
  6
CONTINUOUS
 62
7
 10
-236.000000
 20
165.100006
 11
-236.000000
 21
166.500000
  0
LINE
  8
0
  6
CONTINUOUS
 62
7
 10
-239.899994
 20
165.100006
 11
-232.100006
 21
165.100006
  0
LINE
  8
0
  6
CONTINUOUS
 62
7
 10
-232.100006
 20
165.100006
 11
-232.100006
 21
164.500000
  0
LINE
  8
0
  6
CONTINUOUS
 62
7
 10
-239.899994
 20
165.100006
 11
-239.899994
 21
164.500000
  0
LINE
  8
0
  6
CONTINUOUS
 62
7
 10
-232.500000
 20
166.500000
 11
-232.500000
 21
165.100006
  0
LINE
  8
0
  6
CONTINUOUS
 62
7
 10
-239.500000
 20
166.500000
 11
-239.500000
 21
165.100006
  0
LINE
  8
0
  6
CONTINUOUS
 62
7
 10
-287.540985
 20
168.000000
 11
-287.540985
 21
165.100006
  0
LINE
  8
0
  6
CONTINUOUS
 62
7
 10
-287.399994
 20
165.100006
 11
-287.399994
 21
164.500000
  0
LINE
  8
0
  6
CONTINUOUS
 62
7
 10
-279.459015
 20
165.100006
 11
-287.540985
 21
165.100006
  0
LINE
  8
0
  6
CONTINUOUS
 62
7
 10
-285.520996
 20
168.000000
 11
-285.520996
 21
165.100006
  0
LINE
  8
0
  6
CENTER
 62
2
 10
-283.500000
 20
169.000000
 11
-283.500000
 21
163.500000
  0
LINE
  8
0
  6
CONTINUOUS
 62
7
 10
-279.459015
 20
168.000000
 11
-287.540985
 21
168.000000
  0
LINE
  8
0
  6
CONTINUOUS
 62
7
 10
-279.459015
 20
168.000000
 11
-279.459015
 21
165.100006
  0
LINE
  8
0
  6
CONTINUOUS
 62
7
 10
-281.479004
 20
168.000000
 11
-281.479004
 21
165.100006
  0
LINE
  8
0
  6
CONTINUOUS
 62
7
 10
-279.600006
 20
165.100006
 11
-279.600006
 21
164.500000
  0
LINE
  8
0
  6
CONTINUOUS
 62
7
 10
224.600006
 20
191.500000
 11
224.600006
 21
193.500000
  0
LINE
  8
0
  6
CONTINUOUS
 62
7
 10
224.199997
 20
191.500000
 11
224.600006
 21
191.500000
  0
LINE
  8
0
  6
CONTINUOUS
 62
7
 10
-165.800003
 20
-202.500000
 11
-165.800003
 21
-234.500000
  0
LINE
  8
0
  6
CONTINUOUS
 62
7
 10
-166.000000
 20
-202.500000
 11
-165.800003
 21
-202.500000
  0
LINE
  8
0
  6
CONTINUOUS
 62
7
 10
-166.000000
 20
-234.500000
 11
-165.800003
 21
-234.500000
  0
LINE
  8
0
  6
CONTINUOUS
 62
7
 10
-165.399994
 20
-207.500000
 11
-165.399994
 21
-211.500000
  0
LINE
  8
0
  6
CONTINUOUS
 62
7
 10
-165.399994
 20
-225.500000
 11
-165.399994
 21
-229.500000
  0
LINE
  8
0
  6
CONTINUOUS
 62
7
 10
-232.500000
 20
-238.500000
 11
-239.500000
 21
-238.500000
  0
LINE
  8
0
  6
CENTER
 62
2
 10
-236.000000
 20
-239.500000
 11
-236.000000
 21
-233.500000
  0
LINE
  8
0
  6
CONTINUOUS
 62
7
 10
-236.000000
 20
-235.600006
 11
-236.000000
 21
-238.500000
  0
LINE
  8
0
  6
CONTINUOUS
 62
7
 10
-232.100006
 20
-235.600006
 11
-239.899994
 21
-235.600006
  0
LINE
  8
0
  6
CONTINUOUS
 62
7
 10
-239.899994
 20
-235.600006
 11
-239.899994
 21
-235.000000
  0
LINE
  8
0
  6
CONTINUOUS
 62
7
 10
-232.100006
 20
-235.600006
 11
-232.100006
 21
-235.000000
  0
LINE
  8
0
  6
CONTINUOUS
 62
7
 10
-239.500000
 20
-238.500000
 11
-239.500000
 21
-235.600006
  0
LINE
  8
0
  6
CONTINUOUS
 62
7
 10
-232.500000
 20
-238.500000
 11
-232.500000
 21
-235.600006
  0
LINE
  8
0
  6
CENTER
 62
2
 10
-174.800003
 20
31.500000
 11
-253.000000
 21
31.500000
  0
LINE
  8
0
  6
CONTINUOUS
 62
7
 10
-242.000000
 20
15.000000
 11
-229.199997
 21
15.000000
  0
LINE
  8
0
  6
CONTINUOUS
 62
7
 10
-242.000000
 20
48.000000
 11
-229.199997
 21
48.000000
  0
LINE
  8
0
  6
CONTINUOUS
 62
7
 10
-242.000000
 20
48.000000
 11
-242.000000
 21
15.000000
  0
LINE
  8
0
  6
CONTINUOUS
 62
7
 10
-176.000000
 20
48.000000
 11
-176.000000
 21
15.000000
  0
LINE
  8
0
  6
CONTINUOUS
 62
7
 10
-252.000000
 20
47.500000
 11
-242.000000
 21
47.500000
  0
LINE
  8
0
  6
CONTINUOUS
 62
7
 10
-252.000000
 20
15.500000
 11
-242.000000
 21
15.500000
  0
LINE
  8
0
  6
CONTINUOUS
 62
7
 10
-244.000000
 20
47.500000
 11
-244.000000
 21
15.500000
  0
LINE
  8
0
  6
CONTINUOUS
 62
7
 10
-175.399994
 20
38.500000
 11
-175.800003
 21
38.500000
  0
LINE
  8
0
  6
CONTINUOUS
 62
7
 10
-175.399994
 20
24.500000
 11
-175.800003
 21
24.500000
  0
LINE
  8
0
  6
CONTINUOUS
 62
7
 10
-175.399994
 20
20.500000
 11
-175.800003
 21
20.500000
  0
LINE
  8
0
  6
CONTINUOUS
 62
7
 10
-175.399994
 20
42.500000
 11
-175.800003
 21
42.500000
  0
LINE
  8
0
  6
CONTINUOUS
 62
7
 10
-224.800003
 20
48.000000
 11
-176.000000
 21
48.000000
  0
LINE
  8
0
  6
CONTINUOUS
 62
7
 10
-224.800003
 20
15.000000
 11
-165.000000
 21
15.000000
  0
LINE
  8
0
  6
CONTINUOUS
 62
7
 10
-229.199997
 20
47.500000
 11
-224.800003
 21
47.500000
  0
LINE
  8
0
  6
CONTINUOUS
 62
7
 10
-229.199997
 20
15.500000
 11
-224.800003
 21
15.500000
  0
LINE
  8
0
  6
CONTINUOUS
 62
7
 10
-252.000000
 20
47.500000
 11
-252.000000
 21
15.500000
  0
LINE
  8
0
  6
CONTINUOUS
 62
7
 10
-229.199997
 20
43.500000
 11
-229.199997
 21
48.000000
  0
LINE
  8
0
  6
CONTINUOUS
 62
7
 10
-224.800003
 20
43.500000
 11
-224.800003
 21
48.000000
  0
LINE
  8
0
  6
CONTINUOUS
 62
7
 10
-229.199997
 20
19.500000
 11
-229.199997
 21
15.000000
  0
LINE
  8
0
  6
CONTINUOUS
 62
7
 10
-224.800003
 20
19.500000
 11
-224.800003
 21
15.000000
  0
LINE
  8
0
  6
CONTINUOUS
 62
7
 10
-175.800003
 20
47.500000
 11
-175.800003
 21
15.500000
  0
LINE
  8
0
  6
CONTINUOUS
 62
7
 10
-176.000000
 20
47.500000
 11
-175.800003
 21
47.500000
  0
LINE
  8
0
  6
CONTINUOUS
 62
7
 10
-176.000000
 20
15.500000
 11
-175.800003
 21
15.500000
  0
LINE
  8
0
  6
CONTINUOUS
 62
7
 10
-175.399994
 20
42.500000
 11
-175.399994
 21
38.500000
  0
LINE
  8
0
  6
CONTINUOUS
 62
7
 10
-175.399994
 20
24.500000
 11
-175.399994
 21
20.500000
  0
LINE
  8
0
  6
CONTINUOUS
 62
7
 10
-232.500000
 20
11.500000
 11
-239.500000
 21
11.500000
  0
LINE
  8
0
  6
CENTER
 62
2
 10
-236.000000
 20
10.500000
 11
-236.000000
 21
16.500000
  0
LINE
  8
0
  6
CONTINUOUS
 62
7
 10
-236.000000
 20
14.400000
 11
-236.000000
 21
11.500000
  0
LINE
  8
0
  6
CONTINUOUS
 62
7
 10
-232.100006
 20
14.400000
 11
-239.899994
 21
14.400000
  0
LINE
  8
0
  6
CONTINUOUS
 62
7
 10
-239.899994
 20
14.400000
 11
-239.899994
 21
15.000000
  0
LINE
  8
0
  6
CONTINUOUS
 62
7
 10
-232.100006
 20
14.400000
 11
-232.100006
 21
15.000000
  0
LINE
  8
0
  6
CONTINUOUS
 62
7
 10
-239.500000
 20
11.500000
 11
-239.500000
 21
14.400000
  0
LINE
  8
0
  6
CONTINUOUS
 62
7
 10
-232.500000
 20
11.500000
 11
-232.500000
 21
14.400000
  0
LINE
  8
0
  6
CENTER
 62
2
 10
225.199997
 20
31.500000
 11
122.000000
 21
31.500000
  0
LINE
  8
0
  6
CONTINUOUS
 62
7
 10
133.000000
 20
15.000000
 11
145.800003
 21
15.000000
  0
LINE
  8
0
  6
CONTINUOUS
 62
7
 10
133.000000
 20
48.000000
 11
145.800003
 21
48.000000
  0
LINE
  8
0
  6
CONTINUOUS
 62
7
 10
133.000000
 20
48.000000
 11
133.000000
 21
15.000000
  0
LINE
  8
0
  6
CONTINUOUS
 62
7
 10
224.000000
 20
48.000000
 11
224.000000
 21
15.000000
  0
LINE
  8
0
  6
CONTINUOUS
 62
7
 10
123.000000
 20
47.500000
 11
133.000000
 21
47.500000
  0
LINE
  8
0
  6
CONTINUOUS
 62
7
 10
123.000000
 20
15.500000
 11
133.000000
 21
15.500000
  0
LINE
  8
0
  6
CONTINUOUS
 62
7
 10
131.000000
 20
47.500000
 11
131.000000
 21
15.500000
  0
LINE
  8
0
  6
CONTINUOUS
 62
7
 10
150.199997
 20
48.000000
 11
224.000000
 21
48.000000
  0
LINE
  8
0
  6
CONTINUOUS
 62
7
 10
150.199997
 20
15.000000
 11
235.000000
 21
15.000000
  0
LINE
  8
0
  6
CONTINUOUS
 62
7
 10
145.800003
 20
47.500000
 11
150.199997
 21
47.500000
  0
LINE
  8
0
  6
CONTINUOUS
 62
7
 10
145.800003
 20
15.500000
 11
150.199997
 21
15.500000
  0
LINE
  8
0
  6
CONTINUOUS
 62
7
 10
123.000000
 20
47.500000
 11
123.000000
 21
15.500000
  0
LINE
  8
0
  6
CONTINUOUS
 62
7
 10
145.800003
 20
43.500000
 11
145.800003
 21
48.000000
  0
LINE
  8
0
  6
CONTINUOUS
 62
7
 10
150.199997
 20
43.500000
 11
150.199997
 21
48.000000
  0
LINE
  8
0
  6
CONTINUOUS
 62
7
 10
145.800003
 20
19.500000
 11
145.800003
 21
15.000000
  0
LINE
  8
0
  6
CONTINUOUS
 62
7
 10
150.199997
 20
19.500000
 11
150.199997
 21
15.000000
  0
LINE
  8
0
  6
CONTINUOUS
 62
7
 10
142.500000
 20
11.500000
 11
135.500000
 21
11.500000
  0
LINE
  8
0
  6
CENTER
 62
2
 10
139.000000
 20
10.500000
 11
139.000000
 21
16.500000
  0
LINE
  8
0
  6
CONTINUOUS
 62
7
 10
139.000000
 20
14.400000
 11
139.000000
 21
11.500000
  0
LINE
  8
0
  6
CONTINUOUS
 62
7
 10
142.899994
 20
14.400000
 11
135.100006
 21
14.400000
  0
LINE
  8
0
  6
CONTINUOUS
 62
7
 10
135.100006
 20
14.400000
 11
135.100006
 21
15.000000
  0
LINE
  8
0
  6
CONTINUOUS
 62
7
 10
142.899994
 20
14.400000
 11
142.899994
 21
15.000000
  0
LINE
  8
0
  6
CONTINUOUS
 62
7
 10
135.500000
 20
11.500000
 11
135.500000
 21
14.400000
  0
LINE
  8
0
  6
CONTINUOUS
 62
7
 10
142.500000
 20
11.500000
 11
142.500000
 21
14.400000
  0
LINE
  8
0
  6
CONTINUOUS
 62
7
 10
224.600006
 20
24.500000
 11
224.600006
 21
20.500000
  0
LINE
  8
0
  6
CONTINUOUS
 62
7
 10
224.600006
 20
38.500000
 11
224.199997
 21
38.500000
  0
LINE
  8
0
  6
CONTINUOUS
 62
7
 10
224.600006
 20
24.500000
 11
224.199997
 21
24.500000
  0
LINE
  8
0
  6
CONTINUOUS
 62
7
 10
224.600006
 20
20.500000
 11
224.199997
 21
20.500000
  0
LINE
  8
0
  6
CONTINUOUS
 62
7
 10
224.600006
 20
42.500000
 11
224.199997
 21
42.500000
  0
LINE
  8
0
  6
CONTINUOUS
 62
7
 10
224.199997
 20
47.500000
 11
224.199997
 21
15.500000
  0
LINE
  8
0
  6
CONTINUOUS
 62
7
 10
224.000000
 20
47.500000
 11
224.199997
 21
47.500000
  0
LINE
  8
0
  6
CONTINUOUS
 62
7
 10
224.000000
 20
15.500000
 11
224.199997
 21
15.500000
  0
LINE
  8
0
  6
CONTINUOUS
 62
7
 10
224.600006
 20
42.500000
 11
224.600006
 21
38.500000
  0
LINE
  8
0
  6
CONTINUOUS
 62
7
 10
143.800003
 20
207.199997
 11
152.000000
 21
207.199997
  0
LINE
  8
0
  6
CONTINUOUS
 62
7
 10
145.850006
 20
207.199997
 11
145.850006
 21
212.500000
  0
LINE
  8
0
  6
CONTINUOUS
 62
7
 10
150.149994
 20
208.000000
 11
145.850006
 21
208.000000
  0
LINE
  8
0
  6
CONTINUOUS
 62
7
 10
150.149994
 20
207.199997
 11
150.149994
 21
212.500000
  0
LINE
  8
0
  6
DASHED
 62
2
 10
160.000000
 20
205.199997
 11
168.000000
 21
205.199997
  0
LINE
  8
0
  6
CENTER
 62
2
 10
164.000000
 20
204.199997
 11
164.000000
 21
213.500000
  0
LINE
  8
0
  6
DASHED
 62
2
 10
161.500000
 20
205.199997
 11
161.500000
 21
212.500000
  0
LINE
  8
0
  6
DASHED
 62
2
 10
166.500000
 20
205.199997
 11
166.500000
 21
212.500000
  0
LINE
  8
0
  6
DASHED
 62
2
 10
166.100006
 20
205.199997
 11
166.100006
 21
212.500000
  0
LINE
  8
0
  6
DASHED
 62
2
 10
161.899994
 20
205.199997
 11
161.899994
 21
212.500000
  0
LINE
  8
0
  6
DASHED
 62
2
 10
213.000000
 20
207.199997
 11
205.000000
 21
207.199997
  0
LINE
  8
0
  6
CENTER
 62
2
 10
209.000000
 20
206.199997
 11
209.000000
 21
213.500000
  0
LINE
  8
0
  6
DASHED
 62
2
 10
213.000000
 20
208.000000
 11
205.000000
 21
208.000000
  0
LINE
  8
0
  6
DASHED
 62
2
 10
206.899994
 20
208.000000
 11
206.899994
 21
212.500000
  0
LINE
  8
0
  6
DASHED
 62
2
 10
211.100006
 20
208.000000
 11
211.100006
 21
212.500000
  0
LINE
  8
0
  6
DASHED
 62
2
 10
211.500000
 20
208.000000
 11
211.500000
 21
212.500000
  0
LINE
  8
0
  6
DASHED
 62
2
 10
206.500000
 20
208.000000
 11
206.500000
 21
212.500000
  0
LINE
  8
0
  6
DASHED
 62
2
 10
213.000000
 20
207.199997
 11
213.000000
 21
208.000000
  0
LINE
  8
0
  6
DASHED
 62
2
 10
205.000000
 20
207.199997
 11
205.000000
 21
208.000000
  0
LINE
  8
0
  6
CENTER
 62
2
 10
139.000000
 20
211.899994
 11
139.000000
 21
202.100006
  0
LINE
  8
0
  6
CENTER
 62
2
 10
134.100006
 20
207.000000
 11
143.899994
 21
207.000000
  0
LINE
  8
0
  6
CENTER
 62
2
 10
204.800003
 20
196.699997
 11
204.800003
 21
192.699997
  0
LINE
  8
0
  6
CENTER
 62
2
 10
202.800003
 20
194.699997
 11
206.800003
 21
194.699997
  0
LINE
  8
0
  6
CENTER
 62
2
 10
-232.000000
 20
163.000000
 11
-232.000000
 21
158.000000
  0
LINE
  8
0
  6
CENTER
 62
2
 10
-234.500000
 20
160.500000
 11
-229.500000
 21
160.500000
  0
LINE
  8
0
  6
CENTER
 62
2
 10
-227.000000
 20
165.000000
 11
-227.000000
 21
155.000000
  0
LINE
  8
0
  6
CENTER
 62
2
 10
-232.000000
 20
160.000000
 11
-222.000000
 21
160.000000
  0
LINE
  8
0
  6
CENTER
 62
2
 10
-212.000000
 20
163.000000
 11
-212.000000
 21
158.000000
  0
LINE
  8
0
  6
CENTER
 62
2
 10
-214.500000
 20
160.500000
 11
-209.500000
 21
160.500000
  0
LINE
  8
0
  6
CENTER
 62
2
 10
-207.000000
 20
163.500000
 11
-207.000000
 21
157.500000
  0
LINE
  8
0
  6
CENTER
 62
2
 10
-210.000000
 20
160.500000
 11
-204.000000
 21
160.500000
  0
LINE
  8
0
  6
CENTER
 62
2
 10
-191.000000
 20
165.000000
 11
-191.000000
 21
155.000000
  0
LINE
  8
0
  6
CENTER
 62
2
 10
-196.000000
 20
160.000000
 11
-186.000000
 21
160.000000
  0
LINE
  8
0
  6
CENTER
 62
2
 10
-192.000000
 20
163.000000
 11
-192.000000
 21
158.000000
  0
LINE
  8
0
  6
CENTER
 62
2
 10
-194.500000
 20
160.500000
 11
-189.500000
 21
160.500000
  0
LINE
  8
0
  6
CENTER
 62
2
 10
-192.000000
 20
138.000000
 11
-192.000000
 21
133.000000
  0
LINE
  8
0
  6
CENTER
 62
2
 10
-194.500000
 20
135.500000
 11
-189.500000
 21
135.500000
  0
LINE
  8
0
  6
CENTER
 62
2
 10
-191.000000
 20
141.000000
 11
-191.000000
 21
131.000000
  0
LINE
  8
0
  6
CENTER
 62
2
 10
-196.000000
 20
136.000000
 11
-186.000000
 21
136.000000
  0
LINE
  8
0
  6
CENTER
 62
2
 10
-207.000000
 20
138.500000
 11
-207.000000
 21
132.500000
  0
LINE
  8
0
  6
CENTER
 62
2
 10
-210.000000
 20
135.500000
 11
-204.000000
 21
135.500000
  0
LINE
  8
0
  6
CENTER
 62
2
 10
-212.000000
 20
138.000000
 11
-212.000000
 21
133.000000
  0
LINE
  8
0
  6
CENTER
 62
2
 10
-214.500000
 20
135.500000
 11
-209.500000
 21
135.500000
  0
LINE
  8
0
  6
CENTER
 62
2
 10
-227.000000
 20
141.000000
 11
-227.000000
 21
131.000000
  0
LINE
  8
0
  6
CENTER
 62
2
 10
-232.000000
 20
136.000000
 11
-222.000000
 21
136.000000
  0
LINE
  8
0
  6
CENTER
 62
2
 10
-232.000000
 20
138.000000
 11
-232.000000
 21
133.000000
  0
LINE
  8
0
  6
CENTER
 62
2
 10
-234.500000
 20
135.500000
 11
-229.500000
 21
135.500000
  0
LINE
  8
0
  6
CENTER
 62
2
 10
-281.000000
 20
139.000000
 11
-281.000000
 21
133.000000
  0
LINE
  8
0
  6
CENTER
 62
2
 10
-284.000000
 20
136.000000
 11
-278.000000
 21
136.000000
  0
LINE
  8
0
  6
CENTER
 62
2
 10
-272.000000
 20
141.500000
 11
-272.000000
 21
131.500000
  0
LINE
  8
0
  6
CENTER
 62
2
 10
-277.000000
 20
136.500000
 11
-267.000000
 21
136.500000
  0
LINE
  8
0
  6
CENTER
 62
2
 10
-272.000000
 20
164.500000
 11
-272.000000
 21
154.500000
  0
LINE
  8
0
  6
CENTER
 62
2
 10
-277.000000
 20
159.500000
 11
-267.000000
 21
159.500000
  0
LINE
  8
0
  6
CENTER
 62
2
 10
-281.000000
 20
163.000000
 11
-281.000000
 21
157.000000
  0
LINE
  8
0
  6
CENTER
 62
2
 10
-284.000000
 20
160.000000
 11
-278.000000
 21
160.000000
  0
LINE
  8
0
  6
CENTER
 62
2
 10
-272.000000
 20
151.000000
 11
-272.000000
 21
145.000000
  0
LINE
  8
0
  6
CENTER
 62
2
 10
-227.000000
 20
46.700001
 11
-227.000000
 21
40.299999
  0
LINE
  8
0
  6
CENTER
 62
2
 10
-230.199997
 20
43.500000
 11
-223.800003
 21
43.500000
  0
LINE
  8
0
  6
CENTER
 62
2
 10
-227.000000
 20
22.700001
 11
-227.000000
 21
16.299999
  0
LINE
  8
0
  6
CENTER
 62
2
 10
-230.199997
 20
19.500000
 11
-223.800003
 21
19.500000
  0
LINE
  8
0
  6
CENTER
 62
2
 10
-211.000000
 20
47.000000
 11
-211.000000
 21
40.000000
  0
LINE
  8
0
  6
CENTER
 62
2
 10
-214.500000
 20
43.500000
 11
-207.500000
 21
43.500000
  0
LINE
  8
0
  6
CENTER
 62
2
 10
-191.000000
 20
47.000000
 11
-191.000000
 21
40.000000
  0
LINE
  8
0
  6
CENTER
 62
2
 10
-194.500000
 20
43.500000
 11
-187.500000
 21
43.500000
  0
LINE
  8
0
  6
CENTER
 62
2
 10
-191.000000
 20
23.000000
 11
-191.000000
 21
16.000000
  0
LINE
  8
0
  6
CENTER
 62
2
 10
-194.500000
 20
19.500000
 11
-187.500000
 21
19.500000
  0
LINE
  8
0
  6
CENTER
 62
2
 10
-211.000000
 20
23.000000
 11
-211.000000
 21
16.000000
  0
LINE
  8
0
  6
CENTER
 62
2
 10
-214.500000
 20
19.500000
 11
-207.500000
 21
19.500000
  0
LINE
  8
0
  6
CENTER
 62
2
 10
139.000000
 20
-38.099998
 11
139.000000
 21
-47.900002
  0
LINE
  8
0
  6
CENTER
 62
2
 10
134.100006
 20
-43.000000
 11
143.800003
 21
-43.000000
  0
LINE
  8
0
  6
CENTER
 62
2
 10
-232.000000
 20
-87.000000
 11
-232.000000
 21
-92.000000
  0
LINE
  8
0
  6
CENTER
 62
2
 10
-234.500000
 20
-89.500000
 11
-229.500000
 21
-89.500000
  0
LINE
  8
0
  6
CENTER
 62
2
 10
-227.000000
 20
-85.000000
 11
-227.000000
 21
-95.000000
  0
LINE
  8
0
  6
CENTER
 62
2
 10
-232.000000
 20
-90.000000
 11
-222.000000
 21
-90.000000
  0
LINE
  8
0
  6
CENTER
 62
2
 10
-232.000000
 20
-112.000000
 11
-232.000000
 21
-117.000000
  0
LINE
  8
0
  6
CENTER
 62
2
 10
-234.500000
 20
-114.500000
 11
-229.500000
 21
-114.500000
  0
LINE
  8
0
  6
CENTER
 62
2
 10
-227.000000
 20
-109.000000
 11
-227.000000
 21
-119.000000
  0
LINE
  8
0
  6
CENTER
 62
2
 10
-232.000000
 20
-114.000000
 11
-222.000000
 21
-114.000000
  0
LINE
  8
0
  6
CENTER
 62
2
 10
-207.000000
 20
-87.000000
 11
-207.000000
 21
-92.000000
  0
LINE
  8
0
  6
CENTER
 62
2
 10
-209.500000
 20
-89.500000
 11
-204.500000
 21
-89.500000
  0
LINE
  8
0
  6
CENTER
 62
2
 10
-207.000000
 20
-112.000000
 11
-207.000000
 21
-117.000000
  0
LINE
  8
0
  6
CENTER
 62
2
 10
-209.500000
 20
-114.500000
 11
-204.500000
 21
-114.500000
  0
LINE
  8
0
  6
CENTER
 62
2
 10
-199.000000
 20
-111.500000
 11
-199.000000
 21
-117.500000
  0
LINE
  8
0
  6
CENTER
 62
2
 10
-202.000000
 20
-114.500000
 11
-196.000000
 21
-114.500000
  0
LINE
  8
0
  6
CENTER
 62
2
 10
-199.000000
 20
-86.500000
 11
-199.000000
 21
-92.500000
  0
LINE
  8
0
  6
CENTER
 62
2
 10
-202.000000
 20
-89.500000
 11
-196.000000
 21
-89.500000
  0
LINE
  8
0
  6
CENTER
 62
2
 10
-182.000000
 20
-87.000000
 11
-182.000000
 21
-92.000000
  0
LINE
  8
0
  6
CENTER
 62
2
 10
-184.500000
 20
-89.500000
 11
-179.500000
 21
-89.500000
  0
LINE
  8
0
  6
CENTER
 62
2
 10
-181.000000
 20
-85.000000
 11
-181.000000
 21
-95.000000
  0
LINE
  8
0
  6
CENTER
 62
2
 10
-186.000000
 20
-90.000000
 11
-176.000000
 21
-90.000000
  0
LINE
  8
0
  6
CENTER
 62
2
 10
-181.000000
 20
-109.000000
 11
-181.000000
 21
-119.000000
  0
LINE
  8
0
  6
CENTER
 62
2
 10
-186.000000
 20
-114.000000
 11
-176.000000
 21
-114.000000
  0
LINE
  8
0
  6
CENTER
 62
2
 10
-182.000000
 20
-112.000000
 11
-182.000000
 21
-117.000000
  0
LINE
  8
0
  6
CENTER
 62
2
 10
-184.500000
 20
-114.500000
 11
-179.500000
 21
-114.500000
  0
LINE
  8
0
  6
CENTER
 62
2
 10
-227.000000
 20
-203.300003
 11
-227.000000
 21
-209.699997
  0
LINE
  8
0
  6
CENTER
 62
2
 10
-230.199997
 20
-206.500000
 11
-223.800003
 21
-206.500000
  0
LINE
  8
0
  6
CENTER
 62
2
 10
-227.000000
 20
-227.300003
 11
-227.000000
 21
-233.699997
  0
LINE
  8
0
  6
CENTER
 62
2
 10
-230.199997
 20
-230.500000
 11
-223.800003
 21
-230.500000
  0
LINE
  8
0
  6
CENTER
 62
2
 10
-211.000000
 20
-226.500000
 11
-211.000000
 21
-234.500000
  0
LINE
  8
0
  6
CENTER
 62
2
 10
-215.000000
 20
-230.500000
 11
-207.000000
 21
-230.500000
  0
LINE
  8
0
  6
CENTER
 62
2
 10
-211.000000
 20
-202.500000
 11
-211.000000
 21
-210.500000
  0
LINE
  8
0
  6
CENTER
 62
2
 10
-215.000000
 20
-206.500000
 11
-207.000000
 21
-206.500000
  0
LINE
  8
0
  6
CENTER
 62
2
 10
-181.000000
 20
-203.000000
 11
-181.000000
 21
-210.000000
  0
LINE
  8
0
  6
CENTER
 62
2
 10
-184.500000
 20
-206.500000
 11
-177.500000
 21
-206.500000
  0
LINE
  8
0
  6
CENTER
 62
2
 10
-181.000000
 20
-227.000000
 11
-181.000000
 21
-234.000000
  0
LINE
  8
0
  6
CENTER
 62
2
 10
-184.500000
 20
-230.500000
 11
-177.500000
 21
-230.500000
  0
LINE
  8
0
  6
CENTER
 62
2
 10
143.000000
 20
163.000000
 11
143.000000
 21
158.000000
  0
LINE
  8
0
  6
CENTER
 62
2
 10
140.500000
 20
160.500000
 11
145.500000
 21
160.500000
  0
LINE
  8
0
  6
CENTER
 62
2
 10
143.000000
 20
138.000000
 11
143.000000
 21
133.000000
  0
LINE
  8
0
  6
CENTER
 62
2
 10
140.500000
 20
135.500000
 11
145.500000
 21
135.500000
  0
LINE
  8
0
  6
CENTER
 62
2
 10
148.000000
 20
141.000000
 11
148.000000
 21
131.000000
  0
LINE
  8
0
  6
CENTER
 62
2
 10
143.000000
 20
136.000000
 11
153.000000
 21
136.000000
  0
LINE
  8
0
  6
CENTER
 62
2
 10
148.000000
 20
165.000000
 11
148.000000
 21
155.000000
  0
LINE
  8
0
  6
CENTER
 62
2
 10
143.000000
 20
160.000000
 11
153.000000
 21
160.000000
  0
LINE
  8
0
  6
CENTER
 62
2
 10
168.000000
 20
163.000000
 11
168.000000
 21
158.000000
  0
LINE
  8
0
  6
CENTER
 62
2
 10
165.500000
 20
160.500000
 11
170.500000
 21
160.500000
  0
LINE
  8
0
  6
CENTER
 62
2
 10
176.000000
 20
163.500000
 11
176.000000
 21
157.500000
  0
LINE
  8
0
  6
CENTER
 62
2
 10
173.000000
 20
160.500000
 11
179.000000
 21
160.500000
  0
LINE
  8
0
  6
CENTER
 62
2
 10
168.000000
 20
138.000000
 11
168.000000
 21
133.000000
  0
LINE
  8
0
  6
CENTER
 62
2
 10
165.500000
 20
135.500000
 11
170.500000
 21
135.500000
  0
LINE
  8
0
  6
CENTER
 62
2
 10
176.000000
 20
138.500000
 11
176.000000
 21
132.500000
  0
LINE
  8
0
  6
CENTER
 62
2
 10
173.000000
 20
135.500000
 11
179.000000
 21
135.500000
  0
LINE
  8
0
  6
CENTER
 62
2
 10
183.000000
 20
138.000000
 11
183.000000
 21
133.000000
  0
LINE
  8
0
  6
CENTER
 62
2
 10
180.500000
 20
135.500000
 11
185.500000
 21
135.500000
  0
LINE
  8
0
  6
CENTER
 62
2
 10
183.000000
 20
163.000000
 11
183.000000
 21
158.000000
  0
LINE
  8
0
  6
CENTER
 62
2
 10
180.500000
 20
160.500000
 11
185.500000
 21
160.500000
  0
LINE
  8
0
  6
CENTER
 62
2
 10
209.000000
 20
165.000000
 11
209.000000
 21
155.000000
  0
LINE
  8
0
  6
CENTER
 62
2
 10
204.000000
 20
160.000000
 11
214.000000
 21
160.000000
  0
LINE
  8
0
  6
CENTER
 62
2
 10
208.000000
 20
163.000000
 11
208.000000
 21
158.000000
  0
LINE
  8
0
  6
CENTER
 62
2
 10
205.500000
 20
160.500000
 11
210.500000
 21
160.500000
  0
LINE
  8
0
  6
CENTER
 62
2
 10
208.000000
 20
138.000000
 11
208.000000
 21
133.000000
  0
LINE
  8
0
  6
CENTER
 62
2
 10
205.500000
 20
135.500000
 11
210.500000
 21
135.500000
  0
LINE
  8
0
  6
CENTER
 62
2
 10
209.000000
 20
141.000000
 11
209.000000
 21
131.000000
  0
LINE
  8
0
  6
CENTER
 62
2
 10
204.000000
 20
136.000000
 11
214.000000
 21
136.000000
  0
LINE
  8
0
  6
CENTER
 62
2
 10
94.000000
 20
163.000000
 11
94.000000
 21
157.000000
  0
LINE
  8
0
  6
CENTER
 62
2
 10
91.000000
 20
160.000000
 11
97.000000
 21
160.000000
  0
LINE
  8
0
  6
CENTER
 62
2
 10
94.000000
 20
139.000000
 11
94.000000
 21
133.000000
  0
LINE
  8
0
  6
CENTER
 62
2
 10
91.000000
 20
136.000000
 11
97.000000
 21
136.000000
  0
LINE
  8
0
  6
CENTER
 62
2
 10
103.000000
 20
141.500000
 11
103.000000
 21
131.500000
  0
LINE
  8
0
  6
CENTER
 62
2
 10
98.000000
 20
136.500000
 11
108.000000
 21
136.500000
  0
LINE
  8
0
  6
CENTER
 62
2
 10
103.000000
 20
164.500000
 11
103.000000
 21
154.500000
  0
LINE
  8
0
  6
CENTER
 62
2
 10
98.000000
 20
159.500000
 11
108.000000
 21
159.500000
  0
LINE
  8
0
  6
CENTER
 62
2
 10
148.000000
 20
22.700001
 11
148.000000
 21
16.299999
  0
LINE
  8
0
  6
CENTER
 62
2
 10
144.800003
 20
19.500000
 11
151.199997
 21
19.500000
  0
LINE
  8
0
  6
CENTER
 62
2
 10
148.000000
 20
46.700001
 11
148.000000
 21
40.299999
  0
LINE
  8
0
  6
CENTER
 62
2
 10
144.800003
 20
43.500000
 11
151.199997
 21
43.500000
  0
LINE
  8
0
  6
CENTER
 62
2
 10
164.000000
 20
47.000000
 11
164.000000
 21
40.000000
  0
LINE
  8
0
  6
CENTER
 62
2
 10
160.500000
 20
43.500000
 11
167.500000
 21
43.500000
  0
LINE
  8
0
  6
CENTER
 62
2
 10
164.000000
 20
23.000000
 11
164.000000
 21
16.000000
  0
LINE
  8
0
  6
CENTER
 62
2
 10
160.500000
 20
19.500000
 11
167.500000
 21
19.500000
  0
LINE
  8
0
  6
CENTER
 62
2
 10
209.000000
 20
23.000000
 11
209.000000
 21
16.000000
  0
LINE
  8
0
  6
CENTER
 62
2
 10
205.500000
 20
19.500000
 11
212.500000
 21
19.500000
  0
LINE
  8
0
  6
CENTER
 62
2
 10
209.000000
 20
47.000000
 11
209.000000
 21
40.000000
  0
LINE
  8
0
  6
CENTER
 62
2
 10
205.500000
 20
43.500000
 11
212.500000
 21
43.500000
  0
LINE
  8
0
  6
CENTER
 62
2
 10
148.000000
 20
-85.000000
 11
148.000000
 21
-95.000000
  0
LINE
  8
0
  6
CENTER
 62
2
 10
143.000000
 20
-90.000000
 11
153.000000
 21
-90.000000
  0
LINE
  8
0
  6
CENTER
 62
2
 10
143.000000
 20
-87.000000
 11
143.000000
 21
-92.000000
  0
LINE
  8
0
  6
CENTER
 62
2
 10
140.500000
 20
-89.500000
 11
145.500000
 21
-89.500000
  0
LINE
  8
0
  6
CENTER
 62
2
 10
143.000000
 20
-112.000000
 11
143.000000
 21
-117.000000
  0
LINE
  8
0
  6
CENTER
 62
2
 10
140.500000
 20
-114.500000
 11
145.500000
 21
-114.500000
  0
LINE
  8
0
  6
CENTER
 62
2
 10
148.000000
 20
-109.000000
 11
148.000000
 21
-119.000000
  0
LINE
  8
0
  6
CENTER
 62
2
 10
143.000000
 20
-114.000000
 11
153.000000
 21
-114.000000
  0
LINE
  8
0
  6
CENTER
 62
2
 10
168.000000
 20
-112.000000
 11
168.000000
 21
-117.000000
  0
LINE
  8
0
  6
CENTER
 62
2
 10
165.500000
 20
-114.500000
 11
170.500000
 21
-114.500000
  0
LINE
  8
0
  6
CENTER
 62
2
 10
176.000000
 20
-111.500000
 11
176.000000
 21
-117.500000
  0
LINE
  8
0
  6
CENTER
 62
2
 10
173.000000
 20
-114.500000
 11
179.000000
 21
-114.500000
  0
LINE
  8
0
  6
CENTER
 62
2
 10
176.000000
 20
-86.500000
 11
176.000000
 21
-92.500000
  0
LINE
  8
0
  6
CENTER
 62
2
 10
173.000000
 20
-89.500000
 11
179.000000
 21
-89.500000
  0
LINE
  8
0
  6
CENTER
 62
2
 10
168.000000
 20
-87.000000
 11
168.000000
 21
-92.000000
  0
LINE
  8
0
  6
CENTER
 62
2
 10
165.500000
 20
-89.500000
 11
170.500000
 21
-89.500000
  0
LINE
  8
0
  6
CENTER
 62
2
 10
224.000000
 20
-85.000000
 11
224.000000
 21
-95.000000
  0
LINE
  8
0
  6
CENTER
 62
2
 10
219.000000
 20
-90.000000
 11
229.000000
 21
-90.000000
  0
LINE
  8
0
  6
CENTER
 62
2
 10
223.000000
 20
-87.000000
 11
223.000000
 21
-92.000000
  0
LINE
  8
0
  6
CENTER
 62
2
 10
220.500000
 20
-89.500000
 11
225.500000
 21
-89.500000
  0
LINE
  8
0
  6
CENTER
 62
2
 10
223.000000
 20
-112.000000
 11
223.000000
 21
-117.000000
  0
LINE
  8
0
  6
CENTER
 62
2
 10
220.500000
 20
-114.500000
 11
225.500000
 21
-114.500000
  0
LINE
  8
0
  6
CENTER
 62
2
 10
224.000000
 20
-109.000000
 11
224.000000
 21
-119.000000
  0
LINE
  8
0
  6
CENTER
 62
2
 10
219.000000
 20
-114.000000
 11
229.000000
 21
-114.000000
  0
LINE
  8
0
  6
CENTER
 62
2
 10
198.000000
 20
-112.000000
 11
198.000000
 21
-117.000000
  0
LINE
  8
0
  6
CENTER
 62
2
 10
195.500000
 20
-114.500000
 11
200.500000
 21
-114.500000
  0
LINE
  8
0
  6
CENTER
 62
2
 10
198.000000
 20
-87.000000
 11
198.000000
 21
-92.000000
  0
LINE
  8
0
  6
CENTER
 62
2
 10
195.500000
 20
-89.500000
 11
200.500000
 21
-89.500000
  0
LINE
  8
0
  6
CENTER
 62
2
 10
148.000000
 20
-203.300003
 11
148.000000
 21
-209.699997
  0
LINE
  8
0
  6
CENTER
 62
2
 10
144.800003
 20
-206.500000
 11
151.199997
 21
-206.500000
  0
LINE
  8
0
  6
CENTER
 62
2
 10
148.000000
 20
-227.300003
 11
148.000000
 21
-233.699997
  0
LINE
  8
0
  6
CENTER
 62
2
 10
144.800003
 20
-230.500000
 11
151.199997
 21
-230.500000
  0
LINE
  8
0
  6
CENTER
 62
2
 10
164.000000
 20
-202.500000
 11
164.000000
 21
-210.500000
  0
LINE
  8
0
  6
CENTER
 62
2
 10
160.000000
 20
-206.500000
 11
168.000000
 21
-206.500000
  0
LINE
  8
0
  6
CENTER
 62
2
 10
164.000000
 20
-226.500000
 11
164.000000
 21
-234.500000
  0
LINE
  8
0
  6
CENTER
 62
2
 10
160.000000
 20
-230.500000
 11
168.000000
 21
-230.500000
  0
LINE
  8
0
  6
CENTER
 62
2
 10
224.000000
 20
-227.000000
 11
224.000000
 21
-234.000000
  0
LINE
  8
0
  6
CENTER
 62
2
 10
220.500000
 20
-230.500000
 11
227.500000
 21
-230.500000
  0
LINE
  8
0
  6
CENTER
 62
2
 10
224.000000
 20
-203.000000
 11
224.000000
 21
-210.000000
  0
LINE
  8
0
  6
CENTER
 62
2
 10
220.500000
 20
-206.500000
 11
227.500000
 21
-206.500000
  0
LINE
  8
0
  6
CENTER
 62
2
 10
-243.800003
 20
169.500000
 11
-211.800003
 21
169.500000
  0
LINE
  8
0
  6
CONTINUOUS
 62
7
 10
-242.800003
 20
166.500000
 11
-228.000000
 21
166.500000
  0
LINE
  8
0
  6
CONTINUOUS
 62
7
 10
-242.800003
 20
166.500000
 11
-242.800003
 21
172.500000
  0
LINE
  8
0
  6
CONTINUOUS
 62
7
 10
-242.800003
 20
172.500000
 11
-228.000000
 21
172.500000
  0
LINE
  8
0
  6
CONTINUOUS
 62
2
 10
-242.800003
 20
167.000000
 11
-228.000000
 21
167.000000
  0
LINE
  8
0
  6
CONTINUOUS
 62
2
 10
-242.800003
 20
172.000000
 11
-228.000000
 21
172.000000
  0
LINE
  8
0
  6
CONTINUOUS
 62
7
 10
-192.800003
 20
164.000000
 11
-192.800003
 21
173.000000
  0
LINE
  8
0
  6
CONTINUOUS
 62
7
 10
-177.300003
 20
173.000000
 11
-192.800003
 21
173.000000
  0
LINE
  8
0
  6
CONTINUOUS
 62
7
 10
-177.300003
 20
164.000000
 11
-177.300003
 21
173.000000
  0
LINE
  8
0
  6
CONTINUOUS
 62
7
 10
177.000000
 20
174.500000
 11
235.000000
 21
174.500000
  0
LINE
  8
0
  6
CONTINUOUS
 62
7
 10
-223.000000
 20
164.500000
 11
-223.000000
 21
174.500000
  0
LINE
  8
0
  6
CONTINUOUS
 62
7
 10
-215.500000
 20
164.500000
 11
-215.500000
 21
174.500000
  0
LINE
  8
0
  6
CONTINUOUS
 62
7
 10
-223.000000
 20
165.500000
 11
-228.000000
 21
165.500000
  0
LINE
  8
0
  6
CONTINUOUS
 62
7
 10
-228.000000
 20
173.500000
 11
-228.000000
 21
165.500000
  0
LINE
  8
0
  6
CONTINUOUS
 62
7
 10
-223.000000
 20
173.500000
 11
-228.000000
 21
173.500000
  0
LINE
  8
0
  6
CONTINUOUS
 62
7
 10
-223.000000
 20
172.744003
 11
-228.000000
 21
172.744003
  0
LINE
  8
0
  6
CONTINUOUS
 62
7
 10
-223.000000
 20
170.255997
 11
-228.000000
 21
170.255997
  0
LINE
  8
0
  6
CONTINUOUS
 62
7
 10
-223.000000
 20
168.744003
 11
-228.000000
 21
168.744003
  0
LINE
  8
0
  6
CONTINUOUS
 62
7
 10
-223.000000
 20
166.255997
 11
-228.000000
 21
166.255997
  0
LINE
  8
0
  6
CONTINUOUS
 62
7
 10
222.699997
 20
164.500000
 11
235.000000
 21
164.500000
  0
LINE
  8
0
  6
CENTER
 62
2
 10
131.199997
 20
169.500000
 11
163.199997
 21
169.500000
  0
LINE
  8
0
  6
CONTINUOUS
 62
7
 10
132.199997
 20
166.500000
 11
147.000000
 21
166.500000
  0
LINE
  8
0
  6
CONTINUOUS
 62
7
 10
132.199997
 20
166.500000
 11
132.199997
 21
172.500000
  0
LINE
  8
0
  6
CONTINUOUS
 62
7
 10
132.199997
 20
172.500000
 11
147.000000
 21
172.500000
  0
LINE
  8
0
  6
CONTINUOUS
 62
2
 10
132.199997
 20
167.000000
 11
147.000000
 21
167.000000
  0
LINE
  8
0
  6
CONTINUOUS
 62
2
 10
132.199997
 20
172.000000
 11
147.000000
 21
172.000000
  0
LINE
  8
0
  6
CONTINUOUS
 62
7
 10
207.199997
 20
164.000000
 11
207.199997
 21
173.000000
  0
LINE
  8
0
  6
CONTINUOUS
 62
7
 10
222.699997
 20
173.000000
 11
207.199997
 21
173.000000
  0
LINE
  8
0
  6
CONTINUOUS
 62
7
 10
222.699997
 20
164.000000
 11
222.699997
 21
173.000000
  0
LINE
  8
0
  6
CONTINUOUS
 62
7
 10
152.000000
 20
174.500000
 11
205.000000
 21
174.500000
  0
LINE
  8
0
  6
CONTINUOUS
 62
7
 10
152.000000
 20
164.500000
 11
152.000000
 21
174.500000
  0
LINE
  8
0
  6
CONTINUOUS
 62
7
 10
159.500000
 20
164.500000
 11
159.500000
 21
174.500000
  0
LINE
  8
0
  6
CONTINUOUS
 62
7
 10
152.000000
 20
165.500000
 11
147.000000
 21
165.500000
  0
LINE
  8
0
  6
CONTINUOUS
 62
7
 10
147.000000
 20
173.500000
 11
147.000000
 21
165.500000
  0
LINE
  8
0
  6
CONTINUOUS
 62
7
 10
152.000000
 20
173.500000
 11
147.000000
 21
173.500000
  0
LINE
  8
0
  6
CONTINUOUS
 62
7
 10
152.000000
 20
172.744003
 11
147.000000
 21
172.744003
  0
LINE
  8
0
  6
CONTINUOUS
 62
7
 10
152.000000
 20
170.255997
 11
147.000000
 21
170.255997
  0
LINE
  8
0
  6
CONTINUOUS
 62
7
 10
152.000000
 20
168.744003
 11
147.000000
 21
168.744003
  0
LINE
  8
0
  6
CONTINUOUS
 62
7
 10
152.000000
 20
166.255997
 11
147.000000
 21
166.255997
  0
LINE
  8
0
  6
CENTER
 62
2
 10
-243.800003
 20
-80.500000
 11
-211.800003
 21
-80.500000
  0
LINE
  8
0
  6
CONTINUOUS
 62
7
 10
-242.800003
 20
-83.500000
 11
-228.000000
 21
-83.500000
  0
LINE
  8
0
  6
CONTINUOUS
 62
7
 10
-242.800003
 20
-83.500000
 11
-242.800003
 21
-77.500000
  0
LINE
  8
0
  6
CONTINUOUS
 62
7
 10
-242.800003
 20
-77.500000
 11
-228.000000
 21
-77.500000
  0
LINE
  8
0
  6
CONTINUOUS
 62
2
 10
-242.800003
 20
-83.000000
 11
-228.000000
 21
-83.000000
  0
LINE
  8
0
  6
CONTINUOUS
 62
2
 10
-242.800003
 20
-78.000000
 11
-228.000000
 21
-78.000000
  0
LINE
  8
0
  6
CONTINUOUS
 62
7
 10
-182.800003
 20
-86.000000
 11
-182.800003
 21
-77.000000
  0
LINE
  8
0
  6
CONTINUOUS
 62
7
 10
-167.300003
 20
-77.000000
 11
-182.800003
 21
-77.000000
  0
LINE
  8
0
  6
CONTINUOUS
 62
7
 10
-167.300003
 20
-86.000000
 11
-167.300003
 21
-77.000000
  0
LINE
  8
0
  6
CONTINUOUS
 62
7
 10
-223.000000
 20
-75.500000
 11
-155.000000
 21
-75.500000
  0
LINE
  8
0
  6
CONTINUOUS
 62
7
 10
-223.000000
 20
-85.500000
 11
-223.000000
 21
-75.500000
  0
LINE
  8
0
  6
CONTINUOUS
 62
7
 10
-215.500000
 20
-85.500000
 11
-215.500000
 21
-75.500000
  0
LINE
  8
0
  6
CONTINUOUS
 62
7
 10
-223.000000
 20
-84.500000
 11
-228.000000
 21
-84.500000
  0
LINE
  8
0
  6
CONTINUOUS
 62
7
 10
-228.000000
 20
-76.500000
 11
-228.000000
 21
-84.500000
  0
LINE
  8
0
  6
CONTINUOUS
 62
7
 10
-223.000000
 20
-76.500000
 11
-228.000000
 21
-76.500000
  0
LINE
  8
0
  6
CONTINUOUS
 62
7
 10
-223.000000
 20
-77.256203
 11
-228.000000
 21
-77.256203
  0
LINE
  8
0
  6
CONTINUOUS
 62
7
 10
-223.000000
 20
-79.743698
 11
-228.000000
 21
-79.743698
  0
LINE
  8
0
  6
CONTINUOUS
 62
7
 10
-223.000000
 20
-81.256203
 11
-228.000000
 21
-81.256203
  0
LINE
  8
0
  6
CONTINUOUS
 62
7
 10
-223.000000
 20
-83.743698
 11
-228.000000
 21
-83.743698
  0
LINE
  8
0
  6
CONTINUOUS
 62
7
 10
-167.300003
 20
-85.500000
 11
-155.000000
 21
-85.500000
  0
LINE
  8
0
  6
CENTER
 62
2
 10
131.199997
 20
-80.500000
 11
163.199997
 21
-80.500000
  0
LINE
  8
0
  6
CONTINUOUS
 62
7
 10
132.199997
 20
-83.500000
 11
147.000000
 21
-83.500000
  0
LINE
  8
0
  6
CONTINUOUS
 62
7
 10
132.199997
 20
-83.500000
 11
132.199997
 21
-77.500000
  0
LINE
  8
0
  6
CONTINUOUS
 62
7
 10
132.199997
 20
-77.500000
 11
147.000000
 21
-77.500000
  0
LINE
  8
0
  6
CONTINUOUS
 62
2
 10
132.199997
 20
-83.000000
 11
147.000000
 21
-83.000000
  0
LINE
  8
0
  6
CONTINUOUS
 62
2
 10
132.199997
 20
-78.000000
 11
147.000000
 21
-78.000000
  0
LINE
  8
0
  6
CONTINUOUS
 62
7
 10
222.199997
 20
-86.000000
 11
222.199997
 21
-77.000000
  0
LINE
  8
0
  6
CONTINUOUS
 62
7
 10
237.699997
 20
-77.000000
 11
222.199997
 21
-77.000000
  0
LINE
  8
0
  6
CONTINUOUS
 62
7
 10
237.699997
 20
-86.000000
 11
237.699997
 21
-77.000000
  0
LINE
  8
0
  6
CONTINUOUS
 62
7
 10
152.000000
 20
-75.500000
 11
250.000000
 21
-75.500000
  0
LINE
  8
0
  6
CONTINUOUS
 62
7
 10
152.000000
 20
-85.500000
 11
152.000000
 21
-75.500000
  0
LINE
  8
0
  6
CONTINUOUS
 62
7
 10
159.500000
 20
-85.500000
 11
159.500000
 21
-75.500000
  0
LINE
  8
0
  6
CONTINUOUS
 62
7
 10
152.000000
 20
-84.500000
 11
147.000000
 21
-84.500000
  0
LINE
  8
0
  6
CONTINUOUS
 62
7
 10
147.000000
 20
-76.500000
 11
147.000000
 21
-84.500000
  0
LINE
  8
0
  6
CONTINUOUS
 62
7
 10
152.000000
 20
-76.500000
 11
147.000000
 21
-76.500000
  0
LINE
  8
0
  6
CONTINUOUS
 62
7
 10
152.000000
 20
-77.256203
 11
147.000000
 21
-77.256203
  0
LINE
  8
0
  6
CONTINUOUS
 62
7
 10
152.000000
 20
-79.743698
 11
147.000000
 21
-79.743698
  0
LINE
  8
0
  6
CONTINUOUS
 62
7
 10
152.000000
 20
-81.256203
 11
147.000000
 21
-81.256203
  0
LINE
  8
0
  6
CONTINUOUS
 62
7
 10
152.000000
 20
-83.743698
 11
147.000000
 21
-83.743698
  0
LINE
  8
0
  6
CONTINUOUS
 62
7
 10
237.699997
 20
-85.500000
 11
250.000000
 21
-85.500000
  0
LINE
  8
0
  6
CONTINUOUS
 62
7
 10
-267.500000
 20
174.500000
 11
-288.500000
 21
174.500000
  0
LINE
  8
0
  6
CONTINUOUS
 62
7
 10
-271.563995
 20
173.500000
 11
-274.436005
 21
173.500000
  0
LINE
  8
0
  6
CONTINUOUS
 62
7
 10
-270.253998
 20
172.744003
 11
-268.817993
 21
170.255997
  0
LINE
  8
0
  6
CONTINUOUS
 62
7
 10
-268.817993
 20
168.744003
 11
-270.253998
 21
166.255997
  0
LINE
  8
0
  6
CONTINUOUS
 62
7
 10
-274.436005
 20
165.500000
 11
-271.563995
 21
165.500000
  0
LINE
  8
0
  6
CONTINUOUS
 62
7
 10
-277.182007
 20
168.744003
 11
-275.746002
 21
166.255997
  0
LINE
  8
0
  6
CONTINUOUS
 62
7
 10
-275.746002
 20
172.744003
 11
-277.182007
 21
170.255997
  0
LINE
  8
0
  6
CENTER
 62
2
 10
-267.750000
 20
169.500000
 11
-278.250000
 21
169.500000
  0
LINE
  8
0
  6
CENTER
 62
2
 10
-273.000000
 20
164.250000
 11
-273.000000
 21
174.750000
  0
LINE
  8
0
  6
CONTINUOUS
 62
7
 10
-272.134003
 20
171.000000
 11
-271.268005
 21
169.500000
  0
LINE
  8
0
  6
CONTINUOUS
 62
7
 10
-271.268005
 20
169.500000
 11
-272.134003
 21
168.000000
  0
LINE
  8
0
  6
CONTINUOUS
 62
7
 10
-273.865997
 20
168.000000
 11
-272.134003
 21
168.000000
  0
LINE
  8
0
  6
CONTINUOUS
 62
7
 10
-274.731995
 20
169.500000
 11
-273.865997
 21
168.000000
  0
LINE
  8
0
  6
CONTINUOUS
 62
7
 10
-273.865997
 20
171.000000
 11
-274.731995
 21
169.500000
  0
LINE
  8
0
  6
CONTINUOUS
 62
7
 10
-272.134003
 20
171.000000
 11
-273.865997
 21
171.000000
  0
LINE
  8
0
  6
CONTINUOUS
 62
7
 10
-267.500000
 20
164.500000
 11
-267.500000
 21
174.500000
  0
LINE
  8
0
  6
CONTINUOUS
 62
7
 10
-288.500000
 20
164.500000
 11
-288.500000
 21
174.500000
  0
LINE
  8
0
  6
CONTINUOUS
 62
7
 10
107.500000
 20
174.500000
 11
86.500000
 21
174.500000
  0
LINE
  8
0
  6
CONTINUOUS
 62
7
 10
103.435997
 20
173.500000
 11
100.564003
 21
173.500000
  0
LINE
  8
0
  6
CONTINUOUS
 62
7
 10
104.746002
 20
172.744003
 11
106.181999
 21
170.255997
  0
LINE
  8
0
  6
CONTINUOUS
 62
7
 10
106.181999
 20
168.744003
 11
104.746002
 21
166.255997
  0
LINE
  8
0
  6
CONTINUOUS
 62
7
 10
100.564003
 20
165.500000
 11
103.435997
 21
165.500000
  0
LINE
  8
0
  6
CONTINUOUS
 62
7
 10
97.817802
 20
168.744003
 11
99.253899
 21
166.255997
  0
LINE
  8
0
  6
CONTINUOUS
 62
7
 10
99.253998
 20
172.744003
 11
97.817802
 21
170.255997
  0
LINE
  8
0
  6
CENTER
 62
2
 10
107.250000
 20
169.500000
 11
96.750000
 21
169.500000
  0
LINE
  8
0
  6
CENTER
 62
2
 10
102.000000
 20
164.250000
 11
102.000000
 21
174.750000
  0
LINE
  8
0
  6
CONTINUOUS
 62
7
 10
102.865997
 20
171.000000
 11
103.732002
 21
169.500000
  0
LINE
  8
0
  6
CONTINUOUS
 62
7
 10
103.732002
 20
169.500000
 11
102.865997
 21
168.000000
  0
LINE
  8
0
  6
CONTINUOUS
 62
7
 10
101.134003
 20
168.000000
 11
102.865997
 21
168.000000
  0
LINE
  8
0
  6
CONTINUOUS
 62
7
 10
100.267998
 20
169.500000
 11
101.134003
 21
168.000000
  0
LINE
  8
0
  6
CONTINUOUS
 62
7
 10
101.134003
 20
171.000000
 11
100.267998
 21
169.500000
  0
LINE
  8
0
  6
CONTINUOUS
 62
7
 10
102.865997
 20
171.000000
 11
101.134003
 21
171.000000
  0
LINE
  8
0
  6
CONTINUOUS
 62
7
 10
107.500000
 20
164.500000
 11
107.500000
 21
174.500000
  0
LINE
  8
0
  6
CONTINUOUS
 62
7
 10
86.500000
 20
164.500000
 11
86.500000
 21
174.500000
  0
LINE
  8
0
  6
CONTINUOUS
 62
7
 10
152.000000
 20
191.000000
 11
152.000000
 21
212.000000
  0
LINE
  8
0
  6
CENTER
 62
2
 10
131.199997
 20
196.500000
 11
163.199997
 21
196.500000
  0
LINE
  8
0
  6
CONTINUOUS
 62
7
 10
147.000000
 20
192.250000
 11
152.000000
 21
192.250000
  0
LINE
  8
0
  6
CONTINUOUS
 62
7
 10
147.000000
 20
192.250000
 11
147.000000
 21
200.750000
  0
LINE
  8
0
  6
CONTINUOUS
 62
7
 10
147.000000
 20
200.750000
 11
152.000000
 21
200.750000
  0
LINE
  8
0
  6
CONTINUOUS
 62
7
 10
147.000000
 20
199.246002
 11
152.000000
 21
199.246002
  0
LINE
  8
0
  6
CONTINUOUS
 62
7
 10
147.000000
 20
197.936005
 11
152.000000
 21
197.936005
  0
LINE
  8
0
  6
CONTINUOUS
 62
7
 10
147.000000
 20
195.063995
 11
152.000000
 21
195.063995
  0
LINE
  8
0
  6
CONTINUOUS
 62
7
 10
147.000000
 20
193.753998
 11
152.000000
 21
193.753998
  0
LINE
  8
0
  6
CONTINUOUS
 62
7
 10
132.199997
 20
193.500000
 11
147.000000
 21
193.500000
  0
LINE
  8
0
  6
CONTINUOUS
 62
7
 10
132.199997
 20
193.500000
 11
132.199997
 21
199.500000
  0
LINE
  8
0
  6
CONTINUOUS
 62
7
 10
132.199997
 20
199.500000
 11
147.000000
 21
199.500000
  0
LINE
  8
0
  6
CONTINUOUS
 62
2
 10
132.199997
 20
194.000000
 11
147.000000
 21
194.000000
  0
LINE
  8
0
  6
CONTINUOUS
 62
2
 10
132.199997
 20
199.000000
 11
147.000000
 21
199.000000
  0
LINE
  8
0
  6
CONTINUOUS
 62
7
 10
159.500000
 20
191.000000
 11
159.500000
 21
198.500000
  0
LINE
  8
0
  6
CONTINUOUS
 62
7
 10
131.000000
 20
198.029007
 11
132.199997
 21
198.029007
  0
LINE
  8
0
  6
CONTINUOUS
 62
7
 10
131.000000
 20
196.970993
 11
132.199997
 21
196.970993
  0
LINE
  8
0
  6
CONTINUOUS
 62
7
 10
207.199997
 20
192.500000
 11
207.199997
 21
200.500000
  0
LINE
  8
0
  6
CONTINUOUS
 62
7
 10
207.199997
 20
200.500000
 11
222.699997
 21
200.500000
  0
LINE
  8
0
  6
CONTINUOUS
 62
7
 10
222.699997
 20
192.500000
 11
222.699997
 21
200.500000
  0
LINE
  8
0
  6
CONTINUOUS
 62
7
 10
207.199997
 20
192.500000
 11
222.699997
 21
192.500000
  0
LINE
  8
0
  6
CONTINUOUS
 62
7
 10
162.500000
 20
201.500000
 11
224.500000
 21
201.500000
  0
LINE
  8
0
  6
CONTINUOUS
 62
7
 10
152.000000
 20
212.000000
 11
235.000000
 21
212.000000
  0
LINE
  8
0
  6
CONTINUOUS
 62
7
 10
152.000000
 20
191.000000
 11
159.500000
 21
191.000000
  0
LINE
  8
0
  6
CONTINUOUS
 62
7
 10
237.699997
 20
-57.500000
 11
237.699997
 21
-49.500000
  0
LINE
  8
0
  6
CENTER
 62
2
 10
219.800003
 20
-53.299999
 11
219.800003
 21
-57.299999
  0
LINE
  8
0
  6
CENTER
 62
2
 10
217.800003
 20
-55.299999
 11
221.800003
 21
-55.299999
  0
LINE
  8
0
  6
CONTINUOUS
 62
7
 10
152.000000
 20
-59.000000
 11
152.000000
 21
-38.000000
  0
LINE
  8
0
  6
CENTER
 62
2
 10
131.199997
 20
-53.500000
 11
163.199997
 21
-53.500000
  0
LINE
  8
0
  6
CONTINUOUS
 62
7
 10
147.000000
 20
-57.750000
 11
152.000000
 21
-57.750000
  0
LINE
  8
0
  6
CONTINUOUS
 62
7
 10
147.000000
 20
-57.750000
 11
147.000000
 21
-49.250000
  0
LINE
  8
0
  6
CONTINUOUS
 62
7
 10
147.000000
 20
-49.250000
 11
152.000000
 21
-49.250000
  0
LINE
  8
0
  6
CONTINUOUS
 62
7
 10
147.000000
 20
-50.753899
 11
152.000000
 21
-50.753899
  0
LINE
  8
0
  6
CONTINUOUS
 62
7
 10
147.000000
 20
-52.063801
 11
152.000000
 21
-52.063801
  0
LINE
  8
0
  6
CONTINUOUS
 62
7
 10
147.000000
 20
-54.936100
 11
152.000000
 21
-54.936100
  0
LINE
  8
0
  6
CONTINUOUS
 62
7
 10
147.000000
 20
-56.245998
 11
152.000000
 21
-56.245998
  0
LINE
  8
0
  6
CONTINUOUS
 62
7
 10
132.199997
 20
-56.500000
 11
147.000000
 21
-56.500000
  0
LINE
  8
0
  6
CONTINUOUS
 62
7
 10
132.199997
 20
-56.500000
 11
132.199997
 21
-50.500000
  0
LINE
  8
0
  6
CONTINUOUS
 62
7
 10
132.199997
 20
-50.500000
 11
147.000000
 21
-50.500000
  0
LINE
  8
0
  6
CONTINUOUS
 62
2
 10
132.199997
 20
-56.000000
 11
147.000000
 21
-56.000000
  0
LINE
  8
0
  6
CONTINUOUS
 62
2
 10
132.199997
 20
-51.000000
 11
147.000000
 21
-51.000000
  0
LINE
  8
0
  6
CONTINUOUS
 62
7
 10
159.500000
 20
-59.000000
 11
159.500000
 21
-51.500000
  0
LINE
  8
0
  6
CONTINUOUS
 62
7
 10
131.000000
 20
-51.970901
 11
132.199997
 21
-51.970901
  0
LINE
  8
0
  6
CONTINUOUS
 62
7
 10
131.000000
 20
-53.029099
 11
132.199997
 21
-53.029099
  0
LINE
  8
0
  6
CONTINUOUS
 62
7
 10
222.199997
 20
-57.500000
 11
222.199997
 21
-49.500000
  0
LINE
  8
0
  6
CONTINUOUS
 62
7
 10
222.199997
 20
-49.500000
 11
237.699997
 21
-49.500000
  0
LINE
  8
0
  6
CONTINUOUS
 62
7
 10
222.199997
 20
-57.500000
 11
237.699997
 21
-57.500000
  0
LINE
  8
0
  6
CONTINUOUS
 62
7
 10
152.000000
 20
-59.000000
 11
159.500000
 21
-59.000000
  0
LINE
  8
0
  6
DASHED
 62
2
 10
161.500000
 20
-43.000000
 11
161.500000
 21
-39.099998
  0
LINE
  8
0
  6
DASHED
 62
2
 10
161.899994
 20
-43.000000
 11
161.899994
 21
-39.099998
  0
LINE
  8
0
  6
CENTER
 62
2
 10
164.000000
 20
-44.000000
 11
164.000000
 21
-36.500000
  0
LINE
  8
0
  6
DASHED
 62
2
 10
166.100006
 20
-43.000000
 11
166.100006
 21
-39.099998
  0
LINE
  8
0
  6
DASHED
 62
2
 10
166.500000
 20
-43.000000
 11
166.500000
 21
-39.099998
  0
LINE
  8
0
  6
DASHED
 62
2
 10
160.000000
 20
-43.000000
 11
168.000000
 21
-43.000000
  0
LINE
  8
0
  6
CONTINUOUS
 62
7
 10
152.000000
 20
-38.000000
 11
250.000000
 21
-38.000000
  0
LINE
  8
0
  6
CONTINUOUS
 62
7
 10
162.500000
 20
-48.500000
 11
239.500000
 21
-48.500000
  0
LINE
  8
0
  6
CONTINUOUS
 62
7
 10
-269.000000
 20
164.500000
 11
-269.000000
 21
164.000000
  0
LINE
  8
0
  6
CONTINUOUS
 62
7
 10
-277.000000
 20
164.500000
 11
-277.000000
 21
164.000000
  0
LINE
  8
0
  6
CONTINUOUS
 62
7
 10
306.000000
 20
164.500000
 11
284.500000
 21
164.500000
  0
LINE
  8
0
  6
CONTINUOUS
 62
7
 10
305.500000
 20
164.500000
 11
305.500000
 21
174.500000
  0
LINE
  8
0
  6
CONTINUOUS
 62
7
 10
284.500000
 20
174.500000
 11
305.500000
 21
174.500000
  0
LINE
  8
0
  6
CONTINUOUS
 62
7
 10
284.500000
 20
164.500000
 11
284.500000
 21
174.500000
  0
LINE
  8
0
  6
CONTINUOUS
 62
7
 10
286.000000
 20
164.500000
 11
286.000000
 21
164.000000
  0
LINE
  8
0
  6
CONTINUOUS
 62
7
 10
294.000000
 20
164.500000
 11
294.000000
 21
164.000000
  0
LINE
  8
0
  6
CONTINUOUS
 62
7
 10
-242.000000
 20
26.500000
 11
-244.000000
 21
26.500000
  0
LINE
  8
0
  6
CONTINUOUS
 62
7
 10
-242.000000
 20
36.500000
 11
-244.000000
 21
36.500000
  0
LINE
  8
0
  6
CONTINUOUS
 62
7
 10
-223.000000
 20
13.243800
 11
-228.000000
 21
13.243800
  0
LINE
  8
0
  6
CENTER
 62
2
 10
-243.800003
 20
10.000000
 11
-222.000000
 21
10.000000
  0
LINE
  8
0
  6
CONTINUOUS
 62
7
 10
-242.800003
 20
13.000000
 11
-239.500000
 21
13.000000
  0
LINE
  8
0
  6
CONTINUOUS
 62
7
 10
-242.800003
 20
7.000030
 11
-228.000000
 21
7.000030
  0
LINE
  8
0
  6
CONTINUOUS
 62
2
 10
-242.800003
 20
12.500000
 11
-239.500000
 21
12.500000
  0
LINE
  8
0
  6
CONTINUOUS
 62
2
 10
-242.800003
 20
7.500030
 11
-228.000000
 21
7.500030
  0
LINE
  8
0
  6
CONTINUOUS
 62
7
 10
-223.000000
 20
5.000030
 11
-165.000000
 21
5.000030
  0
LINE
  8
0
  6
CONTINUOUS
 62
7
 10
-223.000000
 20
15.000000
 11
-223.000000
 21
5.000030
  0
LINE
  8
0
  6
CONTINUOUS
 62
7
 10
-223.000000
 20
14.000000
 11
-228.000000
 21
14.000000
  0
LINE
  8
0
  6
CONTINUOUS
 62
7
 10
-228.000000
 20
6.000040
 11
-228.000000
 21
14.000000
  0
LINE
  8
0
  6
CONTINUOUS
 62
7
 10
-223.000000
 20
6.000040
 11
-228.000000
 21
6.000040
  0
LINE
  8
0
  6
CONTINUOUS
 62
7
 10
-223.000000
 20
6.756290
 11
-228.000000
 21
6.756290
  0
LINE
  8
0
  6
CONTINUOUS
 62
7
 10
-223.000000
 20
9.243760
 11
-228.000000
 21
9.243760
  0
LINE
  8
0
  6
CONTINUOUS
 62
7
 10
-223.000000
 20
10.756300
 11
-228.000000
 21
10.756300
  0
LINE
  8
0
  6
CONTINUOUS
 62
7
 10
-242.800003
 20
13.000000
 11
-242.800003
 21
7.000030
  0
LINE
  8
0
  6
CONTINUOUS
 62
7
 10
-232.500000
 20
13.000000
 11
-228.000000
 21
13.000000
  0
LINE
  8
0
  6
CONTINUOUS
 62
2
 10
-232.500000
 20
12.500000
 11
-228.000000
 21
12.500000
  0
LINE
  8
0
  6
CONTINUOUS
 62
7
 10
106.000000
 20
164.500000
 11
106.000000
 21
164.000000
  0
LINE
  8
0
  6
CONTINUOUS
 62
7
 10
98.000000
 20
164.500000
 11
98.000000
 21
164.000000
  0
LINE
  8
0
  6
CONTINUOUS
 62
7
 10
-267.000000
 20
-118.000000
 11
-267.000000
 21
-111.000000
  0
LINE
  8
0
  6
CONTINUOUS
 62
7
 10
-267.299988
 20
-110.699997
 11
-267.299988
 21
-93.300003
  0
LINE
  8
0
  6
CONTINUOUS
 62
7
 10
-267.000000
 20
-111.000000
 11
-267.299988
 21
-110.699997
  0
LINE
  8
0
  6
CONTINUOUS
 62
7
 10
-267.000000
 20
-118.000000
 11
-288.000000
 21
-118.000000
  0
LINE
  8
0
  6
CONTINUOUS
 62
7
 10
-267.000000
 20
-86.000000
 11
-267.000000
 21
-93.000000
  0
LINE
  8
0
  6
CONTINUOUS
 62
7
 10
-267.000000
 20
-93.000000
 11
-267.299988
 21
-93.300003
  0
LINE
  8
0
  6
CONTINUOUS
 62
7
 10
-267.000000
 20
-86.000000
 11
-288.000000
 21
-86.000000
  0
LINE
  8
0
  6
CONTINUOUS
 62
7
 10
-279.500000
 20
-85.500000
 11
-279.500000
 21
-86.000000
  0
LINE
  8
0
  6
CONTINUOUS
 62
7
 10
-289.000000
 20
-85.500000
 11
-289.000000
 21
-118.500000
  0
LINE
  8
0
  6
CONTINUOUS
 62
7
 10
-279.500000
 20
-118.500000
 11
-289.000000
 21
-118.500000
  0
LINE
  8
0
  6
CONTINUOUS
 62
7
 10
-279.500000
 20
-118.500000
 11
-279.500000
 21
-118.000000
  0
LINE
  8
0
  6
CENTER
 62
2
 10
-266.299988
 20
-102.000000
 11
-290.000000
 21
-102.000000
  0
LINE
  8
0
  6
CONTINUOUS
 62
7
 10
-267.500000
 20
-86.000000
 11
-267.500000
 21
-118.000000
  0
LINE
  8
0
  6
CONTINUOUS
 62
7
 10
-288.000000
 20
-86.000000
 11
-288.000000
 21
-118.000000
  0
LINE
  8
0
  6
CONTINUOUS
 62
7
 10
-289.000000
 20
-85.500000
 11
-267.500000
 21
-85.500000
  0
LINE
  8
0
  6
CENTER
 62
2
 10
-281.000000
 20
-95.000000
 11
-281.000000
 21
-109.000000
  0
LINE
  8
0
  6
CONTINUOUS
 62
7
 10
-287.540985
 20
-82.000000
 11
-287.540985
 21
-84.900002
  0
LINE
  8
0
  6
CONTINUOUS
 62
7
 10
-287.399994
 20
-84.900002
 11
-287.399994
 21
-85.500000
  0
LINE
  8
0
  6
CONTINUOUS
 62
7
 10
-279.459015
 20
-84.900002
 11
-287.540985
 21
-84.900002
  0
LINE
  8
0
  6
CONTINUOUS
 62
7
 10
-285.520996
 20
-82.000000
 11
-285.520996
 21
-84.900002
  0
LINE
  8
0
  6
CENTER
 62
2
 10
-283.500000
 20
-81.000000
 11
-283.500000
 21
-86.500000
  0
LINE
  8
0
  6
CONTINUOUS
 62
7
 10
-279.459015
 20
-82.000000
 11
-287.540985
 21
-82.000000
  0
LINE
  8
0
  6
CONTINUOUS
 62
7
 10
-279.459015
 20
-82.000000
 11
-279.459015
 21
-84.900002
  0
LINE
  8
0
  6
CONTINUOUS
 62
7
 10
-281.479004
 20
-82.000000
 11
-281.479004
 21
-84.900002
  0
LINE
  8
0
  6
CONTINUOUS
 62
7
 10
-279.600006
 20
-84.900002
 11
-279.600006
 21
-85.500000
  0
LINE
  8
0
  6
CENTER
 62
2
 10
-281.000000
 20
-111.000000
 11
-281.000000
 21
-117.000000
  0
LINE
  8
0
  6
CENTER
 62
2
 10
-284.000000
 20
-114.000000
 11
-278.000000
 21
-114.000000
  0
LINE
  8
0
  6
CENTER
 62
2
 10
-272.000000
 20
-108.500000
 11
-272.000000
 21
-118.500000
  0
LINE
  8
0
  6
CENTER
 62
2
 10
-277.000000
 20
-113.500000
 11
-267.000000
 21
-113.500000
  0
LINE
  8
0
  6
CENTER
 62
2
 10
-272.000000
 20
-85.500000
 11
-272.000000
 21
-95.500000
  0
LINE
  8
0
  6
CENTER
 62
2
 10
-277.000000
 20
-90.500000
 11
-267.000000
 21
-90.500000
  0
LINE
  8
0
  6
CENTER
 62
2
 10
-281.000000
 20
-87.000000
 11
-281.000000
 21
-93.000000
  0
LINE
  8
0
  6
CENTER
 62
2
 10
-284.000000
 20
-90.000000
 11
-278.000000
 21
-90.000000
  0
LINE
  8
0
  6
CENTER
 62
2
 10
-272.000000
 20
-99.000000
 11
-272.000000
 21
-105.000000
  0
LINE
  8
0
  6
CONTINUOUS
 62
7
 10
-267.500000
 20
-75.500000
 11
-288.500000
 21
-75.500000
  0
LINE
  8
0
  6
CONTINUOUS
 62
7
 10
-271.563995
 20
-76.500000
 11
-274.436005
 21
-76.500000
  0
LINE
  8
0
  6
CONTINUOUS
 62
7
 10
-270.253998
 20
-77.256203
 11
-268.817993
 21
-79.743698
  0
LINE
  8
0
  6
CONTINUOUS
 62
7
 10
-268.817993
 20
-81.256203
 11
-270.253998
 21
-83.743698
  0
LINE
  8
0
  6
CONTINUOUS
 62
7
 10
-274.436005
 20
-84.500000
 11
-271.563995
 21
-84.500000
  0
LINE
  8
0
  6
CONTINUOUS
 62
7
 10
-277.182007
 20
-81.256203
 11
-275.746002
 21
-83.743698
  0
LINE
  8
0
  6
CONTINUOUS
 62
7
 10
-275.746002
 20
-77.256203
 11
-277.182007
 21
-79.743698
  0
LINE
  8
0
  6
CENTER
 62
2
 10
-267.750000
 20
-80.500000
 11
-278.250000
 21
-80.500000
  0
LINE
  8
0
  6
CENTER
 62
2
 10
-273.000000
 20
-85.750000
 11
-273.000000
 21
-75.250000
  0
LINE
  8
0
  6
CONTINUOUS
 62
7
 10
-272.134003
 20
-78.999901
 11
-271.268005
 21
-80.499901
  0
LINE
  8
0
  6
CONTINUOUS
 62
7
 10
-271.268005
 20
-80.500000
 11
-272.134003
 21
-82.000000
  0
LINE
  8
0
  6
CONTINUOUS
 62
7
 10
-273.865997
 20
-82.000000
 11
-272.134003
 21
-82.000000
  0
LINE
  8
0
  6
CONTINUOUS
 62
7
 10
-274.731995
 20
-80.500000
 11
-273.865997
 21
-82.000000
  0
LINE
  8
0
  6
CONTINUOUS
 62
7
 10
-273.865997
 20
-79.000000
 11
-274.731995
 21
-80.500000
  0
LINE
  8
0
  6
CONTINUOUS
 62
7
 10
-272.134003
 20
-79.000000
 11
-273.865997
 21
-79.000000
  0
LINE
  8
0
  6
CONTINUOUS
 62
7
 10
-267.500000
 20
-85.500000
 11
-267.500000
 21
-75.500000
  0
LINE
  8
0
  6
CONTINUOUS
 62
7
 10
-288.500000
 20
-85.500000
 11
-288.500000
 21
-75.500000
  0
LINE
  8
0
  6
CONTINUOUS
 62
7
 10
-269.000000
 20
-85.500000
 11
-269.000000
 21
-86.000000
  0
LINE
  8
0
  6
CONTINUOUS
 62
7
 10
-277.000000
 20
-85.500000
 11
-277.000000
 21
-86.000000
  0
LINE
  8
0
  6
CONTINUOUS
 62
7
 10
108.000000
 20
-118.000000
 11
108.000000
 21
-111.000000
  0
LINE
  8
0
  6
CONTINUOUS
 62
7
 10
107.699997
 20
-110.699997
 11
107.699997
 21
-93.300003
  0
LINE
  8
0
  6
CONTINUOUS
 62
7
 10
108.000000
 20
-111.000000
 11
107.699997
 21
-110.699997
  0
LINE
  8
0
  6
CONTINUOUS
 62
7
 10
108.000000
 20
-118.000000
 11
87.000000
 21
-118.000000
  0
LINE
  8
0
  6
CONTINUOUS
 62
7
 10
108.000000
 20
-86.000000
 11
108.000000
 21
-93.000000
  0
LINE
  8
0
  6
CONTINUOUS
 62
7
 10
108.000000
 20
-92.999901
 11
107.699997
 21
-93.299896
  0
LINE
  8
0
  6
CONTINUOUS
 62
7
 10
108.000000
 20
-86.000000
 11
87.000000
 21
-86.000000
  0
LINE
  8
0
  6
CONTINUOUS
 62
7
 10
95.500000
 20
-85.500000
 11
95.500000
 21
-86.000000
  0
LINE
  8
0
  6
CONTINUOUS
 62
7
 10
86.000000
 20
-85.500000
 11
86.000000
 21
-118.500000
  0
LINE
  8
0
  6
CONTINUOUS
 62
7
 10
95.500000
 20
-118.500000
 11
86.000000
 21
-118.500000
  0
LINE
  8
0
  6
CONTINUOUS
 62
7
 10
95.500000
 20
-118.500000
 11
95.500000
 21
-118.000000
  0
LINE
  8
0
  6
CENTER
 62
2
 10
108.699997
 20
-102.000000
 11
85.000000
 21
-102.000000
  0
LINE
  8
0
  6
CONTINUOUS
 62
7
 10
107.500000
 20
-86.000000
 11
107.500000
 21
-118.000000
  0
LINE
  8
0
  6
CONTINUOUS
 62
7
 10
87.000000
 20
-86.000000
 11
87.000000
 21
-118.000000
  0
LINE
  8
0
  6
CONTINUOUS
 62
7
 10
86.000000
 20
-85.500000
 11
107.500000
 21
-85.500000
  0
LINE
  8
0
  6
CENTER
 62
2
 10
94.000000
 20
-95.000000
 11
94.000000
 21
-109.000000
  0
LINE
  8
0
  6
CONTINUOUS
 62
7
 10
87.458603
 20
-82.000000
 11
87.458603
 21
-84.900002
  0
LINE
  8
0
  6
CONTINUOUS
 62
7
 10
87.599998
 20
-84.900002
 11
87.599998
 21
-85.500000
  0
LINE
  8
0
  6
CONTINUOUS
 62
7
 10
95.541496
 20
-84.900002
 11
87.458603
 21
-84.900002
  0
LINE
  8
0
  6
CONTINUOUS
 62
7
 10
89.479301
 20
-82.000000
 11
89.479301
 21
-84.900002
  0
LINE
  8
0
  6
CENTER
 62
2
 10
91.500000
 20
-81.000000
 11
91.500000
 21
-86.500000
  0
LINE
  8
0
  6
CONTINUOUS
 62
7
 10
95.541496
 20
-82.000000
 11
87.458603
 21
-82.000000
  0
LINE
  8
0
  6
CONTINUOUS
 62
7
 10
95.541496
 20
-82.000000
 11
95.541496
 21
-84.900002
  0
LINE
  8
0
  6
CONTINUOUS
 62
7
 10
93.520798
 20
-82.000000
 11
93.520798
 21
-84.900002
  0
LINE
  8
0
  6
CONTINUOUS
 62
7
 10
95.400002
 20
-84.900002
 11
95.400002
 21
-85.500000
  0
LINE
  8
0
  6
CENTER
 62
2
 10
94.000000
 20
-111.000000
 11
94.000000
 21
-117.000000
  0
LINE
  8
0
  6
CENTER
 62
2
 10
91.000000
 20
-114.000000
 11
97.000000
 21
-114.000000
  0
LINE
  8
0
  6
CENTER
 62
2
 10
103.000000
 20
-108.500000
 11
103.000000
 21
-118.500000
  0
LINE
  8
0
  6
CENTER
 62
2
 10
98.000000
 20
-113.500000
 11
108.000000
 21
-113.500000
  0
LINE
  8
0
  6
CENTER
 62
2
 10
103.000000
 20
-85.500000
 11
103.000000
 21
-95.500000
  0
LINE
  8
0
  6
CENTER
 62
2
 10
98.000000
 20
-90.500000
 11
108.000000
 21
-90.500000
  0
LINE
  8
0
  6
CENTER
 62
2
 10
94.000000
 20
-87.000000
 11
94.000000
 21
-93.000000
  0
LINE
  8
0
  6
CENTER
 62
2
 10
91.000000
 20
-90.000000
 11
97.000000
 21
-90.000000
  0
LINE
  8
0
  6
CENTER
 62
2
 10
103.000000
 20
-99.000000
 11
103.000000
 21
-105.000000
  0
LINE
  8
0
  6
CONTINUOUS
 62
7
 10
107.500000
 20
-75.500000
 11
86.500000
 21
-75.500000
  0
LINE
  8
0
  6
CONTINUOUS
 62
7
 10
103.435997
 20
-76.500000
 11
100.564003
 21
-76.500000
  0
LINE
  8
0
  6
CONTINUOUS
 62
7
 10
104.746002
 20
-77.256203
 11
106.181999
 21
-79.743698
  0
LINE
  8
0
  6
CONTINUOUS
 62
7
 10
106.181999
 20
-81.256203
 11
104.746002
 21
-83.743698
  0
LINE
  8
0
  6
CONTINUOUS
 62
7
 10
100.564003
 20
-84.500000
 11
103.435997
 21
-84.500000
  0
LINE
  8
0
  6
CONTINUOUS
 62
7
 10
97.817802
 20
-81.256203
 11
99.253998
 21
-83.743698
  0
LINE
  8
0
  6
CONTINUOUS
 62
7
 10
99.253998
 20
-77.256203
 11
97.817802
 21
-79.743698
  0
LINE
  8
0
  6
CENTER
 62
2
 10
107.250000
 20
-80.500000
 11
96.750000
 21
-80.500000
  0
LINE
  8
0
  6
CENTER
 62
2
 10
102.000000
 20
-85.750000
 11
102.000000
 21
-75.250000
  0
LINE
  8
0
  6
CONTINUOUS
 62
7
 10
102.865997
 20
-79.000000
 11
103.732002
 21
-80.500000
  0
LINE
  8
0
  6
CONTINUOUS
 62
7
 10
103.732002
 20
-80.500000
 11
102.865997
 21
-82.000000
  0
LINE
  8
0
  6
CONTINUOUS
 62
7
 10
101.134003
 20
-82.000000
 11
102.865997
 21
-82.000000
  0
LINE
  8
0
  6
CONTINUOUS
 62
7
 10
100.267998
 20
-80.500000
 11
101.134003
 21
-82.000000
  0
LINE
  8
0
  6
CONTINUOUS
 62
7
 10
101.134003
 20
-79.000000
 11
100.267998
 21
-80.500000
  0
LINE
  8
0
  6
CONTINUOUS
 62
7
 10
102.865997
 20
-79.000000
 11
101.134003
 21
-79.000000
  0
LINE
  8
0
  6
CONTINUOUS
 62
7
 10
107.500000
 20
-85.500000
 11
107.500000
 21
-75.500000
  0
LINE
  8
0
  6
CONTINUOUS
 62
7
 10
86.500000
 20
-85.500000
 11
86.500000
 21
-75.500000
  0
LINE
  8
0
  6
CONTINUOUS
 62
7
 10
106.000000
 20
-85.500000
 11
106.000000
 21
-86.000000
  0
LINE
  8
0
  6
CONTINUOUS
 62
7
 10
98.000000
 20
-85.500000
 11
98.000000
 21
-86.000000
  0
LINE
  8
0
  6
CONTINUOUS
 62
7
 10
152.000000
 20
13.243800
 11
147.000000
 21
13.243800
  0
LINE
  8
0
  6
CENTER
 62
2
 10
131.199997
 20
10.000000
 11
153.000000
 21
10.000000
  0
LINE
  8
0
  6
CONTINUOUS
 62
7
 10
132.199997
 20
7.000030
 11
147.000000
 21
7.000030
  0
LINE
  8
0
  6
CONTINUOUS
 62
2
 10
132.199997
 20
7.500030
 11
147.000000
 21
7.500030
  0
LINE
  8
0
  6
CONTINUOUS
 62
7
 10
152.000000
 20
5.000030
 11
235.000000
 21
5.000030
  0
LINE
  8
0
  6
CONTINUOUS
 62
7
 10
152.000000
 20
15.000000
 11
152.000000
 21
5.000030
  0
LINE
  8
0
  6
CONTINUOUS
 62
7
 10
152.000000
 20
14.000000
 11
147.000000
 21
14.000000
  0
LINE
  8
0
  6
CONTINUOUS
 62
7
 10
147.000000
 20
6.000040
 11
147.000000
 21
14.000000
  0
LINE
  8
0
  6
CONTINUOUS
 62
7
 10
152.000000
 20
6.000040
 11
147.000000
 21
6.000040
  0
LINE
  8
0
  6
CONTINUOUS
 62
7
 10
152.000000
 20
6.756290
 11
147.000000
 21
6.756290
  0
LINE
  8
0
  6
CONTINUOUS
 62
7
 10
152.000000
 20
9.243760
 11
147.000000
 21
9.243760
  0
LINE
  8
0
  6
CONTINUOUS
 62
7
 10
152.000000
 20
10.756300
 11
147.000000
 21
10.756300
  0
LINE
  8
0
  6
CONTINUOUS
 62
7
 10
142.500000
 20
13.000000
 11
147.000000
 21
13.000000
  0
LINE
  8
0
  6
CONTINUOUS
 62
2
 10
142.500000
 20
12.500000
 11
147.000000
 21
12.500000
  0
LINE
  8
0
  6
CONTINUOUS
 62
7
 10
132.199997
 20
13.000000
 11
135.500000
 21
13.000000
  0
LINE
  8
0
  6
CONTINUOUS
 62
2
 10
132.199997
 20
12.500000
 11
135.500000
 21
12.500000
  0
LINE
  8
0
  6
CONTINUOUS
 62
7
 10
132.199997
 20
13.000000
 11
132.199997
 21
7.000030
  0
LINE
  8
0
  6
CONTINUOUS
 62
7
 10
133.000000
 20
26.500000
 11
131.000000
 21
26.500000
  0
LINE
  8
0
  6
CONTINUOUS
 62
7
 10
133.000000
 20
36.500000
 11
131.000000
 21
36.500000
  0
LINE
  8
0
  6
CONTINUOUS
 62
7
 10
-223.000000
 20
-236.755997
 11
-228.000000
 21
-236.755997
  0
LINE
  8
0
  6
CENTER
 62
2
 10
-243.800003
 20
-240.000000
 11
-222.000000
 21
-240.000000
  0
LINE
  8
0
  6
CONTINUOUS
 62
7
 10
-242.800003
 20
-243.000000
 11
-228.000000
 21
-243.000000
  0
LINE
  8
0
  6
CONTINUOUS
 62
2
 10
-242.800003
 20
-242.500000
 11
-228.000000
 21
-242.500000
  0
LINE
  8
0
  6
CONTINUOUS
 62
7
 10
-223.000000
 20
-245.000000
 11
-155.000000
 21
-245.000000
  0
LINE
  8
0
  6
CONTINUOUS
 62
7
 10
-223.000000
 20
-235.000000
 11
-223.000000
 21
-245.000000
  0
LINE
  8
0
  6
CONTINUOUS
 62
7
 10
-223.000000
 20
-236.000000
 11
-228.000000
 21
-236.000000
  0
LINE
  8
0
  6
CONTINUOUS
 62
7
 10
-228.000000
 20
-244.000000
 11
-228.000000
 21
-236.000000
  0
LINE
  8
0
  6
CONTINUOUS
 62
7
 10
-223.000000
 20
-244.000000
 11
-228.000000
 21
-244.000000
  0
LINE
  8
0
  6
CONTINUOUS
 62
7
 10
-223.000000
 20
-243.244003
 11
-228.000000
 21
-243.244003
  0
LINE
  8
0
  6
CONTINUOUS
 62
7
 10
-223.000000
 20
-240.755997
 11
-228.000000
 21
-240.755997
  0
LINE
  8
0
  6
CONTINUOUS
 62
7
 10
-223.000000
 20
-239.244003
 11
-228.000000
 21
-239.244003
  0
LINE
  8
0
  6
CONTINUOUS
 62
7
 10
-232.500000
 20
-237.000000
 11
-228.000000
 21
-237.000000
  0
LINE
  8
0
  6
CONTINUOUS
 62
2
 10
-232.500000
 20
-237.500000
 11
-228.000000
 21
-237.500000
  0
LINE
  8
0
  6
CONTINUOUS
 62
7
 10
-242.800003
 20
-237.000000
 11
-239.500000
 21
-237.000000
  0
LINE
  8
0
  6
CONTINUOUS
 62
2
 10
-242.800003
 20
-237.500000
 11
-239.500000
 21
-237.500000
  0
LINE
  8
0
  6
CONTINUOUS
 62
7
 10
-242.800003
 20
-237.000000
 11
-242.800003
 21
-243.000000
  0
LINE
  8
0
  6
CONTINUOUS
 62
7
 10
-242.000000
 20
-223.500000
 11
-244.000000
 21
-223.500000
  0
LINE
  8
0
  6
CONTINUOUS
 62
7
 10
-242.000000
 20
-213.500000
 11
-244.000000
 21
-213.500000
  0
LINE
  8
0
  6
CONTINUOUS
 62
7
 10
152.000000
 20
-236.755997
 11
147.000000
 21
-236.755997
  0
LINE
  8
0
  6
CENTER
 62
2
 10
131.199997
 20
-240.000000
 11
153.000000
 21
-240.000000
  0
LINE
  8
0
  6
CONTINUOUS
 62
7
 10
132.199997
 20
-243.000000
 11
147.000000
 21
-243.000000
  0
LINE
  8
0
  6
CONTINUOUS
 62
2
 10
132.199997
 20
-242.500000
 11
147.000000
 21
-242.500000
  0
LINE
  8
0
  6
CONTINUOUS
 62
7
 10
152.000000
 20
-245.000000
 11
250.000000
 21
-245.000000
  0
LINE
  8
0
  6
CONTINUOUS
 62
7
 10
152.000000
 20
-235.000000
 11
152.000000
 21
-245.000000
  0
LINE
  8
0
  6
CONTINUOUS
 62
7
 10
152.000000
 20
-236.000000
 11
147.000000
 21
-236.000000
  0
LINE
  8
0
  6
CONTINUOUS
 62
7
 10
147.000000
 20
-244.000000
 11
147.000000
 21
-236.000000
  0
LINE
  8
0
  6
CONTINUOUS
 62
7
 10
152.000000
 20
-244.000000
 11
147.000000
 21
-244.000000
  0
LINE
  8
0
  6
CONTINUOUS
 62
7
 10
152.000000
 20
-243.244003
 11
147.000000
 21
-243.244003
  0
LINE
  8
0
  6
CONTINUOUS
 62
7
 10
152.000000
 20
-240.755997
 11
147.000000
 21
-240.755997
  0
LINE
  8
0
  6
CONTINUOUS
 62
7
 10
152.000000
 20
-239.244003
 11
147.000000
 21
-239.244003
  0
LINE
  8
0
  6
CONTINUOUS
 62
7
 10
142.500000
 20
-237.000000
 11
147.000000
 21
-237.000000
  0
LINE
  8
0
  6
CONTINUOUS
 62
2
 10
142.500000
 20
-237.500000
 11
147.000000
 21
-237.500000
  0
LINE
  8
0
  6
CONTINUOUS
 62
7
 10
132.199997
 20
-237.000000
 11
135.500000
 21
-237.000000
  0
LINE
  8
0
  6
CONTINUOUS
 62
2
 10
132.199997
 20
-237.500000
 11
135.500000
 21
-237.500000
  0
LINE
  8
0
  6
CONTINUOUS
 62
7
 10
132.199997
 20
-237.000000
 11
132.199997
 21
-243.000000
  0
LINE
  8
0
  6
CONTINUOUS
 62
7
 10
133.000000
 20
-223.500000
 11
131.000000
 21
-223.500000
  0
LINE
  8
0
  6
CONTINUOUS
 62
7
 10
133.000000
 20
-213.500000
 11
131.000000
 21
-213.500000
  0
LINE
  8
0
  6
CONTINUOUS
 62
7
 10
227.500000
 20
191.000000
 11
227.500000
 21
198.500000
  0
LINE
  8
0
  6
CONTINUOUS
 62
7
 10
235.000000
 20
191.000000
 11
235.000000
 21
212.000000
  0
LINE
  8
0
  6
CONTINUOUS
 62
7
 10
240.000000
 20
192.250000
 11
240.000000
 21
200.750000
  0
LINE
  8
0
  6
CONTINUOUS
 62
7
 10
235.000000
 20
192.250000
 11
240.000000
 21
192.250000
  0
LINE
  8
0
  6
CONTINUOUS
 62
7
 10
235.000000
 20
200.750000
 11
240.000000
 21
200.750000
  0
LINE
  8
0
  6
CONTINUOUS
 62
7
 10
235.000000
 20
199.246002
 11
240.000000
 21
199.246002
  0
LINE
  8
0
  6
CONTINUOUS
 62
7
 10
235.000000
 20
197.936005
 11
240.000000
 21
197.936005
  0
LINE
  8
0
  6
CONTINUOUS
 62
7
 10
235.000000
 20
195.063995
 11
240.000000
 21
195.063995
  0
LINE
  8
0
  6
CONTINUOUS
 62
7
 10
235.000000
 20
193.753998
 11
240.000000
 21
193.753998
  0
LINE
  8
0
  6
CONTINUOUS
 62
7
 10
240.000000
 20
193.500000
 11
244.699997
 21
193.500000
  0
LINE
  8
0
  6
CONTINUOUS
 62
2
 10
240.000000
 20
194.000000
 11
244.699997
 21
194.000000
  0
LINE
  8
0
  6
CONTINUOUS
 62
2
 10
240.000000
 20
199.000000
 11
244.699997
 21
199.000000
  0
LINE
  8
0
  6
CONTINUOUS
 62
7
 10
240.000000
 20
199.500000
 11
244.699997
 21
199.500000
  0
LINE
  8
0
  6
CENTER
 62
2
 10
221.699997
 20
196.500000
 11
245.699997
 21
196.500000
  0
LINE
  8
0
  6
CONTINUOUS
 62
7
 10
244.699997
 20
193.500000
 11
244.699997
 21
199.500000
  0
LINE
  8
0
  6
CONTINUOUS
 62
7
 10
227.500000
 20
191.000000
 11
235.000000
 21
191.000000
  0
LINE
  8
0
  6
CONTINUOUS
 62
7
 10
242.500000
 20
-59.000000
 11
242.500000
 21
-51.500000
  0
LINE
  8
0
  6
CONTINUOUS
 62
7
 10
250.000000
 20
-59.000000
 11
250.000000
 21
-38.000000
  0
LINE
  8
0
  6
CONTINUOUS
 62
7
 10
255.000000
 20
-57.750000
 11
255.000000
 21
-49.250000
  0
LINE
  8
0
  6
CONTINUOUS
 62
7
 10
250.000000
 20
-57.750000
 11
255.000000
 21
-57.750000
  0
LINE
  8
0
  6
CONTINUOUS
 62
7
 10
250.000000
 20
-49.250000
 11
255.000000
 21
-49.250000
  0
LINE
  8
0
  6
CONTINUOUS
 62
7
 10
250.000000
 20
-50.753899
 11
255.000000
 21
-50.753899
  0
LINE
  8
0
  6
CONTINUOUS
 62
7
 10
250.000000
 20
-52.063801
 11
255.000000
 21
-52.063801
  0
LINE
  8
0
  6
CONTINUOUS
 62
7
 10
250.000000
 20
-54.936100
 11
255.000000
 21
-54.936100
  0
LINE
  8
0
  6
CONTINUOUS
 62
7
 10
250.000000
 20
-56.245998
 11
255.000000
 21
-56.245998
  0
LINE
  8
0
  6
CONTINUOUS
 62
7
 10
255.000000
 20
-56.500000
 11
259.700012
 21
-56.500000
  0
LINE
  8
0
  6
CONTINUOUS
 62
2
 10
255.000000
 20
-56.000000
 11
259.700012
 21
-56.000000
  0
LINE
  8
0
  6
CONTINUOUS
 62
2
 10
255.000000
 20
-51.000000
 11
259.700012
 21
-51.000000
  0
LINE
  8
0
  6
CONTINUOUS
 62
7
 10
255.000000
 20
-50.500000
 11
259.700012
 21
-50.500000
  0
LINE
  8
0
  6
CENTER
 62
2
 10
236.699997
 20
-53.500000
 11
260.700012
 21
-53.500000
  0
LINE
  8
0
  6
CONTINUOUS
 62
7
 10
259.700012
 20
-56.500000
 11
259.700012
 21
-50.500000
  0
LINE
  8
0
  6
CONTINUOUS
 62
7
 10
242.500000
 20
-59.000000
 11
250.000000
 21
-59.000000
  0
LINE
  8
0
  6
CONTINUOUS
 62
7
 10
223.000000
 20
198.300003
 11
223.000000
 21
201.500000
  0
LINE
  8
0
  6
CONTINUOUS
 62
7
 10
-244.000000
 20
190.500000
 11
-177.000000
 21
190.500000
  0
LINE
  8
0
  6
CONTINUOUS
 62
7
 10
-242.000000
 20
212.500000
 11
-176.000000
 21
212.500000
  0
LINE
  8
0
  6
CONTINUOUS
 62
7
 10
-242.000000
 20
202.500000
 11
-242.000000
 21
212.500000
  0
LINE
  8
0
  6
CONTINUOUS
 62
7
 10
-176.000000
 20
212.000000
 11
-176.000000
 21
212.500000
  0
LINE
  8
0
  6
CONTINUOUS
 62
7
 10
-244.000000
 20
190.500000
 11
-244.000000
 21
211.500000
  0
LINE
  8
0
  6
CONTINUOUS
 62
7
 10
-177.000000
 20
191.000000
 11
-175.800003
 21
191.000000
  0
LINE
  8
0
  6
CONTINUOUS
 62
7
 10
-244.000000
 20
202.500000
 11
-223.000000
 21
202.500000
  0
LINE
  8
0
  6
CONTINUOUS
 62
7
 10
-242.000000
 20
203.000000
 11
-223.000000
 21
203.000000
  0
LINE
  8
0
  6
CENTER
 62
2
 10
-227.000000
 20
206.199997
 11
-227.000000
 21
213.500000
  0
LINE
  8
0
  6
CONTINUOUS
 62
7
 10
-252.000000
 20
211.500000
 11
-252.000000
 21
191.000000
  0
LINE
  8
0
  6
CONTINUOUS
 62
7
 10
-244.000000
 20
191.000000
 11
-252.000000
 21
191.000000
  0
LINE
  8
0
  6
CONTINUOUS
 62
7
 10
-244.000000
 20
211.500000
 11
-252.000000
 21
211.500000
  0
LINE
  8
0
  6
CONTINUOUS
 62
7
 10
-177.000000
 20
190.500000
 11
-177.000000
 21
194.699997
  0
LINE
  8
0
  6
CONTINUOUS
 62
7
 10
-242.000000
 20
209.500000
 11
-244.000000
 21
209.500000
  0
LINE
  8
0
  6
CONTINUOUS
 62
7
 10
-232.500000
 20
207.500000
 11
-239.500000
 21
207.500000
  0
LINE
  8
0
  6
CONTINUOUS
 62
7
 10
-232.500000
 20
206.500000
 11
-239.500000
 21
206.500000
  0
LINE
  8
0
  6
CONTINUOUS
 62
7
 10
-236.000000
 20
202.959000
 11
-239.500000
 21
204.979004
  0
LINE
  8
0
  6
CONTINUOUS
 62
7
 10
-239.500000
 20
204.979004
 11
-239.500000
 21
209.020996
  0
LINE
  8
0
  6
CONTINUOUS
 62
7
 10
-232.500000
 20
204.979004
 11
-236.000000
 21
202.959000
  0
LINE
  8
0
  6
CONTINUOUS
 62
7
 10
-232.500000
 20
204.979004
 11
-232.500000
 21
209.020996
  0
LINE
  8
0
  6
CONTINUOUS
 62
7
 10
-239.500000
 20
209.020996
 11
-236.000000
 21
211.041000
  0
LINE
  8
0
  6
CONTINUOUS
 62
7
 10
-232.500000
 20
209.020996
 11
-236.000000
 21
211.041000
  0
LINE
  8
0
  6
DASHED
 62
2
 10
-223.000000
 20
207.199997
 11
-223.000000
 21
208.000000
  0
LINE
  8
0
  6
DASHED
 62
2
 10
-231.000000
 20
207.199997
 11
-231.000000
 21
208.000000
  0
LINE
  8
0
  6
DASHED
 62
2
 10
-223.000000
 20
208.000000
 11
-224.800003
 21
208.000000
  0
LINE
  8
0
  6
DASHED
 62
2
 10
-229.199997
 20
208.000000
 11
-231.000000
 21
208.000000
  0
LINE
  8
0
  6
CENTER
 62
2
 10
-254.000000
 20
195.500000
 11
-250.000000
 21
195.500000
  0
LINE
  8
0
  6
CENTER
 62
2
 10
-254.000000
 20
204.500000
 11
-250.000000
 21
204.500000
  0
LINE
  8
0
  6
CENTER
 62
2
 10
-232.000000
 20
192.500000
 11
-232.000000
 21
188.500000
  0
LINE
  8
0
  6
CENTER
 62
2
 10
-212.000000
 20
192.500000
 11
-212.000000
 21
188.500000
  0
LINE
  8
0
  6
CENTER
 62
2
 10
-192.000000
 20
192.500000
 11
-192.000000
 21
188.500000
  0
LINE
  8
0
  6
CONTINUOUS
 62
7
 10
-175.399994
 20
191.500000
 11
-175.399994
 21
193.500000
  0
LINE
  8
0
  6
CONTINUOUS
 62
7
 10
-175.800003
 20
191.500000
 11
-175.399994
 21
191.500000
  0
LINE
  8
0
  6
CONTINUOUS
 62
7
 10
-231.199997
 20
207.199997
 11
-223.000000
 21
207.199997
  0
LINE
  8
0
  6
CONTINUOUS
 62
7
 10
-229.149994
 20
207.199997
 11
-229.149994
 21
212.500000
  0
LINE
  8
0
  6
CONTINUOUS
 62
7
 10
-224.850006
 20
208.000000
 11
-229.149994
 21
208.000000
  0
LINE
  8
0
  6
CONTINUOUS
 62
7
 10
-224.850006
 20
207.199997
 11
-224.850006
 21
212.500000
  0
LINE
  8
0
  6
DASHED
 62
2
 10
-215.000000
 20
205.199997
 11
-207.000000
 21
205.199997
  0
LINE
  8
0
  6
CENTER
 62
2
 10
-211.000000
 20
204.199997
 11
-211.000000
 21
213.500000
  0
LINE
  8
0
  6
DASHED
 62
2
 10
-213.500000
 20
205.199997
 11
-213.500000
 21
212.500000
  0
LINE
  8
0
  6
DASHED
 62
2
 10
-208.500000
 20
205.199997
 11
-208.500000
 21
212.500000
  0
LINE
  8
0
  6
DASHED
 62
2
 10
-208.899994
 20
205.199997
 11
-208.899994
 21
212.500000
  0
LINE
  8
0
  6
DASHED
 62
2
 10
-213.100006
 20
205.199997
 11
-213.100006
 21
212.500000
  0
LINE
  8
0
  6
DASHED
 62
2
 10
-187.000000
 20
207.199997
 11
-195.000000
 21
207.199997
  0
LINE
  8
0
  6
CENTER
 62
2
 10
-191.000000
 20
206.199997
 11
-191.000000
 21
213.500000
  0
LINE
  8
0
  6
DASHED
 62
2
 10
-187.000000
 20
208.000000
 11
-195.000000
 21
208.000000
  0
LINE
  8
0
  6
DASHED
 62
2
 10
-193.100006
 20
208.000000
 11
-193.100006
 21
212.500000
  0
LINE
  8
0
  6
DASHED
 62
2
 10
-188.899994
 20
208.000000
 11
-188.899994
 21
212.500000
  0
LINE
  8
0
  6
DASHED
 62
2
 10
-188.500000
 20
208.000000
 11
-188.500000
 21
212.500000
  0
LINE
  8
0
  6
DASHED
 62
2
 10
-193.500000
 20
208.000000
 11
-193.500000
 21
212.500000
  0
LINE
  8
0
  6
DASHED
 62
2
 10
-187.000000
 20
207.199997
 11
-187.000000
 21
208.000000
  0
LINE
  8
0
  6
DASHED
 62
2
 10
-195.000000
 20
207.199997
 11
-195.000000
 21
208.000000
  0
LINE
  8
0
  6
CENTER
 62
2
 10
-236.000000
 20
211.899994
 11
-236.000000
 21
202.100006
  0
LINE
  8
0
  6
CENTER
 62
2
 10
-240.899994
 20
207.000000
 11
-231.100006
 21
207.000000
  0
LINE
  8
0
  6
CENTER
 62
2
 10
-195.199997
 20
196.699997
 11
-195.199997
 21
192.699997
  0
LINE
  8
0
  6
CENTER
 62
2
 10
-197.199997
 20
194.699997
 11
-193.199997
 21
194.699997
  0
LINE
  8
0
  6
CONTINUOUS
 62
7
 10
-223.000000
 20
191.000000
 11
-223.000000
 21
212.000000
  0
LINE
  8
0
  6
CENTER
 62
2
 10
-243.800003
 20
196.500000
 11
-211.800003
 21
196.500000
  0
LINE
  8
0
  6
CONTINUOUS
 62
7
 10
-228.000000
 20
192.250000
 11
-223.000000
 21
192.250000
  0
LINE
  8
0
  6
CONTINUOUS
 62
7
 10
-228.000000
 20
192.250000
 11
-228.000000
 21
200.750000
  0
LINE
  8
0
  6
CONTINUOUS
 62
7
 10
-228.000000
 20
200.750000
 11
-223.000000
 21
200.750000
  0
LINE
  8
0
  6
CONTINUOUS
 62
7
 10
-228.000000
 20
199.246002
 11
-223.000000
 21
199.246002
  0
LINE
  8
0
  6
CONTINUOUS
 62
7
 10
-228.000000
 20
197.936005
 11
-223.000000
 21
197.936005
  0
LINE
  8
0
  6
CONTINUOUS
 62
7
 10
-228.000000
 20
195.063995
 11
-223.000000
 21
195.063995
  0
LINE
  8
0
  6
CONTINUOUS
 62
7
 10
-228.000000
 20
193.753998
 11
-223.000000
 21
193.753998
  0
LINE
  8
0
  6
CONTINUOUS
 62
7
 10
-242.800003
 20
193.500000
 11
-228.000000
 21
193.500000
  0
LINE
  8
0
  6
CONTINUOUS
 62
7
 10
-242.800003
 20
193.500000
 11
-242.800003
 21
199.500000
  0
LINE
  8
0
  6
CONTINUOUS
 62
7
 10
-242.800003
 20
199.500000
 11
-228.000000
 21
199.500000
  0
LINE
  8
0
  6
CONTINUOUS
 62
2
 10
-242.800003
 20
194.000000
 11
-228.000000
 21
194.000000
  0
LINE
  8
0
  6
CONTINUOUS
 62
2
 10
-242.800003
 20
199.000000
 11
-228.000000
 21
199.000000
  0
LINE
  8
0
  6
CONTINUOUS
 62
7
 10
-215.500000
 20
191.000000
 11
-215.500000
 21
198.500000
  0
LINE
  8
0
  6
CONTINUOUS
 62
7
 10
-244.000000
 20
198.029007
 11
-242.800003
 21
198.029007
  0
LINE
  8
0
  6
CONTINUOUS
 62
7
 10
-244.000000
 20
196.970993
 11
-242.800003
 21
196.970993
  0
LINE
  8
0
  6
CONTINUOUS
 62
7
 10
-192.800003
 20
192.500000
 11
-192.800003
 21
200.500000
  0
LINE
  8
0
  6
CONTINUOUS
 62
7
 10
-192.800003
 20
200.500000
 11
-177.300003
 21
200.500000
  0
LINE
  8
0
  6
CONTINUOUS
 62
7
 10
-177.300003
 20
192.500000
 11
-177.300003
 21
200.500000
  0
LINE
  8
0
  6
CONTINUOUS
 62
7
 10
-192.800003
 20
192.500000
 11
-177.300003
 21
192.500000
  0
LINE
  8
0
  6
CONTINUOUS
 62
7
 10
-212.500000
 20
201.500000
 11
-175.500000
 21
201.500000
  0
LINE
  8
0
  6
CONTINUOUS
 62
7
 10
-223.000000
 20
212.000000
 11
-165.000000
 21
212.000000
  0
LINE
  8
0
  6
CONTINUOUS
 62
7
 10
-223.000000
 20
191.000000
 11
-215.500000
 21
191.000000
  0
LINE
  8
0
  6
CONTINUOUS
 62
7
 10
227.500000
 20
164.500000
 11
227.500000
 21
174.500000
  0
LINE
  8
0
  6
CONTINUOUS
 62
7
 10
235.000000
 20
164.500000
 11
235.000000
 21
174.500000
  0
LINE
  8
0
  6
CONTINUOUS
 62
7
 10
-160.000000
 20
192.250000
 11
-160.000000
 21
200.750000
  0
LINE
  8
0
  6
CONTINUOUS
 62
7
 10
-165.000000
 20
192.250000
 11
-160.000000
 21
192.250000
  0
LINE
  8
0
  6
CONTINUOUS
 62
7
 10
-165.000000
 20
200.750000
 11
-160.000000
 21
200.750000
  0
LINE
  8
0
  6
CONTINUOUS
 62
7
 10
-165.000000
 20
199.246002
 11
-160.000000
 21
199.246002
  0
LINE
  8
0
  6
CONTINUOUS
 62
7
 10
-165.000000
 20
197.936005
 11
-160.000000
 21
197.936005
  0
LINE
  8
0
  6
CONTINUOUS
 62
7
 10
-165.000000
 20
195.063995
 11
-160.000000
 21
195.063995
  0
LINE
  8
0
  6
CONTINUOUS
 62
7
 10
-165.000000
 20
193.753998
 11
-160.000000
 21
193.753998
  0
LINE
  8
0
  6
CONTINUOUS
 62
7
 10
240.000000
 20
166.500000
 11
244.699997
 21
166.500000
  0
LINE
  8
0
  6
CONTINUOUS
 62
2
 10
240.000000
 20
167.000000
 11
244.699997
 21
167.000000
  0
LINE
  8
0
  6
CONTINUOUS
 62
2
 10
240.000000
 20
172.000000
 11
244.699997
 21
172.000000
  0
LINE
  8
0
  6
CONTINUOUS
 62
7
 10
240.000000
 20
172.500000
 11
244.699997
 21
172.500000
  0
LINE
  8
0
  6
CENTER
 62
2
 10
221.699997
 20
169.500000
 11
245.699997
 21
169.500000
  0
LINE
  8
0
  6
CONTINUOUS
 62
7
 10
244.699997
 20
166.500000
 11
244.699997
 21
172.500000
  0
LINE
  8
0
  6
CONTINUOUS
 62
7
 10
-172.500000
 20
191.000000
 11
-165.000000
 21
191.000000
  0
LINE
  8
0
  6
CONTINUOUS
 62
7
 10
-175.800003
 20
191.000000
 11
-175.800003
 21
201.500000
  0
LINE
  8
0
  6
CONTINUOUS
 62
7
 10
-177.000000
 20
198.300003
 11
-177.000000
 21
201.500000
  0
LINE
  8
0
  6
CONTINUOUS
 62
7
 10
238.000000
 20
-51.700001
 11
238.000000
 21
-48.500000
  0
LINE
  8
0
  6
DASHED
 62
2
 10
220.000000
 20
-43.000000
 11
220.000000
 21
-42.000000
  0
LINE
  8
0
  6
CONTINUOUS
 62
7
 10
-229.199997
 20
-42.000000
 11
-224.800003
 21
-42.000000
  0
LINE
  8
0
  6
CONTINUOUS
 62
7
 10
-244.000000
 20
-59.500000
 11
-167.000000
 21
-59.500000
  0
LINE
  8
0
  6
CONTINUOUS
 62
7
 10
-242.000000
 20
-37.500000
 11
-166.000000
 21
-37.500000
  0
LINE
  8
0
  6
CONTINUOUS
 62
7
 10
-242.000000
 20
-47.500000
 11
-242.000000
 21
-37.500000
  0
LINE
  8
0
  6
CONTINUOUS
 62
7
 10
-166.000000
 20
-38.000000
 11
-166.000000
 21
-37.500000
  0
LINE
  8
0
  6
CONTINUOUS
 62
7
 10
-244.000000
 20
-59.500000
 11
-244.000000
 21
-38.500000
  0
LINE
  8
0
  6
CONTINUOUS
 62
7
 10
-167.000000
 20
-59.000000
 11
-165.800003
 21
-59.000000
  0
LINE
  8
0
  6
CONTINUOUS
 62
7
 10
-244.000000
 20
-47.500000
 11
-223.000000
 21
-47.500000
  0
LINE
  8
0
  6
CONTINUOUS
 62
7
 10
-242.000000
 20
-47.000000
 11
-223.000000
 21
-47.000000
  0
LINE
  8
0
  6
CENTER
 62
2
 10
-227.000000
 20
-44.000000
 11
-227.000000
 21
-36.500000
  0
LINE
  8
0
  6
CONTINUOUS
 62
7
 10
-229.199997
 20
-43.000000
 11
-229.199997
 21
-37.500000
  0
LINE
  8
0
  6
CONTINUOUS
 62
7
 10
-224.800003
 20
-43.000000
 11
-224.800003
 21
-37.500000
  0
LINE
  8
0
  6
CONTINUOUS
 62
7
 10
-252.000000
 20
-38.500000
 11
-252.000000
 21
-59.000000
  0
LINE
  8
0
  6
CONTINUOUS
 62
7
 10
-244.000000
 20
-59.000000
 11
-252.000000
 21
-59.000000
  0
LINE
  8
0
  6
CONTINUOUS
 62
7
 10
-244.000000
 20
-38.500000
 11
-252.000000
 21
-38.500000
  0
LINE
  8
0
  6
CONTINUOUS
 62
7
 10
-167.000000
 20
-59.500000
 11
-167.000000
 21
-55.299999
  0
LINE
  8
0
  6
CONTINUOUS
 62
7
 10
-242.000000
 20
-40.500000
 11
-244.000000
 21
-40.500000
  0
LINE
  8
0
  6
DASHED
 62
2
 10
-177.000000
 20
-43.000000
 11
-185.000000
 21
-43.000000
  0
LINE
  8
0
  6
CONTINUOUS
 62
7
 10
-231.199997
 20
-43.000000
 11
-223.000000
 21
-43.000000
  0
LINE
  8
0
  6
CONTINUOUS
 62
7
 10
-232.500000
 20
-42.500000
 11
-239.500000
 21
-42.500000
  0
LINE
  8
0
  6
CONTINUOUS
 62
7
 10
-232.500000
 20
-43.500000
 11
-239.500000
 21
-43.500000
  0
LINE
  8
0
  6
CONTINUOUS
 62
7
 10
-236.000000
 20
-47.041401
 11
-239.500000
 21
-45.020699
  0
LINE
  8
0
  6
CONTINUOUS
 62
7
 10
-239.500000
 20
-45.020699
 11
-239.500000
 21
-40.979198
  0
LINE
  8
0
  6
CONTINUOUS
 62
7
 10
-232.500000
 20
-45.020699
 11
-236.000000
 21
-47.041401
  0
LINE
  8
0
  6
CONTINUOUS
 62
7
 10
-232.500000
 20
-45.020699
 11
-232.500000
 21
-40.979198
  0
LINE
  8
0
  6
CONTINUOUS
 62
7
 10
-239.500000
 20
-40.979198
 11
-236.000000
 21
-38.958500
  0
LINE
  8
0
  6
CONTINUOUS
 62
7
 10
-232.500000
 20
-40.979198
 11
-236.000000
 21
-38.958500
  0
LINE
  8
0
  6
CENTER
 62
2
 10
-181.000000
 20
-44.000000
 11
-181.000000
 21
-36.500000
  0
LINE
  8
0
  6
DASHED
 62
2
 10
-178.899994
 20
-42.000000
 11
-178.899994
 21
-37.500000
  0
LINE
  8
0
  6
DASHED
 62
2
 10
-183.100006
 20
-42.000000
 11
-183.100006
 21
-37.500000
  0
LINE
  8
0
  6
DASHED
 62
2
 10
-178.500000
 20
-42.000000
 11
-178.500000
 21
-37.500000
  0
LINE
  8
0
  6
DASHED
 62
2
 10
-183.500000
 20
-42.000000
 11
-183.500000
 21
-37.500000
  0
LINE
  8
0
  6
DASHED
 62
2
 10
-177.000000
 20
-42.000000
 11
-185.000000
 21
-42.000000
  0
LINE
  8
0
  6
DASHED
 62
2
 10
-208.000000
 20
-39.099998
 11
-214.000000
 21
-39.099998
  0
LINE
  8
0
  6
DASHED
 62
2
 10
-208.000000
 20
-39.099998
 11
-208.000000
 21
-37.500000
  0
LINE
  8
0
  6
DASHED
 62
2
 10
-214.000000
 20
-39.099998
 11
-214.000000
 21
-37.500000
  0
LINE
  8
0
  6
DASHED
 62
2
 10
-231.000000
 20
-43.000000
 11
-231.000000
 21
-42.000000
  0
LINE
  8
0
  6
DASHED
 62
2
 10
-177.000000
 20
-43.000000
 11
-177.000000
 21
-42.000000
  0
LINE
  8
0
  6
DASHED
 62
2
 10
-223.000000
 20
-42.000000
 11
-224.800003
 21
-42.000000
  0
LINE
  8
0
  6
DASHED
 62
2
 10
-229.199997
 20
-42.000000
 11
-231.000000
 21
-42.000000
  0
LINE
  8
0
  6
CENTER
 62
2
 10
-254.000000
 20
-54.500000
 11
-250.000000
 21
-54.500000
  0
LINE
  8
0
  6
CENTER
 62
2
 10
-254.000000
 20
-45.500000
 11
-250.000000
 21
-45.500000
  0
LINE
  8
0
  6
CENTER
 62
2
 10
-232.000000
 20
-57.500000
 11
-232.000000
 21
-61.500000
  0
LINE
  8
0
  6
CENTER
 62
2
 10
-207.000000
 20
-57.500000
 11
-207.000000
 21
-61.500000
  0
LINE
  8
0
  6
CENTER
 62
2
 10
-182.000000
 20
-57.500000
 11
-182.000000
 21
-61.500000
  0
LINE
  8
0
  6
CONTINUOUS
 62
7
 10
-165.399994
 20
-58.500000
 11
-165.399994
 21
-56.500000
  0
LINE
  8
0
  6
CONTINUOUS
 62
7
 10
-165.800003
 20
-58.500000
 11
-165.399994
 21
-58.500000
  0
LINE
  8
0
  6
CENTER
 62
2
 10
-236.000000
 20
-38.099998
 11
-236.000000
 21
-47.900002
  0
LINE
  8
0
  6
CENTER
 62
2
 10
-240.899994
 20
-43.000000
 11
-231.199997
 21
-43.000000
  0
LINE
  8
0
  6
CONTINUOUS
 62
7
 10
-167.300003
 20
-57.500000
 11
-167.300003
 21
-49.500000
  0
LINE
  8
0
  6
CENTER
 62
2
 10
-185.199997
 20
-53.299999
 11
-185.199997
 21
-57.299999
  0
LINE
  8
0
  6
CENTER
 62
2
 10
-187.199997
 20
-55.299999
 11
-183.199997
 21
-55.299999
  0
LINE
  8
0
  6
CONTINUOUS
 62
7
 10
-223.000000
 20
-59.000000
 11
-223.000000
 21
-38.000000
  0
LINE
  8
0
  6
CENTER
 62
2
 10
-243.800003
 20
-53.500000
 11
-211.800003
 21
-53.500000
  0
LINE
  8
0
  6
CONTINUOUS
 62
7
 10
-228.000000
 20
-57.750000
 11
-223.000000
 21
-57.750000
  0
LINE
  8
0
  6
CONTINUOUS
 62
7
 10
-228.000000
 20
-57.750000
 11
-228.000000
 21
-49.250000
  0
LINE
  8
0
  6
CONTINUOUS
 62
7
 10
-228.000000
 20
-49.250000
 11
-223.000000
 21
-49.250000
  0
LINE
  8
0
  6
CONTINUOUS
 62
7
 10
-228.000000
 20
-50.753899
 11
-223.000000
 21
-50.753899
  0
LINE
  8
0
  6
CONTINUOUS
 62
7
 10
-228.000000
 20
-52.063801
 11
-223.000000
 21
-52.063801
  0
LINE
  8
0
  6
CONTINUOUS
 62
7
 10
-228.000000
 20
-54.936100
 11
-223.000000
 21
-54.936100
  0
LINE
  8
0
  6
CONTINUOUS
 62
7
 10
-228.000000
 20
-56.245998
 11
-223.000000
 21
-56.245998
  0
LINE
  8
0
  6
CONTINUOUS
 62
7
 10
-242.800003
 20
-56.500000
 11
-228.000000
 21
-56.500000
  0
LINE
  8
0
  6
CONTINUOUS
 62
7
 10
-242.800003
 20
-56.500000
 11
-242.800003
 21
-50.500000
  0
LINE
  8
0
  6
CONTINUOUS
 62
7
 10
-242.800003
 20
-50.500000
 11
-228.000000
 21
-50.500000
  0
LINE
  8
0
  6
CONTINUOUS
 62
2
 10
-242.800003
 20
-56.000000
 11
-228.000000
 21
-56.000000
  0
LINE
  8
0
  6
CONTINUOUS
 62
2
 10
-242.800003
 20
-51.000000
 11
-228.000000
 21
-51.000000
  0
LINE
  8
0
  6
CONTINUOUS
 62
7
 10
-215.500000
 20
-59.000000
 11
-215.500000
 21
-51.500000
  0
LINE
  8
0
  6
CONTINUOUS
 62
7
 10
-244.000000
 20
-51.970901
 11
-242.800003
 21
-51.970901
  0
LINE
  8
0
  6
CONTINUOUS
 62
7
 10
-244.000000
 20
-53.029099
 11
-242.800003
 21
-53.029099
  0
LINE
  8
0
  6
CONTINUOUS
 62
7
 10
-182.800003
 20
-57.500000
 11
-182.800003
 21
-49.500000
  0
LINE
  8
0
  6
CONTINUOUS
 62
7
 10
-182.800003
 20
-49.500000
 11
-167.300003
 21
-49.500000
  0
LINE
  8
0
  6
CONTINUOUS
 62
7
 10
-182.800003
 20
-57.500000
 11
-167.300003
 21
-57.500000
  0
LINE
  8
0
  6
CONTINUOUS
 62
7
 10
-223.000000
 20
-59.000000
 11
-215.500000
 21
-59.000000
  0
LINE
  8
0
  6
DASHED
 62
2
 10
-213.500000
 20
-43.000000
 11
-213.500000
 21
-39.099998
  0
LINE
  8
0
  6
DASHED
 62
2
 10
-213.100006
 20
-43.000000
 11
-213.100006
 21
-39.099998
  0
LINE
  8
0
  6
CENTER
 62
2
 10
-211.000000
 20
-44.000000
 11
-211.000000
 21
-36.500000
  0
LINE
  8
0
  6
DASHED
 62
2
 10
-208.899994
 20
-43.000000
 11
-208.899994
 21
-39.099998
  0
LINE
  8
0
  6
DASHED
 62
2
 10
-208.500000
 20
-43.000000
 11
-208.500000
 21
-39.099998
  0
LINE
  8
0
  6
DASHED
 62
2
 10
-215.000000
 20
-43.000000
 11
-207.000000
 21
-43.000000
  0
LINE
  8
0
  6
CONTINUOUS
 62
7
 10
-223.000000
 20
-38.000000
 11
-155.000000
 21
-38.000000
  0
LINE
  8
0
  6
CONTINUOUS
 62
7
 10
-212.500000
 20
-48.500000
 11
-165.500000
 21
-48.500000
  0
LINE
  8
0
  6
CONTINUOUS
 62
7
 10
-162.500000
 20
-59.000000
 11
-162.500000
 21
-51.500000
  0
LINE
  8
0
  6
CONTINUOUS
 62
7
 10
-155.000000
 20
-59.000000
 11
-155.000000
 21
-38.000000
  0
LINE
  8
0
  6
CONTINUOUS
 62
7
 10
-150.000000
 20
-57.750000
 11
-150.000000
 21
-49.250000
  0
LINE
  8
0
  6
CONTINUOUS
 62
7
 10
-155.000000
 20
-57.750000
 11
-150.000000
 21
-57.750000
  0
LINE
  8
0
  6
CONTINUOUS
 62
7
 10
-155.000000
 20
-49.250000
 11
-150.000000
 21
-49.250000
  0
LINE
  8
0
  6
CONTINUOUS
 62
7
 10
-155.000000
 20
-50.753899
 11
-150.000000
 21
-50.753899
  0
LINE
  8
0
  6
CONTINUOUS
 62
7
 10
-155.000000
 20
-52.063801
 11
-150.000000
 21
-52.063801
  0
LINE
  8
0
  6
CONTINUOUS
 62
7
 10
-155.000000
 20
-54.936100
 11
-150.000000
 21
-54.936100
  0
LINE
  8
0
  6
CONTINUOUS
 62
7
 10
-155.000000
 20
-56.245998
 11
-150.000000
 21
-56.245998
  0
LINE
  8
0
  6
CONTINUOUS
 62
7
 10
-150.000000
 20
-56.500000
 11
-145.300003
 21
-56.500000
  0
LINE
  8
0
  6
CONTINUOUS
 62
2
 10
-150.000000
 20
-56.000000
 11
-145.300003
 21
-56.000000
  0
LINE
  8
0
  6
CONTINUOUS
 62
2
 10
-150.000000
 20
-51.000000
 11
-145.300003
 21
-51.000000
  0
LINE
  8
0
  6
CONTINUOUS
 62
7
 10
-150.000000
 20
-50.500000
 11
-145.300003
 21
-50.500000
  0
LINE
  8
0
  6
CENTER
 62
2
 10
-168.300003
 20
-53.500000
 11
-144.300003
 21
-53.500000
  0
LINE
  8
0
  6
CONTINUOUS
 62
7
 10
-145.300003
 20
-56.500000
 11
-145.300003
 21
-50.500000
  0
LINE
  8
0
  6
CONTINUOUS
 62
7
 10
-162.500000
 20
-59.000000
 11
-155.000000
 21
-59.000000
  0
LINE
  8
0
  6
CONTINUOUS
 62
7
 10
-167.000000
 20
-51.700001
 11
-167.000000
 21
-48.500000
  0
LINE
  8
0
  6
DASHED
 62
2
 10
-185.000000
 20
-43.000000
 11
-185.000000
 21
-42.000000
  0
LINE
  8
0
  6
CENTER
 62
2
 10
198.000000
 20
-57.500000
 11
198.000000
 21
-61.500000
  0
LINE
  8
0
  6
CENTER
 62
2
 10
168.000000
 20
192.500000
 11
168.000000
 21
188.500000
  0
LINE
  8
0
  6
CENTER
 62
2
 10
183.000000
 20
192.500000
 11
183.000000
 21
188.500000
  0
LINE
  8
0
  6
CONTINUOUS
 62
7
 10
-165.000000
 20
191.000000
 11
-165.000000
 21
212.000000
  0
LINE
  8
0
  6
CONTINUOUS
 62
7
 10
-172.500000
 20
191.000000
 11
-172.500000
 21
198.500000
  0
LINE
  8
0
  6
CONTINUOUS
 62
2
 10
-160.000000
 20
194.000000
 11
-155.300003
 21
194.000000
  0
LINE
  8
0
  6
CONTINUOUS
 62
7
 10
-160.000000
 20
193.500000
 11
-155.300003
 21
193.500000
  0
LINE
  8
0
  6
CONTINUOUS
 62
7
 10
-155.300003
 20
193.500000
 11
-155.300003
 21
199.500000
  0
LINE
  8
0
  6
CONTINUOUS
 62
2
 10
-160.000000
 20
199.000000
 11
-155.300003
 21
199.000000
  0
LINE
  8
0
  6
CONTINUOUS
 62
7
 10
-160.000000
 20
199.500000
 11
-155.300003
 21
199.500000
  0
LINE
  8
0
  6
CENTER
 62
2
 10
-178.300003
 20
196.500000
 11
-154.300003
 21
196.500000
  0
LINE
  8
0
  6
CONTINUOUS
 62
7
 10
235.000000
 20
173.500000
 11
240.000000
 21
173.500000
  0
LINE
  8
0
  6
CONTINUOUS
 62
7
 10
235.000000
 20
172.744003
 11
240.000000
 21
172.744003
  0
LINE
  8
0
  6
CONTINUOUS
 62
7
 10
235.000000
 20
170.255997
 11
240.000000
 21
170.255997
  0
LINE
  8
0
  6
CONTINUOUS
 62
7
 10
235.000000
 20
168.744003
 11
240.000000
 21
168.744003
  0
LINE
  8
0
  6
CONTINUOUS
 62
7
 10
235.000000
 20
166.255997
 11
240.000000
 21
166.255997
  0
LINE
  8
0
  6
CONTINUOUS
 62
7
 10
235.000000
 20
165.500000
 11
240.000000
 21
165.500000
  0
LINE
  8
0
  6
CONTINUOUS
 62
7
 10
240.000000
 20
173.500000
 11
240.000000
 21
165.500000
  0
LINE
  8
0
  6
CONTINUOUS
 62
7
 10
288.563995
 20
173.500000
 11
291.436005
 21
173.500000
  0
LINE
  8
0
  6
CONTINUOUS
 62
7
 10
287.253998
 20
172.744003
 11
285.817993
 21
170.255997
  0
LINE
  8
0
  6
CONTINUOUS
 62
7
 10
285.817993
 20
168.744003
 11
287.253998
 21
166.255997
  0
LINE
  8
0
  6
CONTINUOUS
 62
7
 10
291.436005
 20
165.500000
 11
288.563995
 21
165.500000
  0
LINE
  8
0
  6
CONTINUOUS
 62
7
 10
294.182007
 20
168.744003
 11
292.746002
 21
166.255997
  0
LINE
  8
0
  6
CONTINUOUS
 62
7
 10
292.746002
 20
172.744003
 11
294.182007
 21
170.255997
  0
LINE
  8
0
  6
CENTER
 62
2
 10
284.750000
 20
169.500000
 11
295.250000
 21
169.500000
  0
LINE
  8
0
  6
CENTER
 62
2
 10
290.000000
 20
164.250000
 11
290.000000
 21
174.750000
  0
LINE
  8
0
  6
CONTINUOUS
 62
7
 10
289.134003
 20
171.000000
 11
288.268005
 21
169.500000
  0
LINE
  8
0
  6
CONTINUOUS
 62
7
 10
288.268005
 20
169.500000
 11
289.134003
 21
168.000000
  0
LINE
  8
0
  6
CONTINUOUS
 62
7
 10
290.865997
 20
168.000000
 11
289.134003
 21
168.000000
  0
LINE
  8
0
  6
CONTINUOUS
 62
7
 10
291.731995
 20
169.500000
 11
290.865997
 21
168.000000
  0
LINE
  8
0
  6
CONTINUOUS
 62
7
 10
290.865997
 20
171.000000
 11
291.731995
 21
169.500000
  0
LINE
  8
0
  6
CONTINUOUS
 62
7
 10
289.134003
 20
171.000000
 11
290.865997
 21
171.000000
  0
LINE
  8
0
  6
CONTINUOUS
 62
7
 10
235.000000
 20
14.000000
 11
240.000000
 21
14.000000
  0
LINE
  8
0
  6
CONTINUOUS
 62
7
 10
240.000000
 20
6.000030
 11
240.000000
 21
14.000000
  0
LINE
  8
0
  6
CONTINUOUS
 62
7
 10
235.000000
 20
15.000000
 11
235.000000
 21
5.000030
  0
LINE
  8
0
  6
CONTINUOUS
 62
7
 10
240.000000
 20
13.000000
 11
244.699997
 21
13.000000
  0
LINE
  8
0
  6
CONTINUOUS
 62
2
 10
240.000000
 20
12.500000
 11
244.699997
 21
12.500000
  0
LINE
  8
0
  6
CONTINUOUS
 62
2
 10
240.000000
 20
7.500030
 11
244.699997
 21
7.500030
  0
LINE
  8
0
  6
CONTINUOUS
 62
7
 10
240.000000
 20
7.000030
 11
244.699997
 21
7.000030
  0
LINE
  8
0
  6
CENTER
 62
2
 10
234.000000
 20
10.000000
 11
245.699997
 21
10.000000
  0
LINE
  8
0
  6
CONTINUOUS
 62
7
 10
244.699997
 20
13.000000
 11
244.699997
 21
7.000030
  0
LINE
  8
0
  6
CONTINUOUS
 62
7
 10
235.000000
 20
6.000030
 11
240.000000
 21
6.000030
  0
LINE
  8
0
  6
CONTINUOUS
 62
7
 10
235.000000
 20
6.756290
 11
240.000000
 21
6.756290
  0
LINE
  8
0
  6
CONTINUOUS
 62
7
 10
235.000000
 20
9.243760
 11
240.000000
 21
9.243760
  0
LINE
  8
0
  6
CONTINUOUS
 62
7
 10
235.000000
 20
10.756300
 11
240.000000
 21
10.756300
  0
LINE
  8
0
  6
CONTINUOUS
 62
7
 10
235.000000
 20
13.243800
 11
240.000000
 21
13.243800
  0
LINE
  8
0
  6
CENTER
 62
2
 10
298.000000
 20
-109.400002
 11
298.000000
 21
-94.599998
  0
LINE
  8
0
  6
CONTINUOUS
 62
7
 10
292.885986
 20
-94.500000
 11
296.500000
 21
-94.500000
  0
LINE
  8
0
  6
CONTINUOUS
 62
7
 10
289.000000
 20
-94.500000
 11
290.114014
 21
-94.500000
  0
LINE
  8
0
  6
CONTINUOUS
 62
7
 10
284.000000
 20
-86.000000
 11
284.000000
 21
-93.000000
  0
LINE
  8
0
  6
CONTINUOUS
 62
7
 10
284.299988
 20
-93.300003
 11
284.299988
 21
-110.699997
  0
LINE
  8
0
  6
CONTINUOUS
 62
7
 10
284.000000
 20
-93.000000
 11
284.299988
 21
-93.300003
  0
LINE
  8
0
  6
CONTINUOUS
 62
7
 10
289.000000
 20
-109.500000
 11
290.114014
 21
-109.500000
  0
LINE
  8
0
  6
CONTINUOUS
 62
7
 10
284.000000
 20
-118.000000
 11
296.500000
 21
-118.000000
  0
LINE
  8
0
  6
CONTINUOUS
 62
7
 10
284.000000
 20
-118.000000
 11
284.000000
 21
-111.000000
  0
LINE
  8
0
  6
CONTINUOUS
 62
7
 10
284.000000
 20
-111.000000
 11
284.299988
 21
-110.699997
  0
LINE
  8
0
  6
CONTINUOUS
 62
7
 10
284.000000
 20
-86.000000
 11
296.500000
 21
-86.000000
  0
LINE
  8
0
  6
CONTINUOUS
 62
7
 10
306.000000
 20
-118.500000
 11
306.000000
 21
-85.500000
  0
LINE
  8
0
  6
CONTINUOUS
 62
7
 10
296.500000
 20
-85.500000
 11
296.500000
 21
-94.500000
  0
LINE
  8
0
  6
CONTINUOUS
 62
7
 10
296.500000
 20
-118.500000
 11
306.000000
 21
-118.500000
  0
LINE
  8
0
  6
CENTER
 62
2
 10
283.299988
 20
-102.000000
 11
307.000000
 21
-102.000000
  0
LINE
  8
0
  6
CONTINUOUS
 62
7
 10
296.000000
 20
-118.000000
 11
296.000000
 21
-109.500000
  0
LINE
  8
0
  6
CONTINUOUS
 62
7
 10
289.000000
 20
-94.500000
 11
289.000000
 21
-109.500000
  0
LINE
  8
0
  6
CONTINUOUS
 62
7
 10
296.500000
 20
-118.500000
 11
296.500000
 21
-109.500000
  0
LINE
  8
0
  6
CONTINUOUS
 62
7
 10
292.885986
 20
-109.500000
 11
296.500000
 21
-109.500000
  0
LINE
  8
0
  6
CONTINUOUS
 62
7
 10
296.000000
 20
-86.000000
 11
296.000000
 21
-94.500000
  0
LINE
  8
0
  6
CENTER
 62
2
 10
282.000000
 20
-89.500000
 11
286.000000
 21
-89.500000
  0
LINE
  8
0
  6
CENTER
 62
2
 10
304.000000
 20
-90.000000
 11
308.000000
 21
-90.000000
  0
LINE
  8
0
  6
CENTER
 62
2
 10
304.000000
 20
-114.000000
 11
308.000000
 21
-114.000000
  0
LINE
  8
0
  6
CENTER
 62
2
 10
282.000000
 20
-114.500000
 11
286.000000
 21
-114.500000
  0
LINE
  8
0
  6
CONTINUOUS
 62
7
 10
306.000000
 20
-85.500000
 11
284.500000
 21
-85.500000
  0
LINE
  8
0
  6
CONTINUOUS
 62
7
 10
305.500000
 20
-85.500000
 11
305.500000
 21
-75.500000
  0
LINE
  8
0
  6
CONTINUOUS
 62
7
 10
284.500000
 20
-75.500000
 11
305.500000
 21
-75.500000
  0
LINE
  8
0
  6
CONTINUOUS
 62
7
 10
284.500000
 20
-85.500000
 11
284.500000
 21
-75.500000
  0
LINE
  8
0
  6
CONTINUOUS
 62
7
 10
286.000000
 20
-85.500000
 11
286.000000
 21
-86.000000
  0
LINE
  8
0
  6
CONTINUOUS
 62
7
 10
294.000000
 20
-85.500000
 11
294.000000
 21
-86.000000
  0
LINE
  8
0
  6
CONTINUOUS
 62
7
 10
288.563995
 20
-76.500000
 11
291.436005
 21
-76.500000
  0
LINE
  8
0
  6
CONTINUOUS
 62
7
 10
287.253998
 20
-77.256203
 11
285.817993
 21
-79.743698
  0
LINE
  8
0
  6
CONTINUOUS
 62
7
 10
285.817993
 20
-81.256203
 11
287.253998
 21
-83.743698
  0
LINE
  8
0
  6
CONTINUOUS
 62
7
 10
291.436005
 20
-84.500000
 11
288.563995
 21
-84.500000
  0
LINE
  8
0
  6
CONTINUOUS
 62
7
 10
294.182007
 20
-81.256203
 11
292.746002
 21
-83.743698
  0
LINE
  8
0
  6
CONTINUOUS
 62
7
 10
292.746002
 20
-77.256203
 11
294.182007
 21
-79.743698
  0
LINE
  8
0
  6
CENTER
 62
2
 10
284.750000
 20
-80.500000
 11
295.250000
 21
-80.500000
  0
LINE
  8
0
  6
CENTER
 62
2
 10
290.000000
 20
-85.750000
 11
290.000000
 21
-75.250000
  0
LINE
  8
0
  6
CONTINUOUS
 62
7
 10
289.134003
 20
-78.999901
 11
288.268005
 21
-80.500000
  0
LINE
  8
0
  6
CONTINUOUS
 62
7
 10
288.268005
 20
-80.500000
 11
289.134003
 21
-82.000000
  0
LINE
  8
0
  6
CONTINUOUS
 62
7
 10
290.865997
 20
-82.000000
 11
289.134003
 21
-82.000000
  0
LINE
  8
0
  6
CONTINUOUS
 62
7
 10
291.731995
 20
-80.500000
 11
290.865997
 21
-82.000000
  0
LINE
  8
0
  6
CONTINUOUS
 62
7
 10
290.865997
 20
-79.000000
 11
291.731995
 21
-80.500000
  0
LINE
  8
0
  6
CONTINUOUS
 62
7
 10
289.134003
 20
-79.000000
 11
290.865997
 21
-79.000000
  0
LINE
  8
0
  6
CONTINUOUS
 62
7
 10
-223.000000
 20
174.500000
 11
-165.000000
 21
174.500000
  0
LINE
  8
0
  6
CONTINUOUS
 62
7
 10
-177.300003
 20
164.500000
 11
-165.000000
 21
164.500000
  0
LINE
  8
0
  6
CONTINUOUS
 62
7
 10
242.500000
 20
-85.500000
 11
242.500000
 21
-75.500000
  0
LINE
  8
0
  6
CONTINUOUS
 62
7
 10
250.000000
 20
-85.500000
 11
250.000000
 21
-75.500000
  0
LINE
  8
0
  6
CONTINUOUS
 62
7
 10
255.000000
 20
-83.500000
 11
259.700012
 21
-83.500000
  0
LINE
  8
0
  6
CONTINUOUS
 62
2
 10
255.000000
 20
-83.000000
 11
259.700012
 21
-83.000000
  0
LINE
  8
0
  6
CONTINUOUS
 62
2
 10
255.000000
 20
-78.000000
 11
259.700012
 21
-78.000000
  0
LINE
  8
0
  6
CONTINUOUS
 62
7
 10
255.000000
 20
-77.500000
 11
259.700012
 21
-77.500000
  0
LINE
  8
0
  6
CENTER
 62
2
 10
236.699997
 20
-80.500000
 11
260.700012
 21
-80.500000
  0
LINE
  8
0
  6
CONTINUOUS
 62
7
 10
259.700012
 20
-83.500000
 11
259.700012
 21
-77.500000
  0
LINE
  8
0
  6
CONTINUOUS
 62
7
 10
250.000000
 20
-76.500000
 11
255.000000
 21
-76.500000
  0
LINE
  8
0
  6
CONTINUOUS
 62
7
 10
250.000000
 20
-77.256203
 11
255.000000
 21
-77.256203
  0
LINE
  8
0
  6
CONTINUOUS
 62
7
 10
250.000000
 20
-79.743698
 11
255.000000
 21
-79.743698
  0
LINE
  8
0
  6
CONTINUOUS
 62
7
 10
250.000000
 20
-81.256203
 11
255.000000
 21
-81.256203
  0
LINE
  8
0
  6
CONTINUOUS
 62
7
 10
250.000000
 20
-83.743698
 11
255.000000
 21
-83.743698
  0
LINE
  8
0
  6
CONTINUOUS
 62
7
 10
250.000000
 20
-84.500000
 11
255.000000
 21
-84.500000
  0
LINE
  8
0
  6
CONTINUOUS
 62
7
 10
255.000000
 20
-76.500000
 11
255.000000
 21
-84.500000
  0
LINE
  8
0
  6
CONTINUOUS
 62
7
 10
250.000000
 20
-236.755997
 11
255.000000
 21
-236.755997
  0
LINE
  8
0
  6
CONTINUOUS
 62
7
 10
250.000000
 20
-239.244003
 11
255.000000
 21
-239.244003
  0
LINE
  8
0
  6
CONTINUOUS
 62
7
 10
250.000000
 20
-236.000000
 11
255.000000
 21
-236.000000
  0
LINE
  8
0
  6
CONTINUOUS
 62
7
 10
255.000000
 20
-244.000000
 11
255.000000
 21
-236.000000
  0
LINE
  8
0
  6
CONTINUOUS
 62
7
 10
250.000000
 20
-235.000000
 11
250.000000
 21
-245.000000
  0
LINE
  8
0
  6
CONTINUOUS
 62
7
 10
255.000000
 20
-237.000000
 11
259.700012
 21
-237.000000
  0
LINE
  8
0
  6
CONTINUOUS
 62
2
 10
255.000000
 20
-237.500000
 11
259.700012
 21
-237.500000
  0
LINE
  8
0
  6
CONTINUOUS
 62
2
 10
255.000000
 20
-242.500000
 11
259.700012
 21
-242.500000
  0
LINE
  8
0
  6
CONTINUOUS
 62
7
 10
255.000000
 20
-243.000000
 11
259.700012
 21
-243.000000
  0
LINE
  8
0
  6
CENTER
 62
2
 10
249.000000
 20
-240.000000
 11
260.700012
 21
-240.000000
  0
LINE
  8
0
  6
CONTINUOUS
 62
7
 10
259.700012
 20
-237.000000
 11
259.700012
 21
-243.000000
  0
LINE
  8
0
  6
CONTINUOUS
 62
7
 10
250.000000
 20
-244.000000
 11
255.000000
 21
-244.000000
  0
LINE
  8
0
  6
CONTINUOUS
 62
7
 10
250.000000
 20
-243.244003
 11
255.000000
 21
-243.244003
  0
LINE
  8
0
  6
CONTINUOUS
 62
7
 10
250.000000
 20
-240.755997
 11
255.000000
 21
-240.755997
  0
LINE
  8
0
  6
CENTER
 62
2
 10
-117.000000
 20
140.600006
 11
-117.000000
 21
155.399994
  0
LINE
  8
0
  6
CONTINUOUS
 62
7
 10
-122.113998
 20
155.500000
 11
-118.500000
 21
155.500000
  0
LINE
  8
0
  6
CONTINUOUS
 62
7
 10
-126.000000
 20
155.500000
 11
-124.886002
 21
155.500000
  0
LINE
  8
0
  6
CONTINUOUS
 62
7
 10
-131.000000
 20
164.000000
 11
-131.000000
 21
157.000000
  0
LINE
  8
0
  6
CONTINUOUS
 62
7
 10
-130.699997
 20
156.699997
 11
-130.699997
 21
139.300003
  0
LINE
  8
0
  6
CONTINUOUS
 62
7
 10
-131.000000
 20
157.000000
 11
-130.699997
 21
156.699997
  0
LINE
  8
0
  6
CONTINUOUS
 62
7
 10
-126.000000
 20
140.500000
 11
-124.886002
 21
140.500000
  0
LINE
  8
0
  6
CONTINUOUS
 62
7
 10
-131.000000
 20
132.000000
 11
-118.500000
 21
132.000000
  0
LINE
  8
0
  6
CONTINUOUS
 62
7
 10
-131.000000
 20
132.000000
 11
-131.000000
 21
139.000000
  0
LINE
  8
0
  6
CONTINUOUS
 62
7
 10
-131.000000
 20
139.000000
 11
-130.699997
 21
139.300003
  0
LINE
  8
0
  6
CONTINUOUS
 62
7
 10
-131.000000
 20
164.000000
 11
-118.500000
 21
164.000000
  0
LINE
  8
0
  6
CONTINUOUS
 62
7
 10
-109.000000
 20
131.500000
 11
-109.000000
 21
164.500000
  0
LINE
  8
0
  6
CONTINUOUS
 62
7
 10
-118.500000
 20
164.500000
 11
-118.500000
 21
155.500000
  0
LINE
  8
0
  6
CONTINUOUS
 62
7
 10
-118.500000
 20
131.500000
 11
-109.000000
 21
131.500000
  0
LINE
  8
0
  6
CENTER
 62
2
 10
-131.699997
 20
148.000000
 11
-108.000000
 21
148.000000
  0
LINE
  8
0
  6
CONTINUOUS
 62
7
 10
-119.000000
 20
132.000000
 11
-119.000000
 21
140.500000
  0
LINE
  8
0
  6
CONTINUOUS
 62
7
 10
-126.000000
 20
155.500000
 11
-126.000000
 21
140.500000
  0
LINE
  8
0
  6
CONTINUOUS
 62
7
 10
-118.500000
 20
131.500000
 11
-118.500000
 21
140.500000
  0
LINE
  8
0
  6
CONTINUOUS
 62
7
 10
-122.113998
 20
140.500000
 11
-118.500000
 21
140.500000
  0
LINE
  8
0
  6
CONTINUOUS
 62
7
 10
-119.000000
 20
164.000000
 11
-119.000000
 21
155.500000
  0
LINE
  8
0
  6
CENTER
 62
2
 10
-133.000000
 20
160.500000
 11
-129.000000
 21
160.500000
  0
LINE
  8
0
  6
CENTER
 62
2
 10
-111.000000
 20
160.000000
 11
-107.000000
 21
160.000000
  0
LINE
  8
0
  6
CENTER
 62
2
 10
-111.000000
 20
136.000000
 11
-107.000000
 21
136.000000
  0
LINE
  8
0
  6
CENTER
 62
2
 10
-133.000000
 20
135.500000
 11
-129.000000
 21
135.500000
  0
LINE
  8
0
  6
CONTINUOUS
 62
7
 10
-109.000000
 20
164.500000
 11
-130.500000
 21
164.500000
  0
LINE
  8
0
  6
CONTINUOUS
 62
7
 10
-109.500000
 20
164.500000
 11
-109.500000
 21
174.500000
  0
LINE
  8
0
  6
CONTINUOUS
 62
7
 10
-130.500000
 20
174.500000
 11
-109.500000
 21
174.500000
  0
LINE
  8
0
  6
CONTINUOUS
 62
7
 10
-130.500000
 20
164.500000
 11
-130.500000
 21
174.500000
  0
LINE
  8
0
  6
CONTINUOUS
 62
7
 10
-129.000000
 20
164.500000
 11
-129.000000
 21
164.000000
  0
LINE
  8
0
  6
CONTINUOUS
 62
7
 10
-121.000000
 20
164.500000
 11
-121.000000
 21
164.000000
  0
LINE
  8
0
  6
CONTINUOUS
 62
7
 10
-126.435997
 20
173.500000
 11
-123.564003
 21
173.500000
  0
LINE
  8
0
  6
CONTINUOUS
 62
7
 10
-127.746002
 20
172.744003
 11
-129.182007
 21
170.255997
  0
LINE
  8
0
  6
CONTINUOUS
 62
7
 10
-129.182007
 20
168.744003
 11
-127.746002
 21
166.255997
  0
LINE
  8
0
  6
CONTINUOUS
 62
7
 10
-123.564003
 20
165.500000
 11
-126.435997
 21
165.500000
  0
LINE
  8
0
  6
CONTINUOUS
 62
7
 10
-120.818001
 20
168.744003
 11
-122.253998
 21
166.255997
  0
LINE
  8
0
  6
CONTINUOUS
 62
7
 10
-122.253998
 20
172.744003
 11
-120.818001
 21
170.255997
  0
LINE
  8
0
  6
CENTER
 62
2
 10
-130.250000
 20
169.500000
 11
-119.750000
 21
169.500000
  0
LINE
  8
0
  6
CENTER
 62
2
 10
-125.000000
 20
164.250000
 11
-125.000000
 21
174.750000
  0
LINE
  8
0
  6
CONTINUOUS
 62
7
 10
-125.865997
 20
171.000000
 11
-126.732002
 21
169.500000
  0
LINE
  8
0
  6
CONTINUOUS
 62
7
 10
-126.732002
 20
169.500000
 11
-125.865997
 21
168.000000
  0
LINE
  8
0
  6
CONTINUOUS
 62
7
 10
-124.134003
 20
168.000000
 11
-125.865997
 21
168.000000
  0
LINE
  8
0
  6
CONTINUOUS
 62
7
 10
-123.267998
 20
169.500000
 11
-124.134003
 21
168.000000
  0
LINE
  8
0
  6
CONTINUOUS
 62
7
 10
-124.134003
 20
171.000000
 11
-123.267998
 21
169.500000
  0
LINE
  8
0
  6
CONTINUOUS
 62
7
 10
-125.865997
 20
171.000000
 11
-124.134003
 21
171.000000
  0
LINE
  8
0
  6
CONTINUOUS
 62
7
 10
-172.500000
 20
164.500000
 11
-172.500000
 21
174.500000
  0
LINE
  8
0
  6
CONTINUOUS
 62
7
 10
-165.000000
 20
164.500000
 11
-165.000000
 21
174.500000
  0
LINE
  8
0
  6
CONTINUOUS
 62
7
 10
-160.000000
 20
166.500000
 11
-155.300003
 21
166.500000
  0
LINE
  8
0
  6
CONTINUOUS
 62
2
 10
-160.000000
 20
167.000000
 11
-155.300003
 21
167.000000
  0
LINE
  8
0
  6
CONTINUOUS
 62
2
 10
-160.000000
 20
172.000000
 11
-155.300003
 21
172.000000
  0
LINE
  8
0
  6
CONTINUOUS
 62
7
 10
-160.000000
 20
172.500000
 11
-155.300003
 21
172.500000
  0
LINE
  8
0
  6
CENTER
 62
2
 10
-178.300003
 20
169.500000
 11
-154.300003
 21
169.500000
  0
LINE
  8
0
  6
CONTINUOUS
 62
7
 10
-155.300003
 20
166.500000
 11
-155.300003
 21
172.500000
  0
LINE
  8
0
  6
CONTINUOUS
 62
7
 10
-165.000000
 20
173.500000
 11
-160.000000
 21
173.500000
  0
LINE
  8
0
  6
CONTINUOUS
 62
7
 10
-165.000000
 20
172.744003
 11
-160.000000
 21
172.744003
  0
LINE
  8
0
  6
CONTINUOUS
 62
7
 10
-165.000000
 20
170.255997
 11
-160.000000
 21
170.255997
  0
LINE
  8
0
  6
CONTINUOUS
 62
7
 10
-165.000000
 20
168.744003
 11
-160.000000
 21
168.744003
  0
LINE
  8
0
  6
CONTINUOUS
 62
7
 10
-165.000000
 20
166.255997
 11
-160.000000
 21
166.255997
  0
LINE
  8
0
  6
CONTINUOUS
 62
7
 10
-165.000000
 20
165.500000
 11
-160.000000
 21
165.500000
  0
LINE
  8
0
  6
CONTINUOUS
 62
7
 10
-160.000000
 20
173.500000
 11
-160.000000
 21
165.500000
  0
LINE
  8
0
  6
CONTINUOUS
 62
7
 10
-165.000000
 20
13.243800
 11
-160.000000
 21
13.243800
  0
LINE
  8
0
  6
CONTINUOUS
 62
7
 10
-165.000000
 20
10.756300
 11
-160.000000
 21
10.756300
  0
LINE
  8
0
  6
CONTINUOUS
 62
7
 10
-165.000000
 20
14.000000
 11
-160.000000
 21
14.000000
  0
LINE
  8
0
  6
CONTINUOUS
 62
7
 10
-160.000000
 20
6.000030
 11
-160.000000
 21
14.000000
  0
LINE
  8
0
  6
CONTINUOUS
 62
7
 10
-165.000000
 20
15.000000
 11
-165.000000
 21
5.000030
  0
LINE
  8
0
  6
CONTINUOUS
 62
7
 10
-160.000000
 20
13.000000
 11
-155.300003
 21
13.000000
  0
LINE
  8
0
  6
CONTINUOUS
 62
2
 10
-160.000000
 20
12.500000
 11
-155.300003
 21
12.500000
  0
LINE
  8
0
  6
CONTINUOUS
 62
2
 10
-160.000000
 20
7.500030
 11
-155.300003
 21
7.500030
  0
LINE
  8
0
  6
CONTINUOUS
 62
7
 10
-160.000000
 20
7.000030
 11
-155.300003
 21
7.000030
  0
LINE
  8
0
  6
CENTER
 62
2
 10
-166.000000
 20
10.000000
 11
-154.300003
 21
10.000000
  0
LINE
  8
0
  6
CONTINUOUS
 62
7
 10
-155.300003
 20
13.000000
 11
-155.300003
 21
7.000030
  0
LINE
  8
0
  6
CONTINUOUS
 62
7
 10
-165.000000
 20
6.000030
 11
-160.000000
 21
6.000030
  0
LINE
  8
0
  6
CONTINUOUS
 62
7
 10
-165.000000
 20
6.756290
 11
-160.000000
 21
6.756290
  0
LINE
  8
0
  6
CONTINUOUS
 62
7
 10
-165.000000
 20
9.243760
 11
-160.000000
 21
9.243760
  0
LINE
  8
0
  6
CENTER
 62
2
 10
-117.000000
 20
-109.400002
 11
-117.000000
 21
-94.599998
  0
LINE
  8
0
  6
CONTINUOUS
 62
7
 10
-122.113998
 20
-94.500000
 11
-118.500000
 21
-94.500000
  0
LINE
  8
0
  6
CONTINUOUS
 62
7
 10
-126.000000
 20
-94.500000
 11
-124.886002
 21
-94.500000
  0
LINE
  8
0
  6
CONTINUOUS
 62
7
 10
-131.000000
 20
-86.000000
 11
-131.000000
 21
-93.000000
  0
LINE
  8
0
  6
CONTINUOUS
 62
7
 10
-130.699997
 20
-93.300003
 11
-130.699997
 21
-110.699997
  0
LINE
  8
0
  6
CONTINUOUS
 62
7
 10
-131.000000
 20
-92.999901
 11
-130.699997
 21
-93.299896
  0
LINE
  8
0
  6
CONTINUOUS
 62
7
 10
-126.000000
 20
-109.500000
 11
-124.886002
 21
-109.500000
  0
LINE
  8
0
  6
CONTINUOUS
 62
7
 10
-131.000000
 20
-118.000000
 11
-118.500000
 21
-118.000000
  0
LINE
  8
0
  6
CONTINUOUS
 62
7
 10
-131.000000
 20
-118.000000
 11
-131.000000
 21
-111.000000
  0
LINE
  8
0
  6
CONTINUOUS
 62
7
 10
-131.000000
 20
-111.000000
 11
-130.699997
 21
-110.699997
  0
LINE
  8
0
  6
CONTINUOUS
 62
7
 10
-131.000000
 20
-86.000000
 11
-118.500000
 21
-86.000000
  0
LINE
  8
0
  6
CONTINUOUS
 62
7
 10
-109.000000
 20
-118.500000
 11
-109.000000
 21
-85.500000
  0
LINE
  8
0
  6
CONTINUOUS
 62
7
 10
-118.500000
 20
-85.500000
 11
-118.500000
 21
-94.500000
  0
LINE
  8
0
  6
CONTINUOUS
 62
7
 10
-118.500000
 20
-118.500000
 11
-109.000000
 21
-118.500000
  0
LINE
  8
0
  6
CENTER
 62
2
 10
-131.699997
 20
-102.000000
 11
-108.000000
 21
-102.000000
  0
LINE
  8
0
  6
CONTINUOUS
 62
7
 10
-119.000000
 20
-118.000000
 11
-119.000000
 21
-109.500000
  0
LINE
  8
0
  6
CONTINUOUS
 62
7
 10
-126.000000
 20
-94.500000
 11
-126.000000
 21
-109.500000
  0
LINE
  8
0
  6
CONTINUOUS
 62
7
 10
-118.500000
 20
-118.500000
 11
-118.500000
 21
-109.500000
  0
LINE
  8
0
  6
CONTINUOUS
 62
7
 10
-122.113998
 20
-109.500000
 11
-118.500000
 21
-109.500000
  0
LINE
  8
0
  6
CONTINUOUS
 62
7
 10
-119.000000
 20
-86.000000
 11
-119.000000
 21
-94.500000
  0
LINE
  8
0
  6
CENTER
 62
2
 10
-133.000000
 20
-89.500000
 11
-129.000000
 21
-89.500000
  0
LINE
  8
0
  6
CENTER
 62
2
 10
-111.000000
 20
-90.000000
 11
-107.000000
 21
-90.000000
  0
LINE
  8
0
  6
CENTER
 62
2
 10
-111.000000
 20
-114.000000
 11
-107.000000
 21
-114.000000
  0
LINE
  8
0
  6
CENTER
 62
2
 10
-133.000000
 20
-114.500000
 11
-129.000000
 21
-114.500000
  0
LINE
  8
0
  6
CONTINUOUS
 62
7
 10
-109.000000
 20
-85.500000
 11
-130.500000
 21
-85.500000
  0
LINE
  8
0
  6
CONTINUOUS
 62
7
 10
-109.500000
 20
-85.500000
 11
-109.500000
 21
-75.500000
  0
LINE
  8
0
  6
CONTINUOUS
 62
7
 10
-130.500000
 20
-75.500000
 11
-109.500000
 21
-75.500000
  0
LINE
  8
0
  6
CONTINUOUS
 62
7
 10
-130.500000
 20
-85.500000
 11
-130.500000
 21
-75.500000
  0
LINE
  8
0
  6
CONTINUOUS
 62
7
 10
-129.000000
 20
-85.500000
 11
-129.000000
 21
-86.000000
  0
LINE
  8
0
  6
CONTINUOUS
 62
7
 10
-121.000000
 20
-85.500000
 11
-121.000000
 21
-86.000000
  0
LINE
  8
0
  6
CONTINUOUS
 62
7
 10
-126.435997
 20
-76.500000
 11
-123.564003
 21
-76.500000
  0
LINE
  8
0
  6
CONTINUOUS
 62
7
 10
-127.746002
 20
-77.256203
 11
-129.182007
 21
-79.743698
  0
LINE
  8
0
  6
CONTINUOUS
 62
7
 10
-129.182007
 20
-81.256203
 11
-127.746002
 21
-83.743698
  0
LINE
  8
0
  6
CONTINUOUS
 62
7
 10
-123.564003
 20
-84.500000
 11
-126.435997
 21
-84.500000
  0
LINE
  8
0
  6
CONTINUOUS
 62
7
 10
-120.818001
 20
-81.256203
 11
-122.253998
 21
-83.743698
  0
LINE
  8
0
  6
CONTINUOUS
 62
7
 10
-122.253998
 20
-77.256203
 11
-120.818001
 21
-79.743698
  0
LINE
  8
0
  6
CENTER
 62
2
 10
-130.250000
 20
-80.500000
 11
-119.750000
 21
-80.500000
  0
LINE
  8
0
  6
CENTER
 62
2
 10
-125.000000
 20
-85.750000
 11
-125.000000
 21
-75.250000
  0
LINE
  8
0
  6
CONTINUOUS
 62
7
 10
-125.865997
 20
-79.000000
 11
-126.732002
 21
-80.500000
  0
LINE
  8
0
  6
CONTINUOUS
 62
7
 10
-126.732002
 20
-80.499901
 11
-125.865997
 21
-82.000000
  0
LINE
  8
0
  6
CONTINUOUS
 62
7
 10
-124.134003
 20
-82.000000
 11
-125.865997
 21
-82.000000
  0
LINE
  8
0
  6
CONTINUOUS
 62
7
 10
-123.267998
 20
-80.500000
 11
-124.134003
 21
-82.000000
  0
LINE
  8
0
  6
CONTINUOUS
 62
7
 10
-124.134003
 20
-78.999901
 11
-123.267998
 21
-80.499901
  0
LINE
  8
0
  6
CONTINUOUS
 62
7
 10
-125.865997
 20
-79.000000
 11
-124.134003
 21
-79.000000
  0
LINE
  8
0
  6
CONTINUOUS
 62
7
 10
-162.500000
 20
-85.500000
 11
-162.500000
 21
-75.500000
  0
LINE
  8
0
  6
CONTINUOUS
 62
7
 10
-155.000000
 20
-85.500000
 11
-155.000000
 21
-75.500000
  0
LINE
  8
0
  6
CONTINUOUS
 62
7
 10
-150.000000
 20
-83.500000
 11
-145.300003
 21
-83.500000
  0
LINE
  8
0
  6
CONTINUOUS
 62
2
 10
-150.000000
 20
-83.000000
 11
-145.300003
 21
-83.000000
  0
LINE
  8
0
  6
CONTINUOUS
 62
2
 10
-150.000000
 20
-78.000000
 11
-145.300003
 21
-78.000000
  0
LINE
  8
0
  6
CONTINUOUS
 62
7
 10
-150.000000
 20
-77.500000
 11
-145.300003
 21
-77.500000
  0
LINE
  8
0
  6
CENTER
 62
2
 10
-168.300003
 20
-80.500000
 11
-144.300003
 21
-80.500000
  0
LINE
  8
0
  6
CONTINUOUS
 62
7
 10
-145.300003
 20
-83.500000
 11
-145.300003
 21
-77.500000
  0
LINE
  8
0
  6
CONTINUOUS
 62
7
 10
-155.000000
 20
-76.500000
 11
-150.000000
 21
-76.500000
  0
LINE
  8
0
  6
CONTINUOUS
 62
7
 10
-155.000000
 20
-77.256203
 11
-150.000000
 21
-77.256203
  0
LINE
  8
0
  6
CONTINUOUS
 62
7
 10
-155.000000
 20
-79.743698
 11
-150.000000
 21
-79.743698
  0
LINE
  8
0
  6
CONTINUOUS
 62
7
 10
-155.000000
 20
-81.256203
 11
-150.000000
 21
-81.256203
  0
LINE
  8
0
  6
CONTINUOUS
 62
7
 10
-155.000000
 20
-83.743698
 11
-150.000000
 21
-83.743698
  0
LINE
  8
0
  6
CONTINUOUS
 62
7
 10
-155.000000
 20
-84.500000
 11
-150.000000
 21
-84.500000
  0
LINE
  8
0
  6
CONTINUOUS
 62
7
 10
-150.000000
 20
-76.500000
 11
-150.000000
 21
-84.500000
  0
LINE
  8
0
  6
CONTINUOUS
 62
7
 10
-155.000000
 20
-236.755997
 11
-150.000000
 21
-236.755997
  0
LINE
  8
0
  6
CONTINUOUS
 62
7
 10
-155.000000
 20
-239.244003
 11
-150.000000
 21
-239.244003
  0
LINE
  8
0
  6
CONTINUOUS
 62
7
 10
-155.000000
 20
-236.000000
 11
-150.000000
 21
-236.000000
  0
LINE
  8
0
  6
CONTINUOUS
 62
7
 10
-150.000000
 20
-244.000000
 11
-150.000000
 21
-236.000000
  0
LINE
  8
0
  6
CONTINUOUS
 62
7
 10
-155.000000
 20
-235.000000
 11
-155.000000
 21
-245.000000
  0
LINE
  8
0
  6
CONTINUOUS
 62
7
 10
-150.000000
 20
-237.000000
 11
-145.300003
 21
-237.000000
  0
LINE
  8
0
  6
CONTINUOUS
 62
2
 10
-150.000000
 20
-237.500000
 11
-145.300003
 21
-237.500000
  0
LINE
  8
0
  6
CONTINUOUS
 62
2
 10
-150.000000
 20
-242.500000
 11
-145.300003
 21
-242.500000
  0
LINE
  8
0
  6
CONTINUOUS
 62
7
 10
-150.000000
 20
-243.000000
 11
-145.300003
 21
-243.000000
  0
LINE
  8
0
  6
CENTER
 62
2
 10
-156.000000
 20
-240.000000
 11
-144.300003
 21
-240.000000
  0
LINE
  8
0
  6
CONTINUOUS
 62
7
 10
-145.300003
 20
-237.000000
 11
-145.300003
 21
-243.000000
  0
LINE
  8
0
  6
CONTINUOUS
 62
7
 10
-155.000000
 20
-244.000000
 11
-150.000000
 21
-244.000000
  0
LINE
  8
0
  6
CONTINUOUS
 62
7
 10
-155.000000
 20
-243.244003
 11
-150.000000
 21
-243.244003
  0
LINE
  8
0
  6
CONTINUOUS
 62
7
 10
-155.000000
 20
-240.755997
 11
-150.000000
 21
-240.755997
  0
LINE
  8
0
  6
CONTINUOUS
 62
7
 10
-215.500000
 20
193.500000
 11
-214.300003
 21
193.500000
  0
LINE
  8
0
  6
CONTINUOUS
 62
7
 10
-214.300003
 20
193.500000
 11
-214.300003
 21
199.500000
  0
LINE
  8
0
  6
CONTINUOUS
 62
2
 10
-215.500000
 20
194.000000
 11
-214.300003
 21
194.000000
  0
LINE
  8
0
  6
CONTINUOUS
 62
7
 10
-214.300003
 20
194.699997
 11
-212.800003
 21
194.699997
  0
LINE
  8
0
  6
CONTINUOUS
 62
7
 10
-212.800003
 20
194.699997
 11
-212.800003
 21
198.300003
  0
LINE
  8
0
  6
CONTINUOUS
 62
7
 10
-214.300003
 20
198.300003
 11
-212.800003
 21
198.300003
  0
LINE
  8
0
  6
CONTINUOUS
 62
2
 10
-215.457993
 20
199.000000
 11
-214.300003
 21
199.000000
  0
LINE
  8
0
  6
CONTINUOUS
 62
7
 10
-215.328003
 20
199.500000
 11
-214.300003
 21
199.500000
  0
LINE
  8
0
  6
CONTINUOUS
 62
7
 10
-172.671997
 20
199.500000
 11
-175.800003
 21
199.500000
  0
LINE
  8
0
  6
CONTINUOUS
 62
2
 10
-172.542007
 20
199.000000
 11
-175.800003
 21
199.000000
  0
LINE
  8
0
  6
CONTINUOUS
 62
7
 10
-175.800003
 20
198.300003
 11
-177.300003
 21
198.300003
  0
LINE
  8
0
  6
CONTINUOUS
 62
7
 10
-175.800003
 20
194.699997
 11
-177.300003
 21
194.699997
  0
LINE
  8
0
  6
CONTINUOUS
 62
2
 10
-172.500000
 20
194.000000
 11
-175.800003
 21
194.000000
  0
LINE
  8
0
  6
CONTINUOUS
 62
7
 10
-172.500000
 20
193.500000
 11
-175.800003
 21
193.500000
  0
LINE
  8
0
  6
CONTINUOUS
 62
7
 10
-215.500000
 20
166.500000
 11
-214.300003
 21
166.500000
  0
LINE
  8
0
  6
CONTINUOUS
 62
7
 10
-214.300003
 20
166.500000
 11
-214.300003
 21
172.500000
  0
LINE
  8
0
  6
CONTINUOUS
 62
2
 10
-215.500000
 20
167.000000
 11
-214.300003
 21
167.000000
  0
LINE
  8
0
  6
CONTINUOUS
 62
7
 10
-214.300003
 20
167.699997
 11
-212.800003
 21
167.699997
  0
LINE
  8
0
  6
CONTINUOUS
 62
7
 10
-212.800003
 20
167.699997
 11
-212.800003
 21
171.300003
  0
LINE
  8
0
  6
CONTINUOUS
 62
7
 10
-214.300003
 20
171.300003
 11
-212.800003
 21
171.300003
  0
LINE
  8
0
  6
CONTINUOUS
 62
2
 10
-215.500000
 20
172.000000
 11
-214.300003
 21
172.000000
  0
LINE
  8
0
  6
CONTINUOUS
 62
7
 10
-215.500000
 20
172.500000
 11
-214.300003
 21
172.500000
  0
LINE
  8
0
  6
CONTINUOUS
 62
7
 10
-172.500000
 20
172.500000
 11
-175.800003
 21
172.500000
  0
LINE
  8
0
  6
CONTINUOUS
 62
7
 10
-175.800003
 20
172.500000
 11
-175.800003
 21
166.500000
  0
LINE
  8
0
  6
CONTINUOUS
 62
2
 10
-172.500000
 20
172.000000
 11
-175.800003
 21
172.000000
  0
LINE
  8
0
  6
CONTINUOUS
 62
7
 10
-175.800003
 20
171.300003
 11
-177.300003
 21
171.300003
  0
LINE
  8
0
  6
CONTINUOUS
 62
7
 10
-175.800003
 20
167.699997
 11
-177.300003
 21
167.699997
  0
LINE
  8
0
  6
CONTINUOUS
 62
2
 10
-172.500000
 20
167.000000
 11
-175.800003
 21
167.000000
  0
LINE
  8
0
  6
CONTINUOUS
 62
7
 10
-172.500000
 20
166.500000
 11
-175.800003
 21
166.500000
  0
LINE
  8
0
  6
CONTINUOUS
 62
7
 10
159.500000
 20
193.500000
 11
160.699997
 21
193.500000
  0
LINE
  8
0
  6
CONTINUOUS
 62
7
 10
160.699997
 20
193.500000
 11
160.699997
 21
199.500000
  0
LINE
  8
0
  6
CONTINUOUS
 62
2
 10
159.500000
 20
194.000000
 11
160.699997
 21
194.000000
  0
LINE
  8
0
  6
CONTINUOUS
 62
7
 10
160.699997
 20
194.699997
 11
162.199997
 21
194.699997
  0
LINE
  8
0
  6
CONTINUOUS
 62
7
 10
162.199997
 20
194.699997
 11
162.199997
 21
198.300003
  0
LINE
  8
0
  6
CONTINUOUS
 62
7
 10
160.699997
 20
198.300003
 11
162.199997
 21
198.300003
  0
LINE
  8
0
  6
CONTINUOUS
 62
2
 10
159.542007
 20
199.000000
 11
160.699997
 21
199.000000
  0
LINE
  8
0
  6
CONTINUOUS
 62
7
 10
159.671997
 20
199.500000
 11
160.699997
 21
199.500000
  0
LINE
  8
0
  6
CONTINUOUS
 62
7
 10
227.328003
 20
199.500000
 11
224.199997
 21
199.500000
  0
LINE
  8
0
  6
CONTINUOUS
 62
7
 10
224.199997
 20
201.500000
 11
224.199997
 21
191.000000
  0
LINE
  8
0
  6
CONTINUOUS
 62
2
 10
227.457993
 20
199.000000
 11
224.199997
 21
199.000000
  0
LINE
  8
0
  6
CONTINUOUS
 62
7
 10
224.199997
 20
198.300003
 11
222.699997
 21
198.300003
  0
LINE
  8
0
  6
CONTINUOUS
 62
7
 10
224.199997
 20
194.699997
 11
222.699997
 21
194.699997
  0
LINE
  8
0
  6
CONTINUOUS
 62
2
 10
227.500000
 20
194.000000
 11
224.199997
 21
194.000000
  0
LINE
  8
0
  6
CONTINUOUS
 62
7
 10
227.500000
 20
193.500000
 11
224.199997
 21
193.500000
  0
LINE
  8
0
  6
CONTINUOUS
 62
7
 10
159.500000
 20
166.500000
 11
160.699997
 21
166.500000
  0
LINE
  8
0
  6
CONTINUOUS
 62
7
 10
160.699997
 20
166.500000
 11
160.699997
 21
172.500000
  0
LINE
  8
0
  6
CONTINUOUS
 62
2
 10
159.500000
 20
167.000000
 11
160.699997
 21
167.000000
  0
LINE
  8
0
  6
CONTINUOUS
 62
7
 10
160.699997
 20
167.699997
 11
162.199997
 21
167.699997
  0
LINE
  8
0
  6
CONTINUOUS
 62
7
 10
162.199997
 20
167.699997
 11
162.199997
 21
171.300003
  0
LINE
  8
0
  6
CONTINUOUS
 62
7
 10
160.699997
 20
171.300003
 11
162.199997
 21
171.300003
  0
LINE
  8
0
  6
CONTINUOUS
 62
2
 10
159.500000
 20
172.000000
 11
160.699997
 21
172.000000
  0
LINE
  8
0
  6
CONTINUOUS
 62
7
 10
159.500000
 20
172.500000
 11
160.699997
 21
172.500000
  0
LINE
  8
0
  6
CONTINUOUS
 62
7
 10
227.500000
 20
172.500000
 11
224.199997
 21
172.500000
  0
LINE
  8
0
  6
CONTINUOUS
 62
7
 10
224.199997
 20
172.500000
 11
224.199997
 21
166.500000
  0
LINE
  8
0
  6
CONTINUOUS
 62
2
 10
227.500000
 20
172.000000
 11
224.199997
 21
172.000000
  0
LINE
  8
0
  6
CONTINUOUS
 62
7
 10
224.199997
 20
171.300003
 11
222.699997
 21
171.300003
  0
LINE
  8
0
  6
CONTINUOUS
 62
7
 10
224.199997
 20
167.699997
 11
222.699997
 21
167.699997
  0
LINE
  8
0
  6
CONTINUOUS
 62
2
 10
227.500000
 20
167.000000
 11
224.199997
 21
167.000000
  0
LINE
  8
0
  6
CONTINUOUS
 62
7
 10
227.500000
 20
166.500000
 11
224.199997
 21
166.500000
  0
LINE
  8
0
  6
CONTINUOUS
 62
7
 10
-215.500000
 20
-56.500000
 11
-214.300003
 21
-56.500000
  0
LINE
  8
0
  6
CONTINUOUS
 62
7
 10
-214.300003
 20
-56.500000
 11
-214.300003
 21
-50.500000
  0
LINE
  8
0
  6
CONTINUOUS
 62
2
 10
-215.500000
 20
-56.000000
 11
-214.300003
 21
-56.000000
  0
LINE
  8
0
  6
CONTINUOUS
 62
7
 10
-214.300003
 20
-55.299999
 11
-212.800003
 21
-55.299999
  0
LINE
  8
0
  6
CONTINUOUS
 62
7
 10
-212.800003
 20
-55.299999
 11
-212.800003
 21
-51.700001
  0
LINE
  8
0
  6
CONTINUOUS
 62
7
 10
-214.300003
 20
-51.700001
 11
-212.800003
 21
-51.700001
  0
LINE
  8
0
  6
CONTINUOUS
 62
2
 10
-215.457993
 20
-51.000000
 11
-214.300003
 21
-51.000000
  0
LINE
  8
0
  6
CONTINUOUS
 62
7
 10
-215.328003
 20
-50.500000
 11
-214.300003
 21
-50.500000
  0
LINE
  8
0
  6
CONTINUOUS
 62
7
 10
-162.671997
 20
-50.500000
 11
-165.800003
 21
-50.500000
  0
LINE
  8
0
  6
CONTINUOUS
 62
7
 10
-165.800003
 20
-48.500000
 11
-165.800003
 21
-59.000000
  0
LINE
  8
0
  6
CONTINUOUS
 62
2
 10
-162.542007
 20
-51.000000
 11
-165.800003
 21
-51.000000
  0
LINE
  8
0
  6
CONTINUOUS
 62
7
 10
-165.800003
 20
-51.700001
 11
-167.300003
 21
-51.700001
  0
LINE
  8
0
  6
CONTINUOUS
 62
7
 10
-165.800003
 20
-55.299999
 11
-167.300003
 21
-55.299999
  0
LINE
  8
0
  6
CONTINUOUS
 62
2
 10
-162.500000
 20
-56.000000
 11
-165.800003
 21
-56.000000
  0
LINE
  8
0
  6
CONTINUOUS
 62
7
 10
-162.500000
 20
-56.500000
 11
-165.800003
 21
-56.500000
  0
LINE
  8
0
  6
CONTINUOUS
 62
7
 10
-215.500000
 20
-83.500000
 11
-214.300003
 21
-83.500000
  0
LINE
  8
0
  6
CONTINUOUS
 62
7
 10
-214.300003
 20
-83.500000
 11
-214.300003
 21
-77.500000
  0
LINE
  8
0
  6
CONTINUOUS
 62
2
 10
-215.500000
 20
-83.000000
 11
-214.300003
 21
-83.000000
  0
LINE
  8
0
  6
CONTINUOUS
 62
7
 10
-214.300003
 20
-82.300003
 11
-212.800003
 21
-82.300003
  0
LINE
  8
0
  6
CONTINUOUS
 62
7
 10
-212.800003
 20
-82.300003
 11
-212.800003
 21
-78.699997
  0
LINE
  8
0
  6
CONTINUOUS
 62
7
 10
-214.300003
 20
-78.699997
 11
-212.800003
 21
-78.699997
  0
LINE
  8
0
  6
CONTINUOUS
 62
2
 10
-215.500000
 20
-78.000000
 11
-214.300003
 21
-78.000000
  0
LINE
  8
0
  6
CONTINUOUS
 62
7
 10
-215.500000
 20
-77.500000
 11
-214.300003
 21
-77.500000
  0
LINE
  8
0
  6
CONTINUOUS
 62
7
 10
-162.500000
 20
-77.500000
 11
-165.800003
 21
-77.500000
  0
LINE
  8
0
  6
CONTINUOUS
 62
7
 10
-165.800003
 20
-77.500000
 11
-165.800003
 21
-83.500000
  0
LINE
  8
0
  6
CONTINUOUS
 62
2
 10
-162.500000
 20
-78.000000
 11
-165.800003
 21
-78.000000
  0
LINE
  8
0
  6
CONTINUOUS
 62
7
 10
-165.800003
 20
-78.699997
 11
-167.300003
 21
-78.699997
  0
LINE
  8
0
  6
CONTINUOUS
 62
7
 10
-165.800003
 20
-82.300003
 11
-167.300003
 21
-82.300003
  0
LINE
  8
0
  6
CONTINUOUS
 62
2
 10
-162.500000
 20
-83.000000
 11
-165.800003
 21
-83.000000
  0
LINE
  8
0
  6
CONTINUOUS
 62
7
 10
-162.500000
 20
-83.500000
 11
-165.800003
 21
-83.500000
  0
LINE
  8
0
  6
CONTINUOUS
 62
7
 10
159.500000
 20
-56.500000
 11
160.699997
 21
-56.500000
  0
LINE
  8
0
  6
CONTINUOUS
 62
7
 10
160.699997
 20
-56.500000
 11
160.699997
 21
-50.500000
  0
LINE
  8
0
  6
CONTINUOUS
 62
2
 10
159.500000
 20
-56.000000
 11
160.699997
 21
-56.000000
  0
LINE
  8
0
  6
CONTINUOUS
 62
7
 10
160.699997
 20
-55.299999
 11
162.199997
 21
-55.299999
  0
LINE
  8
0
  6
CONTINUOUS
 62
7
 10
162.199997
 20
-55.299999
 11
162.199997
 21
-51.700001
  0
LINE
  8
0
  6
CONTINUOUS
 62
7
 10
160.699997
 20
-51.700001
 11
162.199997
 21
-51.700001
  0
LINE
  8
0
  6
CONTINUOUS
 62
2
 10
159.542007
 20
-51.000000
 11
160.699997
 21
-51.000000
  0
LINE
  8
0
  6
CONTINUOUS
 62
7
 10
159.671997
 20
-50.500000
 11
160.699997
 21
-50.500000
  0
LINE
  8
0
  6
CONTINUOUS
 62
7
 10
242.328003
 20
-50.500000
 11
239.199997
 21
-50.500000
  0
LINE
  8
0
  6
CONTINUOUS
 62
7
 10
239.199997
 20
-48.500000
 11
239.199997
 21
-59.000000
  0
LINE
  8
0
  6
CONTINUOUS
 62
2
 10
242.457993
 20
-51.000000
 11
239.199997
 21
-51.000000
  0
LINE
  8
0
  6
CONTINUOUS
 62
7
 10
239.199997
 20
-51.700001
 11
237.699997
 21
-51.700001
  0
LINE
  8
0
  6
CONTINUOUS
 62
7
 10
239.199997
 20
-55.299999
 11
237.699997
 21
-55.299999
  0
LINE
  8
0
  6
CONTINUOUS
 62
2
 10
242.500000
 20
-56.000000
 11
239.199997
 21
-56.000000
  0
LINE
  8
0
  6
CONTINUOUS
 62
7
 10
242.500000
 20
-56.500000
 11
239.199997
 21
-56.500000
  0
LINE
  8
0
  6
CONTINUOUS
 62
7
 10
159.500000
 20
-83.500000
 11
160.699997
 21
-83.500000
  0
LINE
  8
0
  6
CONTINUOUS
 62
7
 10
160.699997
 20
-83.500000
 11
160.699997
 21
-77.500000
  0
LINE
  8
0
  6
CONTINUOUS
 62
2
 10
159.500000
 20
-83.000000
 11
160.699997
 21
-83.000000
  0
LINE
  8
0
  6
CONTINUOUS
 62
7
 10
160.699997
 20
-82.300003
 11
162.199997
 21
-82.300003
  0
LINE
  8
0
  6
CONTINUOUS
 62
7
 10
162.199997
 20
-82.300003
 11
162.199997
 21
-78.699997
  0
LINE
  8
0
  6
CONTINUOUS
 62
7
 10
160.699997
 20
-78.699997
 11
162.199997
 21
-78.699997
  0
LINE
  8
0
  6
CONTINUOUS
 62
2
 10
159.500000
 20
-78.000000
 11
160.699997
 21
-78.000000
  0
LINE
  8
0
  6
CONTINUOUS
 62
7
 10
159.500000
 20
-77.500000
 11
160.699997
 21
-77.500000
  0
LINE
  8
0
  6
CONTINUOUS
 62
7
 10
242.500000
 20
-77.500000
 11
239.199997
 21
-77.500000
  0
LINE
  8
0
  6
CONTINUOUS
 62
7
 10
239.199997
 20
-77.500000
 11
239.199997
 21
-83.500000
  0
LINE
  8
0
  6
CONTINUOUS
 62
2
 10
242.500000
 20
-78.000000
 11
239.199997
 21
-78.000000
  0
LINE
  8
0
  6
CONTINUOUS
 62
7
 10
239.199997
 20
-78.699997
 11
237.699997
 21
-78.699997
  0
LINE
  8
0
  6
CONTINUOUS
 62
7
 10
239.199997
 20
-82.300003
 11
237.699997
 21
-82.300003
  0
LINE
  8
0
  6
CONTINUOUS
 62
2
 10
242.500000
 20
-83.000000
 11
239.199997
 21
-83.000000
  0
LINE
  8
0
  6
CONTINUOUS
 62
7
 10
242.500000
 20
-83.500000
 11
239.199997
 21
-83.500000
  0
LINE
  8
0
  6
CONTINUOUS
 62
7
 10
-186.899994
 20
131.500000
 11
-186.899994
 21
130.000000
  0
LINE
  8
0
  6
CONTINUOUS
 62
7
 10
-193.399994
 20
131.500000
 11
-193.399994
 21
130.000000
  0
LINE
  8
0
  6
CONTINUOUS
 62
7
 10
-186.899994
 20
130.000000
 11
-193.399994
 21
130.000000
  0
LINE
  8
0
  6
CONTINUOUS
 62
7
 10
-223.500000
 20
131.500000
 11
-223.500000
 21
121.500000
  0
LINE
  8
0
  6
CONTINUOUS
 62
7
 10
-189.000000
 20
130.000000
 11
-189.000000
 21
129.000000
  0
LINE
  8
0
  6
CONTINUOUS
 62
7
 10
-176.000000
 20
129.000000
 11
-176.000000
 21
121.500000
  0
LINE
  8
0
  6
CONTINUOUS
 62
7
 10
-223.500000
 20
129.000000
 11
-176.000000
 21
129.000000
  0
LINE
  8
0
  6
CONTINUOUS
 62
7
 10
-223.500000
 20
121.500000
 11
-176.000000
 21
121.500000
  0
LINE
  8
0
  6
CONTINUOUS
 62
7
 10
-279.700012
 20
130.000000
 11
-279.700012
 21
131.500000
  0
LINE
  8
0
  6
CONTINUOUS
 62
7
 10
-268.700012
 20
130.000000
 11
-279.700012
 21
130.000000
  0
LINE
  8
0
  6
CONTINUOUS
 62
7
 10
-268.700012
 20
130.000000
 11
-268.700012
 21
132.000000
  0
LINE
  8
0
  6
CONTINUOUS
 62
7
 10
-268.000000
 20
121.500000
 11
-287.000000
 21
121.500000
  0
LINE
  8
0
  6
CONTINUOUS
 62
2
 10
-272.799988
 20
121.500000
 11
-272.799988
 21
122.500000
  0
LINE
  8
0
  6
CONTINUOUS
 62
2
 10
-273.500000
 20
122.500000
 11
-273.500000
 21
126.000000
  0
LINE
  8
0
  6
CONTINUOUS
 62
2
 10
-271.000000
 20
127.500000
 11
-272.000000
 21
127.500000
  0
LINE
  8
0
  6
CONTINUOUS
 62
2
 10
-269.500000
 20
122.500000
 11
-269.500000
 21
126.000000
  0
LINE
  8
0
  6
CONTINUOUS
 62
2
 10
-270.200012
 20
121.500000
 11
-270.200012
 21
122.500000
  0
LINE
  8
0
  6
CONTINUOUS
 62
7
 10
-268.000000
 20
129.000000
 11
-280.500000
 21
129.000000
  0
LINE
  8
0
  6
CONTINUOUS
 62
7
 10
-280.500000
 20
129.000000
 11
-280.500000
 21
131.500000
  0
LINE
  8
0
  6
CONTINUOUS
 62
7
 10
-287.000000
 20
121.500000
 11
-287.000000
 21
131.500000
  0
LINE
  8
0
  6
CONTINUOUS
 62
2
 10
-269.500000
 20
122.500000
 11
-270.200012
 21
122.500000
  0
LINE
  8
0
  6
CONTINUOUS
 62
7
 10
-268.000000
 20
121.500000
 11
-268.000000
 21
129.000000
  0
LINE
  8
0
  6
CONTINUOUS
 62
2
 10
-272.799988
 20
122.500000
 11
-273.500000
 21
122.500000
  0
LINE
  8
0
  6
CONTINUOUS
 62
7
 10
-118.300003
 20
130.000000
 11
-118.300003
 21
131.600006
  0
LINE
  8
0
  6
CONTINUOUS
 62
7
 10
-129.300003
 20
130.000000
 11
-118.300003
 21
130.000000
  0
LINE
  8
0
  6
CONTINUOUS
 62
7
 10
-129.300003
 20
130.000000
 11
-129.300003
 21
132.000000
  0
LINE
  8
0
  6
CONTINUOUS
 62
7
 10
-130.000000
 20
121.500000
 11
-111.000000
 21
121.500000
  0
LINE
  8
0
  6
CONTINUOUS
 62
2
 10
-125.199997
 20
121.500000
 11
-125.199997
 21
122.500000
  0
LINE
  8
0
  6
CONTINUOUS
 62
2
 10
-128.500000
 20
122.500000
 11
-127.800003
 21
122.500000
  0
LINE
  8
0
  6
CONTINUOUS
 62
2
 10
-124.500000
 20
122.500000
 11
-124.500000
 21
126.000000
  0
LINE
  8
0
  6
CONTINUOUS
 62
2
 10
-127.000000
 20
127.500000
 11
-126.000000
 21
127.500000
  0
LINE
  8
0
  6
CONTINUOUS
 62
2
 10
-128.500000
 20
122.500000
 11
-128.500000
 21
126.000000
  0
LINE
  8
0
  6
CONTINUOUS
 62
2
 10
-127.800003
 20
121.500000
 11
-127.800003
 21
122.500000
  0
LINE
  8
0
  6
CONTINUOUS
 62
7
 10
-130.000000
 20
121.500000
 11
-130.000000
 21
129.000000
  0
LINE
  8
0
  6
CONTINUOUS
 62
7
 10
-130.000000
 20
129.000000
 11
-117.500000
 21
129.000000
  0
LINE
  8
0
  6
CONTINUOUS
 62
7
 10
-117.500000
 20
129.000000
 11
-117.500000
 21
131.500000
  0
LINE
  8
0
  6
CONTINUOUS
 62
7
 10
-111.000000
 20
121.500000
 11
-111.000000
 21
131.500000
  0
LINE
  8
0
  6
CONTINUOUS
 62
2
 10
-125.199997
 20
122.500000
 11
-124.500000
 21
122.500000
  0
LINE
  8
0
  6
CONTINUOUS
 62
7
 10
-122.699997
 20
129.000000
 11
-122.699997
 21
121.500000
  0
LINE
  8
0
  6
CONTINUOUS
 62
7
 10
-176.000000
 20
84.000000
 11
-165.000000
 21
84.000000
  0
LINE
  8
0
  6
CONTINUOUS
 62
7
 10
-160.000000
 20
103.750000
 11
-160.000000
 21
95.250000
  0
LINE
  8
0
  6
CONTINUOUS
 62
7
 10
-165.000000
 20
103.750000
 11
-160.000000
 21
103.750000
  0
LINE
  8
0
  6
CONTINUOUS
 62
7
 10
-165.000000
 20
95.250000
 11
-160.000000
 21
95.250000
  0
LINE
  8
0
  6
CONTINUOUS
 62
7
 10
-165.000000
 20
96.753998
 11
-160.000000
 21
96.753998
  0
LINE
  8
0
  6
CONTINUOUS
 62
7
 10
-165.000000
 20
98.063904
 11
-160.000000
 21
98.063904
  0
LINE
  8
0
  6
CONTINUOUS
 62
7
 10
-165.000000
 20
100.935997
 11
-160.000000
 21
100.935997
  0
LINE
  8
0
  6
CONTINUOUS
 62
7
 10
-165.000000
 20
102.246002
 11
-160.000000
 21
102.246002
  0
LINE
  8
0
  6
CONTINUOUS
 62
7
 10
-172.500000
 20
105.000000
 11
-165.000000
 21
105.000000
  0
LINE
  8
0
  6
CONTINUOUS
 62
7
 10
-165.000000
 20
105.000000
 11
-165.000000
 21
84.000000
  0
LINE
  8
0
  6
CONTINUOUS
 62
7
 10
-172.500000
 20
105.000000
 11
-172.500000
 21
97.500000
  0
LINE
  8
0
  6
CONTINUOUS
 62
2
 10
-175.800003
 20
97.000000
 11
-172.500000
 21
97.000000
  0
LINE
  8
0
  6
CONTINUOUS
 62
7
 10
-175.800003
 20
96.500000
 11
-172.671997
 21
96.500000
  0
LINE
  8
0
  6
CONTINUOUS
 62
2
 10
-175.399994
 20
102.000000
 11
-172.500000
 21
102.000000
  0
LINE
  8
0
  6
CONTINUOUS
 62
7
 10
-175.399994
 20
102.500000
 11
-172.500000
 21
102.500000
  0
LINE
  8
0
  6
CONTINUOUS
 62
2
 10
-160.000000
 20
102.000000
 11
-155.300003
 21
102.000000
  0
LINE
  8
0
  6
CONTINUOUS
 62
7
 10
-160.000000
 20
102.500000
 11
-155.300003
 21
102.500000
  0
LINE
  8
0
  6
CONTINUOUS
 62
7
 10
-155.300003
 20
102.500000
 11
-155.300003
 21
96.500000
  0
LINE
  8
0
  6
CONTINUOUS
 62
2
 10
-160.000000
 20
97.000000
 11
-155.300003
 21
97.000000
  0
LINE
  8
0
  6
CONTINUOUS
 62
7
 10
-160.000000
 20
96.500000
 11
-155.300003
 21
96.500000
  0
LINE
  8
0
  6
CENTER
 62
2
 10
-178.300003
 20
99.500000
 11
-154.300003
 21
99.500000
  0
LINE
  8
0
  6
CONTINUOUS
 62
7
 10
-175.800003
 20
94.500000
 11
-175.500000
 21
94.500000
  0
LINE
  8
0
  6
CONTINUOUS
 62
7
 10
-244.000000
 20
105.500000
 11
-177.000000
 21
105.500000
  0
LINE
  8
0
  6
CONTINUOUS
 62
7
 10
-242.000000
 20
83.500000
 11
-176.000000
 21
83.500000
  0
LINE
  8
0
  6
CONTINUOUS
 62
7
 10
-242.000000
 20
93.500000
 11
-242.000000
 21
83.500000
  0
LINE
  8
0
  6
CONTINUOUS
 62
7
 10
-176.000000
 20
93.500000
 11
-176.000000
 21
83.500000
  0
LINE
  8
0
  6
CONTINUOUS
 62
7
 10
-244.000000
 20
105.500000
 11
-244.000000
 21
84.500000
  0
LINE
  8
0
  6
CONTINUOUS
 62
7
 10
-177.000000
 20
105.500000
 11
-177.000000
 21
104.500000
  0
LINE
  8
0
  6
CONTINUOUS
 62
7
 10
-177.000000
 20
105.000000
 11
-175.800003
 21
105.000000
  0
LINE
  8
0
  6
CONTINUOUS
 62
7
 10
-242.000000
 20
93.000000
 11
-223.500000
 21
93.000000
  0
LINE
  8
0
  6
CONTINUOUS
 62
7
 10
-175.399994
 20
104.500000
 11
-175.800003
 21
104.500000
  0
LINE
  8
0
  6
CONTINUOUS
 62
7
 10
-252.000000
 20
84.500000
 11
-252.000000
 21
105.000000
  0
LINE
  8
0
  6
CONTINUOUS
 62
7
 10
-244.000000
 20
84.500000
 11
-252.000000
 21
84.500000
  0
LINE
  8
0
  6
CONTINUOUS
 62
7
 10
-244.000000
 20
105.000000
 11
-252.000000
 21
105.000000
  0
LINE
  8
0
  6
CONTINUOUS
 62
7
 10
-244.000000
 20
93.500000
 11
-223.500000
 21
93.500000
  0
LINE
  8
0
  6
CONTINUOUS
 62
7
 10
-242.000000
 20
86.500000
 11
-244.000000
 21
86.500000
  0
LINE
  8
0
  6
CONTINUOUS
 62
7
 10
-175.399994
 20
100.500000
 11
-175.800003
 21
100.500000
  0
LINE
  8
0
  6
CENTER
 62
2
 10
-192.000000
 20
107.500000
 11
-192.000000
 21
103.500000
  0
LINE
  8
0
  6
CENTER
 62
2
 10
-212.000000
 20
107.500000
 11
-212.000000
 21
103.500000
  0
LINE
  8
0
  6
CENTER
 62
2
 10
-232.000000
 20
107.500000
 11
-232.000000
 21
103.500000
  0
LINE
  8
0
  6
CENTER
 62
2
 10
-254.000000
 20
91.500000
 11
-250.000000
 21
91.500000
  0
LINE
  8
0
  6
CENTER
 62
2
 10
-254.000000
 20
100.500000
 11
-250.000000
 21
100.500000
  0
LINE
  8
0
  6
DASHED
 62
2
 10
-231.000000
 20
88.000000
 11
-229.199997
 21
88.000000
  0
LINE
  8
0
  6
DASHED
 62
2
 10
-231.000000
 20
88.800003
 11
-231.000000
 21
88.000000
  0
LINE
  8
0
  6
CONTINUOUS
 62
7
 10
-224.800003
 20
88.000000
 11
-229.199997
 21
88.000000
  0
LINE
  8
0
  6
DASHED
 62
2
 10
-223.000000
 20
88.800003
 11
-223.000000
 21
88.000000
  0
LINE
  8
0
  6
DASHED
 62
2
 10
-224.800003
 20
88.000000
 11
-223.000000
 21
88.000000
  0
LINE
  8
0
  6
CONTINUOUS
 62
7
 10
-175.399994
 20
104.500000
 11
-175.399994
 21
100.500000
  0
LINE
  8
0
  6
CONTINUOUS
 62
7
 10
-175.800003
 20
105.000000
 11
-175.800003
 21
93.500000
  0
LINE
  8
0
  6
CONTINUOUS
 62
7
 10
-231.199997
 20
88.800003
 11
-223.500000
 21
88.800003
  0
LINE
  8
0
  6
CONTINUOUS
 62
7
 10
-224.850006
 20
88.000000
 11
-229.149994
 21
88.000000
  0
LINE
  8
0
  6
CONTINUOUS
 62
7
 10
-224.850006
 20
88.800003
 11
-224.850006
 21
83.500000
  0
LINE
  8
0
  6
CONTINUOUS
 62
7
 10
-229.149994
 20
88.800003
 11
-229.149994
 21
83.500000
  0
LINE
  8
0
  6
DASHED
 62
2
 10
-195.000000
 20
88.800003
 11
-195.000000
 21
88.000000
  0
LINE
  8
0
  6
CONTINUOUS
 62
7
 10
-186.800003
 20
88.800003
 11
-189.000000
 21
88.800003
  0
LINE
  8
0
  6
DASHED
 62
2
 10
-187.000000
 20
88.000000
 11
-195.000000
 21
88.000000
  0
LINE
  8
0
  6
CENTER
 62
2
 10
-191.000000
 20
89.800003
 11
-191.000000
 21
82.500000
  0
LINE
  8
0
  6
DASHED
 62
2
 10
-188.899994
 20
88.000000
 11
-188.899994
 21
83.500000
  0
LINE
  8
0
  6
DASHED
 62
2
 10
-188.500000
 20
88.000000
 11
-188.500000
 21
83.500000
  0
LINE
  8
0
  6
DASHED
 62
2
 10
-187.000000
 20
88.800003
 11
-187.000000
 21
88.000000
  0
LINE
  8
0
  6
DASHED
 62
2
 10
-193.100006
 20
88.000000
 11
-193.100006
 21
83.500000
  0
LINE
  8
0
  6
DASHED
 62
2
 10
-193.500000
 20
88.000000
 11
-193.500000
 21
83.500000
  0
LINE
  8
0
  6
DASHED
 62
2
 10
-208.500000
 20
90.800003
 11
-208.500000
 21
83.500000
  0
LINE
  8
0
  6
DASHED
 62
2
 10
-208.899994
 20
90.800003
 11
-208.899994
 21
83.500000
  0
LINE
  8
0
  6
CENTER
 62
2
 10
-211.000000
 20
91.800003
 11
-211.000000
 21
82.500000
  0
LINE
  8
0
  6
DASHED
 62
2
 10
-213.100006
 20
90.800003
 11
-213.100006
 21
83.500000
  0
LINE
  8
0
  6
DASHED
 62
2
 10
-213.500000
 20
90.800003
 11
-213.500000
 21
83.500000
  0
LINE
  8
0
  6
CENTER
 62
2
 10
-227.000000
 20
89.800003
 11
-227.000000
 21
82.500000
  0
LINE
  8
0
  6
CENTER
 62
2
 10
-236.000000
 20
92.500000
 11
-236.000000
 21
85.500000
  0
LINE
  8
0
  6
CENTER
 62
2
 10
-239.500000
 20
89.000000
 11
-232.500000
 21
89.000000
  0
LINE
  8
0
  6
CENTER
 62
2
 10
-182.000000
 20
92.500000
 11
-182.000000
 21
85.500000
  0
LINE
  8
0
  6
CENTER
 62
2
 10
-185.500000
 20
89.000000
 11
-178.500000
 21
89.000000
  0
LINE
  8
0
  6
CONTINUOUS
 62
7
 10
-223.500000
 20
85.500000
 11
-223.500000
 21
104.500000
  0
LINE
  8
0
  6
CONTINUOUS
 62
7
 10
-189.000000
 20
85.500000
 11
-223.500000
 21
85.500000
  0
LINE
  8
0
  6
CONTINUOUS
 62
7
 10
-189.000000
 20
92.199997
 11
-189.000000
 21
85.500000
  0
LINE
  8
0
  6
CONTINUOUS
 62
7
 10
-176.000000
 20
97.199997
 11
-184.000000
 21
97.199997
  0
LINE
  8
0
  6
CONTINUOUS
 62
7
 10
-176.000000
 20
104.500000
 11
-223.500000
 21
104.500000
  0
LINE
  8
0
  6
CONTINUOUS
 62
7
 10
-176.000000
 20
104.500000
 11
-176.000000
 21
97.199997
  0
LINE
  8
0
  6
CONTINUOUS
 62
2
 10
-176.000000
 20
102.300003
 11
-223.500000
 21
102.300003
  0
LINE
  8
0
  6
CONTINUOUS
 62
2
 10
-176.000000
 20
99.699997
 11
-223.500000
 21
99.699997
  0
LINE
  8
0
  6
CONTINUOUS
 62
2
 10
-186.862000
 20
96.300003
 11
-223.500000
 21
96.300003
  0
LINE
  8
0
  6
CONTINUOUS
 62
2
 10
-188.770004
 20
93.699997
 11
-223.500000
 21
93.699997
  0
LINE
  8
0
  6
CONTINUOUS
 62
7
 10
-188.936005
 20
93.000000
 11
-176.000000
 21
93.000000
  0
LINE
  8
0
  6
CONTINUOUS
 62
7
 10
-188.828003
 20
93.500000
 11
-175.800003
 21
93.500000
  0
LINE
  8
0
  6
CONTINUOUS
 62
7
 10
-177.000000
 20
97.199997
 11
-177.000000
 21
93.500000
  0
LINE
  8
0
  6
DASHED
 62
2
 10
-215.000000
 20
90.800003
 11
-207.000000
 21
90.800003
  0
LINE
  8
0
  6
CONTINUOUS
 62
7
 10
-223.500000
 20
58.000000
 11
-176.000000
 21
58.000000
  0
LINE
  8
0
  6
CONTINUOUS
 62
7
 10
-223.500000
 20
48.000000
 11
-223.500000
 21
58.000000
  0
LINE
  8
0
  6
CONTINUOUS
 62
7
 10
-189.000000
 20
48.000000
 11
-189.000000
 21
58.000000
  0
LINE
  8
0
  6
CONTINUOUS
 62
7
 10
-189.000000
 20
50.500000
 11
-176.000000
 21
50.500000
  0
LINE
  8
0
  6
CONTINUOUS
 62
7
 10
-176.000000
 20
50.500000
 11
-176.000000
 21
58.000000
  0
LINE
  8
0
  6
CONTINUOUS
 62
7
 10
-186.899994
 20
49.500000
 11
-189.000000
 21
49.500000
  0
LINE
  8
0
  6
CONTINUOUS
 62
7
 10
-186.899994
 20
48.000000
 11
-186.899994
 21
49.500000
  0
LINE
  8
0
  6
CONTINUOUS
 62
7
 10
95.300003
 20
130.000000
 11
95.300003
 21
131.500000
  0
LINE
  8
0
  6
CONTINUOUS
 62
7
 10
106.300003
 20
130.000000
 11
95.300003
 21
130.000000
  0
LINE
  8
0
  6
CONTINUOUS
 62
7
 10
106.300003
 20
130.000000
 11
106.300003
 21
132.000000
  0
LINE
  8
0
  6
CONTINUOUS
 62
7
 10
107.000000
 20
121.500000
 11
88.000000
 21
121.500000
  0
LINE
  8
0
  6
CONTINUOUS
 62
2
 10
102.199997
 20
121.500000
 11
102.199997
 21
122.500000
  0
LINE
  8
0
  6
CONTINUOUS
 62
2
 10
101.500000
 20
122.500000
 11
101.500000
 21
126.000000
  0
LINE
  8
0
  6
CONTINUOUS
 62
2
 10
104.000000
 20
127.500000
 11
103.000000
 21
127.500000
  0
LINE
  8
0
  6
CONTINUOUS
 62
2
 10
105.500000
 20
122.500000
 11
105.500000
 21
126.000000
  0
LINE
  8
0
  6
CONTINUOUS
 62
2
 10
104.800003
 20
121.500000
 11
104.800003
 21
122.500000
  0
LINE
  8
0
  6
CONTINUOUS
 62
7
 10
107.000000
 20
129.000000
 11
94.500000
 21
129.000000
  0
LINE
  8
0
  6
CONTINUOUS
 62
7
 10
94.500000
 20
129.000000
 11
94.500000
 21
131.500000
  0
LINE
  8
0
  6
CONTINUOUS
 62
7
 10
88.000000
 20
121.500000
 11
88.000000
 21
131.500000
  0
LINE
  8
0
  6
CONTINUOUS
 62
2
 10
105.500000
 20
122.500000
 11
104.800003
 21
122.500000
  0
LINE
  8
0
  6
CONTINUOUS
 62
7
 10
107.000000
 20
121.500000
 11
107.000000
 21
129.000000
  0
LINE
  8
0
  6
CONTINUOUS
 62
2
 10
102.199997
 20
122.500000
 11
101.500000
 21
122.500000
  0
LINE
  8
0
  6
CONTINUOUS
 62
7
 10
213.100006
 20
131.500000
 11
213.100006
 21
130.000000
  0
LINE
  8
0
  6
CONTINUOUS
 62
7
 10
206.600006
 20
131.500000
 11
206.600006
 21
130.000000
  0
LINE
  8
0
  6
CONTINUOUS
 62
7
 10
213.100006
 20
130.000000
 11
206.600006
 21
130.000000
  0
LINE
  8
0
  6
CONTINUOUS
 62
7
 10
151.500000
 20
131.500000
 11
151.500000
 21
121.500000
  0
LINE
  8
0
  6
CONTINUOUS
 62
7
 10
211.000000
 20
130.000000
 11
211.000000
 21
129.000000
  0
LINE
  8
0
  6
CONTINUOUS
 62
7
 10
224.000000
 20
129.000000
 11
224.000000
 21
121.500000
  0
LINE
  8
0
  6
CONTINUOUS
 62
7
 10
151.500000
 20
129.000000
 11
224.000000
 21
129.000000
  0
LINE
  8
0
  6
CONTINUOUS
 62
7
 10
151.500000
 20
121.500000
 11
224.000000
 21
121.500000
  0
LINE
  8
0
  6
CONTINUOUS
 62
7
 10
296.700012
 20
130.000000
 11
296.700012
 21
131.600006
  0
LINE
  8
0
  6
CONTINUOUS
 62
7
 10
285.700012
 20
130.000000
 11
296.700012
 21
130.000000
  0
LINE
  8
0
  6
CONTINUOUS
 62
7
 10
285.700012
 20
130.000000
 11
285.700012
 21
132.000000
  0
LINE
  8
0
  6
CONTINUOUS
 62
7
 10
285.000000
 20
121.500000
 11
304.000000
 21
121.500000
  0
LINE
  8
0
  6
CONTINUOUS
 62
2
 10
289.799988
 20
121.500000
 11
289.799988
 21
122.500000
  0
LINE
  8
0
  6
CONTINUOUS
 62
2
 10
286.500000
 20
122.500000
 11
287.200012
 21
122.500000
  0
LINE
  8
0
  6
CONTINUOUS
 62
2
 10
290.500000
 20
122.500000
 11
290.500000
 21
126.000000
  0
LINE
  8
0
  6
CONTINUOUS
 62
2
 10
288.000000
 20
127.500000
 11
289.000000
 21
127.500000
  0
LINE
  8
0
  6
CONTINUOUS
 62
2
 10
286.500000
 20
122.500000
 11
286.500000
 21
126.000000
  0
LINE
  8
0
  6
CONTINUOUS
 62
2
 10
287.200012
 20
121.500000
 11
287.200012
 21
122.500000
  0
LINE
  8
0
  6
CONTINUOUS
 62
7
 10
285.000000
 20
121.500000
 11
285.000000
 21
129.000000
  0
LINE
  8
0
  6
CONTINUOUS
 62
7
 10
285.000000
 20
129.000000
 11
297.500000
 21
129.000000
  0
LINE
  8
0
  6
CONTINUOUS
 62
7
 10
297.500000
 20
129.000000
 11
297.500000
 21
131.500000
  0
LINE
  8
0
  6
CONTINUOUS
 62
7
 10
304.000000
 20
121.500000
 11
304.000000
 21
131.500000
  0
LINE
  8
0
  6
CONTINUOUS
 62
2
 10
289.799988
 20
122.500000
 11
290.500000
 21
122.500000
  0
LINE
  8
0
  6
CONTINUOUS
 62
7
 10
292.299988
 20
129.000000
 11
292.299988
 21
121.500000
  0
LINE
  8
0
  6
CONTINUOUS
 62
7
 10
224.000000
 20
84.000000
 11
235.000000
 21
84.000000
  0
LINE
  8
0
  6
CONTINUOUS
 62
7
 10
240.000000
 20
103.750000
 11
240.000000
 21
95.250000
  0
LINE
  8
0
  6
CONTINUOUS
 62
7
 10
235.000000
 20
103.750000
 11
240.000000
 21
103.750000
  0
LINE
  8
0
  6
CONTINUOUS
 62
7
 10
235.000000
 20
95.250000
 11
240.000000
 21
95.250000
  0
LINE
  8
0
  6
CONTINUOUS
 62
7
 10
235.000000
 20
96.753998
 11
240.000000
 21
96.753998
  0
LINE
  8
0
  6
CONTINUOUS
 62
7
 10
235.000000
 20
98.063904
 11
240.000000
 21
98.063904
  0
LINE
  8
0
  6
CONTINUOUS
 62
7
 10
235.000000
 20
100.935997
 11
240.000000
 21
100.935997
  0
LINE
  8
0
  6
CONTINUOUS
 62
7
 10
235.000000
 20
102.246002
 11
240.000000
 21
102.246002
  0
LINE
  8
0
  6
CONTINUOUS
 62
7
 10
227.500000
 20
105.000000
 11
235.000000
 21
105.000000
  0
LINE
  8
0
  6
CONTINUOUS
 62
7
 10
235.000000
 20
105.000000
 11
235.000000
 21
84.000000
  0
LINE
  8
0
  6
CONTINUOUS
 62
7
 10
227.500000
 20
105.000000
 11
227.500000
 21
97.500000
  0
LINE
  8
0
  6
CONTINUOUS
 62
2
 10
224.199997
 20
97.000000
 11
227.500000
 21
97.000000
  0
LINE
  8
0
  6
CONTINUOUS
 62
7
 10
224.199997
 20
96.500000
 11
227.328003
 21
96.500000
  0
LINE
  8
0
  6
CONTINUOUS
 62
2
 10
224.600006
 20
102.000000
 11
227.500000
 21
102.000000
  0
LINE
  8
0
  6
CONTINUOUS
 62
7
 10
224.600006
 20
102.500000
 11
227.500000
 21
102.500000
  0
LINE
  8
0
  6
CONTINUOUS
 62
2
 10
240.000000
 20
102.000000
 11
244.699997
 21
102.000000
  0
LINE
  8
0
  6
CONTINUOUS
 62
7
 10
240.000000
 20
102.500000
 11
244.699997
 21
102.500000
  0
LINE
  8
0
  6
CONTINUOUS
 62
7
 10
244.699997
 20
102.500000
 11
244.699997
 21
96.500000
  0
LINE
  8
0
  6
CONTINUOUS
 62
2
 10
240.000000
 20
97.000000
 11
244.699997
 21
97.000000
  0
LINE
  8
0
  6
CONTINUOUS
 62
7
 10
240.000000
 20
96.500000
 11
244.699997
 21
96.500000
  0
LINE
  8
0
  6
CENTER
 62
2
 10
221.699997
 20
99.500000
 11
245.699997
 21
99.500000
  0
LINE
  8
0
  6
CONTINUOUS
 62
7
 10
131.000000
 20
105.500000
 11
223.000000
 21
105.500000
  0
LINE
  8
0
  6
CONTINUOUS
 62
7
 10
133.000000
 20
83.500000
 11
224.000000
 21
83.500000
  0
LINE
  8
0
  6
CONTINUOUS
 62
7
 10
133.000000
 20
93.500000
 11
133.000000
 21
83.500000
  0
LINE
  8
0
  6
CONTINUOUS
 62
7
 10
224.000000
 20
93.500000
 11
224.000000
 21
83.500000
  0
LINE
  8
0
  6
CONTINUOUS
 62
7
 10
131.000000
 20
105.500000
 11
131.000000
 21
84.500000
  0
LINE
  8
0
  6
CONTINUOUS
 62
7
 10
223.000000
 20
105.500000
 11
223.000000
 21
104.500000
  0
LINE
  8
0
  6
CONTINUOUS
 62
7
 10
133.000000
 20
93.000000
 11
151.500000
 21
93.000000
  0
LINE
  8
0
  6
CONTINUOUS
 62
7
 10
123.000000
 20
84.500000
 11
123.000000
 21
105.000000
  0
LINE
  8
0
  6
CONTINUOUS
 62
7
 10
131.000000
 20
84.500000
 11
123.000000
 21
84.500000
  0
LINE
  8
0
  6
CONTINUOUS
 62
7
 10
131.000000
 20
105.000000
 11
123.000000
 21
105.000000
  0
LINE
  8
0
  6
CONTINUOUS
 62
7
 10
133.000000
 20
86.500000
 11
131.000000
 21
86.500000
  0
LINE
  8
0
  6
CENTER
 62
2
 10
208.000000
 20
107.500000
 11
208.000000
 21
103.500000
  0
LINE
  8
0
  6
CENTER
 62
2
 10
168.000000
 20
107.500000
 11
168.000000
 21
103.500000
  0
LINE
  8
0
  6
CENTER
 62
2
 10
143.000000
 20
107.500000
 11
143.000000
 21
103.500000
  0
LINE
  8
0
  6
CENTER
 62
2
 10
121.000000
 20
91.500000
 11
125.000000
 21
91.500000
  0
LINE
  8
0
  6
CENTER
 62
2
 10
121.000000
 20
100.500000
 11
125.000000
 21
100.500000
  0
LINE
  8
0
  6
DASHED
 62
2
 10
144.000000
 20
88.000000
 11
145.800003
 21
88.000000
  0
LINE
  8
0
  6
DASHED
 62
2
 10
144.000000
 20
88.800003
 11
144.000000
 21
88.000000
  0
LINE
  8
0
  6
DASHED
 62
2
 10
152.000000
 20
88.800003
 11
152.000000
 21
88.000000
  0
LINE
  8
0
  6
DASHED
 62
2
 10
150.199997
 20
88.000000
 11
152.000000
 21
88.000000
  0
LINE
  8
0
  6
CENTER
 62
2
 10
183.000000
 20
107.500000
 11
183.000000
 21
103.500000
  0
LINE
  8
0
  6
CONTINUOUS
 62
7
 10
223.000000
 20
105.000000
 11
224.199997
 21
105.000000
  0
LINE
  8
0
  6
CONTINUOUS
 62
7
 10
224.600006
 20
104.500000
 11
224.199997
 21
104.500000
  0
LINE
  8
0
  6
CONTINUOUS
 62
7
 10
131.000000
 20
93.500000
 11
151.500000
 21
93.500000
  0
LINE
  8
0
  6
CONTINUOUS
 62
7
 10
224.600006
 20
100.500000
 11
224.199997
 21
100.500000
  0
LINE
  8
0
  6
CONTINUOUS
 62
7
 10
224.600006
 20
104.500000
 11
224.600006
 21
100.500000
  0
LINE
  8
0
  6
CONTINUOUS
 62
7
 10
224.199997
 20
105.000000
 11
224.199997
 21
93.500000
  0
LINE
  8
0
  6
CENTER
 62
2
 10
148.000000
 20
89.800003
 11
148.000000
 21
82.500000
  0
LINE
  8
0
  6
CONTINUOUS
 62
7
 10
143.800003
 20
88.800003
 11
151.500000
 21
88.800003
  0
LINE
  8
0
  6
CONTINUOUS
 62
7
 10
145.850006
 20
88.800003
 11
145.850006
 21
83.500000
  0
LINE
  8
0
  6
CONTINUOUS
 62
7
 10
150.149994
 20
88.000000
 11
145.850006
 21
88.000000
  0
LINE
  8
0
  6
CONTINUOUS
 62
7
 10
150.149994
 20
88.800003
 11
150.149994
 21
83.500000
  0
LINE
  8
0
  6
DASHED
 62
2
 10
160.000000
 20
90.800003
 11
168.000000
 21
90.800003
  0
LINE
  8
0
  6
CONTINUOUS
 62
7
 10
213.199997
 20
88.800003
 11
211.000000
 21
88.800003
  0
LINE
  8
0
  6
CENTER
 62
2
 10
164.000000
 20
91.800003
 11
164.000000
 21
82.500000
  0
LINE
  8
0
  6
CENTER
 62
2
 10
209.000000
 20
89.800003
 11
209.000000
 21
82.500000
  0
LINE
  8
0
  6
DASHED
 62
2
 10
161.500000
 20
90.800003
 11
161.500000
 21
83.500000
  0
LINE
  8
0
  6
DASHED
 62
2
 10
166.500000
 20
90.800003
 11
166.500000
 21
83.500000
  0
LINE
  8
0
  6
DASHED
 62
2
 10
166.100006
 20
90.800003
 11
166.100006
 21
83.500000
  0
LINE
  8
0
  6
DASHED
 62
2
 10
161.899994
 20
90.800003
 11
161.899994
 21
83.500000
  0
LINE
  8
0
  6
DASHED
 62
2
 10
213.000000
 20
88.000000
 11
205.000000
 21
88.000000
  0
LINE
  8
0
  6
DASHED
 62
2
 10
206.899994
 20
88.000000
 11
206.899994
 21
83.500000
  0
LINE
  8
0
  6
DASHED
 62
2
 10
211.100006
 20
88.000000
 11
211.100006
 21
83.500000
  0
LINE
  8
0
  6
DASHED
 62
2
 10
211.500000
 20
88.000000
 11
211.500000
 21
83.500000
  0
LINE
  8
0
  6
DASHED
 62
2
 10
206.500000
 20
88.000000
 11
206.500000
 21
83.500000
  0
LINE
  8
0
  6
DASHED
 62
2
 10
213.000000
 20
88.800003
 11
213.000000
 21
88.000000
  0
LINE
  8
0
  6
DASHED
 62
2
 10
205.000000
 20
88.800003
 11
205.000000
 21
88.000000
  0
LINE
  8
0
  6
CENTER
 62
2
 10
139.000000
 20
92.500000
 11
139.000000
 21
85.500000
  0
LINE
  8
0
  6
CENTER
 62
2
 10
135.500000
 20
89.000000
 11
142.500000
 21
89.000000
  0
LINE
  8
0
  6
CENTER
 62
2
 10
218.000000
 20
92.500000
 11
218.000000
 21
85.500000
  0
LINE
  8
0
  6
CENTER
 62
2
 10
214.500000
 20
89.000000
 11
221.500000
 21
89.000000
  0
LINE
  8
0
  6
CONTINUOUS
 62
7
 10
151.500000
 20
85.500000
 11
151.500000
 21
104.500000
  0
LINE
  8
0
  6
CONTINUOUS
 62
7
 10
211.000000
 20
85.500000
 11
151.500000
 21
85.500000
  0
LINE
  8
0
  6
CONTINUOUS
 62
7
 10
211.000000
 20
92.199997
 11
211.000000
 21
85.500000
  0
LINE
  8
0
  6
CONTINUOUS
 62
7
 10
224.000000
 20
97.199997
 11
216.000000
 21
97.199997
  0
LINE
  8
0
  6
CONTINUOUS
 62
7
 10
224.000000
 20
104.500000
 11
151.500000
 21
104.500000
  0
LINE
  8
0
  6
CONTINUOUS
 62
7
 10
224.000000
 20
104.500000
 11
224.000000
 21
97.199997
  0
LINE
  8
0
  6
CONTINUOUS
 62
2
 10
224.000000
 20
102.300003
 11
151.500000
 21
102.300003
  0
LINE
  8
0
  6
CONTINUOUS
 62
2
 10
224.000000
 20
99.699997
 11
151.500000
 21
99.699997
  0
LINE
  8
0
  6
CONTINUOUS
 62
2
 10
213.138000
 20
96.300003
 11
151.500000
 21
96.300003
  0
LINE
  8
0
  6
CONTINUOUS
 62
2
 10
211.229996
 20
93.699997
 11
151.500000
 21
93.699997
  0
LINE
  8
0
  6
CONTINUOUS
 62
7
 10
211.171997
 20
93.500000
 11
224.199997
 21
93.500000
  0
LINE
  8
0
  6
CONTINUOUS
 62
7
 10
211.063995
 20
93.000000
 11
224.000000
 21
93.000000
  0
LINE
  8
0
  6
CONTINUOUS
 62
7
 10
223.000000
 20
97.199997
 11
223.000000
 21
93.500000
  0
LINE
  8
0
  6
CONTINUOUS
 62
7
 10
151.500000
 20
58.000000
 11
224.000000
 21
58.000000
  0
LINE
  8
0
  6
CONTINUOUS
 62
7
 10
151.500000
 20
48.000000
 11
151.500000
 21
58.000000
  0
LINE
  8
0
  6
CONTINUOUS
 62
7
 10
211.000000
 20
48.000000
 11
211.000000
 21
58.000000
  0
LINE
  8
0
  6
CONTINUOUS
 62
7
 10
211.000000
 20
50.500000
 11
224.000000
 21
50.500000
  0
LINE
  8
0
  6
CONTINUOUS
 62
7
 10
224.000000
 20
50.500000
 11
224.000000
 21
58.000000
  0
LINE
  8
0
  6
CONTINUOUS
 62
7
 10
213.100006
 20
49.500000
 11
211.000000
 21
49.500000
  0
LINE
  8
0
  6
CONTINUOUS
 62
7
 10
213.100006
 20
48.000000
 11
213.100006
 21
49.500000
  0
LINE
  8
0
  6
CONTINUOUS
 62
7
 10
-279.700012
 20
-120.000000
 11
-279.700012
 21
-118.500000
  0
LINE
  8
0
  6
CONTINUOUS
 62
7
 10
-268.700012
 20
-120.000000
 11
-279.700012
 21
-120.000000
  0
LINE
  8
0
  6
CONTINUOUS
 62
7
 10
-268.700012
 20
-120.000000
 11
-268.700012
 21
-118.000000
  0
LINE
  8
0
  6
CONTINUOUS
 62
7
 10
-268.000000
 20
-128.500000
 11
-287.000000
 21
-128.500000
  0
LINE
  8
0
  6
CONTINUOUS
 62
2
 10
-272.799988
 20
-128.500000
 11
-272.799988
 21
-127.500000
  0
LINE
  8
0
  6
CONTINUOUS
 62
2
 10
-273.500000
 20
-127.500000
 11
-273.500000
 21
-124.000000
  0
LINE
  8
0
  6
CONTINUOUS
 62
2
 10
-271.000000
 20
-122.500000
 11
-272.000000
 21
-122.500000
  0
LINE
  8
0
  6
CONTINUOUS
 62
2
 10
-269.500000
 20
-127.500000
 11
-269.500000
 21
-124.000000
  0
LINE
  8
0
  6
CONTINUOUS
 62
2
 10
-270.200012
 20
-128.500000
 11
-270.200012
 21
-127.500000
  0
LINE
  8
0
  6
CONTINUOUS
 62
7
 10
-268.000000
 20
-121.000000
 11
-280.500000
 21
-121.000000
  0
LINE
  8
0
  6
CONTINUOUS
 62
7
 10
-280.500000
 20
-121.000000
 11
-280.500000
 21
-118.500000
  0
LINE
  8
0
  6
CONTINUOUS
 62
7
 10
-287.000000
 20
-128.500000
 11
-287.000000
 21
-118.500000
  0
LINE
  8
0
  6
CONTINUOUS
 62
2
 10
-269.500000
 20
-127.500000
 11
-270.200012
 21
-127.500000
  0
LINE
  8
0
  6
CONTINUOUS
 62
7
 10
-268.000000
 20
-128.500000
 11
-268.000000
 21
-121.000000
  0
LINE
  8
0
  6
CONTINUOUS
 62
2
 10
-272.799988
 20
-127.500000
 11
-273.500000
 21
-127.500000
  0
LINE
  8
0
  6
CONTINUOUS
 62
7
 10
-176.899994
 20
-118.500000
 11
-176.899994
 21
-120.000000
  0
LINE
  8
0
  6
CONTINUOUS
 62
7
 10
-183.399994
 20
-118.500000
 11
-183.399994
 21
-120.000000
  0
LINE
  8
0
  6
CONTINUOUS
 62
7
 10
-176.899994
 20
-120.000000
 11
-183.399994
 21
-120.000000
  0
LINE
  8
0
  6
CONTINUOUS
 62
7
 10
-223.500000
 20
-118.500000
 11
-223.500000
 21
-128.500000
  0
LINE
  8
0
  6
CONTINUOUS
 62
7
 10
-179.000000
 20
-120.000000
 11
-179.000000
 21
-121.000000
  0
LINE
  8
0
  6
CONTINUOUS
 62
7
 10
-166.000000
 20
-121.000000
 11
-166.000000
 21
-128.500000
  0
LINE
  8
0
  6
CONTINUOUS
 62
7
 10
-223.500000
 20
-121.000000
 11
-166.000000
 21
-121.000000
  0
LINE
  8
0
  6
CONTINUOUS
 62
7
 10
-223.500000
 20
-128.500000
 11
-166.000000
 21
-128.500000
  0
LINE
  8
0
  6
CONTINUOUS
 62
7
 10
-118.300003
 20
-120.000000
 11
-118.300003
 21
-118.400002
  0
LINE
  8
0
  6
CONTINUOUS
 62
7
 10
-129.300003
 20
-120.000000
 11
-118.300003
 21
-120.000000
  0
LINE
  8
0
  6
CONTINUOUS
 62
7
 10
-129.300003
 20
-120.000000
 11
-129.300003
 21
-118.000000
  0
LINE
  8
0
  6
CONTINUOUS
 62
7
 10
-130.000000
 20
-128.500000
 11
-111.000000
 21
-128.500000
  0
LINE
  8
0
  6
CONTINUOUS
 62
2
 10
-125.199997
 20
-128.500000
 11
-125.199997
 21
-127.500000
  0
LINE
  8
0
  6
CONTINUOUS
 62
2
 10
-128.500000
 20
-127.500000
 11
-127.800003
 21
-127.500000
  0
LINE
  8
0
  6
CONTINUOUS
 62
2
 10
-124.500000
 20
-127.500000
 11
-124.500000
 21
-124.000000
  0
LINE
  8
0
  6
CONTINUOUS
 62
2
 10
-127.000000
 20
-122.500000
 11
-126.000000
 21
-122.500000
  0
LINE
  8
0
  6
CONTINUOUS
 62
2
 10
-128.500000
 20
-127.500000
 11
-128.500000
 21
-124.000000
  0
LINE
  8
0
  6
CONTINUOUS
 62
2
 10
-127.800003
 20
-128.500000
 11
-127.800003
 21
-127.500000
  0
LINE
  8
0
  6
CONTINUOUS
 62
7
 10
-130.000000
 20
-128.500000
 11
-130.000000
 21
-121.000000
  0
LINE
  8
0
  6
CONTINUOUS
 62
7
 10
-130.000000
 20
-121.000000
 11
-117.500000
 21
-121.000000
  0
LINE
  8
0
  6
CONTINUOUS
 62
7
 10
-117.500000
 20
-121.000000
 11
-117.500000
 21
-118.500000
  0
LINE
  8
0
  6
CONTINUOUS
 62
7
 10
-111.000000
 20
-128.500000
 11
-111.000000
 21
-118.500000
  0
LINE
  8
0
  6
CONTINUOUS
 62
2
 10
-125.199997
 20
-127.500000
 11
-124.500000
 21
-127.500000
  0
LINE
  8
0
  6
CONTINUOUS
 62
7
 10
-122.699997
 20
-121.000000
 11
-122.699997
 21
-128.500000
  0
LINE
  8
0
  6
CONTINUOUS
 62
7
 10
-166.000000
 20
-166.000000
 11
-155.000000
 21
-166.000000
  0
LINE
  8
0
  6
CONTINUOUS
 62
7
 10
-150.000000
 20
-146.250000
 11
-150.000000
 21
-154.750000
  0
LINE
  8
0
  6
CONTINUOUS
 62
7
 10
-155.000000
 20
-146.250000
 11
-150.000000
 21
-146.250000
  0
LINE
  8
0
  6
CONTINUOUS
 62
7
 10
-155.000000
 20
-154.750000
 11
-150.000000
 21
-154.750000
  0
LINE
  8
0
  6
CONTINUOUS
 62
7
 10
-155.000000
 20
-153.246002
 11
-150.000000
 21
-153.246002
  0
LINE
  8
0
  6
CONTINUOUS
 62
7
 10
-155.000000
 20
-151.936005
 11
-150.000000
 21
-151.936005
  0
LINE
  8
0
  6
CONTINUOUS
 62
7
 10
-155.000000
 20
-149.063995
 11
-150.000000
 21
-149.063995
  0
LINE
  8
0
  6
CONTINUOUS
 62
7
 10
-155.000000
 20
-147.753998
 11
-150.000000
 21
-147.753998
  0
LINE
  8
0
  6
CONTINUOUS
 62
7
 10
-162.500000
 20
-145.000000
 11
-155.000000
 21
-145.000000
  0
LINE
  8
0
  6
CONTINUOUS
 62
7
 10
-155.000000
 20
-145.000000
 11
-155.000000
 21
-166.000000
  0
LINE
  8
0
  6
CONTINUOUS
 62
7
 10
-162.500000
 20
-145.000000
 11
-162.500000
 21
-152.500000
  0
LINE
  8
0
  6
CONTINUOUS
 62
2
 10
-165.800003
 20
-153.000000
 11
-162.500000
 21
-153.000000
  0
LINE
  8
0
  6
CONTINUOUS
 62
7
 10
-165.800003
 20
-153.500000
 11
-162.671997
 21
-153.500000
  0
LINE
  8
0
  6
CONTINUOUS
 62
2
 10
-165.399994
 20
-148.000000
 11
-162.500000
 21
-148.000000
  0
LINE
  8
0
  6
CONTINUOUS
 62
7
 10
-165.399994
 20
-147.500000
 11
-162.500000
 21
-147.500000
  0
LINE
  8
0
  6
CONTINUOUS
 62
2
 10
-150.000000
 20
-148.000000
 11
-145.300003
 21
-148.000000
  0
LINE
  8
0
  6
CONTINUOUS
 62
7
 10
-150.000000
 20
-147.500000
 11
-145.300003
 21
-147.500000
  0
LINE
  8
0
  6
CONTINUOUS
 62
7
 10
-145.300003
 20
-147.500000
 11
-145.300003
 21
-153.500000
  0
LINE
  8
0
  6
CONTINUOUS
 62
2
 10
-150.000000
 20
-153.000000
 11
-145.300003
 21
-153.000000
  0
LINE
  8
0
  6
CONTINUOUS
 62
7
 10
-150.000000
 20
-153.500000
 11
-145.300003
 21
-153.500000
  0
LINE
  8
0
  6
CENTER
 62
2
 10
-168.300003
 20
-150.500000
 11
-144.300003
 21
-150.500000
  0
LINE
  8
0
  6
CONTINUOUS
 62
7
 10
-165.800003
 20
-155.500000
 11
-165.500000
 21
-155.500000
  0
LINE
  8
0
  6
CONTINUOUS
 62
7
 10
-244.000000
 20
-144.500000
 11
-167.000000
 21
-144.500000
  0
LINE
  8
0
  6
CONTINUOUS
 62
7
 10
-242.000000
 20
-166.500000
 11
-166.000000
 21
-166.500000
  0
LINE
  8
0
  6
CONTINUOUS
 62
7
 10
-242.000000
 20
-156.500000
 11
-242.000000
 21
-166.500000
  0
LINE
  8
0
  6
CONTINUOUS
 62
7
 10
-166.000000
 20
-156.500000
 11
-166.000000
 21
-166.500000
  0
LINE
  8
0
  6
CONTINUOUS
 62
7
 10
-244.000000
 20
-144.500000
 11
-244.000000
 21
-165.500000
  0
LINE
  8
0
  6
CONTINUOUS
 62
7
 10
-167.000000
 20
-144.500000
 11
-167.000000
 21
-145.500000
  0
LINE
  8
0
  6
CONTINUOUS
 62
7
 10
-167.000000
 20
-145.000000
 11
-165.800003
 21
-145.000000
  0
LINE
  8
0
  6
CONTINUOUS
 62
7
 10
-242.000000
 20
-157.000000
 11
-223.500000
 21
-157.000000
  0
LINE
  8
0
  6
CONTINUOUS
 62
7
 10
-231.199997
 20
-161.000000
 11
-223.500000
 21
-161.000000
  0
LINE
  8
0
  6
CONTINUOUS
 62
7
 10
-165.399994
 20
-145.500000
 11
-165.800003
 21
-145.500000
  0
LINE
  8
0
  6
CONTINUOUS
 62
7
 10
-229.199997
 20
-161.000000
 11
-229.199997
 21
-166.500000
  0
LINE
  8
0
  6
CONTINUOUS
 62
7
 10
-224.800003
 20
-161.000000
 11
-224.800003
 21
-166.500000
  0
LINE
  8
0
  6
CENTER
 62
2
 10
-227.000000
 20
-160.000000
 11
-227.000000
 21
-167.500000
  0
LINE
  8
0
  6
CONTINUOUS
 62
7
 10
-252.000000
 20
-165.500000
 11
-252.000000
 21
-145.000000
  0
LINE
  8
0
  6
CONTINUOUS
 62
7
 10
-244.000000
 20
-165.500000
 11
-252.000000
 21
-165.500000
  0
LINE
  8
0
  6
CONTINUOUS
 62
7
 10
-244.000000
 20
-145.000000
 11
-252.000000
 21
-145.000000
  0
LINE
  8
0
  6
CONTINUOUS
 62
7
 10
-244.000000
 20
-156.500000
 11
-223.500000
 21
-156.500000
  0
LINE
  8
0
  6
CONTINUOUS
 62
7
 10
-242.000000
 20
-163.500000
 11
-244.000000
 21
-163.500000
  0
LINE
  8
0
  6
DASHED
 62
2
 10
-207.000000
 20
-161.000000
 11
-215.000000
 21
-161.000000
  0
LINE
  8
0
  6
CONTINUOUS
 62
7
 10
-176.800003
 20
-161.000000
 11
-179.000000
 21
-161.000000
  0
LINE
  8
0
  6
CONTINUOUS
 62
7
 10
-165.399994
 20
-149.500000
 11
-165.800003
 21
-149.500000
  0
LINE
  8
0
  6
CENTER
 62
2
 10
-182.000000
 20
-142.500000
 11
-182.000000
 21
-146.500000
  0
LINE
  8
0
  6
CENTER
 62
2
 10
-207.000000
 20
-142.500000
 11
-207.000000
 21
-146.500000
  0
LINE
  8
0
  6
CENTER
 62
2
 10
-232.000000
 20
-142.500000
 11
-232.000000
 21
-146.500000
  0
LINE
  8
0
  6
CENTER
 62
2
 10
-254.000000
 20
-158.500000
 11
-250.000000
 21
-158.500000
  0
LINE
  8
0
  6
CENTER
 62
2
 10
-254.000000
 20
-149.500000
 11
-250.000000
 21
-149.500000
  0
LINE
  8
0
  6
CENTER
 62
2
 10
-211.000000
 20
-160.000000
 11
-211.000000
 21
-167.500000
  0
LINE
  8
0
  6
DASHED
 62
2
 10
-213.100006
 20
-161.000000
 11
-213.100006
 21
-164.899994
  0
LINE
  8
0
  6
DASHED
 62
2
 10
-208.899994
 20
-161.000000
 11
-208.899994
 21
-164.899994
  0
LINE
  8
0
  6
DASHED
 62
2
 10
-213.500000
 20
-161.000000
 11
-213.500000
 21
-164.899994
  0
LINE
  8
0
  6
DASHED
 62
2
 10
-208.500000
 20
-161.000000
 11
-208.500000
 21
-164.899994
  0
LINE
  8
0
  6
DASHED
 62
2
 10
-214.000000
 20
-164.899994
 11
-208.000000
 21
-164.899994
  0
LINE
  8
0
  6
DASHED
 62
2
 10
-214.000000
 20
-164.899994
 11
-214.000000
 21
-166.500000
  0
LINE
  8
0
  6
DASHED
 62
2
 10
-208.000000
 20
-164.899994
 11
-208.000000
 21
-166.500000
  0
LINE
  8
0
  6
CENTER
 62
2
 10
-181.000000
 20
-160.000000
 11
-181.000000
 21
-167.500000
  0
LINE
  8
0
  6
DASHED
 62
2
 10
-183.100006
 20
-162.000000
 11
-183.100006
 21
-166.500000
  0
LINE
  8
0
  6
DASHED
 62
2
 10
-178.899994
 20
-162.000000
 11
-178.899994
 21
-166.500000
  0
LINE
  8
0
  6
DASHED
 62
2
 10
-183.500000
 20
-162.000000
 11
-183.500000
 21
-166.500000
  0
LINE
  8
0
  6
DASHED
 62
2
 10
-178.500000
 20
-162.000000
 11
-178.500000
 21
-166.500000
  0
LINE
  8
0
  6
DASHED
 62
2
 10
-185.000000
 20
-162.000000
 11
-177.000000
 21
-162.000000
  0
LINE
  8
0
  6
DASHED
 62
2
 10
-185.000000
 20
-161.000000
 11
-185.000000
 21
-162.000000
  0
LINE
  8
0
  6
DASHED
 62
2
 10
-177.000000
 20
-161.000000
 11
-177.000000
 21
-162.000000
  0
LINE
  8
0
  6
DASHED
 62
2
 10
-231.000000
 20
-162.000000
 11
-229.199997
 21
-162.000000
  0
LINE
  8
0
  6
DASHED
 62
2
 10
-231.000000
 20
-161.000000
 11
-231.000000
 21
-162.000000
  0
LINE
  8
0
  6
CONTINUOUS
 62
7
 10
-224.800003
 20
-162.000000
 11
-229.199997
 21
-162.000000
  0
LINE
  8
0
  6
DASHED
 62
2
 10
-223.000000
 20
-161.000000
 11
-223.000000
 21
-162.000000
  0
LINE
  8
0
  6
DASHED
 62
2
 10
-224.800003
 20
-162.000000
 11
-223.000000
 21
-162.000000
  0
LINE
  8
0
  6
CONTINUOUS
 62
7
 10
-165.399994
 20
-145.500000
 11
-165.399994
 21
-149.500000
  0
LINE
  8
0
  6
CONTINUOUS
 62
7
 10
-165.800003
 20
-145.000000
 11
-165.800003
 21
-156.500000
  0
LINE
  8
0
  6
CENTER
 62
2
 10
-236.000000
 20
-157.500000
 11
-236.000000
 21
-164.500000
  0
LINE
  8
0
  6
CENTER
 62
2
 10
-239.500000
 20
-161.000000
 11
-232.500000
 21
-161.000000
  0
LINE
  8
0
  6
CENTER
 62
2
 10
-172.000000
 20
-157.500000
 11
-172.000000
 21
-164.500000
  0
LINE
  8
0
  6
CENTER
 62
2
 10
-175.500000
 20
-161.000000
 11
-168.500000
 21
-161.000000
  0
LINE
  8
0
  6
CONTINUOUS
 62
7
 10
-223.500000
 20
-164.500000
 11
-223.500000
 21
-145.500000
  0
LINE
  8
0
  6
CONTINUOUS
 62
7
 10
-179.000000
 20
-164.500000
 11
-223.500000
 21
-164.500000
  0
LINE
  8
0
  6
CONTINUOUS
 62
7
 10
-179.000000
 20
-152.800003
 11
-179.000000
 21
-164.500000
  0
LINE
  8
0
  6
CONTINUOUS
 62
7
 10
-166.000000
 20
-152.800003
 11
-179.000000
 21
-152.800003
  0
LINE
  8
0
  6
CONTINUOUS
 62
7
 10
-166.000000
 20
-145.500000
 11
-223.500000
 21
-145.500000
  0
LINE
  8
0
  6
CONTINUOUS
 62
7
 10
-166.000000
 20
-145.500000
 11
-166.000000
 21
-152.800003
  0
LINE
  8
0
  6
CONTINUOUS
 62
2
 10
-166.000000
 20
-147.699997
 11
-223.500000
 21
-147.699997
  0
LINE
  8
0
  6
CONTINUOUS
 62
2
 10
-166.000000
 20
-150.300003
 11
-223.500000
 21
-150.300003
  0
LINE
  8
0
  6
CONTINUOUS
 62
2
 10
-179.000000
 20
-153.699997
 11
-223.500000
 21
-153.699997
  0
LINE
  8
0
  6
CONTINUOUS
 62
2
 10
-179.000000
 20
-156.300003
 11
-223.500000
 21
-156.300003
  0
LINE
  8
0
  6
CONTINUOUS
 62
7
 10
-179.000000
 20
-156.500000
 11
-165.800003
 21
-156.500000
  0
LINE
  8
0
  6
CONTINUOUS
 62
7
 10
-179.000000
 20
-157.000000
 11
-166.000000
 21
-157.000000
  0
LINE
  8
0
  6
CONTINUOUS
 62
7
 10
-167.000000
 20
-152.800003
 11
-167.000000
 21
-156.500000
  0
LINE
  8
0
  6
CONTINUOUS
 62
7
 10
-223.500000
 20
-192.000000
 11
-166.000000
 21
-192.000000
  0
LINE
  8
0
  6
CONTINUOUS
 62
7
 10
-223.500000
 20
-202.000000
 11
-223.500000
 21
-192.000000
  0
LINE
  8
0
  6
CONTINUOUS
 62
7
 10
-179.000000
 20
-202.000000
 11
-179.000000
 21
-192.000000
  0
LINE
  8
0
  6
CONTINUOUS
 62
7
 10
-179.000000
 20
-199.500000
 11
-166.000000
 21
-199.500000
  0
LINE
  8
0
  6
CONTINUOUS
 62
7
 10
-166.000000
 20
-199.500000
 11
-166.000000
 21
-192.000000
  0
LINE
  8
0
  6
CONTINUOUS
 62
7
 10
-176.899994
 20
-200.500000
 11
-179.000000
 21
-200.500000
  0
LINE
  8
0
  6
CONTINUOUS
 62
7
 10
-176.899994
 20
-202.000000
 11
-176.899994
 21
-200.500000
  0
LINE
  8
0
  6
CONTINUOUS
 62
7
 10
95.300003
 20
-120.000000
 11
95.300003
 21
-118.500000
  0
LINE
  8
0
  6
CONTINUOUS
 62
7
 10
106.300003
 20
-120.000000
 11
95.300003
 21
-120.000000
  0
LINE
  8
0
  6
CONTINUOUS
 62
7
 10
106.300003
 20
-120.000000
 11
106.300003
 21
-118.000000
  0
LINE
  8
0
  6
CONTINUOUS
 62
7
 10
107.000000
 20
-128.500000
 11
88.000000
 21
-128.500000
  0
LINE
  8
0
  6
CONTINUOUS
 62
2
 10
102.199997
 20
-128.500000
 11
102.199997
 21
-127.500000
  0
LINE
  8
0
  6
CONTINUOUS
 62
2
 10
101.500000
 20
-127.500000
 11
101.500000
 21
-124.000000
  0
LINE
  8
0
  6
CONTINUOUS
 62
2
 10
104.000000
 20
-122.500000
 11
103.000000
 21
-122.500000
  0
LINE
  8
0
  6
CONTINUOUS
 62
2
 10
105.500000
 20
-127.500000
 11
105.500000
 21
-124.000000
  0
LINE
  8
0
  6
CONTINUOUS
 62
2
 10
104.800003
 20
-128.500000
 11
104.800003
 21
-127.500000
  0
LINE
  8
0
  6
CONTINUOUS
 62
7
 10
107.000000
 20
-121.000000
 11
94.500000
 21
-121.000000
  0
LINE
  8
0
  6
CONTINUOUS
 62
7
 10
94.500000
 20
-121.000000
 11
94.500000
 21
-118.500000
  0
LINE
  8
0
  6
CONTINUOUS
 62
7
 10
88.000000
 20
-128.500000
 11
88.000000
 21
-118.500000
  0
LINE
  8
0
  6
CONTINUOUS
 62
2
 10
105.500000
 20
-127.500000
 11
104.800003
 21
-127.500000
  0
LINE
  8
0
  6
CONTINUOUS
 62
7
 10
107.000000
 20
-128.500000
 11
107.000000
 21
-121.000000
  0
LINE
  8
0
  6
CONTINUOUS
 62
2
 10
102.199997
 20
-127.500000
 11
101.500000
 21
-127.500000
  0
LINE
  8
0
  6
CONTINUOUS
 62
7
 10
228.100006
 20
-118.500000
 11
228.100006
 21
-120.000000
  0
LINE
  8
0
  6
CONTINUOUS
 62
7
 10
221.600006
 20
-118.500000
 11
221.600006
 21
-120.000000
  0
LINE
  8
0
  6
CONTINUOUS
 62
7
 10
228.100006
 20
-120.000000
 11
221.600006
 21
-120.000000
  0
LINE
  8
0
  6
CONTINUOUS
 62
7
 10
151.500000
 20
-118.500000
 11
151.500000
 21
-128.500000
  0
LINE
  8
0
  6
CONTINUOUS
 62
7
 10
226.000000
 20
-120.000000
 11
226.000000
 21
-121.000000
  0
LINE
  8
0
  6
CONTINUOUS
 62
7
 10
239.000000
 20
-121.000000
 11
239.000000
 21
-128.500000
  0
LINE
  8
0
  6
CONTINUOUS
 62
7
 10
151.500000
 20
-121.000000
 11
239.000000
 21
-121.000000
  0
LINE
  8
0
  6
CONTINUOUS
 62
7
 10
151.500000
 20
-128.500000
 11
239.000000
 21
-128.500000
  0
LINE
  8
0
  6
CONTINUOUS
 62
7
 10
296.700012
 20
-120.000000
 11
296.700012
 21
-118.400002
  0
LINE
  8
0
  6
CONTINUOUS
 62
7
 10
285.700012
 20
-120.000000
 11
296.700012
 21
-120.000000
  0
LINE
  8
0
  6
CONTINUOUS
 62
7
 10
285.700012
 20
-120.000000
 11
285.700012
 21
-118.000000
  0
LINE
  8
0
  6
CONTINUOUS
 62
7
 10
285.000000
 20
-128.500000
 11
304.000000
 21
-128.500000
  0
LINE
  8
0
  6
CONTINUOUS
 62
2
 10
289.799988
 20
-128.500000
 11
289.799988
 21
-127.500000
  0
LINE
  8
0
  6
CONTINUOUS
 62
2
 10
286.500000
 20
-127.500000
 11
287.200012
 21
-127.500000
  0
LINE
  8
0
  6
CONTINUOUS
 62
2
 10
290.500000
 20
-127.500000
 11
290.500000
 21
-124.000000
  0
LINE
  8
0
  6
CONTINUOUS
 62
2
 10
288.000000
 20
-122.500000
 11
289.000000
 21
-122.500000
  0
LINE
  8
0
  6
CONTINUOUS
 62
2
 10
286.500000
 20
-127.500000
 11
286.500000
 21
-124.000000
  0
LINE
  8
0
  6
CONTINUOUS
 62
2
 10
287.200012
 20
-128.500000
 11
287.200012
 21
-127.500000
  0
LINE
  8
0
  6
CONTINUOUS
 62
7
 10
285.000000
 20
-128.500000
 11
285.000000
 21
-121.000000
  0
LINE
  8
0
  6
CONTINUOUS
 62
7
 10
285.000000
 20
-121.000000
 11
297.500000
 21
-121.000000
  0
LINE
  8
0
  6
CONTINUOUS
 62
7
 10
297.500000
 20
-121.000000
 11
297.500000
 21
-118.500000
  0
LINE
  8
0
  6
CONTINUOUS
 62
7
 10
304.000000
 20
-128.500000
 11
304.000000
 21
-118.500000
  0
LINE
  8
0
  6
CONTINUOUS
 62
2
 10
289.799988
 20
-127.500000
 11
290.500000
 21
-127.500000
  0
LINE
  8
0
  6
CONTINUOUS
 62
7
 10
292.299988
 20
-121.000000
 11
292.299988
 21
-128.500000
  0
LINE
  8
0
  6
CONTINUOUS
 62
7
 10
239.000000
 20
-166.000000
 11
250.000000
 21
-166.000000
  0
LINE
  8
0
  6
CONTINUOUS
 62
7
 10
255.000000
 20
-146.250000
 11
255.000000
 21
-154.750000
  0
LINE
  8
0
  6
CONTINUOUS
 62
7
 10
250.000000
 20
-146.250000
 11
255.000000
 21
-146.250000
  0
LINE
  8
0
  6
CONTINUOUS
 62
7
 10
250.000000
 20
-154.750000
 11
255.000000
 21
-154.750000
  0
LINE
  8
0
  6
CONTINUOUS
 62
7
 10
250.000000
 20
-153.246002
 11
255.000000
 21
-153.246002
  0
LINE
  8
0
  6
CONTINUOUS
 62
7
 10
250.000000
 20
-151.936005
 11
255.000000
 21
-151.936005
  0
LINE
  8
0
  6
CONTINUOUS
 62
7
 10
250.000000
 20
-149.063995
 11
255.000000
 21
-149.063995
  0
LINE
  8
0
  6
CONTINUOUS
 62
7
 10
250.000000
 20
-147.753998
 11
255.000000
 21
-147.753998
  0
LINE
  8
0
  6
CONTINUOUS
 62
7
 10
242.500000
 20
-145.000000
 11
250.000000
 21
-145.000000
  0
LINE
  8
0
  6
CONTINUOUS
 62
7
 10
250.000000
 20
-145.000000
 11
250.000000
 21
-166.000000
  0
LINE
  8
0
  6
CONTINUOUS
 62
7
 10
242.500000
 20
-145.000000
 11
242.500000
 21
-152.500000
  0
LINE
  8
0
  6
CONTINUOUS
 62
2
 10
239.199997
 20
-153.000000
 11
242.500000
 21
-153.000000
  0
LINE
  8
0
  6
CONTINUOUS
 62
7
 10
239.199997
 20
-153.500000
 11
242.328003
 21
-153.500000
  0
LINE
  8
0
  6
CONTINUOUS
 62
2
 10
239.600006
 20
-148.000000
 11
242.500000
 21
-148.000000
  0
LINE
  8
0
  6
CONTINUOUS
 62
7
 10
239.600006
 20
-147.500000
 11
242.500000
 21
-147.500000
  0
LINE
  8
0
  6
CONTINUOUS
 62
2
 10
255.000000
 20
-148.000000
 11
259.700012
 21
-148.000000
  0
LINE
  8
0
  6
CONTINUOUS
 62
7
 10
255.000000
 20
-147.500000
 11
259.700012
 21
-147.500000
  0
LINE
  8
0
  6
CONTINUOUS
 62
7
 10
259.700012
 20
-147.500000
 11
259.700012
 21
-153.500000
  0
LINE
  8
0
  6
CONTINUOUS
 62
2
 10
255.000000
 20
-153.000000
 11
259.700012
 21
-153.000000
  0
LINE
  8
0
  6
CONTINUOUS
 62
7
 10
255.000000
 20
-153.500000
 11
259.700012
 21
-153.500000
  0
LINE
  8
0
  6
CENTER
 62
2
 10
236.699997
 20
-150.500000
 11
260.700012
 21
-150.500000
  0
LINE
  8
0
  6
CONTINUOUS
 62
7
 10
131.000000
 20
-144.500000
 11
238.000000
 21
-144.500000
  0
LINE
  8
0
  6
CONTINUOUS
 62
7
 10
133.000000
 20
-166.500000
 11
239.000000
 21
-166.500000
  0
LINE
  8
0
  6
CONTINUOUS
 62
7
 10
133.000000
 20
-156.500000
 11
133.000000
 21
-166.500000
  0
LINE
  8
0
  6
CONTINUOUS
 62
7
 10
239.000000
 20
-156.500000
 11
239.000000
 21
-166.500000
  0
LINE
  8
0
  6
CONTINUOUS
 62
7
 10
131.000000
 20
-144.500000
 11
131.000000
 21
-165.500000
  0
LINE
  8
0
  6
CONTINUOUS
 62
7
 10
238.000000
 20
-144.500000
 11
238.000000
 21
-145.500000
  0
LINE
  8
0
  6
CONTINUOUS
 62
7
 10
133.000000
 20
-157.000000
 11
151.500000
 21
-157.000000
  0
LINE
  8
0
  6
CONTINUOUS
 62
7
 10
143.800003
 20
-161.000000
 11
151.500000
 21
-161.000000
  0
LINE
  8
0
  6
CONTINUOUS
 62
7
 10
145.800003
 20
-161.000000
 11
145.800003
 21
-166.500000
  0
LINE
  8
0
  6
CONTINUOUS
 62
7
 10
150.199997
 20
-161.000000
 11
150.199997
 21
-166.500000
  0
LINE
  8
0
  6
CENTER
 62
2
 10
148.000000
 20
-160.000000
 11
148.000000
 21
-167.500000
  0
LINE
  8
0
  6
CONTINUOUS
 62
7
 10
123.000000
 20
-165.500000
 11
123.000000
 21
-145.000000
  0
LINE
  8
0
  6
CONTINUOUS
 62
7
 10
131.000000
 20
-165.500000
 11
123.000000
 21
-165.500000
  0
LINE
  8
0
  6
CONTINUOUS
 62
7
 10
131.000000
 20
-145.000000
 11
123.000000
 21
-145.000000
  0
LINE
  8
0
  6
CONTINUOUS
 62
7
 10
133.000000
 20
-163.500000
 11
131.000000
 21
-163.500000
  0
LINE
  8
0
  6
DASHED
 62
2
 10
168.000000
 20
-161.000000
 11
160.000000
 21
-161.000000
  0
LINE
  8
0
  6
CONTINUOUS
 62
7
 10
228.199997
 20
-161.000000
 11
226.000000
 21
-161.000000
  0
LINE
  8
0
  6
CENTER
 62
2
 10
223.000000
 20
-142.500000
 11
223.000000
 21
-146.500000
  0
LINE
  8
0
  6
CENTER
 62
2
 10
168.000000
 20
-142.500000
 11
168.000000
 21
-146.500000
  0
LINE
  8
0
  6
CENTER
 62
2
 10
143.000000
 20
-142.500000
 11
143.000000
 21
-146.500000
  0
LINE
  8
0
  6
CENTER
 62
2
 10
121.000000
 20
-158.500000
 11
125.000000
 21
-158.500000
  0
LINE
  8
0
  6
CENTER
 62
2
 10
121.000000
 20
-149.500000
 11
125.000000
 21
-149.500000
  0
LINE
  8
0
  6
CENTER
 62
2
 10
164.000000
 20
-160.000000
 11
164.000000
 21
-167.500000
  0
LINE
  8
0
  6
DASHED
 62
2
 10
161.899994
 20
-161.000000
 11
161.899994
 21
-164.899994
  0
LINE
  8
0
  6
DASHED
 62
2
 10
166.100006
 20
-161.000000
 11
166.100006
 21
-164.899994
  0
LINE
  8
0
  6
DASHED
 62
2
 10
161.500000
 20
-161.000000
 11
161.500000
 21
-164.899994
  0
LINE
  8
0
  6
DASHED
 62
2
 10
166.500000
 20
-161.000000
 11
166.500000
 21
-164.899994
  0
LINE
  8
0
  6
DASHED
 62
2
 10
161.000000
 20
-164.899994
 11
167.000000
 21
-164.899994
  0
LINE
  8
0
  6
DASHED
 62
2
 10
161.000000
 20
-164.899994
 11
161.000000
 21
-166.500000
  0
LINE
  8
0
  6
DASHED
 62
2
 10
167.000000
 20
-164.899994
 11
167.000000
 21
-166.500000
  0
LINE
  8
0
  6
CENTER
 62
2
 10
224.000000
 20
-160.000000
 11
224.000000
 21
-167.500000
  0
LINE
  8
0
  6
DASHED
 62
2
 10
221.899994
 20
-162.000000
 11
221.899994
 21
-166.500000
  0
LINE
  8
0
  6
DASHED
 62
2
 10
226.100006
 20
-162.000000
 11
226.100006
 21
-166.500000
  0
LINE
  8
0
  6
DASHED
 62
2
 10
221.500000
 20
-162.000000
 11
221.500000
 21
-166.500000
  0
LINE
  8
0
  6
DASHED
 62
2
 10
226.500000
 20
-162.000000
 11
226.500000
 21
-166.500000
  0
LINE
  8
0
  6
DASHED
 62
2
 10
220.000000
 20
-162.000000
 11
228.000000
 21
-162.000000
  0
LINE
  8
0
  6
DASHED
 62
2
 10
220.000000
 20
-161.000000
 11
220.000000
 21
-162.000000
  0
LINE
  8
0
  6
DASHED
 62
2
 10
228.000000
 20
-161.000000
 11
228.000000
 21
-162.000000
  0
LINE
  8
0
  6
DASHED
 62
2
 10
144.000000
 20
-162.000000
 11
145.800003
 21
-162.000000
  0
LINE
  8
0
  6
DASHED
 62
2
 10
144.000000
 20
-161.000000
 11
144.000000
 21
-162.000000
  0
LINE
  8
0
  6
CONTINUOUS
 62
7
 10
150.199997
 20
-162.000000
 11
145.800003
 21
-162.000000
  0
LINE
  8
0
  6
DASHED
 62
2
 10
152.000000
 20
-161.000000
 11
152.000000
 21
-162.000000
  0
LINE
  8
0
  6
DASHED
 62
2
 10
150.199997
 20
-162.000000
 11
152.000000
 21
-162.000000
  0
LINE
  8
0
  6
CENTER
 62
2
 10
198.000000
 20
-142.500000
 11
198.000000
 21
-146.500000
  0
LINE
  8
0
  6
CONTINUOUS
 62
7
 10
238.000000
 20
-145.000000
 11
239.199997
 21
-145.000000
  0
LINE
  8
0
  6
CONTINUOUS
 62
7
 10
239.600006
 20
-145.500000
 11
239.199997
 21
-145.500000
  0
LINE
  8
0
  6
CONTINUOUS
 62
7
 10
131.000000
 20
-156.500000
 11
151.500000
 21
-156.500000
  0
LINE
  8
0
  6
CONTINUOUS
 62
7
 10
239.600006
 20
-149.500000
 11
239.199997
 21
-149.500000
  0
LINE
  8
0
  6
CONTINUOUS
 62
7
 10
239.600006
 20
-145.500000
 11
239.600006
 21
-149.500000
  0
LINE
  8
0
  6
CONTINUOUS
 62
7
 10
239.199997
 20
-145.000000
 11
239.199997
 21
-156.500000
  0
LINE
  8
0
  6
CENTER
 62
2
 10
139.000000
 20
-157.500000
 11
139.000000
 21
-164.500000
  0
LINE
  8
0
  6
CENTER
 62
2
 10
135.500000
 20
-161.000000
 11
142.500000
 21
-161.000000
  0
LINE
  8
0
  6
CENTER
 62
2
 10
233.000000
 20
-157.500000
 11
233.000000
 21
-164.500000
  0
LINE
  8
0
  6
CENTER
 62
2
 10
229.500000
 20
-161.000000
 11
236.500000
 21
-161.000000
  0
LINE
  8
0
  6
CONTINUOUS
 62
7
 10
151.500000
 20
-164.500000
 11
151.500000
 21
-145.500000
  0
LINE
  8
0
  6
CONTINUOUS
 62
7
 10
226.000000
 20
-164.500000
 11
151.500000
 21
-164.500000
  0
LINE
  8
0
  6
CONTINUOUS
 62
7
 10
226.000000
 20
-152.800003
 11
226.000000
 21
-164.500000
  0
LINE
  8
0
  6
CONTINUOUS
 62
7
 10
239.000000
 20
-152.800003
 11
226.000000
 21
-152.800003
  0
LINE
  8
0
  6
CONTINUOUS
 62
7
 10
239.000000
 20
-145.500000
 11
151.500000
 21
-145.500000
  0
LINE
  8
0
  6
CONTINUOUS
 62
7
 10
239.000000
 20
-145.500000
 11
239.000000
 21
-152.800003
  0
LINE
  8
0
  6
CONTINUOUS
 62
2
 10
239.000000
 20
-147.699997
 11
151.500000
 21
-147.699997
  0
LINE
  8
0
  6
CONTINUOUS
 62
2
 10
239.000000
 20
-150.300003
 11
151.500000
 21
-150.300003
  0
LINE
  8
0
  6
CONTINUOUS
 62
2
 10
226.000000
 20
-153.699997
 11
151.500000
 21
-153.699997
  0
LINE
  8
0
  6
CONTINUOUS
 62
2
 10
226.000000
 20
-156.300003
 11
151.500000
 21
-156.300003
  0
LINE
  8
0
  6
CONTINUOUS
 62
7
 10
226.000000
 20
-156.500000
 11
239.199997
 21
-156.500000
  0
LINE
  8
0
  6
CONTINUOUS
 62
7
 10
226.000000
 20
-157.000000
 11
239.000000
 21
-157.000000
  0
LINE
  8
0
  6
CONTINUOUS
 62
7
 10
238.000000
 20
-152.800003
 11
238.000000
 21
-156.500000
  0
LINE
  8
0
  6
CONTINUOUS
 62
7
 10
151.500000
 20
-192.000000
 11
239.000000
 21
-192.000000
  0
LINE
  8
0
  6
CONTINUOUS
 62
7
 10
151.500000
 20
-202.000000
 11
151.500000
 21
-192.000000
  0
LINE
  8
0
  6
CONTINUOUS
 62
7
 10
226.000000
 20
-202.000000
 11
226.000000
 21
-192.000000
  0
LINE
  8
0
  6
CONTINUOUS
 62
7
 10
226.000000
 20
-199.500000
 11
239.000000
 21
-199.500000
  0
LINE
  8
0
  6
CONTINUOUS
 62
7
 10
239.000000
 20
-199.500000
 11
239.000000
 21
-192.000000
  0
LINE
  8
0
  6
CONTINUOUS
 62
7
 10
228.100006
 20
-200.500000
 11
226.000000
 21
-200.500000
  0
LINE
  8
0
  6
CONTINUOUS
 62
7
 10
228.100006
 20
-202.000000
 11
228.100006
 21
-200.500000
  0
LINE
  8
0
  6
CONTINUOUS
 62
7
 10
224.199997
 20
94.500000
 11
224.500000
 21
94.500000
  0
LINE
  8
0
  6
CONTINUOUS
 62
7
 10
239.199997
 20
-155.500000
 11
239.500000
 21
-155.500000
  0
LINE
  8
0
  6
CENTER
 62
2
 10
-254.000000
 20
136.000000
 11
-250.000000
 21
136.000000
  0
LINE
  8
0
  6
CENTER
 62
2
 10
-254.000000
 20
160.000000
 11
-250.000000
 21
160.000000
  0
LINE
  8
0
  6
CENTER
 62
2
 10
121.000000
 20
136.000000
 11
125.000000
 21
136.000000
  0
LINE
  8
0
  6
CENTER
 62
2
 10
121.000000
 20
160.000000
 11
125.000000
 21
160.000000
  0
LINE
  8
0
  6
CENTER
 62
2
 10
-254.000000
 20
-114.000000
 11
-250.000000
 21
-114.000000
  0
LINE
  8
0
  6
CENTER
 62
2
 10
-254.000000
 20
-90.000000
 11
-250.000000
 21
-90.000000
  0
LINE
  8
0
  6
CENTER
 62
2
 10
121.000000
 20
-114.000000
 11
125.000000
 21
-114.000000
  0
LINE
  8
0
  6
CENTER
 62
2
 10
121.000000
 20
-90.000000
 11
125.000000
 21
-90.000000
  0
LINE
  8
0
  6
CENTER
 62
2
 10
-277.500000
 20
120.500000
 11
-277.500000
 21
128.500000
  0
LINE
  8
0
  6
CENTER
 62
2
 10
-271.500000
 20
120.500000
 11
-271.500000
 21
128.500000
  0
LINE
  8
0
  6
CENTER
 62
2
 10
97.500000
 20
120.500000
 11
97.500000
 21
128.500000
  0
LINE
  8
0
  6
CENTER
 62
2
 10
103.500000
 20
120.500000
 11
103.500000
 21
128.500000
  0
LINE
  8
0
  6
CENTER
 62
2
 10
-277.500000
 20
-129.500000
 11
-277.500000
 21
-121.500000
  0
LINE
  8
0
  6
CENTER
 62
2
 10
-271.500000
 20
-129.500000
 11
-271.500000
 21
-121.500000
  0
LINE
  8
0
  6
CENTER
 62
2
 10
97.500000
 20
-129.500000
 11
97.500000
 21
-121.500000
  0
LINE
  8
0
  6
CENTER
 62
2
 10
103.500000
 20
-129.500000
 11
103.500000
 21
-121.500000
  0
LINE
  8
0
  6
CENTER
 62
2
 10
-120.500000
 20
120.500000
 11
-120.500000
 21
128.500000
  0
LINE
  8
0
  6
CENTER
 62
2
 10
-126.500000
 20
120.500000
 11
-126.500000
 21
128.500000
  0
LINE
  8
0
  6
CENTER
 62
2
 10
294.500000
 20
120.500000
 11
294.500000
 21
128.500000
  0
LINE
  8
0
  6
CENTER
 62
2
 10
288.500000
 20
120.500000
 11
288.500000
 21
128.500000
  0
LINE
  8
0
  6
CENTER
 62
2
 10
-120.500000
 20
-129.500000
 11
-120.500000
 21
-121.500000
  0
LINE
  8
0
  6
CENTER
 62
2
 10
-126.500000
 20
-129.500000
 11
-126.500000
 21
-121.500000
  0
LINE
  8
0
  6
CENTER
 62
2
 10
294.500000
 20
-129.500000
 11
294.500000
 21
-121.500000
  0
LINE
  8
0
  6
CENTER
 62
2
 10
288.500000
 20
-129.500000
 11
288.500000
 21
-121.500000
  0
LINE
  8
0
  6
CONTINUOUS
 62
7
 10
-399.250000
 20
-0.250000
 11
399.799988
 21
-0.250000
  0
LINE
  8
0
  6
CONTINUOUS
 62
7
 10
0.274994
 20
276.250000
 11
0.274994
 21
-276.750000
  0
CIRCLE
  8
0
  6
CONTINUOUS
 62
7
 10
176.000000
 20
-89.500000
 40
2.000000
  0
CIRCLE
  8
0
  6
CONTINUOUS
 62
2
 10
198.000000
 20
-114.500000
 40
1.500000
  0
CIRCLE
  8
0
  6
CONTINUOUS
 62
7
 10
198.000000
 20
-114.500000
 40
1.200000
  0
CIRCLE
  8
0
  6
CONTINUOUS
 62
7
 10
143.000000
 20
-114.500000
 40
1.200000
  0
CIRCLE
  8
0
  6
CONTINUOUS
 62
2
 10
143.000000
 20
-114.500000
 40
1.500000
  0
CIRCLE
  8
0
  6
CONTINUOUS
 62
7
 10
176.000000
 20
-114.500000
 40
2.000000
  0
CIRCLE
  8
0
  6
CONTINUOUS
 62
2
 10
223.000000
 20
-114.500000
 40
1.500000
  0
CIRCLE
  8
0
  6
CONTINUOUS
 62
7
 10
223.000000
 20
-114.500000
 40
1.200000
  0
CIRCLE
  8
0
  6
CONTINUOUS
 62
7
 10
143.000000
 20
-89.500000
 40
1.200000
  0
CIRCLE
  8
0
  6
CONTINUOUS
 62
2
 10
143.000000
 20
-89.500000
 40
1.500000
  0
CIRCLE
  8
0
  6
CONTINUOUS
 62
7
 10
223.000000
 20
-89.500000
 40
1.200000
  0
CIRCLE
  8
0
  6
CONTINUOUS
 62
2
 10
223.000000
 20
-89.500000
 40
1.500000
  0
CIRCLE
  8
0
  6
CONTINUOUS
 62
7
 10
198.000000
 20
-89.500000
 40
1.200000
  0
CIRCLE
  8
0
  6
CONTINUOUS
 62
2
 10
198.000000
 20
-89.500000
 40
1.500000
  0
ARC
  8
0
  6
DASHED
 62
2
 10
148.000000
 20
-90.000000
 40
2.200000
 50
180.000000
 51
0.000000
  0
ARC
  8
0
  6
DASHED
 62
2
 10
148.000000
 20
-114.000000
 40
2.200000
 50
0.000000
 51
180.000000
  0
CIRCLE
  8
0
  6
DASHED
 62
2
 10
224.000000
 20
-90.000000
 40
4.000000
  0
ARC
  8
0
  6
DASHED
 62
2
 10
148.000000
 20
-90.000000
 40
4.000000
 50
123.366997
 51
416.632996
  0
CIRCLE
  8
0
  6
DASHED
 62
2
 10
224.000000
 20
-114.000000
 40
4.000000
  0
ARC
  8
0
  6
DASHED
 62
2
 10
148.000000
 20
-114.000000
 40
4.000000
 50
303.367004
 51
236.632996
  0
CIRCLE
  8
0
  6
DASHED
 62
2
 10
224.000000
 20
-90.000000
 40
2.500000
  0
CIRCLE
  8
0
  6
DASHED
 62
2
 10
224.000000
 20
-114.000000
 40
2.500000
  0
CIRCLE
  8
0
  6
DASHED
 62
2
 10
224.000000
 20
-114.000000
 40
2.100000
  0
CIRCLE
  8
0
  6
DASHED
 62
2
 10
224.000000
 20
-90.000000
 40
2.100000
  0
CIRCLE
  8
0
  6
CONTINUOUS
 62
7
 10
-199.000000
 20
-89.500000
 40
2.000000
  0
CIRCLE
  8
0
  6
CONTINUOUS
 62
2
 10
-207.000000
 20
-114.500000
 40
1.500000
  0
CIRCLE
  8
0
  6
CONTINUOUS
 62
7
 10
-207.000000
 20
-114.500000
 40
1.200000
  0
CIRCLE
  8
0
  6
CONTINUOUS
 62
7
 10
-232.000000
 20
-114.500000
 40
1.200000
  0
CIRCLE
  8
0
  6
CONTINUOUS
 62
2
 10
-232.000000
 20
-114.500000
 40
1.500000
  0
CIRCLE
  8
0
  6
CONTINUOUS
 62
7
 10
-199.000000
 20
-114.500000
 40
2.000000
  0
CIRCLE
  8
0
  6
CONTINUOUS
 62
2
 10
-182.000000
 20
-114.500000
 40
1.500000
  0
CIRCLE
  8
0
  6
CONTINUOUS
 62
7
 10
-182.000000
 20
-114.500000
 40
1.200000
  0
CIRCLE
  8
0
  6
CONTINUOUS
 62
7
 10
-232.000000
 20
-89.500000
 40
1.200000
  0
CIRCLE
  8
0
  6
CONTINUOUS
 62
2
 10
-232.000000
 20
-89.500000
 40
1.500000
  0
CIRCLE
  8
0
  6
CONTINUOUS
 62
7
 10
-182.000000
 20
-89.500000
 40
1.200000
  0
CIRCLE
  8
0
  6
CONTINUOUS
 62
2
 10
-182.000000
 20
-89.500000
 40
1.500000
  0
CIRCLE
  8
0
  6
CONTINUOUS
 62
7
 10
-207.000000
 20
-89.500000
 40
1.200000
  0
CIRCLE
  8
0
  6
CONTINUOUS
 62
2
 10
-207.000000
 20
-89.500000
 40
1.500000
  0
ARC
  8
0
  6
DASHED
 62
2
 10
-227.000000
 20
-90.000000
 40
2.200000
 50
180.000000
 51
0.000000
  0
ARC
  8
0
  6
DASHED
 62
2
 10
-227.000000
 20
-114.000000
 40
2.200000
 50
0.000000
 51
180.000000
  0
CIRCLE
  8
0
  6
DASHED
 62
2
 10
-181.000000
 20
-90.000000
 40
4.000000
  0
ARC
  8
0
  6
DASHED
 62
2
 10
-227.000000
 20
-90.000000
 40
4.000000
 50
123.366997
 51
416.632996
  0
CIRCLE
  8
0
  6
DASHED
 62
2
 10
-181.000000
 20
-114.000000
 40
4.000000
  0
ARC
  8
0
  6
DASHED
 62
2
 10
-227.000000
 20
-114.000000
 40
4.000000
 50
303.367004
 51
236.632996
  0
CIRCLE
  8
0
  6
DASHED
 62
2
 10
-181.000000
 20
-90.000000
 40
2.500000
  0
CIRCLE
  8
0
  6
DASHED
 62
2
 10
-181.000000
 20
-114.000000
 40
2.500000
  0
CIRCLE
  8
0
  6
DASHED
 62
2
 10
-181.000000
 20
-114.000000
 40
2.100000
  0
CIRCLE
  8
0
  6
DASHED
 62
2
 10
-181.000000
 20
-90.000000
 40
2.100000
  0
ARC
  8
0
  6
CONTINUOUS
 62
7
 10
139.000000
 20
-43.000000
 40
4.800000
 50
303.557007
 51
0.000000
  0
CIRCLE
  8
0
  6
CONTINUOUS
 62
7
 10
168.000000
 20
-89.500000
 40
1.200000
  0
CIRCLE
  8
0
  6
CONTINUOUS
 62
2
 10
168.000000
 20
-89.500000
 40
1.500000
  0
CIRCLE
  8
0
  6
CONTINUOUS
 62
2
 10
168.000000
 20
-114.500000
 40
1.500000
  0
CIRCLE
  8
0
  6
CONTINUOUS
 62
7
 10
168.000000
 20
-114.500000
 40
1.200000
  0
CIRCLE
  8
0
  6
CONTINUOUS
 62
7
 10
176.000000
 20
160.500000
 40
2.000000
  0
CIRCLE
  8
0
  6
CONTINUOUS
 62
2
 10
183.000000
 20
135.500000
 40
1.500000
  0
CIRCLE
  8
0
  6
CONTINUOUS
 62
7
 10
183.000000
 20
135.500000
 40
1.200000
  0
CIRCLE
  8
0
  6
CONTINUOUS
 62
7
 10
143.000000
 20
135.500000
 40
1.200000
  0
CIRCLE
  8
0
  6
CONTINUOUS
 62
2
 10
143.000000
 20
135.500000
 40
1.500000
  0
CIRCLE
  8
0
  6
CONTINUOUS
 62
7
 10
176.000000
 20
135.500000
 40
2.000000
  0
CIRCLE
  8
0
  6
CONTINUOUS
 62
2
 10
208.000000
 20
135.500000
 40
1.500000
  0
CIRCLE
  8
0
  6
CONTINUOUS
 62
7
 10
208.000000
 20
135.500000
 40
1.200000
  0
CIRCLE
  8
0
  6
CONTINUOUS
 62
7
 10
143.000000
 20
160.500000
 40
1.200000
  0
CIRCLE
  8
0
  6
CONTINUOUS
 62
2
 10
143.000000
 20
160.500000
 40
1.500000
  0
CIRCLE
  8
0
  6
CONTINUOUS
 62
7
 10
208.000000
 20
160.500000
 40
1.200000
  0
CIRCLE
  8
0
  6
CONTINUOUS
 62
2
 10
208.000000
 20
160.500000
 40
1.500000
  0
CIRCLE
  8
0
  6
CONTINUOUS
 62
7
 10
183.000000
 20
160.500000
 40
1.200000
  0
CIRCLE
  8
0
  6
CONTINUOUS
 62
2
 10
183.000000
 20
160.500000
 40
1.500000
  0
ARC
  8
0
  6
DASHED
 62
2
 10
148.000000
 20
160.000000
 40
2.200000
 50
180.000000
 51
0.000000
  0
ARC
  8
0
  6
DASHED
 62
2
 10
148.000000
 20
136.000000
 40
2.200000
 50
0.000000
 51
180.000000
  0
CIRCLE
  8
0
  6
DASHED
 62
2
 10
209.000000
 20
160.000000
 40
4.000000
  0
ARC
  8
0
  6
DASHED
 62
2
 10
148.000000
 20
160.000000
 40
3.999990
 50
123.366997
 51
416.632996
  0
CIRCLE
  8
0
  6
DASHED
 62
2
 10
209.000000
 20
136.000000
 40
4.000000
  0
ARC
  8
0
  6
DASHED
 62
2
 10
148.000000
 20
136.000000
 40
3.999990
 50
303.367004
 51
236.632996
  0
CIRCLE
  8
0
  6
DASHED
 62
2
 10
209.000000
 20
160.000000
 40
2.500000
  0
CIRCLE
  8
0
  6
DASHED
 62
2
 10
209.000000
 20
136.000000
 40
2.500000
  0
CIRCLE
  8
0
  6
DASHED
 62
2
 10
209.000000
 20
136.000000
 40
2.100000
  0
CIRCLE
  8
0
  6
DASHED
 62
2
 10
209.000000
 20
160.000000
 40
2.100000
  0
CIRCLE
  8
0
  6
CONTINUOUS
 62
7
 10
94.000000
 20
148.000000
 40
6.000000
  0
CIRCLE
  8
0
  6
CONTINUOUS
 62
7
 10
103.000000
 20
136.500000
 40
4.000000
  0
CIRCLE
  8
0
  6
CONTINUOUS
 62
7
 10
103.000000
 20
159.500000
 40
4.000000
  0
CIRCLE
  8
0
  6
CONTINUOUS
 62
2
 10
94.000000
 20
160.000000
 40
2.000000
  0
CIRCLE
  8
0
  6
CONTINUOUS
 62
7
 10
94.000000
 20
160.000000
 40
1.650000
  0
CIRCLE
  8
0
  6
CONTINUOUS
 62
2
 10
103.000000
 20
148.000000
 40
2.000000
  0
CIRCLE
  8
0
  6
CONTINUOUS
 62
7
 10
103.000000
 20
148.000000
 40
1.650000
  0
CIRCLE
  8
0
  6
CONTINUOUS
 62
2
 10
94.000000
 20
136.000000
 40
2.000000
  0
CIRCLE
  8
0
  6
CONTINUOUS
 62
7
 10
94.000000
 20
136.000000
 40
1.650000
  0
ARC
  8
0
  6
CONTINUOUS
 62
7
 10
148.000000
 20
-206.500000
 40
2.200000
 50
180.000000
 51
0.000000
  0
ARC
  8
0
  6
CONTINUOUS
 62
7
 10
148.000000
 20
-230.500000
 40
2.200000
 50
0.000000
 51
180.000000
  0
CIRCLE
  8
0
  6
CONTINUOUS
 62
2
 10
164.000000
 20
-230.500000
 40
2.500000
  0
CIRCLE
  8
0
  6
CONTINUOUS
 62
7
 10
164.000000
 20
-230.500000
 40
2.100000
  0
CIRCLE
  8
0
  6
CONTINUOUS
 62
7
 10
164.000000
 20
-230.500000
 40
3.000000
  0
CIRCLE
  8
0
  6
CONTINUOUS
 62
2
 10
164.000000
 20
-206.500000
 40
2.500000
  0
CIRCLE
  8
0
  6
CONTINUOUS
 62
7
 10
164.000000
 20
-206.500000
 40
2.100000
  0
CIRCLE
  8
0
  6
CONTINUOUS
 62
7
 10
164.000000
 20
-206.500000
 40
3.000000
  0
CIRCLE
  8
0
  6
CONTINUOUS
 62
2
 10
224.000000
 20
-206.500000
 40
2.500000
  0
CIRCLE
  8
0
  6
CONTINUOUS
 62
7
 10
224.000000
 20
-206.500000
 40
2.100000
  0
CIRCLE
  8
0
  6
CONTINUOUS
 62
7
 10
224.000000
 20
-230.500000
 40
2.100000
  0
CIRCLE
  8
0
  6
CONTINUOUS
 62
2
 10
224.000000
 20
-230.500000
 40
2.500000
  0
CIRCLE
  8
0
  6
CONTINUOUS
 62
7
 10
168.000000
 20
160.500000
 40
1.200000
  0
CIRCLE
  8
0
  6
CONTINUOUS
 62
2
 10
168.000000
 20
160.500000
 40
1.500000
  0
CIRCLE
  8
0
  6
CONTINUOUS
 62
2
 10
168.000000
 20
135.500000
 40
1.500000
  0
CIRCLE
  8
0
  6
CONTINUOUS
 62
7
 10
168.000000
 20
135.500000
 40
1.200000
  0
CIRCLE
  8
0
  6
CONTINUOUS
 62
7
 10
-207.000000
 20
160.500000
 40
2.000000
  0
CIRCLE
  8
0
  6
CONTINUOUS
 62
2
 10
-212.000000
 20
135.500000
 40
1.500000
  0
CIRCLE
  8
0
  6
CONTINUOUS
 62
7
 10
-212.000000
 20
135.500000
 40
1.200000
  0
CIRCLE
  8
0
  6
CONTINUOUS
 62
7
 10
-232.000000
 20
135.500000
 40
1.200000
  0
CIRCLE
  8
0
  6
CONTINUOUS
 62
2
 10
-232.000000
 20
135.500000
 40
1.500000
  0
CIRCLE
  8
0
  6
CONTINUOUS
 62
7
 10
-207.000000
 20
135.500000
 40
2.000000
  0
CIRCLE
  8
0
  6
CONTINUOUS
 62
2
 10
-192.000000
 20
135.500000
 40
1.500000
  0
CIRCLE
  8
0
  6
CONTINUOUS
 62
7
 10
-192.000000
 20
135.500000
 40
1.200000
  0
CIRCLE
  8
0
  6
CONTINUOUS
 62
7
 10
-232.000000
 20
160.500000
 40
1.200000
  0
CIRCLE
  8
0
  6
CONTINUOUS
 62
2
 10
-232.000000
 20
160.500000
 40
1.500000
  0
CIRCLE
  8
0
  6
CONTINUOUS
 62
7
 10
-192.000000
 20
160.500000
 40
1.200000
  0
CIRCLE
  8
0
  6
CONTINUOUS
 62
2
 10
-192.000000
 20
160.500000
 40
1.500000
  0
CIRCLE
  8
0
  6
CONTINUOUS
 62
7
 10
-212.000000
 20
160.500000
 40
1.200000
  0
CIRCLE
  8
0
  6
CONTINUOUS
 62
2
 10
-212.000000
 20
160.500000
 40
1.500000
  0
ARC
  8
0
  6
DASHED
 62
2
 10
-227.000000
 20
160.000000
 40
2.200000
 50
180.000000
 51
0.000000
  0
ARC
  8
0
  6
DASHED
 62
2
 10
-227.000000
 20
136.000000
 40
2.200000
 50
0.000000
 51
180.000000
  0
CIRCLE
  8
0
  6
DASHED
 62
2
 10
-191.000000
 20
160.000000
 40
4.000000
  0
ARC
  8
0
  6
DASHED
 62
2
 10
-227.000000
 20
160.000000
 40
3.999990
 50
123.366997
 51
416.632996
  0
CIRCLE
  8
0
  6
DASHED
 62
2
 10
-191.000000
 20
136.000000
 40
4.000000
  0
ARC
  8
0
  6
DASHED
 62
2
 10
-227.000000
 20
136.000000
 40
3.999990
 50
303.367004
 51
236.632996
  0
CIRCLE
  8
0
  6
DASHED
 62
2
 10
-191.000000
 20
160.000000
 40
2.500000
  0
CIRCLE
  8
0
  6
DASHED
 62
2
 10
-191.000000
 20
136.000000
 40
2.500000
  0
CIRCLE
  8
0
  6
DASHED
 62
2
 10
-191.000000
 20
136.000000
 40
2.100000
  0
CIRCLE
  8
0
  6
DASHED
 62
2
 10
-191.000000
 20
160.000000
 40
2.100000
  0
CIRCLE
  8
0
  6
CONTINUOUS
 62
7
 10
-281.000000
 20
148.000000
 40
6.000000
  0
CIRCLE
  8
0
  6
CONTINUOUS
 62
7
 10
-272.000000
 20
136.500000
 40
4.000000
  0
CIRCLE
  8
0
  6
CONTINUOUS
 62
7
 10
-272.000000
 20
159.500000
 40
4.000000
  0
CIRCLE
  8
0
  6
CONTINUOUS
 62
2
 10
-281.000000
 20
160.000000
 40
2.000000
  0
CIRCLE
  8
0
  6
CONTINUOUS
 62
7
 10
-281.000000
 20
160.000000
 40
1.650000
  0
CIRCLE
  8
0
  6
CONTINUOUS
 62
2
 10
-272.000000
 20
148.000000
 40
2.000000
  0
CIRCLE
  8
0
  6
CONTINUOUS
 62
7
 10
-272.000000
 20
148.000000
 40
1.650000
  0
CIRCLE
  8
0
  6
CONTINUOUS
 62
2
 10
-281.000000
 20
136.000000
 40
2.000000
  0
CIRCLE
  8
0
  6
CONTINUOUS
 62
7
 10
-281.000000
 20
136.000000
 40
1.650000
  0
ARC
  8
0
  6
CONTINUOUS
 62
7
 10
289.500000
 20
141.000000
 40
2.300020
 50
180.000000
 51
183.186996
  0
ARC
  8
0
  6
CONTINUOUS
 62
7
 10
289.500000
 20
155.000000
 40
2.300000
 50
176.815002
 51
180.000000
  0
ARC
  8
0
  6
CONTINUOUS
 62
7
 10
291.500000
 20
156.300003
 40
1.600000
 50
209.998993
 51
330.001007
  0
ARC
  8
0
  6
CONTINUOUS
 62
7
 10
291.500000
 20
139.699997
 40
1.600000
 50
29.999399
 51
150.001007
  0
CIRCLE
  8
0
  6
CONTINUOUS
 62
7
 10
298.000000
 20
148.000000
 40
6.400000
  0
ARC
  8
0
  6
CONTINUOUS
 62
7
 10
-227.000000
 20
-206.500000
 40
2.200000
 50
180.000000
 51
0.000000
  0
ARC
  8
0
  6
CONTINUOUS
 62
7
 10
-227.000000
 20
-230.500000
 40
2.200000
 50
0.000000
 51
180.000000
  0
CIRCLE
  8
0
  6
CONTINUOUS
 62
2
 10
-211.000000
 20
-230.500000
 40
2.500000
  0
CIRCLE
  8
0
  6
CONTINUOUS
 62
7
 10
-211.000000
 20
-230.500000
 40
2.100000
  0
CIRCLE
  8
0
  6
CONTINUOUS
 62
7
 10
-211.000000
 20
-230.500000
 40
3.000000
  0
CIRCLE
  8
0
  6
CONTINUOUS
 62
2
 10
-211.000000
 20
-206.500000
 40
2.500000
  0
CIRCLE
  8
0
  6
CONTINUOUS
 62
7
 10
-211.000000
 20
-206.500000
 40
2.100000
  0
CIRCLE
  8
0
  6
CONTINUOUS
 62
7
 10
-211.000000
 20
-206.500000
 40
3.000000
  0
CIRCLE
  8
0
  6
CONTINUOUS
 62
2
 10
-181.000000
 20
-206.500000
 40
2.500000
  0
CIRCLE
  8
0
  6
CONTINUOUS
 62
7
 10
-181.000000
 20
-206.500000
 40
2.100000
  0
CIRCLE
  8
0
  6
CONTINUOUS
 62
7
 10
-181.000000
 20
-230.500000
 40
2.100000
  0
CIRCLE
  8
0
  6
CONTINUOUS
 62
2
 10
-181.000000
 20
-230.500000
 40
2.500000
  0
CIRCLE
  8
0
  6
CONTINUOUS
 62
2
 10
204.800003
 20
194.699997
 40
1.000000
  0
ARC
  8
0
  6
CONTINUOUS
 62
7
 10
-227.000000
 20
43.500000
 40
2.200000
 50
180.000000
 51
0.000000
  0
ARC
  8
0
  6
CONTINUOUS
 62
7
 10
-227.000000
 20
19.500000
 40
2.200000
 50
0.000000
 51
180.000000
  0
CIRCLE
  8
0
  6
CONTINUOUS
 62
2
 10
-211.000000
 20
19.500000
 40
2.500000
  0
CIRCLE
  8
0
  6
CONTINUOUS
 62
7
 10
-211.000000
 20
19.500000
 40
2.100000
  0
CIRCLE
  8
0
  6
CONTINUOUS
 62
2
 10
-211.000000
 20
43.500000
 40
2.500000
  0
CIRCLE
  8
0
  6
CONTINUOUS
 62
7
 10
-211.000000
 20
43.500000
 40
2.100000
  0
CIRCLE
  8
0
  6
CONTINUOUS
 62
2
 10
-191.000000
 20
43.500000
 40
2.500000
  0
CIRCLE
  8
0
  6
CONTINUOUS
 62
7
 10
-191.000000
 20
43.500000
 40
2.100000
  0
CIRCLE
  8
0
  6
CONTINUOUS
 62
7
 10
-191.000000
 20
19.500000
 40
2.100000
  0
CIRCLE
  8
0
  6
CONTINUOUS
 62
2
 10
-191.000000
 20
19.500000
 40
2.500000
  0
ARC
  8
0
  6
CONTINUOUS
 62
7
 10
148.000000
 20
43.500000
 40
2.200000
 50
180.000000
 51
0.000000
  0
ARC
  8
0
  6
CONTINUOUS
 62
7
 10
148.000000
 20
19.500000
 40
2.200000
 50
0.000000
 51
180.000000
  0
CIRCLE
  8
0
  6
CONTINUOUS
 62
2
 10
164.000000
 20
19.500000
 40
2.500000
  0
CIRCLE
  8
0
  6
CONTINUOUS
 62
7
 10
164.000000
 20
19.500000
 40
2.100000
  0
CIRCLE
  8
0
  6
CONTINUOUS
 62
2
 10
164.000000
 20
43.500000
 40
2.500000
  0
CIRCLE
  8
0
  6
CONTINUOUS
 62
7
 10
164.000000
 20
43.500000
 40
2.100000
  0
CIRCLE
  8
0
  6
CONTINUOUS
 62
2
 10
209.000000
 20
43.500000
 40
2.500000
  0
CIRCLE
  8
0
  6
CONTINUOUS
 62
7
 10
209.000000
 20
43.500000
 40
2.100000
  0
CIRCLE
  8
0
  6
CONTINUOUS
 62
7
 10
209.000000
 20
19.500000
 40
2.100000
  0
CIRCLE
  8
0
  6
CONTINUOUS
 62
2
 10
209.000000
 20
19.500000
 40
2.500000
  0
ARC
  8
0
  6
CONTINUOUS
 62
7
 10
139.000000
 20
207.199997
 40
4.800000
 50
298.954987
 51
0.000000
  0
CIRCLE
  8
0
  6
CONTINUOUS
 62
7
 10
204.800003
 20
194.699997
 40
0.800000
  0
ARC
  8
0
  6
CONTINUOUS
 62
7
 10
-273.000000
 20
169.500000
 40
4.250000
 50
49.749901
 51
70.250298
  0
ARC
  8
0
  6
CONTINUOUS
 62
7
 10
-273.000000
 20
169.500000
 40
4.249990
 50
349.750000
 51
10.250200
  0
ARC
  8
0
  6
CONTINUOUS
 62
7
 10
-273.000000
 20
169.500000
 40
4.250000
 50
289.750000
 51
310.250000
  0
ARC
  8
0
  6
CONTINUOUS
 62
7
 10
-273.000000
 20
169.500000
 40
4.250000
 50
229.750000
 51
250.250000
  0
ARC
  8
0
  6
CONTINUOUS
 62
7
 10
-273.000000
 20
169.500000
 40
4.249990
 50
169.750000
 51
190.250000
  0
ARC
  8
0
  6
CONTINUOUS
 62
7
 10
-273.000000
 20
169.500000
 40
4.250000
 50
109.750000
 51
130.250000
  0
CIRCLE
  8
0
  6
CONTINUOUS
 62
7
 10
-273.000000
 20
169.500000
 40
3.000000
  0
ARC
  8
0
  6
CONTINUOUS
 62
7
 10
102.000000
 20
169.500000
 40
4.250000
 50
49.749901
 51
70.250099
  0
ARC
  8
0
  6
CONTINUOUS
 62
7
 10
102.000000
 20
169.500000
 40
4.250000
 50
349.750000
 51
10.250100
  0
ARC
  8
0
  6
CONTINUOUS
 62
7
 10
102.000000
 20
169.500000
 40
4.250000
 50
289.750000
 51
310.250000
  0
ARC
  8
0
  6
CONTINUOUS
 62
7
 10
102.000000
 20
169.500000
 40
4.250000
 50
229.750000
 51
250.250000
  0
ARC
  8
0
  6
CONTINUOUS
 62
7
 10
102.000000
 20
169.500000
 40
4.250000
 50
169.750000
 51
190.250000
  0
ARC
  8
0
  6
CONTINUOUS
 62
7
 10
102.000000
 20
169.500000
 40
4.250000
 50
109.750000
 51
130.250000
  0
CIRCLE
  8
0
  6
CONTINUOUS
 62
7
 10
102.000000
 20
169.500000
 40
3.000000
  0
ARC
  8
0
  6
CONTINUOUS
 62
7
 10
162.500000
 20
198.500000
 40
3.000000
 50
90.000000
 51
180.000000
  0
CIRCLE
  8
0
  6
CONTINUOUS
 62
7
 10
219.800003
 20
-55.299999
 40
0.800000
  0
ARC
  8
0
  6
CONTINUOUS
 62
7
 10
162.500000
 20
-51.500000
 40
3.000000
 50
90.000000
 51
180.000000
  0
CIRCLE
  8
0
  6
CONTINUOUS
 62
2
 10
219.800003
 20
-55.299999
 40
1.000000
  0
CIRCLE
  8
0
  6
CONTINUOUS
 62
7
 10
-281.000000
 20
-102.000000
 40
6.000000
  0
CIRCLE
  8
0
  6
CONTINUOUS
 62
7
 10
-272.000000
 20
-113.500000
 40
4.000000
  0
CIRCLE
  8
0
  6
CONTINUOUS
 62
7
 10
-272.000000
 20
-90.500000
 40
4.000000
  0
CIRCLE
  8
0
  6
CONTINUOUS
 62
2
 10
-281.000000
 20
-90.000000
 40
2.000000
  0
CIRCLE
  8
0
  6
CONTINUOUS
 62
7
 10
-281.000000
 20
-90.000000
 40
1.650000
  0
CIRCLE
  8
0
  6
CONTINUOUS
 62
2
 10
-272.000000
 20
-102.000000
 40
2.000000
  0
CIRCLE
  8
0
  6
CONTINUOUS
 62
7
 10
-272.000000
 20
-102.000000
 40
1.650000
  0
CIRCLE
  8
0
  6
CONTINUOUS
 62
2
 10
-281.000000
 20
-114.000000
 40
2.000000
  0
CIRCLE
  8
0
  6
CONTINUOUS
 62
7
 10
-281.000000
 20
-114.000000
 40
1.650000
  0
ARC
  8
0
  6
CONTINUOUS
 62
7
 10
-273.000000
 20
-80.500000
 40
4.250000
 50
49.749901
 51
70.250298
  0
ARC
  8
0
  6
CONTINUOUS
 62
7
 10
-273.000000
 20
-80.500000
 40
4.249990
 50
349.750000
 51
10.250100
  0
ARC
  8
0
  6
CONTINUOUS
 62
7
 10
-273.000000
 20
-80.500000
 40
4.250000
 50
289.750000
 51
310.250000
  0
ARC
  8
0
  6
CONTINUOUS
 62
7
 10
-273.000000
 20
-80.500000
 40
4.250000
 50
229.750000
 51
250.250000
  0
ARC
  8
0
  6
CONTINUOUS
 62
7
 10
-273.000000
 20
-80.500000
 40
4.249990
 50
169.750000
 51
190.250000
  0
ARC
  8
0
  6
CONTINUOUS
 62
7
 10
-273.000000
 20
-80.500000
 40
4.250000
 50
109.750000
 51
130.250000
  0
CIRCLE
  8
0
  6
CONTINUOUS
 62
7
 10
-273.000000
 20
-80.500000
 40
3.000000
  0
CIRCLE
  8
0
  6
CONTINUOUS
 62
7
 10
94.000000
 20
-102.000000
 40
6.000000
  0
CIRCLE
  8
0
  6
CONTINUOUS
 62
7
 10
103.000000
 20
-113.500000
 40
4.000000
  0
CIRCLE
  8
0
  6
CONTINUOUS
 62
7
 10
103.000000
 20
-90.500000
 40
4.000000
  0
CIRCLE
  8
0
  6
CONTINUOUS
 62
2
 10
94.000000
 20
-90.000000
 40
2.000000
  0
CIRCLE
  8
0
  6
CONTINUOUS
 62
7
 10
94.000000
 20
-90.000000
 40
1.650000
  0
CIRCLE
  8
0
  6
CONTINUOUS
 62
2
 10
103.000000
 20
-102.000000
 40
2.000000
  0
CIRCLE
  8
0
  6
CONTINUOUS
 62
7
 10
103.000000
 20
-102.000000
 40
1.650000
  0
CIRCLE
  8
0
  6
CONTINUOUS
 62
2
 10
94.000000
 20
-114.000000
 40
2.000000
  0
CIRCLE
  8
0
  6
CONTINUOUS
 62
7
 10
94.000000
 20
-114.000000
 40
1.650000
  0
ARC
  8
0
  6
CONTINUOUS
 62
7
 10
102.000000
 20
-80.500000
 40
4.250000
 50
49.749901
 51
70.250099
  0
ARC
  8
0
  6
CONTINUOUS
 62
7
 10
102.000000
 20
-80.500000
 40
4.250000
 50
349.750000
 51
10.250000
  0
ARC
  8
0
  6
CONTINUOUS
 62
7
 10
102.000000
 20
-80.500000
 40
4.250000
 50
289.750000
 51
310.250000
  0
ARC
  8
0
  6
CONTINUOUS
 62
7
 10
102.000000
 20
-80.500000
 40
4.250000
 50
229.750000
 51
250.250000
  0
ARC
  8
0
  6
CONTINUOUS
 62
7
 10
102.000000
 20
-80.500000
 40
4.250000
 50
169.750000
 51
190.250000
  0
ARC
  8
0
  6
CONTINUOUS
 62
7
 10
102.000000
 20
-80.500000
 40
4.250000
 50
109.750000
 51
130.250000
  0
CIRCLE
  8
0
  6
CONTINUOUS
 62
7
 10
102.000000
 20
-80.500000
 40
3.000000
  0
ARC
  8
0
  6
CONTINUOUS
 62
7
 10
224.500000
 20
198.500000
 40
3.000000
 50
0.000000
 51
90.000000
  0
ARC
  8
0
  6
CONTINUOUS
 62
7
 10
239.500000
 20
-51.500000
 40
3.000000
 50
0.000000
 51
90.000000
  0
CIRCLE
  8
0
  6
CONTINUOUS
 62
2
 10
-195.199997
 20
194.699997
 40
1.000000
  0
ARC
  8
0
  6
CONTINUOUS
 62
7
 10
-236.000000
 20
207.199997
 40
4.800000
 50
298.954987
 51
0.000000
  0
CIRCLE
  8
0
  6
CONTINUOUS
 62
7
 10
-195.199997
 20
194.699997
 40
0.800000
  0
ARC
  8
0
  6
CONTINUOUS
 62
7
 10
-212.500000
 20
198.500000
 40
3.000000
 50
90.000000
 51
180.000000
  0
ARC
  8
0
  6
CONTINUOUS
 62
7
 10
-175.500000
 20
198.500000
 40
3.000000
 50
0.000000
 51
90.000000
  0
ARC
  8
0
  6
CONTINUOUS
 62
7
 10
-236.000000
 20
-43.000000
 40
4.800000
 50
303.557007
 51
0.000000
  0
CIRCLE
  8
0
  6
CONTINUOUS
 62
7
 10
-185.199997
 20
-55.299999
 40
0.800000
  0
ARC
  8
0
  6
CONTINUOUS
 62
7
 10
-212.500000
 20
-51.500000
 40
3.000000
 50
90.000000
 51
180.000000
  0
CIRCLE
  8
0
  6
CONTINUOUS
 62
2
 10
-185.199997
 20
-55.299999
 40
1.000000
  0
ARC
  8
0
  6
CONTINUOUS
 62
7
 10
-165.500000
 20
-51.500000
 40
3.000000
 50
0.000000
 51
90.000000
  0
ARC
  8
0
  6
CONTINUOUS
 62
7
 10
290.000000
 20
169.500000
 40
4.250000
 50
109.750000
 51
130.250000
  0
ARC
  8
0
  6
CONTINUOUS
 62
7
 10
290.000000
 20
169.500000
 40
4.249990
 50
169.750000
 51
190.250000
  0
ARC
  8
0
  6
CONTINUOUS
 62
7
 10
290.000000
 20
169.500000
 40
4.250000
 50
229.750000
 51
250.250000
  0
ARC
  8
0
  6
CONTINUOUS
 62
7
 10
290.000000
 20
169.500000
 40
4.250000
 50
289.750000
 51
310.250000
  0
ARC
  8
0
  6
CONTINUOUS
 62
7
 10
290.000000
 20
169.500000
 40
4.249990
 50
349.750000
 51
10.250200
  0
ARC
  8
0
  6
CONTINUOUS
 62
7
 10
290.000000
 20
169.500000
 40
4.250000
 50
49.749901
 51
70.250298
  0
CIRCLE
  8
0
  6
CONTINUOUS
 62
7
 10
290.000000
 20
169.500000
 40
3.000000
  0
ARC
  8
0
  6
CONTINUOUS
 62
7
 10
289.500000
 20
-109.000000
 40
2.300020
 50
180.000000
 51
183.186996
  0
ARC
  8
0
  6
CONTINUOUS
 62
7
 10
289.500000
 20
-95.000000
 40
2.300000
 50
176.815002
 51
180.000000
  0
ARC
  8
0
  6
CONTINUOUS
 62
7
 10
291.500000
 20
-93.699997
 40
1.600000
 50
209.998993
 51
330.001007
  0
ARC
  8
0
  6
CONTINUOUS
 62
7
 10
291.500000
 20
-110.300003
 40
1.600000
 50
29.999399
 51
150.001007
  0
CIRCLE
  8
0
  6
CONTINUOUS
 62
7
 10
298.000000
 20
-102.000000
 40
6.400000
  0
ARC
  8
0
  6
CONTINUOUS
 62
7
 10
290.000000
 20
-80.500000
 40
4.250000
 50
109.750000
 51
130.250000
  0
ARC
  8
0
  6
CONTINUOUS
 62
7
 10
290.000000
 20
-80.500000
 40
4.249990
 50
169.750000
 51
190.250000
  0
ARC
  8
0
  6
CONTINUOUS
 62
7
 10
290.000000
 20
-80.500000
 40
4.250000
 50
229.750000
 51
250.250000
  0
ARC
  8
0
  6
CONTINUOUS
 62
7
 10
290.000000
 20
-80.500000
 40
4.250000
 50
289.750000
 51
310.250000
  0
ARC
  8
0
  6
CONTINUOUS
 62
7
 10
290.000000
 20
-80.500000
 40
4.249990
 50
349.750000
 51
10.250100
  0
ARC
  8
0
  6
CONTINUOUS
 62
7
 10
290.000000
 20
-80.500000
 40
4.250000
 50
49.749901
 51
70.250298
  0
CIRCLE
  8
0
  6
CONTINUOUS
 62
7
 10
290.000000
 20
-80.500000
 40
3.000000
  0
ARC
  8
0
  6
CONTINUOUS
 62
7
 10
-125.500000
 20
141.000000
 40
2.300000
 50
180.000000
 51
183.186996
  0
ARC
  8
0
  6
CONTINUOUS
 62
7
 10
-125.500000
 20
155.000000
 40
2.300000
 50
176.815002
 51
180.000000
  0
ARC
  8
0
  6
CONTINUOUS
 62
7
 10
-123.500000
 20
156.300003
 40
1.600000
 50
209.998993
 51
330.001007
  0
ARC
  8
0
  6
CONTINUOUS
 62
7
 10
-123.500000
 20
139.699997
 40
1.600000
 50
29.999399
 51
150.001007
  0
CIRCLE
  8
0
  6
CONTINUOUS
 62
7
 10
-117.000000
 20
148.000000
 40
6.400000
  0
ARC
  8
0
  6
CONTINUOUS
 62
7
 10
-125.000000
 20
169.500000
 40
4.250000
 50
109.750000
 51
130.250000
  0
ARC
  8
0
  6
CONTINUOUS
 62
7
 10
-125.000000
 20
169.500000
 40
4.250000
 50
169.750000
 51
190.250000
  0
ARC
  8
0
  6
CONTINUOUS
 62
7
 10
-125.000000
 20
169.500000
 40
4.250000
 50
229.750000
 51
250.250000
  0
ARC
  8
0
  6
CONTINUOUS
 62
7
 10
-125.000000
 20
169.500000
 40
4.250000
 50
289.750000
 51
310.250000
  0
ARC
  8
0
  6
CONTINUOUS
 62
7
 10
-125.000000
 20
169.500000
 40
4.250000
 50
349.750000
 51
10.250100
  0
ARC
  8
0
  6
CONTINUOUS
 62
7
 10
-125.000000
 20
169.500000
 40
4.250000
 50
49.749901
 51
70.250099
  0
CIRCLE
  8
0
  6
CONTINUOUS
 62
7
 10
-125.000000
 20
169.500000
 40
3.000000
  0
ARC
  8
0
  6
CONTINUOUS
 62
7
 10
-125.500000
 20
-109.000000
 40
2.300000
 50
180.000000
 51
183.186996
  0
ARC
  8
0
  6
CONTINUOUS
 62
7
 10
-125.500000
 20
-95.000000
 40
2.300000
 50
176.815002
 51
180.000000
  0
ARC
  8
0
  6
CONTINUOUS
 62
7
 10
-123.500000
 20
-93.699997
 40
1.600000
 50
209.998993
 51
330.001007
  0
ARC
  8
0
  6
CONTINUOUS
 62
7
 10
-123.500000
 20
-110.300003
 40
1.600000
 50
29.999399
 51
150.001007
  0
CIRCLE
  8
0
  6
CONTINUOUS
 62
7
 10
-117.000000
 20
-102.000000
 40
6.400000
  0
ARC
  8
0
  6
CONTINUOUS
 62
7
 10
-125.000000
 20
-80.500000
 40
4.250000
 50
109.750000
 51
130.250000
  0
ARC
  8
0
  6
CONTINUOUS
 62
7
 10
-125.000000
 20
-80.500000
 40
4.250000
 50
169.750000
 51
190.250000
  0
ARC
  8
0
  6
CONTINUOUS
 62
7
 10
-125.000000
 20
-80.500000
 40
4.250000
 50
229.750000
 51
250.250000
  0
ARC
  8
0
  6
CONTINUOUS
 62
7
 10
-125.000000
 20
-80.500000
 40
4.250000
 50
289.750000
 51
310.250000
  0
ARC
  8
0
  6
CONTINUOUS
 62
7
 10
-125.000000
 20
-80.500000
 40
4.250000
 50
349.750000
 51
10.250000
  0
ARC
  8
0
  6
CONTINUOUS
 62
7
 10
-125.000000
 20
-80.500000
 40
4.250000
 50
49.749901
 51
70.250099
  0
CIRCLE
  8
0
  6
CONTINUOUS
 62
7
 10
-125.000000
 20
-80.500000
 40
3.000000
  0
ARC
  8
0
  6
CONTINUOUS
 62
2
 10
-272.000000
 20
126.000000
 40
1.500000
 50
90.000000
 51
180.000000
  0
ARC
  8
0
  6
CONTINUOUS
 62
2
 10
-271.000000
 20
126.000000
 40
1.500000
 50
0.000000
 51
90.000000
  0
ARC
  8
0
  6
CONTINUOUS
 62
2
 10
-126.000000
 20
126.000000
 40
1.500000
 50
0.000000
 51
90.000000
  0
ARC
  8
0
  6
CONTINUOUS
 62
2
 10
-127.000000
 20
126.000000
 40
1.500000
 50
90.000000
 51
180.000000
  0
ARC
  8
0
  6
CONTINUOUS
 62
7
 10
-175.500000
 20
97.500000
 40
3.000000
 50
270.000000
 51
0.000000
  0
CIRCLE
  8
0
  6
CONTINUOUS
 62
2
 10
-236.000000
 20
89.000000
 40
2.500000
  0
CIRCLE
  8
0
  6
CONTINUOUS
 62
7
 10
-236.000000
 20
89.000000
 40
2.100000
  0
CIRCLE
  8
0
  6
CONTINUOUS
 62
2
 10
-182.000000
 20
89.000000
 40
2.500000
  0
CIRCLE
  8
0
  6
CONTINUOUS
 62
7
 10
-182.000000
 20
89.000000
 40
2.100000
  0
ARC
  8
0
  6
CONTINUOUS
 62
7
 10
-236.000000
 20
88.800003
 40
4.800000
 50
0.000000
 51
61.044498
  0
ARC
  8
0
  6
CONTINUOUS
 62
7
 10
-182.000000
 20
88.800003
 40
4.800000
 50
118.955002
 51
180.000000
  0
ARC
  8
0
  6
CONTINUOUS
 62
7
 10
-184.000000
 20
92.199997
 40
5.000000
 50
90.000000
 51
180.000000
  0
ARC
  8
0
  6
CONTINUOUS
 62
2
 10
103.000000
 20
126.000000
 40
1.500000
 50
90.000000
 51
180.000000
  0
ARC
  8
0
  6
CONTINUOUS
 62
2
 10
104.000000
 20
126.000000
 40
1.500000
 50
0.000000
 51
90.000000
  0
ARC
  8
0
  6
CONTINUOUS
 62
2
 10
289.000000
 20
126.000000
 40
1.500000
 50
0.000000
 51
90.000000
  0
ARC
  8
0
  6
CONTINUOUS
 62
2
 10
288.000000
 20
126.000000
 40
1.500000
 50
90.000000
 51
180.000000
  0
ARC
  8
0
  6
CONTINUOUS
 62
7
 10
224.500000
 20
97.500000
 40
3.000000
 50
270.000000
 51
0.000000
  0
CIRCLE
  8
0
  6
CONTINUOUS
 62
2
 10
139.000000
 20
89.000000
 40
2.500000
  0
CIRCLE
  8
0
  6
CONTINUOUS
 62
7
 10
139.000000
 20
89.000000
 40
2.100000
  0
CIRCLE
  8
0
  6
CONTINUOUS
 62
2
 10
218.000000
 20
89.000000
 40
2.500000
  0
CIRCLE
  8
0
  6
CONTINUOUS
 62
7
 10
218.000000
 20
89.000000
 40
2.100000
  0
ARC
  8
0
  6
CONTINUOUS
 62
7
 10
139.000000
 20
88.800003
 40
4.800000
 50
0.000000
 51
61.044899
  0
ARC
  8
0
  6
CONTINUOUS
 62
7
 10
218.000000
 20
88.800003
 40
4.800000
 50
118.955002
 51
180.000000
  0
ARC
  8
0
  6
CONTINUOUS
 62
7
 10
216.000000
 20
92.199997
 40
5.000000
 50
90.000000
 51
180.000000
  0
ARC
  8
0
  6
CONTINUOUS
 62
2
 10
-272.000000
 20
-124.000000
 40
1.500000
 50
90.000000
 51
180.000000
  0
ARC
  8
0
  6
CONTINUOUS
 62
2
 10
-271.000000
 20
-124.000000
 40
1.500000
 50
0.000000
 51
90.000000
  0
ARC
  8
0
  6
CONTINUOUS
 62
2
 10
-126.000000
 20
-124.000000
 40
1.500000
 50
0.000000
 51
90.000000
  0
ARC
  8
0
  6
CONTINUOUS
 62
2
 10
-127.000000
 20
-124.000000
 40
1.500000
 50
90.000000
 51
180.000000
  0
ARC
  8
0
  6
CONTINUOUS
 62
7
 10
-165.500000
 20
-152.500000
 40
3.000000
 50
270.000000
 51
0.000000
  0
CIRCLE
  8
0
  6
CONTINUOUS
 62
2
 10
-236.000000
 20
-161.000000
 40
2.500000
  0
CIRCLE
  8
0
  6
CONTINUOUS
 62
7
 10
-236.000000
 20
-161.000000
 40
2.100000
  0
CIRCLE
  8
0
  6
CONTINUOUS
 62
2
 10
-172.000000
 20
-161.000000
 40
2.500000
  0
CIRCLE
  8
0
  6
CONTINUOUS
 62
7
 10
-172.000000
 20
-161.000000
 40
2.100000
  0
ARC
  8
0
  6
CONTINUOUS
 62
7
 10
-236.000000
 20
-161.000000
 40
4.800000
 50
0.000000
 51
56.442600
  0
ARC
  8
0
  6
CONTINUOUS
 62
7
 10
-172.000000
 20
-161.000000
 40
4.800000
 50
123.556999
 51
180.000000
  0
ARC
  8
0
  6
CONTINUOUS
 62
2
 10
103.000000
 20
-124.000000
 40
1.500000
 50
90.000000
 51
180.000000
  0
ARC
  8
0
  6
CONTINUOUS
 62
2
 10
104.000000
 20
-124.000000
 40
1.500000
 50
0.000000
 51
90.000000
  0
ARC
  8
0
  6
CONTINUOUS
 62
2
 10
289.000000
 20
-124.000000
 40
1.500000
 50
0.000000
 51
90.000000
  0
ARC
  8
0
  6
CONTINUOUS
 62
2
 10
288.000000
 20
-124.000000
 40
1.500000
 50
90.000000
 51
180.000000
  0
ARC
  8
0
  6
CONTINUOUS
 62
7
 10
239.500000
 20
-152.500000
 40
3.000000
 50
270.000000
 51
0.000000
  0
CIRCLE
  8
0
  6
CONTINUOUS
 62
2
 10
139.000000
 20
-161.000000
 40
2.500000
  0
CIRCLE
  8
0
  6
CONTINUOUS
 62
7
 10
139.000000
 20
-161.000000
 40
2.100000
  0
CIRCLE
  8
0
  6
CONTINUOUS
 62
2
 10
233.000000
 20
-161.000000
 40
2.500000
  0
CIRCLE
  8
0
  6
CONTINUOUS
 62
7
 10
233.000000
 20
-161.000000
 40
2.100000
  0
ARC
  8
0
  6
CONTINUOUS
 62
7
 10
139.000000
 20
-161.000000
 40
4.800000
 50
0.000000
 51
56.442600
  0
ARC
  8
0
  6
CONTINUOUS
 62
7
 10
233.000000
 20
-161.000000
 40
4.800000
 50
123.556999
 51
180.000000
  0
TEXT
  8
0
 62
7
 10
249.264832
 20
-267.375000
 40
12.500000
  1
KOGANEI CORP.
 50
0.000000
 41
0.771525
 51
0.000000
  7
STANDARD
  0
TEXT
  8
0
 62
7
 10
292.414673
 20
261.500000
 40
9.000000
  1
Ver.1.0
 50
0.000000
 41
1.010331
 51
0.000000
  7
STANDARD
  0
TEXT
  8
0
 62
7
 10
15.774433
 20
-22.500000
 40
9.000000
  1
MODEL:APUS-SD12-60-TP-QT
 50
0.000000
 41
0.772180
 51
0.000000
  7
STANDARD
  0
TEXT
  8
0
 62
7
 10
-346.635315
 20
261.500000
 40
9.000000
  1
AP UNIT
 50
0.000000
 41
0.832036
 51
0.000000
  7
STANDARD
  0
TEXT
  8
0
 62
7
 10
-383.750580
 20
-22.500000
 40
9.000000
  1
MODEL:APUS-SD12-30-TP-QT
 50
0.000000
 41
0.772180
 51
0.000000
  7
STANDARD
  0
TEXT
  8
0
 62
7
 10
15.774433
 20
229.000000
 40
9.000000
  1
MODEL:APUS-SD12-45-TP-QT
 50
0.000000
 41
0.766330
 51
0.000000
  7
STANDARD
  0
TEXT
  8
0
 62
7
 10
-383.750580
 20
229.000000
 40
9.000000
  1
MODEL:APUS-SD12-20-TP-QT
 50
0.000000
 41
0.772180
 51
0.000000
  7
STANDARD
  0
ENDSEC
  0
EOF
